999
DXF file: C:\Users\sesa63760\Dev\_Creo\CAD\MCADID0001796_3D-CAD\drw0001_1.dxf
999
Pro/ENGINEER 2019471 by Parametric Technology Corporation
  0
SECTION
  2
HEADER
  9
$ACADVER
  1
AC1024
  9
$DWGCODEPAGE
  3
ANSI_1252
  9
$EXTMAX
 10
41.0797563064
 20
58.0985124904
 30
0.0
  9
$EXTMIN
 10
0.0
 20
0.0
 30
0.0
  9
$LIMMIN
 10
0.0
 20
0.0
  9
$LIMMAX
 10
41.0797563064
 20
58.0985124904
  9
$VIEWCTR
 10
20.5398781532
 20
29.0492562452
  9
$VIEWSIZE
 40
58.0985124904
  9
$CLAYER
  8
0
  9
$LTSCALE
 40
3.7871622957
  9
$CELTYPE
  6
BYLAYER
  9
$DIMSCALE
 40
1.0
  9
$DIMASZ
 40
0.4890447179
  9
$DIMEXO
 40
1.0
  9
$DIMDLI
 40
2.6165848588
  9
$DIMEXE
 40
1.0
  9
$DIMCEN
 40
0.6197174666
  9
$DIMLFAC
 40
1.0
  9
$DIMBLK
  1
_FILLED
  9
$DIMALT
 70
0
  9
$DIMALTF
 40
0.0393700787
  9
$DIMTXT
 40
0.6846626051
  9
$DIMTOL
 70
1
  9
$DIMLIM
 70
0
  9
$DIMTFAC
 40
1.0
  9
$DIMTP
 40
0.01
  9
$DIMTM
 40
0.01
  9
$DIMGAP
 40
0.625
  9
$DIMDSEP
 70
46
  9
$AUNITS
 70
0
  9
$PDMODE
 70
3
  9
$PDSIZE
 40
0.3125
  9
$HANDSEED
  5
2A7
  9
$TILEMODE
 70
1
  9
$MEASUREMENT
 70
1
  9
$INSUNITS
 70
4
  0
ENDSEC
  0
SECTION
  2
CLASSES
  0
CLASS
  1
ACDBDICTIONARYWDFLT
  2
AcDbDictionaryWithDefault
  3
AutoCAD 2000
 90
0
 91
1
280
0
281
0
  0
CLASS
  1
ACDBPLACEHOLDER
  2
AcDbPlaceHolder
  3
AutoCAD 2000
 90
0
 91
1
280
0
281
0
  0
CLASS
  1
LAYOUT
  2
AcDbLayout
  3
AutoCAD 2000
 90
0
 91
0
280
0
281
0
  0
ENDSEC
  0
SECTION
  2
TABLES
  0
TABLE
  2
VPORT
  5
8
100
AcDbSymbolTable
 70
2
  0
VPORT
  5
1F4
100
AcDbSymbolTableRecord
100
AcDbViewportTableRecord
  2
*ACTIVE
 70
0
 10
0.0
 20
0.0
 11
1.0
 21
1.0
 12
20.5398781532
 22
29.0492562452
 13
0.0
 23
0.0
 14
1.0
 24
1.0
 15
0.0
 25
0.0
 16
0.0
 26
0.0
 36
1.0
 17
0.0
 27
0.0
 37
0.0
 40
58.0985124904
 41
0.7070707071
 42
50.0
 43
0.0
 44
0.0
 50
0.0
 51
0.0
 71
0
 72
100
 73
1
 74
1
 75
0
 76
0
 77
0
 78
0
  0
ENDTAB
  0
TABLE
  2
LTYPE
  5
5
100
AcDbSymbolTable
 70
6
  0
LTYPE
  5
14
100
AcDbSymbolTableRecord
100
AcDbLinetypeTableRecord
  2
BYBLOCK
 70
0
  3

 72
65
 73
0
 40
0.0
  0
LTYPE
  5
15
100
AcDbSymbolTableRecord
100
AcDbLinetypeTableRecord
  2
BYLAYER
 70
0
  3

 72
65
 73
0
 40
0.0
  0
LTYPE
  5
16
100
AcDbSymbolTableRecord
100
AcDbLinetypeTableRecord
  2
CONTINUOUS
 70
64
  3
Solid line
 72
65
 73
0
 40
0.0
  0
LTYPE
  5
1F5
100
AcDbSymbolTableRecord
100
AcDbLinetypeTableRecord
  2
CENTER
 70
64
  3
____ _ ____ _ ____ _ ____ _ ____ _ ____ _ ____
 72
65
 73
4
 40
0.6
 49
0.375
 74
0
 49
-0.075
 74
0
 49
0.075
 74
0
 49
-0.075
 74
0
  0
LTYPE
  5
1F6
100
AcDbSymbolTableRecord
100
AcDbLinetypeTableRecord
  2
HIDDEN
 70
64
  3
- - - - - - - - - - - - - - - - - - - -
 72
65
 73
2
 40
0.2
 49
0.1
 74
0
 49
-0.1
 74
0
  0
LTYPE
  5
1F7
100
AcDbSymbolTableRecord
100
AcDbLinetypeTableRecord
  2
PHANTOM
 70
64
  3
_____ _ _ _____ _ _ _____ _ _ _____
 72
65
 73
6
 40
0.8
 49
0.45
 74
0
 49
-0.05
 74
0
 49
0.1
 74
0
 49
-0.05
 74
0
 49
0.1
 74
0
 49
-0.05
 74
0
  0
LTYPE
  5
1F8
100
AcDbSymbolTableRecord
100
AcDbLinetypeTableRecord
  2
DOT
 70
64
  3
. . . . . . . . . . . . . . . . . . . .
 72
65
 73
2
 40
0.2
 49
0.1
 74
0
 49
-0.1
 74
0
  0
LTYPE
  5
1F9
100
AcDbSymbolTableRecord
100
AcDbLinetypeTableRecord
  2
DASHED
 70
64
  3
- - - - - - - - - - - - - - - - - - - -
 72
65
 73
2
 40
0.2
 49
0.1
 74
0
 49
-0.1
 74
0
  0
ENDTAB
  0
TABLE
  2
LAYER
  5
2
100
AcDbSymbolTable
 70
36
  0
LAYER
  5
10
100
AcDbSymbolTableRecord
100
AcDbLayerTableRecord
  2
0
 70
0
 62
7
  6
CONTINUOUS
370
-3
390
F
  0
LAYER
  5
1FA
100
AcDbSymbolTableRecord
100
AcDbLayerTableRecord
  2
DEFAULT_1
 70
0
 62
7
  6
CENTER
370
-3
390
F
  0
LAYER
  5
1FB
100
AcDbSymbolTableRecord
100
AcDbLayerTableRecord
  2
DEFAULT_2
 70
0
 62
8
  6
HIDDEN
370
-3
390
F
  0
LAYER
  5
1FC
100
AcDbSymbolTableRecord
100
AcDbLayerTableRecord
  2
DEFAULT_3
 70
0
 62
7
  6
PHANTOM
370
-3
390
F
  0
LAYER
  5
1FD
100
AcDbSymbolTableRecord
100
AcDbLayerTableRecord
  2
00_COMPONENTS
 70
0
 62
7
  6
CONTINUOUS
370
-3
390
F
  0
LAYER
  5
1FE
100
AcDbSymbolTableRecord
100
AcDbLayerTableRecord
  2
01_1_DEFAULT_DATUMS
 70
0
 62
7
  6
CONTINUOUS
370
-3
390
F
  0
LAYER
  5
1FF
100
AcDbSymbolTableRecord
100
AcDbLayerTableRecord
  2
01_PLANES
 70
0
 62
7
  6
CONTINUOUS
370
-3
390
F
  0
LAYER
  5
200
100
AcDbSymbolTableRecord
100
AcDbLayerTableRecord
  2
02_COORD_SYS
 70
0
 62
7
  6
CONTINUOUS
370
-3
390
F
  0
LAYER
  5
201
100
AcDbSymbolTableRecord
100
AcDbLayerTableRecord
  2
03_AXES
 70
0
 62
7
  6
CONTINUOUS
370
-3
390
F
  0
LAYER
  5
202
100
AcDbSymbolTableRecord
100
AcDbLayerTableRecord
  2
04_POINTS
 70
0
 62
7
  6
CONTINUOUS
370
-3
390
F
  0
LAYER
  5
203
100
AcDbSymbolTableRecord
100
AcDbLayerTableRecord
  2
05_CURVES
 70
0
 62
7
  6
CONTINUOUS
370
-3
390
F
  0
LAYER
  5
204
100
AcDbSymbolTableRecord
100
AcDbLayerTableRecord
  2
06_SURFS
 70
0
 62
7
  6
CONTINUOUS
370
-3
390
F
  0
LAYER
  5
205
100
AcDbSymbolTableRecord
100
AcDbLayerTableRecord
  2
07_COSMETICS
 70
0
 62
7
  6
CONTINUOUS
370
-3
390
F
  0
LAYER
  5
206
100
AcDbSymbolTableRecord
100
AcDbLayerTableRecord
  2
10_NOTES
 70
0
 62
7
  6
CONTINUOUS
370
-3
390
F
  0
LAYER
  5
207
100
AcDbSymbolTableRecord
100
AcDbLayerTableRecord
  2
11_NOTES_PUB
 70
0
 62
7
  6
CONTINUOUS
370
-3
390
F
  0
LAYER
  5
208
100
AcDbSymbolTableRecord
100
AcDbLayerTableRecord
  2
13_REF_GTOL
 70
0
 62
7
  6
CONTINUOUS
370
-3
390
F
  0
LAYER
  5
209
100
AcDbSymbolTableRecord
100
AcDbLayerTableRecord
  2
16_MISC
 70
0
 62
7
  6
CONTINUOUS
370
-3
390
F
  0
LAYER
  5
20A
100
AcDbSymbolTableRecord
100
AcDbLayerTableRecord
  2
17_NO_PRINT
 70
0
 62
7
  6
CONTINUOUS
370
-3
390
F
  0
LAYER
  5
20B
100
AcDbSymbolTableRecord
100
AcDbLayerTableRecord
  2
18_DATUM_CAMS_JOINTS
 70
0
 62
7
  6
CONTINUOUS
370
-3
390
F
  0
LAYER
  5
20C
100
AcDbSymbolTableRecord
100
AcDbLayerTableRecord
  2
19_DATUM_FUNCTIONAL
 70
0
 62
7
  6
CONTINUOUS
370
-3
390
F
  0
LAYER
  5
20D
100
AcDbSymbolTableRecord
100
AcDbLayerTableRecord
  2
20_DATUM_KINEMATIC_SCHEME
 70
0
 62
7
  6
CONTINUOUS
370
-3
390
F
  0
ENDTAB
  0
TABLE
  2
STYLE
  5
3
100
AcDbSymbolTable
 70
1
  0
STYLE
  5
11
100
AcDbSymbolTableRecord
100
AcDbTextStyleTableRecord
  2
STANDARD
 70
0
 40
0.0
 41
0.8
 50
0.0
 71
0
 42
0.2
  3
txt
  4

  0
STYLE
  5
20E
100
AcDbSymbolTableRecord
100
AcDbTextStyleTableRecord
  2
TEXTSTYLE_1
 70
0
 40
0.0
 41
0.8
 50
0.0
 71
0
 42
0.2
  3
gdt
  4

  0
ENDTAB
  0
TABLE
  2
VIEW
  5
6
100
AcDbSymbolTable
 70
0
  0
ENDTAB
  0
TABLE
  2
UCS
  5
7
100
AcDbSymbolTable
 70
0
  0
ENDTAB
  0
TABLE
  2
APPID
  5
9
100
AcDbSymbolTable
 70
1
  0
APPID
  5
20F
100
AcDbSymbolTableRecord
100
AcDbRegAppTableRecord
  2
ACAD
 70
0
  0
ENDTAB
  0
TABLE
  2
BLOCK_RECORD
  5
1
100
AcDbSymbolTable
 70
0
  0
BLOCK_RECORD
  5
210
100
AcDbSymbolTableRecord
100
AcDbBlockTableRecord
  2
*Model_Space
  0
BLOCK_RECORD
  5
211
100
AcDbSymbolTableRecord
100
AcDbBlockTableRecord
  2
*Paper_Space
  0
BLOCK_RECORD
  5
212
100
AcDbSymbolTableRecord
100
AcDbBlockTableRecord
  2
_FILLED
  0
ENDTAB
  0
TABLE
  2
DIMSTYLE
  5
A
100
AcDbSymbolTable
 70
1
100
AcDbDimStyleTable
 71
0
  0
DIMSTYLE
105
213
100
AcDbSymbolTableRecord
100
AcDbDimStyleTableRecord
  2
STANDARD
 70
0
  3

  4

 40
1.0
 41
0.4890447179
 42
1.0
 43
0.38
 44
1.0
 45
0.0
 46
0.0
 47
0.01
 48
0.01
140
0.6846626051
141
0.09
142
0.0
143
25.4
144
1.0
145
0.0
146
1.0
147
0.625
 71
1
 72
0
 73
0
 74
0
 75
0
 76
0
 77
1
 78
8
 79
2
170
0
171
1
172
0
173
0
174
0
175
0
176
0
177
0
178
0
270
2
179
2
271
2
272
2
273
2
274
2
275
0
280
0
281
0
282
0
283
1
284
8
285
0
286
0
287
3
288
0
340
11
278
46
341
212
342
212
343
212
344
212
  0
ENDTAB
  0
ENDSEC
  0
SECTION
  2
BLOCKS
  0
BLOCK
  5
20
100
AcDbEntity
  8
0
100
AcDbBlockBegin
  2
*Model_Space
 70
0
 10
0.0
 20
0.0
 30
0.0
  3
*Model_Space
  1

  0
ENDBLK
  5
21
100
AcDbEntity
  8
0
100
AcDbBlockEnd
  0
BLOCK
  5
1C
100
AcDbEntity
  8
0
100
AcDbBlockBegin
  2
*Paper_Space
 70
0
 10
0.0
 20
0.0
 30
0.0
  3
*Paper_Space
  1

  0
ENDBLK
  5
1D
100
AcDbEntity
  8
0
100
AcDbBlockEnd
  0
BLOCK
  5
214
100
AcDbEntity
  8
0
100
AcDbBlockBegin
  2
_FILLED
 70
64
 10
0.0
 20
0.0
  3
_FILLED
  1

  0
SOLID
  5
215
100
AcDbEntity
  8
0
  6
BYBLOCK
 62
0
100
AcDbTrace
 10
0.0
 20
0.0
 11
-1.0
 21
0.25
 12
-1.0
 22
-0.25
 13
-1.0
 23
-0.25
  0
ENDBLK
  5
216
100
AcDbEntity
  8
0
  6
BYBLOCK
 62
0
100
AcDbBlockEnd
  0
ENDSEC
  0
SECTION
  2
ENTITIES
  0
LINE
  5
217
100
AcDbEntity
  8
0
100
AcDbLine
 62
7
  6
CONTINUOUS
 10
16.6681478789
 20
4.4841178411
 11
14.812282012
 21
4.4841133801
  0
LINE
  5
218
100
AcDbEntity
  8
0
100
AcDbLine
 62
7
  6
CONTINUOUS
 10
14.812282012
 20
4.4841133801
 11
11.4887708507
 21
6.402900035
  0
LINE
  5
219
100
AcDbEntity
  8
0
100
AcDbLine
 62
7
  6
CONTINUOUS
 10
10.9600806634
 20
7.5299337857
 11
7.6506363016
 21
9.4405991539
  0
LINE
  5
21A
100
AcDbEntity
  8
0
100
AcDbLine
 62
7
  6
CONTINUOUS
 10
14.7935699749
 20
8.398472397
 11
16.6868602921
 21
8.3984769479
  0
LINE
  5
21B
100
AcDbEntity
  8
0
100
AcDbLine
 62
7
  6
CONTINUOUS
 10
16.6878451559
 20
8.6044958483
 11
14.7925851309
 21
8.6044912927
  0
LINE
  5
21C
100
AcDbEntity
  8
0
100
AcDbLine
 62
7
  6
CONTINUOUS
 10
7.6149716465
 20
12.5429443139
 11
14.7935699749
 21
8.398472397
  0
LINE
  5
21D
100
AcDbEntity
  8
0
100
AcDbLine
 62
7
  6
CONTINUOUS
 10
14.7925851309
 20
8.6044912927
 11
7.6125940028
 21
12.7497673246
  0
LINE
  5
21E
100
AcDbEntity
  8
0
100
AcDbLine
 62
7
  6
CONTINUOUS
 10
15.4263564388
 20
8.604492816
 11
15.7402149546
 21
8.4232906168
  0
LINE
  5
21F
100
AcDbEntity
  8
0
100
AcDbLine
 62
7
  6
CONTINUOUS
 10
22.6155296919
 20
53.474569741
 11
22.9747384412
 21
53.6819577712
  0
LINE
  5
220
100
AcDbEntity
  8
0
100
AcDbLine
 62
7
  6
CONTINUOUS
 10
12.2648256633
 20
47.2417178817
 11
11.5464051736
 21
46.8269329269
  0
LINE
  5
221
100
AcDbEntity
  8
0
100
AcDbLine
 62
7
  6
CONTINUOUS
 10
15.5875065944
 20
49.1600571607
 11
14.8690861047
 21
48.745272206
  0
LINE
  5
222
100
AcDbEntity
  8
0
100
AcDbLine
 62
7
  6
CONTINUOUS
 10
19.7184072114
 20
51.5450195077
 11
18.9999867217
 21
51.1302345529
  0
LINE
  5
223
100
AcDbEntity
  8
0
100
AcDbLine
 62
7
  6
CONTINUOUS
 10
25.9775970107
 20
52.9084895466
 11
24.7781910353
 21
52.2160163173
  0
LINE
  5
224
100
AcDbEntity
  8
0
100
AcDbLine
 62
7
  6
CONTINUOUS
 10
23.8924929111
 20
51.7046613193
 11
23.3870999581
 21
51.4128743035
  0
LINE
  5
225
100
AcDbEntity
  8
0
100
AcDbLine
 62
7
  6
CONTINUOUS
 10
22.2867394497
 20
50.77758466
 11
21.6672115988
 21
50.4199022236
  0
LINE
  5
226
100
AcDbEntity
  8
0
100
AcDbLine
 62
7
  6
CONTINUOUS
 10
18.9999867217
 20
48.8799884148
 11
17.5363109818
 21
48.0349398766
  0
LINE
  5
227
100
AcDbEntity
  8
0
100
AcDbLine
 62
7
  6
CONTINUOUS
 10
14.8690861047
 20
46.4950260679
 11
14.2136300507
 21
46.1166005976
  0
LINE
  5
228
100
AcDbEntity
  8
0
100
AcDbLine
 62
7
  6
CONTINUOUS
 10
11.5464051736
 20
44.5766867889
 11
7.6579507961
 21
42.3317000081
  0
LINE
  5
229
100
AcDbEntity
  8
0
100
AcDbLine
 62
7
  6
CONTINUOUS
 10
24.5318128271
 20
51.4516701631
 11
24.8910215764
 21
51.6590581933
  0
LINE
  5
22A
100
AcDbEntity
  8
0
100
AcDbLine
 62
7
  6
CONTINUOUS
 10
22.3586135031
 20
50.0207301784
 11
21.9994047538
 21
49.8133421483
  0
LINE
  5
22B
100
AcDbEntity
  8
0
100
AcDbLine
 62
7
  6
CONTINUOUS
 10
18.2277128861
 20
47.6357678315
 11
17.8685041368
 21
47.4283798013
  0
LINE
  5
22C
100
AcDbEntity
  8
0
100
AcDbLine
 62
7
  6
CONTINUOUS
 10
14.9050319551
 20
45.7174285525
 11
14.5458232058
 21
45.5100405223
  0
LINE
  5
22D
100
AcDbEntity
  8
0
100
AcDbLine
 62
7
  6
CONTINUOUS
 10
25.4892236149
 20
51.8154793147
 11
25.8484323642
 21
52.0228673448
  0
LINE
  5
22E
100
AcDbEntity
  8
0
100
AcDbLine
 62
7
  6
CONTINUOUS
 10
7.6579507961
 20
41.5021192172
 11
7.2987360647
 21
41.2947277332
  0
LINE
  5
22F
100
AcDbEntity
  8
0
100
AcDbLine
 62
7
  6
CONTINUOUS
 10
14.9050349461
 20
44.8878709911
 11
15.2642436954
 21
45.0952590213
  0
LINE
  5
230
100
AcDbEntity
  8
0
100
AcDbLine
 62
7
  6
CONTINUOUS
 10
18.2277158772
 20
46.8062102701
 11
18.5869246265
 21
47.0135983003
  0
LINE
  5
231
100
AcDbEntity
  8
0
100
AcDbLine
 62
7
  6
CONTINUOUS
 10
22.3586164942
 20
49.1911726171
 11
22.7178252435
 21
49.3985606472
  0
LINE
  5
232
100
AcDbEntity
  8
0
100
AcDbLine
 62
7
  6
CONTINUOUS
 10
10.9600806634
 20
7.5299337857
 11
11.4887708507
 21
6.402900035
  0
LINE
  5
233
100
AcDbEntity
  8
0
100
AcDbLine
 62
7
  6
CONTINUOUS
 10
7.6506363016
 20
9.4405991539
 11
7.6149716465
 21
12.5429443139
  0
LINE
  5
234
100
AcDbEntity
  8
0
100
AcDbLine
 62
7
  6
CONTINUOUS
 10
7.6125940028
 20
12.7497673246
 11
7.2987450379
 21
40.0504047328
  0
LINE
  5
235
100
AcDbEntity
  8
0
100
AcDbLine
 62
7
  6
CONTINUOUS
 10
7.2987360647
 20
41.2947277332
 11
7.2987450379
 21
40.0504047328
  0
LINE
  5
236
100
AcDbEntity
  8
0
100
AcDbLine
 62
7
  6
CONTINUOUS
 10
7.614970155
 20
12.7497673417
 11
7.6149716465
 21
12.5429443139
  0
LINE
  5
237
100
AcDbEntity
  8
0
100
AcDbLine
 62
7
  6
CONTINUOUS
 10
7.6579507961
 20
40.6725670965
 11
7.6579507961
 21
42.3317000081
  0
LINE
  5
238
100
AcDbEntity
  8
0
100
AcDbLine
 62
7
  6
CONTINUOUS
 10
27.4055067501
 20
49.7925797367
 11
27.7647154994
 21
49.9999677669
  0
LINE
  5
239
100
AcDbEntity
  8
0
100
AcDbLine
 62
7
  6
CONTINUOUS
 10
24.5318128271
 20
47.7704690155
 11
24.8910215764
 21
47.9778570456
  0
LINE
  5
23A
100
AcDbEntity
  8
0
100
AcDbLine
 62
7
  6
CONTINUOUS
 10
14.9050349461
 20
39.9104722563
 11
15.2642436954
 21
40.1178602864
  0
LINE
  5
23B
100
AcDbEntity
  8
0
100
AcDbLine
 62
7
  6
CONTINUOUS
 10
18.2277158772
 20
41.8288115353
 11
18.5869246265
 21
42.0361995655
  0
LINE
  5
23C
100
AcDbEntity
  8
0
100
AcDbLine
 62
7
  6
CONTINUOUS
 10
22.3586164942
 20
44.2137738822
 11
22.7178252435
 21
44.4211619124
  0
LINE
  5
23D
100
AcDbEntity
  8
0
100
AcDbLine
 62
7
  6
CONTINUOUS
 10
27.4055067501
 20
46.1113785891
 11
27.7647154994
 21
46.3187666193
  0
LINE
  5
23E
100
AcDbEntity
  8
0
100
AcDbLine
 62
7
  6
CONTINUOUS
 10
11.5464051736
 20
41.8495341921
 11
11.5464051736
 21
46.8269329269
  0
LINE
  5
23F
100
AcDbEntity
  8
0
100
AcDbLine
 62
7
  6
CONTINUOUS
 10
34.0598611691
 20
48.2422977224
 11
15.7402149546
 21
37.6655081839
  0
LINE
  5
240
100
AcDbEntity
  8
0
100
AcDbLine
 62
7
  6
CONTINUOUS
 10
15.7402149546
 20
36.0063752723
 11
34.0598611691
 21
46.5831648108
  0
LINE
  5
241
100
AcDbEntity
  8
0
100
AcDbLine
 62
7
  6
CONTINUOUS
 10
16.8178471846
 20
35.7989906959
 11
34.4190759005
 21
45.961004174
  0
LINE
  5
242
100
AcDbEntity
  8
0
100
AcDbLine
 62
7
  6
CONTINUOUS
 10
14.812282012
 20
4.4841133801
 11
14.7935699749
 21
8.398472397
  0
LINE
  5
243
100
AcDbEntity
  8
0
100
AcDbLine
 62
7
  6
CONTINUOUS
 10
14.7925851309
 20
8.6044912927
 11
14.6625857156
 21
35.7989855153
  0
LINE
  5
244
100
AcDbEntity
  8
0
100
AcDbLine
 62
7
  6
CONTINUOUS
 10
14.8690861047
 20
45.7381814294
 11
14.8690861047
 21
48.745272206
  0
LINE
  5
245
100
AcDbEntity
  8
0
100
AcDbLine
 62
7
  6
CONTINUOUS
 10
14.9050349461
 20
44.8878709911
 11
14.9050349461
 21
39.9104722563
  0
LINE
  5
246
100
AcDbEntity
  8
0
100
AcDbLine
 62
7
  6
CONTINUOUS
 10
15.2642436954
 20
40.1178602864
 11
15.2642436954
 21
45.0952590213
  0
LINE
  5
247
100
AcDbEntity
  8
0
100
AcDbLine
 62
7
  6
CONTINUOUS
 10
19.3196989958
 20
35.7025496978
 11
17.1644464999
 21
34.4582215168
  0
LINE
  5
248
100
AcDbEntity
  8
0
100
AcDbLine
 62
7
  6
CONTINUOUS
 10
15.7402149546
 20
37.6655081839
 11
15.7402149546
 21
36.0063752723
  0
LINE
  5
249
100
AcDbEntity
  8
0
100
AcDbLine
 62
7
  6
CONTINUOUS
 10
15.7402149546
 20
8.6044935705
 11
15.7402149546
 21
8.4232906168
  0
LINE
  5
24A
100
AcDbEntity
  8
0
100
AcDbLine
 62
7
  6
CONTINUOUS
 10
16.6681478789
 20
4.4841178411
 11
16.6868602921
 21
8.3984769479
  0
LINE
  5
24B
100
AcDbEntity
  8
0
100
AcDbLine
 62
7
  6
CONTINUOUS
 10
16.6878451559
 20
8.6044958483
 11
16.8178471846
 21
35.7989906959
  0
LINE
  5
24C
100
AcDbEntity
  8
0
100
AcDbLine
 62
7
  6
CONTINUOUS
 10
17.1644464999
 20
34.4582215168
 11
17.139227632
 21
31.3619070984
  0
LINE
  5
24D
100
AcDbEntity
  8
0
100
AcDbLine
 62
7
  6
CONTINUOUS
 10
19.1527025596
 20
32.6880887448
 11
17.1405673033
 21
31.5263888473
  0
LINE
  5
24E
100
AcDbEntity
  8
0
100
AcDbLine
 62
7
  6
CONTINUOUS
 10
17.139227632
 20
31.3619070984
 11
19.2944801278
 21
32.6062352794
  0
LINE
  5
24F
100
AcDbEntity
  8
0
100
AcDbLine
 62
7
  6
CONTINUOUS
 10
18.2277158772
 20
46.8062102701
 11
18.2277158772
 21
41.8288115353
  0
LINE
  5
250
100
AcDbEntity
  8
0
100
AcDbLine
 62
7
  6
CONTINUOUS
 10
18.5869246265
 20
42.0361995655
 11
18.5869246265
 21
47.0135983003
  0
LINE
  5
251
100
AcDbEntity
  8
0
100
AcDbLine
 62
7
  6
CONTINUOUS
 10
18.9999867217
 20
46.1528358181
 11
18.9999867217
 21
51.1302345529
  0
LINE
  5
252
100
AcDbEntity
  8
0
100
AcDbLine
 62
7
  6
CONTINUOUS
 10
19.1527025596
 20
35.6061348359
 11
19.1527025596
 21
32.6880887448
  0
LINE
  5
253
100
AcDbEntity
  8
0
100
AcDbLine
 62
7
  6
CONTINUOUS
 10
19.2944801278
 20
32.6062352794
 11
19.3196989958
 21
35.7025496978
  0
LINE
  5
254
100
AcDbEntity
  8
0
100
AcDbLine
 62
7
  6
CONTINUOUS
 10
22.2867394497
 20
50.0622257438
 11
22.2867394497
 21
52.7478345587
  0
LINE
  5
255
100
AcDbEntity
  8
0
100
AcDbLine
 62
7
  6
CONTINUOUS
 10
22.3586164942
 20
49.1911726171
 11
22.3586164942
 21
44.2137738822
  0
LINE
  5
256
100
AcDbEntity
  8
0
100
AcDbLine
 62
7
  6
CONTINUOUS
 10
22.7178252435
 20
44.4211619124
 11
22.7178252435
 21
49.3985606472
  0
LINE
  5
257
100
AcDbEntity
  8
0
100
AcDbLine
 62
7
  6
CONTINUOUS
 10
24.5318128271
 20
51.4516701631
 11
24.5318128271
 21
47.7704690155
  0
LINE
  5
258
100
AcDbEntity
  8
0
100
AcDbLine
 62
7
  6
CONTINUOUS
 10
19.1527025596
 20
32.6880887448
 11
19.2944801278
 21
32.6062352794
  0
LINE
  5
259
100
AcDbEntity
  8
0
100
AcDbLine
 62
7
  6
CONTINUOUS
 10
7.2987450379
 20
40.0504047328
 11
14.6625857156
 21
35.7989855153
  0
LINE
  5
25A
100
AcDbEntity
  8
0
100
AcDbLine
 62
7
  6
CONTINUOUS
 10
7.6579507961
 20
40.6725670965
 11
15.7402149546
 21
36.0063752723
  0
LINE
  5
25B
100
AcDbEntity
  8
0
100
AcDbLine
 62
7
  6
CONTINUOUS
 10
14.9050349461
 20
44.8878709911
 11
14.5458232058
 21
45.5100405223
  0
LINE
  5
25C
100
AcDbEntity
  8
0
100
AcDbLine
 62
7
  6
CONTINUOUS
 10
14.9050319551
 20
45.7174285525
 11
15.2642436954
 21
45.0952590213
  0
LINE
  5
25D
100
AcDbEntity
  8
0
100
AcDbLine
 62
7
  6
CONTINUOUS
 10
24.8910215764
 20
47.9778570456
 11
24.8910215764
 21
51.6590581933
  0
LINE
  5
25E
100
AcDbEntity
  8
0
100
AcDbLine
 62
7
  6
CONTINUOUS
 10
25.1604333727
 20
47.4075429847
 11
25.1604333727
 21
51.0887441323
  0
LINE
  5
25F
100
AcDbEntity
  8
0
100
AcDbLine
 62
7
  6
CONTINUOUS
 10
7.6579507961
 20
42.3317000081
 11
15.7402149546
 21
37.6655081839
  0
LINE
  5
260
100
AcDbEntity
  8
0
100
AcDbLine
 62
7
  6
CONTINUOUS
 10
27.4055067501
 20
49.7925797367
 11
27.4055067501
 21
46.1113785891
  0
LINE
  5
261
100
AcDbEntity
  8
0
100
AcDbLine
 62
7
  6
CONTINUOUS
 10
27.7647154994
 20
46.3187666193
 11
27.7647154994
 21
49.9999677669
  0
LINE
  5
262
100
AcDbEntity
  8
0
100
AcDbLine
 62
7
  6
CONTINUOUS
 10
14.6625857156
 20
35.7989855153
 11
16.8178471846
 21
35.7989906959
  0
LINE
  5
263
100
AcDbEntity
  8
0
100
AcDbLine
 62
7
  6
CONTINUOUS
 10
11.5464051736
 20
41.8495341921
 11
14.9050349461
 21
39.9104722563
  0
LINE
  5
264
100
AcDbEntity
  8
0
100
AcDbLine
 62
7
  6
CONTINUOUS
 10
18.2277158772
 20
46.8062102701
 11
17.8685041368
 21
47.4283798013
  0
LINE
  5
265
100
AcDbEntity
  8
0
100
AcDbLine
 62
7
  6
CONTINUOUS
 10
18.2277128861
 20
47.6357678315
 11
18.5869246265
 21
47.0135983003
  0
LINE
  5
266
100
AcDbEntity
  8
0
100
AcDbLine
 62
7
  6
CONTINUOUS
 10
15.2642436954
 20
43.539734291
 11
18.2277158772
 21
41.8288115353
  0
LINE
  5
267
100
AcDbEntity
  8
0
100
AcDbLine
 62
7
  6
CONTINUOUS
 10
11.905616914
 20
47.0343298515
 11
14.5458232058
 21
45.5100405223
  0
LINE
  5
268
100
AcDbEntity
  8
0
100
AcDbLine
 62
7
  6
CONTINUOUS
 10
14.9050319551
 20
45.7174285525
 11
12.2648256633
 21
47.2417178817
  0
LINE
  5
269
100
AcDbEntity
  8
0
100
AcDbLine
 62
7
  6
CONTINUOUS
 10
22.3586164942
 20
49.1911726171
 11
21.9994047538
 21
49.8133421483
  0
LINE
  5
26A
100
AcDbEntity
  8
0
100
AcDbLine
 62
7
  6
CONTINUOUS
 10
34.0598611691
 20
46.5831648108
 11
34.0598611691
 21
48.2422977224
  0
LINE
  5
26B
100
AcDbEntity
  8
0
100
AcDbLine
 62
7
  6
CONTINUOUS
 10
34.1028482013
 20
18.4535422349
 11
34.1028467098
 21
18.6603652398
  0
LINE
  5
26C
100
AcDbEntity
  8
0
100
AcDbLine
 62
7
  6
CONTINUOUS
 10
34.0576728156
 20
14.523904815
 11
34.1028482013
 21
18.4535422349
  0
LINE
  5
26D
100
AcDbEntity
  8
0
100
AcDbLine
 62
7
  6
CONTINUOUS
 10
34.1052258531
 20
18.660365257
 11
34.4190759005
 21
45.961004174
  0
LINE
  5
26E
100
AcDbEntity
  8
0
100
AcDbLine
 62
7
  6
CONTINUOUS
 10
22.3586135031
 20
50.0207301784
 11
22.7178252435
 21
49.3985606472
  0
LINE
  5
26F
100
AcDbEntity
  8
0
100
AcDbLine
 62
7
  6
CONTINUOUS
 10
34.4190759005
 20
45.961004174
 11
34.4190669273
 21
47.2053271744
  0
LINE
  5
270
100
AcDbEntity
  8
0
100
AcDbLine
 62
7
  6
CONTINUOUS
 10
18.9999867217
 20
46.1528358181
 11
22.3586164942
 21
44.2137738822
  0
LINE
  5
271
100
AcDbEntity
  8
0
100
AcDbLine
 62
7
  6
CONTINUOUS
 10
15.2282978451
 20
48.9526691306
 11
17.8685041368
 21
47.4283798013
  0
LINE
  5
272
100
AcDbEntity
  8
0
100
AcDbLine
 62
7
  6
CONTINUOUS
 10
18.2277128861
 20
47.6357678315
 11
15.5875065944
 21
49.1600571607
  0
LINE
  5
273
100
AcDbEntity
  8
0
100
AcDbLine
 62
7
  6
CONTINUOUS
 10
15.7402149546
 20
8.4232906168
 11
16.0540708569
 21
8.6044943249
  0
LINE
  5
274
100
AcDbEntity
  8
0
100
AcDbLine
 62
7
  6
CONTINUOUS
 10
34.1052258531
 20
18.660365257
 11
16.6878451559
 21
8.6044958483
  0
LINE
  5
275
100
AcDbEntity
  8
0
100
AcDbLine
 62
7
  6
CONTINUOUS
 10
16.6868602921
 20
8.3984769479
 11
34.1028482013
 21
18.4535422349
  0
LINE
  5
276
100
AcDbEntity
  8
0
100
AcDbLine
 62
7
  6
CONTINUOUS
 10
22.7178252435
 20
48.8177515424
 11
24.5318128271
 21
47.7704690155
  0
LINE
  5
277
100
AcDbEntity
  8
0
100
AcDbLine
 62
7
  6
CONTINUOUS
 10
25.1604333727
 20
47.4075429847
 11
27.4055067501
 21
46.1113785891
  0
LINE
  5
278
100
AcDbEntity
  8
0
100
AcDbLine
 62
7
  6
CONTINUOUS
 10
19.3591984621
 20
51.3376314775
 11
21.9994047538
 21
49.8133421483
  0
LINE
  5
279
100
AcDbEntity
  8
0
100
AcDbLine
 62
7
  6
CONTINUOUS
 10
22.3586135031
 20
50.0207301784
 11
19.7184072114
 21
51.5450195077
  0
LINE
  5
27A
100
AcDbEntity
  8
0
100
AcDbLine
 62
7
  6
CONTINUOUS
 10
34.0576728156
 20
14.523904815
 11
16.6681478789
 21
4.4841178411
  0
LINE
  5
27B
100
AcDbEntity
  8
0
100
AcDbLine
 62
7
  6
CONTINUOUS
 10
34.4190669273
 20
47.2053271744
 11
34.0598611691
 21
47.412710024
  0
LINE
  5
27C
100
AcDbEntity
  8
0
100
AcDbLine
 62
7
  6
CONTINUOUS
 10
34.0598611691
 20
48.2422977224
 11
25.9775970107
 21
52.9084895466
  0
SPLINE
  5
27D
100
AcDbEntity
  8
0
100
AcDbSpline
 62
7
  6
CONTINUOUS
 70
0
 71
3
 72
21
 73
17
 74
0
 42
0.0000001
 43
0.0000001
 44
0.0000000001
 40
0.0
 40
0.0
 40
0.0
 40
0.0
 40
0.0623547798
 40
0.1287848707
 40
0.1984241491
 40
0.2704134547
 40
0.4174490912
 40
0.561676695
 40
0.6303042193
 40
0.6954216382
 40
0.7563954442
 40
0.8128574921
 40
0.8647818269
 40
0.9125777349
 40
0.9571728763
 40
1.0
 40
1.0
 40
1.0
 40
1.0
 10
23.4092761384
 20
52.2552960714
 30
0.0
 10
23.4411877717
 20
52.2368722981
 30
0.0
 10
23.5046194126
 20
52.1944352036
 30
0.0
 10
23.5945225796
 20
52.1188574252
 30
0.0
 10
23.6804319263
 20
52.0306252421
 30
0.0
 10
23.7879188676
 20
51.8979181934
 30
0.0
 10
23.9008774922
 20
51.7141197009
 30
0.0
 10
23.9810508393
 20
51.5158541802
 30
0.0
 10
24.0206333597
 20
51.3561870682
 30
0.0
 10
24.0368056696
 20
51.2420295443
 30
0.0
 10
24.0395455523
 20
51.1339143935
 30
0.0
 10
24.028785003
 20
51.034065311
 30
0.0
 10
24.0045856322
 20
50.9445407236
 30
0.0
 10
23.9672330191
 20
50.8672171195
 30
0.0
 10
23.9172334858
 20
50.803995357
 30
0.0
 10
23.8756876777
 20
50.7721893077
 30
0.0
 10
23.8537648824
 20
50.7595438589
 30
0.0
  0
SPLINE
  5
27E
100
AcDbEntity
  8
0
100
AcDbSpline
 62
7
  6
CONTINUOUS
 70
0
 71
3
 72
16
 73
12
 74
0
 42
0.0000001
 43
0.0000001
 44
0.0000000001
 40
0.0
 40
0.0
 40
0.0
 40
0.0
 40
0.0980465385
 40
0.1525473284
 40
0.2105764837
 40
0.3359400815
 40
0.470672367
 40
0.609825734
 40
0.7478618235
 40
0.8794674892
 40
1.0
 40
1.0
 40
1.0
 40
1.0
 10
23.1880182102
 20
52.3505390377
 30
0.0
 10
23.1669087179
 20
52.3040524222
 30
0.0
 10
23.1466262243
 20
52.2257840911
 30
0.0
 10
23.1384654708
 20
52.1163724256
 30
0.0
 10
23.1426053172
 20
51.9923159549
 30
0.0
 10
23.1725386929
 20
51.8284452034
 30
0.0
 10
23.2418235144
 20
51.631659445
 30
0.0
 10
23.341510625
 20
51.4409344606
 30
0.0
 10
23.4658191848
 20
51.267221354
 30
0.0
 10
23.6075781779
 20
51.1206449179
 30
0.0
 10
23.7141293794
 20
51.0423242613
 30
0.0
 10
23.7684848877
 20
51.0109428039
 30
0.0
  0
SPLINE
  5
27F
100
AcDbEntity
  8
0
100
AcDbSpline
 62
7
  6
CONTINUOUS
 70
0
 71
3
 72
12
 73
8
 74
0
 42
0.0000001
 43
0.0000001
 44
0.0000000001
 40
0.0
 40
0.0
 40
0.0
 40
0.0
 40
0.1081687912
 40
0.2183555695
 40
0.4513113955
 40
0.7105889062
 40
1.0
 40
1.0
 40
1.0
 40
1.0
 10
22.9647873944
 20
52.2993069861
 30
0.0
 10
22.9793664683
 20
52.307716449
 30
0.0
 10
23.0103151713
 20
52.322198341
 30
0.0
 10
23.0782501621
 20
52.3410480743
 30
0.0
 10
23.1734654811
 20
52.3435753757
 30
0.0
 10
23.2926489305
 20
52.3147003027
 30
0.0
 10
23.3702778634
 20
52.2778112266
 30
0.0
 10
23.4092761384
 20
52.2552960714
 30
0.0
  0
SPLINE
  5
280
100
AcDbEntity
  8
0
100
AcDbSpline
 62
7
  6
CONTINUOUS
 70
0
 71
3
 72
16
 73
12
 74
0
 42
0.0000001
 43
0.0000001
 44
0.0000000001
 40
0.0
 40
0.0
 40
0.0
 40
0.0
 40
0.0980465385
 40
0.1525473284
 40
0.2105764837
 40
0.3359400815
 40
0.470672367
 40
0.609825734
 40
0.7478618235
 40
0.8794674892
 40
1.0
 40
1.0
 40
1.0
 40
1.0
 10
26.0617121332
 20
50.6914486113
 30
0.0
 10
26.0406026409
 20
50.6449619958
 30
0.0
 10
26.0203201473
 20
50.5666936647
 30
0.0
 10
26.0121593938
 20
50.4572819992
 30
0.0
 10
26.0162992402
 20
50.3332255285
 30
0.0
 10
26.0462326159
 20
50.169354777
 30
0.0
 10
26.1155174374
 20
49.9725690186
 30
0.0
 10
26.215204548
 20
49.7818440342
 30
0.0
 10
26.3395131078
 20
49.6081309276
 30
0.0
 10
26.4812721009
 20
49.4615544915
 30
0.0
 10
26.5878233024
 20
49.3832338349
 30
0.0
 10
26.6421788107
 20
49.3518523775
 30
0.0
  0
SPLINE
  5
281
100
AcDbEntity
  8
0
100
AcDbSpline
 62
7
  6
CONTINUOUS
 70
0
 71
3
 72
12
 73
8
 74
0
 42
0.0000001
 43
0.0000001
 44
0.0000000001
 40
0.0
 40
0.0
 40
0.0
 40
0.0
 40
0.1081687912
 40
0.2183555695
 40
0.4513113955
 40
0.7105889062
 40
1.0
 40
1.0
 40
1.0
 40
1.0
 10
25.8384813173
 20
50.6402165598
 30
0.0
 10
25.8530603913
 20
50.6486260226
 30
0.0
 10
25.8840090943
 20
50.6631079146
 30
0.0
 10
25.9519440851
 20
50.6819576479
 30
0.0
 10
26.0471594041
 20
50.6844849494
 30
0.0
 10
26.1663428535
 20
50.6556098764
 30
0.0
 10
26.2439717864
 20
50.6187208002
 30
0.0
 10
26.2829700614
 20
50.596205645
 30
0.0
  0
SPLINE
  5
282
100
AcDbEntity
  8
0
100
AcDbSpline
 62
7
  6
CONTINUOUS
 70
0
 71
3
 72
14
 73
10
 74
0
 42
0.0000001
 43
0.0000001
 44
0.0000000001
 40
0.0
 40
0.0
 40
0.0
 40
0.0
 40
0.108046144
 40
0.2181359093
 40
0.3321085861
 40
0.4514831362
 40
0.5774302378
 40
0.7107534897
 40
1.0
 40
1.0
 40
1.0
 40
1.0
 10
25.8484381989
 20
52.0228572388
 30
0.0
 10
25.8744649768
 20
52.0378837173
 30
0.0
 10
25.9297200927
 20
52.0637768793
 30
0.0
 10
26.0191428111
 20
52.0884735478
 30
0.0
 10
26.1144517929
 20
52.0991204299
 30
0.0
 10
26.2146462044
 20
52.095643549
 30
0.0
 10
26.3187930953
 20
52.0781790326
 30
0.0
 10
26.4655091372
 20
52.0353810172
 30
0.0
 10
26.5725031531
 20
51.9844739015
 30
0.0
 10
26.6421788107
 20
51.9442475519
 30
0.0
  0
SPLINE
  5
283
100
AcDbEntity
  8
0
100
AcDbSpline
 62
7
  6
CONTINUOUS
 70
0
 71
3
 72
14
 73
10
 74
0
 42
0.0000001
 43
0.0000001
 44
0.0000000001
 40
0.0
 40
0.0
 40
0.0
 40
0.0
 40
0.1080456362
 40
0.2181349707
 40
0.332107362
 40
0.4514818058
 40
0.577428993
 40
0.7107525123
 40
1.0
 40
1.0
 40
1.0
 40
1.0
 10
25.4892294496
 20
51.8154692087
 30
0.0
 10
25.4632020968
 20
51.8004423983
 30
0.0
 10
25.4131491513
 20
51.7655360151
 30
0.0
 10
25.3470483304
 20
51.7004404682
 30
0.0
 10
25.2901722411
 20
51.6232218188
 30
0.0
 10
25.243085374
 20
51.5347099052
 30
0.0
 10
25.2061363517
 20
51.4357808029
 30
0.0
 10
25.1698426782
 20
51.2873173311
 30
0.0
 10
25.1604333727
 20
51.1692006239
 30
0.0
 10
25.1604333727
 20
51.0887441323
 30
0.0
  0
SPLINE
  5
284
100
AcDbEntity
  8
0
100
AcDbSpline
 62
7
  6
CONTINUOUS
 70
0
 71
3
 72
21
 73
17
 74
0
 42
0.0000001
 43
0.0000001
 44
0.0000000001
 40
0.0
 40
0.0
 40
0.0
 40
0.0
 40
0.0450617961
 40
0.0934416622
 40
0.1456111345
 40
0.2016971524
 40
0.2615804381
 40
0.3249078289
 40
0.3911810141
 40
0.4597589309
 40
0.6008011997
 40
0.7418593348
 40
0.8104405622
 40
0.8767471762
 40
0.9401474368
 40
1.0
 40
1.0
 40
1.0
 40
1.0
 10
20.1834526195
 20
49.5663998791
 30
0.0
 10
20.161197138
 20
49.5348235985
 30
0.0
 10
20.1217879128
 20
49.4644311184
 30
0.0
 10
20.080538504
 20
49.3460732468
 30
0.0
 10
20.0558525927
 20
49.2136256156
 30
0.0
 10
20.0478689383
 20
49.0693585227
 30
0.0
 10
20.0567716731
 20
48.9156180695
 30
0.0
 10
20.0822403194
 20
48.7549413359
 30
0.0
 10
20.12395746
 20
48.5900200509
 30
0.0
 10
20.200862943
 20
48.3661129876
 30
0.0
 10
20.3319843484
 20
48.0942053696
 30
0.0
 10
20.5018091305
 20
47.8446318832
 30
0.0
 10
20.6571976318
 20
47.6659597226
 30
0.0
 10
20.7791916236
 20
47.5472544857
 30
0.0
 10
20.9056148957
 20
47.444794906
 30
0.0
 10
20.9940732989
 20
47.3865683801
 30
0.0
 10
21.0385103573
 20
47.3609132128
 30
0.0
  0
SPLINE
  5
285
100
AcDbEntity
  8
0
100
AcDbSpline
 62
7
  6
CONTINUOUS
 70
0
 71
3
 72
13
 73
9
 74
0
 42
0.0000001
 43
0.0000001
 44
0.0000000001
 40
0.0
 40
0.0
 40
0.0
 40
0.0
 40
0.1081029667
 40
0.2182394015
 40
0.3322429388
 40
0.4516715836
 40
0.7107062232
 40
1.0
 40
1.0
 40
1.0
 40
1.0
 10
19.9808079331
 20
49.5040127829
 30
0.0
 10
20.0037148254
 20
49.5172338304
 30
0.0
 10
20.0523573004
 20
49.5399806517
 30
0.0
 10
20.1310293209
 20
49.5617542055
 30
0.0
 10
20.214899278
 20
49.5711316177
 30
0.0
 10
20.335681882
 20
49.5669223388
 30
0.0
 10
20.4961304205
 20
49.5282332124
 30
0.0
 10
20.6180051757
 20
49.4702216472
 30
0.0
 10
20.679301608
 20
49.4348329361
 30
0.0
  0
SPLINE
  5
286
100
AcDbEntity
  8
0
100
AcDbSpline
 62
7
  6
CONTINUOUS
 70
0
 71
3
 72
21
 73
17
 74
0
 42
0.0000001
 43
0.0000001
 44
0.0000000001
 40
0.0
 40
0.0
 40
0.0
 40
0.0
 40
0.0450617961
 40
0.0934416622
 40
0.1456111345
 40
0.2016971524
 40
0.2615804381
 40
0.3249078289
 40
0.3911810141
 40
0.4597589309
 40
0.6008011997
 40
0.7418593348
 40
0.8104405622
 40
0.8767471762
 40
0.9401474368
 40
1.0
 40
1.0
 40
1.0
 40
1.0
 10
16.0525520025
 20
47.1814375322
 30
0.0
 10
16.030296521
 20
47.1498612516
 30
0.0
 10
15.9908872958
 20
47.0794687715
 30
0.0
 10
15.949637887
 20
46.9611108999
 30
0.0
 10
15.9249519757
 20
46.8286632687
 30
0.0
 10
15.9169683213
 20
46.6843961757
 30
0.0
 10
15.9258710561
 20
46.5306557226
 30
0.0
 10
15.9513397024
 20
46.3699789889
 30
0.0
 10
15.993056843
 20
46.205057704
 30
0.0
 10
16.069962326
 20
45.9811506407
 30
0.0
 10
16.2010837314
 20
45.7092430227
 30
0.0
 10
16.3709085135
 20
45.4596695363
 30
0.0
 10
16.5262970148
 20
45.2809973756
 30
0.0
 10
16.6482910066
 20
45.1622921388
 30
0.0
 10
16.7747142786
 20
45.0598325591
 30
0.0
 10
16.8631726819
 20
45.0016060332
 30
0.0
 10
16.9076097403
 20
44.9759508659
 30
0.0
  0
SPLINE
  5
287
100
AcDbEntity
  8
0
100
AcDbSpline
 62
7
  6
CONTINUOUS
 70
0
 71
3
 72
13
 73
9
 74
0
 42
0.0000001
 43
0.0000001
 44
0.0000000001
 40
0.0
 40
0.0
 40
0.0
 40
0.0
 40
0.1081029667
 40
0.2182394015
 40
0.3322429388
 40
0.4516715836
 40
0.7107062232
 40
1.0
 40
1.0
 40
1.0
 40
1.0
 10
15.8499073161
 20
47.119050436
 30
0.0
 10
15.8728142083
 20
47.1322714835
 30
0.0
 10
15.9214566834
 20
47.1550183047
 30
0.0
 10
16.0001287039
 20
47.1767918586
 30
0.0
 10
16.083998661
 20
47.1861692707
 30
0.0
 10
16.204781265
 20
47.1819599919
 30
0.0
 10
16.3652298035
 20
47.1432708655
 30
0.0
 10
16.4871045587
 20
47.0852593003
 30
0.0
 10
16.5484009909
 20
47.0498705892
 30
0.0
  0
SPLINE
  5
288
100
AcDbEntity
  8
0
100
AcDbSpline
 62
7
  6
CONTINUOUS
 70
0
 71
3
 72
21
 73
17
 74
0
 42
0.0000001
 43
0.0000001
 44
0.0000000001
 40
0.0
 40
0.0
 40
0.0
 40
0.0
 40
0.0450617961
 40
0.0934416622
 40
0.1456111345
 40
0.2016971524
 40
0.2615804381
 40
0.3249078289
 40
0.3911810141
 40
0.4597589309
 40
0.6008011997
 40
0.7418593348
 40
0.8104405622
 40
0.8767471762
 40
0.9401474368
 40
1.0
 40
1.0
 40
1.0
 40
1.0
 10
12.7298710714
 20
45.2630982532
 30
0.0
 10
12.7076155899
 20
45.2315219725
 30
0.0
 10
12.6682063648
 20
45.1611294924
 30
0.0
 10
12.626956956
 20
45.0427716209
 30
0.0
 10
12.6022710446
 20
44.9103239897
 30
0.0
 10
12.5942873902
 20
44.7660568967
 30
0.0
 10
12.603190125
 20
44.6123164435
 30
0.0
 10
12.6286587713
 20
44.4516397099
 30
0.0
 10
12.670375912
 20
44.2867184249
 30
0.0
 10
12.747281395
 20
44.0628113616
 30
0.0
 10
12.8784028004
 20
43.7909037437
 30
0.0
 10
13.0482275825
 20
43.5413302572
 30
0.0
 10
13.2036160837
 20
43.3626580966
 30
0.0
 10
13.3256100755
 20
43.2439528597
 30
0.0
 10
13.4520333476
 20
43.14149328
 30
0.0
 10
13.5404917508
 20
43.0832667541
 30
0.0
 10
13.5849288092
 20
43.0576115869
 30
0.0
  0
SPLINE
  5
289
100
AcDbEntity
  8
0
100
AcDbSpline
 62
7
  6
CONTINUOUS
 70
0
 71
3
 72
13
 73
9
 74
0
 42
0.0000001
 43
0.0000001
 44
0.0000000001
 40
0.0
 40
0.0
 40
0.0
 40
0.0
 40
0.1081029667
 40
0.2182394015
 40
0.3322429388
 40
0.4516715836
 40
0.7107062232
 40
1.0
 40
1.0
 40
1.0
 40
1.0
 10
12.527226385
 20
45.2007111569
 30
0.0
 10
12.5501332773
 20
45.2139322044
 30
0.0
 10
12.5987757523
 20
45.2366790257
 30
0.0
 10
12.6774477728
 20
45.2584525796
 30
0.0
 10
12.76131773
 20
45.2678299917
 30
0.0
 10
12.8821003339
 20
45.2636207129
 30
0.0
 10
13.0425488724
 20
45.2249315864
 30
0.0
 10
13.1644236276
 20
45.1669200212
 30
0.0
 10
13.2257200599
 20
45.1315313102
 30
0.0
  0
SPLINE
  5
28A
100
AcDbEntity
  8
0
100
AcDbSpline
 62
7
  6
CONTINUOUS
 70
0
 71
3
 72
14
 73
10
 74
0
 42
0.0000001
 43
0.0000001
 44
0.0000000001
 40
0.0
 40
0.0
 40
0.0
 40
0.0
 40
0.108046144
 40
0.2181359093
 40
0.3321085861
 40
0.4514831362
 40
0.5774302378
 40
0.7107534897
 40
1.0
 40
1.0
 40
1.0
 40
1.0
 10
22.9747442759
 20
53.6819476652
 30
0.0
 10
23.0007710538
 20
53.6969741436
 30
0.0
 10
23.0560261697
 20
53.7228673057
 30
0.0
 10
23.1454488881
 20
53.7475639742
 30
0.0
 10
23.2407578699
 20
53.7582108562
 30
0.0
 10
23.3409522814
 20
53.7547339754
 30
0.0
 10
23.4450991723
 20
53.737269459
 30
0.0
 10
23.5918152142
 20
53.6944714435
 30
0.0
 10
23.6988092301
 20
53.6435643279
 30
0.0
 10
23.7684848877
 20
53.6033379783
 30
0.0
  0
SPLINE
  5
28B
100
AcDbEntity
  8
0
100
AcDbSpline
 62
7
  6
CONTINUOUS
 70
0
 71
3
 72
14
 73
10
 74
0
 42
0.0000001
 43
0.0000001
 44
0.0000000001
 40
0.0
 40
0.0
 40
0.0
 40
0.0
 40
0.1080456362
 40
0.2181349707
 40
0.332107362
 40
0.4514818058
 40
0.577428993
 40
0.7107525123
 40
1.0
 40
1.0
 40
1.0
 40
1.0
 10
22.6155355266
 20
53.474559635
 30
0.0
 10
22.5895081738
 20
53.4595328247
 30
0.0
 10
22.5394552283
 20
53.4246264415
 30
0.0
 10
22.4733544074
 20
53.3595308946
 30
0.0
 10
22.4164783181
 20
53.2823122452
 30
0.0
 10
22.369391451
 20
53.1938003316
 30
0.0
 10
22.3324424287
 20
53.0948712293
 30
0.0
 10
22.2961487552
 20
52.9464077575
 30
0.0
 10
22.2867394497
 20
52.8282910502
 30
0.0
 10
22.2867394497
 20
52.7478345587
 30
0.0
  0
SPLINE
  5
28C
100
AcDbEntity
  8
0
100
AcDbSpline
 62
7
  6
CONTINUOUS
 70
0
 71
3
 72
9
 73
5
 74
0
 42
0.0000001
 43
0.0000001
 44
0.0000000001
 40
0.0
 40
0.0
 40
0.0
 40
0.0
 40
0.5221455342
 40
1.0
 40
1.0
 40
1.0
 40
1.0
 10
23.7684848877
 20
51.0109428039
 30
0.0
 10
23.8009071232
 20
50.9922242409
 30
0.0
 10
23.8655121024
 20
50.9604830159
 30
0.0
 10
23.9346033808
 20
50.9396391543
 30
0.0
 10
23.9682612196
 20
50.9332328117
 30
0.0
  0
SPLINE
  5
28D
100
AcDbEntity
  8
0
100
AcDbSpline
 62
7
  6
CONTINUOUS
 70
0
 71
3
 72
15
 73
11
 74
0
 42
0.0000001
 43
0.0000001
 44
0.0000000001
 40
0.0
 40
0.0
 40
0.0
 40
0.0
 40
0.1141465952
 40
0.2373352439
 40
0.366975646
 40
0.4999989181
 40
0.6330223406
 40
0.7626631822
 40
0.8858525235
 40
1.0
 40
1.0
 40
1.0
 40
1.0
 10
23.7684848877
 20
53.6033379783
 30
0.0
 10
23.8453259312
 20
53.5589747848
 30
0.0
 10
23.9971111282
 20
53.4525638377
 30
0.0
 10
24.2059719534
 20
53.2571833453
 30
0.0
 10
24.3984244424
 20
53.0261956226
 30
0.0
 10
24.5672653043
 20
52.7683294625
 30
0.0
 10
24.7061649768
 20
52.4931762623
 30
0.0
 10
24.8099817919
 20
52.2110132733
 30
0.0
 10
24.8747579693
 20
51.9324431442
 30
0.0
 10
24.8910215764
 20
51.7477867708
 30
0.0
 10
24.8910215764
 20
51.6590581933
 30
0.0
  0
SPLINE
  5
28E
100
AcDbEntity
  8
0
100
AcDbSpline
 62
7
  6
CONTINUOUS
 70
0
 71
3
 72
21
 73
17
 74
0
 42
0.0000001
 43
0.0000001
 44
0.0000000001
 40
0.0
 40
0.0
 40
0.0
 40
0.0
 40
0.0623547798
 40
0.1287848707
 40
0.1984241491
 40
0.2704134547
 40
0.4174490912
 40
0.561676695
 40
0.6303042193
 40
0.6954216382
 40
0.7563954442
 40
0.8128574921
 40
0.8647818269
 40
0.9125777349
 40
0.9571728763
 40
1.0
 40
1.0
 40
1.0
 40
1.0
 10
26.2829700614
 20
50.596205645
 30
0.0
 10
26.3148816947
 20
50.5777818717
 30
0.0
 10
26.3783133356
 20
50.5353447772
 30
0.0
 10
26.4682165026
 20
50.4597669989
 30
0.0
 10
26.5541258493
 20
50.3715348157
 30
0.0
 10
26.6616127906
 20
50.2388277671
 30
0.0
 10
26.7745714152
 20
50.0550292745
 30
0.0
 10
26.8547447623
 20
49.8567637539
 30
0.0
 10
26.8943272827
 20
49.6970966419
 30
0.0
 10
26.9104995926
 20
49.5829391179
 30
0.0
 10
26.9132394753
 20
49.4748239672
 30
0.0
 10
26.902478926
 20
49.3749748846
 30
0.0
 10
26.8782795552
 20
49.2854502972
 30
0.0
 10
26.8409269421
 20
49.2081266931
 30
0.0
 10
26.7909274088
 20
49.1449049306
 30
0.0
 10
26.7493816007
 20
49.1130988813
 30
0.0
 10
26.7274588054
 20
49.1004534325
 30
0.0
  0
SPLINE
  5
28F
100
AcDbEntity
  8
0
100
AcDbSpline
 62
7
  6
CONTINUOUS
 70
0
 71
3
 72
9
 73
5
 74
0
 42
0.0000001
 43
0.0000001
 44
0.0000000001
 40
0.0
 40
0.0
 40
0.0
 40
0.0
 40
0.5221455342
 40
1.0
 40
1.0
 40
1.0
 40
1.0
 10
26.6421788107
 20
49.3518523775
 30
0.0
 10
26.6746010462
 20
49.3331338146
 30
0.0
 10
26.7392060254
 20
49.3013925896
 30
0.0
 10
26.8082973038
 20
49.2805487279
 30
0.0
 10
26.8419551426
 20
49.2741423853
 30
0.0
  0
SPLINE
  5
290
100
AcDbEntity
  8
0
100
AcDbSpline
 62
7
  6
CONTINUOUS
 70
0
 71
3
 72
15
 73
11
 74
0
 42
0.0000001
 43
0.0000001
 44
0.0000000001
 40
0.0
 40
0.0
 40
0.0
 40
0.0
 40
0.1141465952
 40
0.2373352439
 40
0.366975646
 40
0.4999989181
 40
0.6330223406
 40
0.7626631822
 40
0.8858525235
 40
1.0
 40
1.0
 40
1.0
 40
1.0
 10
26.6421788107
 20
51.9442475519
 30
0.0
 10
26.7190198542
 20
51.8998843584
 30
0.0
 10
26.8708050512
 20
51.7934734113
 30
0.0
 10
27.0796658764
 20
51.5980929189
 30
0.0
 10
27.2721183654
 20
51.3671051962
 30
0.0
 10
27.4409592273
 20
51.1092390361
 30
0.0
 10
27.5798588998
 20
50.8340858359
 30
0.0
 10
27.6836757149
 20
50.5519228469
 30
0.0
 10
27.7484518923
 20
50.2733527179
 30
0.0
 10
27.7647154994
 20
50.0886963444
 30
0.0
 10
27.7647154994
 20
49.9999677669
 30
0.0
  0
SPLINE
  5
291
100
AcDbEntity
  8
0
100
AcDbSpline
 62
7
  6
CONTINUOUS
 70
0
 71
3
 72
11
 73
7
 74
0
 42
0.0000001
 43
0.0000001
 44
0.0000000001
 40
0.0
 40
0.0
 40
0.0
 40
0.0
 40
0.2777897346
 40
0.5366974566
 40
0.7766391467
 40
1.0
 40
1.0
 40
1.0
 40
1.0
 10
21.0385103573
 20
47.3609132128
 30
0.0
 10
21.0800974252
 20
47.3369034511
 30
0.0
 10
21.1630974607
 20
47.2948783018
 30
0.0
 10
21.2900513772
 20
47.2499078894
 30
0.0
 10
21.4131651513
 20
47.2262929839
 30
0.0
 10
21.4938106327
 20
47.2251332901
 30
0.0
 10
21.5322693582
 20
47.228564076
 30
0.0
  0
SPLINE
  5
292
100
AcDbEntity
  8
0
100
AcDbSpline
 62
7
  6
CONTINUOUS
 70
0
 71
3
 72
21
 73
17
 74
0
 42
0.0000001
 43
0.0000001
 44
0.0000000001
 40
0.0
 40
0.0
 40
0.0
 40
0.0
 40
0.0623706905
 40
0.1287892579
 40
0.1984166254
 40
0.2704133674
 40
0.4174546891
 40
0.5616816187
 40
0.6303100251
 40
0.6954240379
 40
0.7563975103
 40
0.8128593196
 40
0.8647809932
 40
0.9125791505
 40
0.9571719651
 40
1.0
 40
1.0
 40
1.0
 40
1.0
 10
20.679301608
 20
49.4348329361
 30
0.0
 10
20.7294613992
 20
49.4058738223
 30
0.0
 10
20.8291540166
 20
49.3391994672
 30
0.0
 10
20.9704083051
 20
49.2204173507
 30
0.0
 10
21.1054053552
 20
49.0817843599
 30
0.0
 10
21.2743004798
 20
48.8732317439
 30
0.0
 10
21.4518301428
 20
48.5844030276
 30
0.0
 10
21.5777839446
 20
48.2728272044
 30
0.0
 10
21.6400384715
 20
48.0219355721
 30
0.0
 10
21.6654048222
 20
47.8425407848
 30
0.0
 10
21.6697417652
 20
47.6726506367
 30
0.0
 10
21.6528166162
 20
47.5157472769
 30
0.0
 10
21.6147880997
 20
47.3750689019
 30
0.0
 10
21.5561040524
 20
47.2535533465
 30
0.0
 10
21.4775085732
 20
47.1542248097
 30
0.0
 10
21.4122410429
 20
47.1042262096
 30
0.0
 10
21.3777952828
 20
47.084345336
 30
0.0
  0
SPLINE
  5
293
100
AcDbEntity
  8
0
100
AcDbSpline
 62
7
  6
CONTINUOUS
 70
0
 71
3
 72
11
 73
7
 74
0
 42
0.0000001
 43
0.0000001
 44
0.0000000001
 40
0.0
 40
0.0
 40
0.0
 40
0.0
 40
0.2777897346
 40
0.5366974566
 40
0.7766391467
 40
1.0
 40
1.0
 40
1.0
 40
1.0
 10
16.9076097403
 20
44.9759508659
 30
0.0
 10
16.9491968082
 20
44.9519411042
 30
0.0
 10
17.0321968437
 20
44.9099159548
 30
0.0
 10
17.1591507602
 20
44.8649455425
 30
0.0
 10
17.2822645343
 20
44.841330637
 30
0.0
 10
17.3629100157
 20
44.8401709432
 30
0.0
 10
17.4013687412
 20
44.8436017291
 30
0.0
  0
SPLINE
  5
294
100
AcDbEntity
  8
0
100
AcDbSpline
 62
7
  6
CONTINUOUS
 70
0
 71
3
 72
21
 73
17
 74
0
 42
0.0000001
 43
0.0000001
 44
0.0000000001
 40
0.0
 40
0.0
 40
0.0
 40
0.0
 40
0.0623706905
 40
0.1287892579
 40
0.1984166254
 40
0.2704133674
 40
0.4174546891
 40
0.5616816187
 40
0.6303100251
 40
0.6954240379
 40
0.7563975103
 40
0.8128593196
 40
0.8647809932
 40
0.9125791505
 40
0.9571719651
 40
1.0
 40
1.0
 40
1.0
 40
1.0
 10
16.5484009909
 20
47.0498705892
 30
0.0
 10
16.5985607822
 20
47.0209114754
 30
0.0
 10
16.6982533996
 20
46.9542371203
 30
0.0
 10
16.8395076881
 20
46.8354550038
 30
0.0
 10
16.9745047382
 20
46.696822013
 30
0.0
 10
17.1433998627
 20
46.488269397
 30
0.0
 10
17.3209295258
 20
46.1994406807
 30
0.0
 10
17.4468833276
 20
45.8878648575
 30
0.0
 10
17.5091378545
 20
45.6369732252
 30
0.0
 10
17.5345042052
 20
45.4575784379
 30
0.0
 10
17.5388411482
 20
45.2876882898
 30
0.0
 10
17.5219159992
 20
45.13078493
 30
0.0
 10
17.4838874827
 20
44.990106555
 30
0.0
 10
17.4252034354
 20
44.8685909995
 30
0.0
 10
17.3466079562
 20
44.7692624628
 30
0.0
 10
17.2813404259
 20
44.7192638627
 30
0.0
 10
17.2468946658
 20
44.699382989
 30
0.0
  0
SPLINE
  5
295
100
AcDbEntity
  8
0
100
AcDbSpline
 62
7
  6
CONTINUOUS
 70
0
 71
3
 72
21
 73
17
 74
0
 42
0.0000001
 43
0.0000001
 44
0.0000000001
 40
0.0
 40
0.0
 40
0.0
 40
0.0
 40
0.0623706905
 40
0.1287892579
 40
0.1984166254
 40
0.2704133674
 40
0.4174546891
 40
0.5616816187
 40
0.6303100251
 40
0.6954240379
 40
0.7563975103
 40
0.8128593196
 40
0.8647809932
 40
0.9125791505
 40
0.9571719651
 40
1.0
 40
1.0
 40
1.0
 40
1.0
 10
13.2257200599
 20
45.1315313102
 30
0.0
 10
13.2758798512
 20
45.1025721963
 30
0.0
 10
13.3755724685
 20
45.0358978412
 30
0.0
 10
13.516826757
 20
44.9171157247
 30
0.0
 10
13.6518238071
 20
44.7784827339
 30
0.0
 10
13.8207189317
 20
44.569930118
 30
0.0
 10
13.9982485947
 20
44.2811014016
 30
0.0
 10
14.1242023966
 20
43.9695255785
 30
0.0
 10
14.1864569234
 20
43.7186339461
 30
0.0
 10
14.2118232741
 20
43.5392391588
 30
0.0
 10
14.2161602172
 20
43.3693490108
 30
0.0
 10
14.1992350681
 20
43.212445651
 30
0.0
 10
14.1612065516
 20
43.071767276
 30
0.0
 10
14.1025225044
 20
42.9502517205
 30
0.0
 10
14.0239270251
 20
42.8509231837
 30
0.0
 10
13.9586594949
 20
42.8009245836
 30
0.0
 10
13.9242137348
 20
42.78104371
 30
0.0
  0
SPLINE
  5
296
100
AcDbEntity
  8
0
100
AcDbSpline
 62
7
  6
CONTINUOUS
 70
0
 71
3
 72
11
 73
7
 74
0
 42
0.0000001
 43
0.0000001
 44
0.0000000001
 40
0.0
 40
0.0
 40
0.0
 40
0.0
 40
0.2777897346
 40
0.5366974566
 40
0.7766391467
 40
1.0
 40
1.0
 40
1.0
 40
1.0
 10
13.5849288092
 20
43.0576115869
 30
0.0
 10
13.6265158771
 20
43.0336018252
 30
0.0
 10
13.7095159126
 20
42.9915766758
 30
0.0
 10
13.8364698291
 20
42.9466062634
 30
0.0
 10
13.9595836032
 20
42.9229913579
 30
0.0
 10
14.0402290846
 20
42.9218316642
 30
0.0
 10
14.0786878102
 20
42.92526245
 30
0.0
  0
SPLINE
  5
297
100
AcDbEntity
  8
0
100
AcDbSpline
 62
7
  6
CONTINUOUS
 70
0
 71
3
 72
12
 73
8
 74
0
 42
0.0000001
 43
0.0000001
 44
0.0000000001
 40
0.0
 40
0.0
 40
0.0
 40
0.0
 40
0.1081687912
 40
0.2183555695
 40
0.4513113955
 40
0.7105889062
 40
1.0
 40
1.0
 40
1.0
 40
1.0
 10
26.7274588054
 20
49.1004534325
 30
0.0
 10
26.7128797315
 20
49.0920439697
 30
0.0
 10
26.6819310284
 20
49.0775620777
 30
0.0
 10
26.6139960376
 20
49.0587123444
 30
0.0
 10
26.5187807187
 20
49.056185043
 30
0.0
 10
26.3995972692
 20
49.085060116
 30
0.0
 10
26.3219683364
 20
49.1219491921
 30
0.0
 10
26.2829700614
 20
49.1444643473
 30
0.0
  0
SPLINE
  5
298
100
AcDbEntity
  8
0
100
AcDbSpline
 62
7
  6
CONTINUOUS
 70
0
 71
3
 72
15
 73
11
 74
0
 42
0.0000001
 43
0.0000001
 44
0.0000000001
 40
0.0
 40
0.0
 40
0.0
 40
0.0
 40
0.1141474765
 40
0.2373368178
 40
0.3669776594
 40
0.5000010819
 40
0.633024354
 40
0.7626647561
 40
0.8858534048
 40
1.0
 40
1.0
 40
1.0
 40
1.0
 10
27.4055067501
 20
49.7925797367
 30
0.0
 10
27.4055067501
 20
49.8813083142
 30
0.0
 10
27.389243143
 20
50.0659646877
 30
0.0
 10
27.3244669655
 20
50.3445348167
 30
0.0
 10
27.2206501505
 20
50.6266978057
 30
0.0
 10
27.081750478
 20
50.9018510059
 30
0.0
 10
26.9129096161
 20
51.1597171661
 30
0.0
 10
26.7204571271
 20
51.3907048887
 30
0.0
 10
26.5115963019
 20
51.5860853811
 30
0.0
 10
26.3598111049
 20
51.6924963282
 30
0.0
 10
26.2829700614
 20
51.7368595217
 30
0.0
  0
SPLINE
  5
299
100
AcDbEntity
  8
0
100
AcDbSpline
 62
7
  6
CONTINUOUS
 70
0
 71
3
 72
14
 73
10
 74
0
 42
0.0000001
 43
0.0000001
 44
0.0000000001
 40
0.0
 40
0.0
 40
0.0
 40
0.0
 40
0.2892465103
 40
0.4225697622
 40
0.5485168638
 40
0.6678914139
 40
0.7818640907
 40
0.891953856
 40
1.0
 40
1.0
 40
1.0
 40
1.0
 10
26.2829700614
 20
51.7368595217
 30
0.0
 10
26.2132944038
 20
51.7770858714
 30
0.0
 10
26.1063003879
 20
51.827992987
 30
0.0
 10
25.959584346
 20
51.8707910024
 30
0.0
 10
25.8554374551
 20
51.8882555188
 30
0.0
 10
25.7552430436
 20
51.8917323997
 30
0.0
 10
25.6599340618
 20
51.8810855176
 30
0.0
 10
25.5705113434
 20
51.8563888491
 30
0.0
 10
25.5152562275
 20
51.8304956871
 30
0.0
 10
25.4892294496
 20
51.8154692087
 30
0.0
  0
SPLINE
  5
29A
100
AcDbEntity
  8
0
100
AcDbSpline
 62
7
  6
CONTINUOUS
 70
0
 71
3
 72
21
 73
17
 74
0
 42
0.0000001
 43
0.0000001
 44
0.0000000001
 40
0.0
 40
0.0
 40
0.0
 40
0.0
 40
0.0623547798
 40
0.1287848707
 40
0.1984241491
 40
0.2704134547
 40
0.4174490912
 40
0.561676695
 40
0.6303042193
 40
0.6954216382
 40
0.7563954442
 40
0.8128574921
 40
0.8647818269
 40
0.9125777349
 40
0.9571728763
 40
1.0
 40
1.0
 40
1.0
 40
1.0
 10
23.4092761384
 20
50.8035547737
 30
0.0
 10
23.3773645051
 20
50.821978547
 30
0.0
 10
23.3139328642
 20
50.8644156414
 30
0.0
 10
23.2240296971
 20
50.9399934198
 30
0.0
 10
23.1381203505
 20
51.0282256029
 30
0.0
 10
23.0306334092
 20
51.1609326516
 30
0.0
 10
22.9176747846
 20
51.3447311442
 30
0.0
 10
22.8375014374
 20
51.5429966648
 30
0.0
 10
22.797918917
 20
51.7026637768
 30
0.0
 10
22.7817466072
 20
51.8168213007
 30
0.0
 10
22.7790067245
 20
51.9249364515
 30
0.0
 10
22.7897672737
 20
52.0247855341
 30
0.0
 10
22.8139666446
 20
52.1143101215
 30
0.0
 10
22.8513192576
 20
52.1916337256
 30
0.0
 10
22.901318791
 20
52.2548554881
 30
0.0
 10
22.9428645991
 20
52.2866615374
 30
0.0
 10
22.9647873944
 20
52.2993069861
 30
0.0
  0
SPLINE
  5
29B
100
AcDbEntity
  8
0
100
AcDbSpline
 62
7
  6
CONTINUOUS
 70
0
 71
3
 72
13
 73
9
 74
0
 42
0.0000001
 43
0.0000001
 44
0.0000000001
 40
0.0
 40
0.0
 40
0.0
 40
0.0
 40
0.1081029667
 40
0.2182394015
 40
0.3322429388
 40
0.4516715836
 40
0.7107062232
 40
1.0
 40
1.0
 40
1.0
 40
1.0
 10
21.3777952828
 20
47.084345336
 30
0.0
 10
21.3548883906
 20
47.0711242884
 30
0.0
 10
21.3062459155
 20
47.0483774672
 30
0.0
 10
21.227573895
 20
47.0266039133
 30
0.0
 10
21.1437039379
 20
47.0172265012
 30
0.0
 10
21.0229213339
 20
47.02143578
 30
0.0
 10
20.8624727954
 20
47.0601249065
 30
0.0
 10
20.7405980402
 20
47.1181364716
 30
0.0
 10
20.679301608
 20
47.1535251827
 30
0.0
  0
SPLINE
  5
29C
100
AcDbEntity
  8
0
100
AcDbSpline
 62
7
  6
CONTINUOUS
 70
0
 71
3
 72
12
 73
8
 74
0
 42
0.0000001
 43
0.0000001
 44
0.0000000001
 40
0.0
 40
0.0
 40
0.0
 40
0.0
 40
0.1081687912
 40
0.2183555695
 40
0.4513113955
 40
0.7105889062
 40
1.0
 40
1.0
 40
1.0
 40
1.0
 10
23.8537648824
 20
50.7595438589
 30
0.0
 10
23.8391858085
 20
50.7511343961
 30
0.0
 10
23.8082371055
 20
50.7366525041
 30
0.0
 10
23.7403021146
 20
50.7178027708
 30
0.0
 10
23.6450867957
 20
50.7152754693
 30
0.0
 10
23.5259033462
 20
50.7441505423
 30
0.0
 10
23.4482744134
 20
50.7810396185
 30
0.0
 10
23.4092761384
 20
50.8035547737
 30
0.0
  0
SPLINE
  5
29D
100
AcDbEntity
  8
0
100
AcDbSpline
 62
7
  6
CONTINUOUS
 70
0
 71
3
 72
21
 73
17
 74
0
 42
0.0000001
 43
0.0000001
 44
0.0000000001
 40
0.0
 40
0.0
 40
0.0
 40
0.0
 40
0.0623706905
 40
0.1287892579
 40
0.1984166254
 40
0.2704133674
 40
0.4174546891
 40
0.5616816187
 40
0.6303100251
 40
0.6954240379
 40
0.7563975103
 40
0.8128593196
 40
0.8647809932
 40
0.9125791505
 40
0.9571719651
 40
1.0
 40
1.0
 40
1.0
 40
1.0
 10
20.679301608
 20
47.1535251827
 30
0.0
 10
20.6291418167
 20
47.1824842965
 30
0.0
 10
20.5294491993
 20
47.2491586516
 30
0.0
 10
20.3881949108
 20
47.3679407681
 30
0.0
 10
20.2531978607
 20
47.5065737589
 30
0.0
 10
20.0843027362
 20
47.7151263749
 30
0.0
 10
19.9067730731
 20
48.0039550912
 30
0.0
 10
19.7808192713
 20
48.3155309144
 30
0.0
 10
19.7185647444
 20
48.5664225467
 30
0.0
 10
19.6931983937
 20
48.745817334
 30
0.0
 10
19.6888614507
 20
48.9157074821
 30
0.0
 10
19.7057865997
 20
49.0726108419
 30
0.0
 10
19.7438151162
 20
49.2132892169
 30
0.0
 10
19.8024991635
 20
49.3348047724
 30
0.0
 10
19.8810946427
 20
49.4341333091
 30
0.0
 10
19.946362173
 20
49.4841319093
 30
0.0
 10
19.9808079331
 20
49.5040127829
 30
0.0
  0
SPLINE
  5
29E
100
AcDbEntity
  8
0
100
AcDbSpline
 62
7
  6
CONTINUOUS
 70
0
 71
3
 72
14
 73
10
 74
0
 42
0.0000001
 43
0.0000001
 44
0.0000000001
 40
0.0
 40
0.0
 40
0.0
 40
0.0
 40
0.2892465103
 40
0.4225697622
 40
0.5485168638
 40
0.6678914139
 40
0.7818640907
 40
0.891953856
 40
1.0
 40
1.0
 40
1.0
 40
1.0
 10
23.4092761384
 20
53.3959499481
 30
0.0
 10
23.3396004808
 20
53.4361762977
 30
0.0
 10
23.2326064649
 20
53.4870834134
 30
0.0
 10
23.085890423
 20
53.5298814288
 30
0.0
 10
22.9817435321
 20
53.5473459452
 30
0.0
 10
22.8815491206
 20
53.5508228261
 30
0.0
 10
22.7862401388
 20
53.540175944
 30
0.0
 10
22.6968174204
 20
53.5154792755
 30
0.0
 10
22.6415623045
 20
53.4895861135
 30
0.0
 10
22.6155355266
 20
53.474559635
 30
0.0
  0
SPLINE
  5
29F
100
AcDbEntity
  8
0
100
AcDbSpline
 62
7
  6
CONTINUOUS
 70
0
 71
3
 72
13
 73
9
 74
0
 42
0.0000001
 43
0.0000001
 44
0.0000000001
 40
0.0
 40
0.0
 40
0.0
 40
0.0
 40
0.1081029667
 40
0.2182394015
 40
0.3322429388
 40
0.4516715836
 40
0.7107062232
 40
1.0
 40
1.0
 40
1.0
 40
1.0
 10
17.2468946658
 20
44.699382989
 30
0.0
 10
17.2239877736
 20
44.6861619415
 30
0.0
 10
17.1753452985
 20
44.6634151202
 30
0.0
 10
17.096673278
 20
44.6416415664
 30
0.0
 10
17.0128033209
 20
44.6322641542
 30
0.0
 10
16.8920207169
 20
44.6364734331
 30
0.0
 10
16.7315721784
 20
44.6751625595
 30
0.0
 10
16.6096974232
 20
44.7331741247
 30
0.0
 10
16.5484009909
 20
44.7685628358
 30
0.0
  0
SPLINE
  5
2A0
100
AcDbEntity
  8
0
100
AcDbSpline
 62
7
  6
CONTINUOUS
 70
0
 71
3
 72
15
 73
11
 74
0
 42
0.0000001
 43
0.0000001
 44
0.0000000001
 40
0.0
 40
0.0
 40
0.0
 40
0.0
 40
0.1141474765
 40
0.2373368178
 40
0.3669776594
 40
0.5000010819
 40
0.633024354
 40
0.7626647561
 40
0.8858534048
 40
1.0
 40
1.0
 40
1.0
 40
1.0
 10
24.5318128271
 20
51.4516701631
 30
0.0
 10
24.5318128271
 20
51.5403987406
 30
0.0
 10
24.51554922
 20
51.7250551141
 30
0.0
 10
24.4507730425
 20
52.0036252431
 30
0.0
 10
24.3469562275
 20
52.2857882321
 30
0.0
 10
24.208056555
 20
52.5609414323
 30
0.0
 10
24.0392156931
 20
52.8188075925
 30
0.0
 10
23.8467632041
 20
53.0497953151
 30
0.0
 10
23.6379023789
 20
53.2451758075
 30
0.0
 10
23.4861171819
 20
53.3515867546
 30
0.0
 10
23.4092761384
 20
53.3959499481
 30
0.0
  0
SPLINE
  5
2A1
100
AcDbEntity
  8
0
100
AcDbSpline
 62
7
  6
CONTINUOUS
 70
0
 71
3
 72
21
 73
17
 74
0
 42
0.0000001
 43
0.0000001
 44
0.0000000001
 40
0.0
 40
0.0
 40
0.0
 40
0.0
 40
0.0623706905
 40
0.1287892579
 40
0.1984166254
 40
0.2704133674
 40
0.4174546891
 40
0.5616816187
 40
0.6303100251
 40
0.6954240379
 40
0.7563975103
 40
0.8128593196
 40
0.8647809932
 40
0.9125791505
 40
0.9571719651
 40
1.0
 40
1.0
 40
1.0
 40
1.0
 10
16.5484009909
 20
44.7685628358
 30
0.0
 10
16.4982411997
 20
44.7975219496
 30
0.0
 10
16.3985485823
 20
44.8641963047
 30
0.0
 10
16.2572942938
 20
44.9829784212
 30
0.0
 10
16.1222972437
 20
45.121611412
 30
0.0
 10
15.9534021192
 20
45.330164028
 30
0.0
 10
15.7758724561
 20
45.6189927443
 30
0.0
 10
15.6499186543
 20
45.9305685675
 30
0.0
 10
15.5876641274
 20
46.1814601998
 30
0.0
 10
15.5622977767
 20
46.3608549871
 30
0.0
 10
15.5579608337
 20
46.5307451352
 30
0.0
 10
15.5748859827
 20
46.687648495
 30
0.0
 10
15.6129144992
 20
46.82832687
 30
0.0
 10
15.6715985465
 20
46.9498424254
 30
0.0
 10
15.7501940257
 20
47.0491709622
 30
0.0
 10
15.815461556
 20
47.0991695623
 30
0.0
 10
15.8499073161
 20
47.119050436
 30
0.0
  0
SPLINE
  5
2A2
100
AcDbEntity
  8
0
100
AcDbSpline
 62
7
  6
CONTINUOUS
 70
0
 71
3
 72
13
 73
9
 74
0
 42
0.0000001
 43
0.0000001
 44
0.0000000001
 40
0.0
 40
0.0
 40
0.0
 40
0.0
 40
0.1081029667
 40
0.2182394015
 40
0.3322429388
 40
0.4516715836
 40
0.7107062232
 40
1.0
 40
1.0
 40
1.0
 40
1.0
 10
13.9242137348
 20
42.78104371
 30
0.0
 10
13.9013068425
 20
42.7678226625
 30
0.0
 10
13.8526643675
 20
42.7450758412
 30
0.0
 10
13.773992347
 20
42.7233022873
 30
0.0
 10
13.6901223898
 20
42.7139248752
 30
0.0
 10
13.5693397858
 20
42.718134154
 30
0.0
 10
13.4088912474
 20
42.7568232805
 30
0.0
 10
13.2870164921
 20
42.8148348457
 30
0.0
 10
13.2257200599
 20
42.8502235567
 30
0.0
  0
SPLINE
  5
2A3
100
AcDbEntity
  8
0
100
AcDbSpline
 62
7
  6
CONTINUOUS
 70
0
 71
3
 72
21
 73
17
 74
0
 42
0.0000001
 43
0.0000001
 44
0.0000000001
 40
0.0
 40
0.0
 40
0.0
 40
0.0
 40
0.0623706905
 40
0.1287892579
 40
0.1984166254
 40
0.2704133674
 40
0.4174546891
 40
0.5616816187
 40
0.6303100251
 40
0.6954240379
 40
0.7563975103
 40
0.8128593196
 40
0.8647809932
 40
0.9125791505
 40
0.9571719651
 40
1.0
 40
1.0
 40
1.0
 40
1.0
 10
13.2257200599
 20
42.8502235567
 30
0.0
 10
13.1755602686
 20
42.8791826706
 30
0.0
 10
13.0758676513
 20
42.9458570257
 30
0.0
 10
12.9346133627
 20
43.0646391422
 30
0.0
 10
12.7996163127
 20
43.203272133
 30
0.0
 10
12.6307211881
 20
43.4118247489
 30
0.0
 10
12.453191525
 20
43.7006534653
 30
0.0
 10
12.3272377232
 20
44.0122292884
 30
0.0
 10
12.2649831964
 20
44.2631209208
 30
0.0
 10
12.2396168457
 20
44.4425157081
 30
0.0
 10
12.2352799026
 20
44.6124058561
 30
0.0
 10
12.2522050517
 20
44.7693092159
 30
0.0
 10
12.2902335681
 20
44.9099875909
 30
0.0
 10
12.3489176154
 20
45.0315031464
 30
0.0
 10
12.4275130946
 20
45.1308316832
 30
0.0
 10
12.4927806249
 20
45.1808302833
 30
0.0
 10
12.527226385
 20
45.2007111569
 30
0.0
  0
SPLINE
  5
2A4
100
AcDbEntity
  8
0
100
AcDbSpline
 62
7
  6
CONTINUOUS
 70
0
 71
3
 72
21
 73
17
 74
0
 42
0.0000001
 43
0.0000001
 44
0.0000000001
 40
0.0
 40
0.0
 40
0.0
 40
0.0
 40
0.0623547798
 40
0.1287848707
 40
0.1984241491
 40
0.2704134547
 40
0.4174490912
 40
0.561676695
 40
0.6303042193
 40
0.6954216382
 40
0.7563954442
 40
0.8128574921
 40
0.8647818269
 40
0.9125777349
 40
0.9571728763
 40
1.0
 40
1.0
 40
1.0
 40
1.0
 10
26.2829700614
 20
49.1444643473
 30
0.0
 10
26.2510584281
 20
49.1628881206
 30
0.0
 10
26.1876267872
 20
49.2053252151
 30
0.0
 10
26.0977236201
 20
49.2809029935
 30
0.0
 10
26.0118142735
 20
49.3691351766
 30
0.0
 10
25.9043273322
 20
49.5018422252
 30
0.0
 10
25.7913687076
 20
49.6856407178
 30
0.0
 10
25.7111953604
 20
49.8839062385
 30
0.0
 10
25.67161284
 20
50.0435733505
 30
0.0
 10
25.6554405302
 20
50.1577308744
 30
0.0
 10
25.6527006475
 20
50.2658460251
 30
0.0
 10
25.6634611967
 20
50.3656951077
 30
0.0
 10
25.6876605676
 20
50.4552196951
 30
0.0
 10
25.7250131806
 20
50.5325432992
 30
0.0
 10
25.775012714
 20
50.5957650617
 30
0.0
 10
25.8165585221
 20
50.627571111
 30
0.0
 10
25.8384813173
 20
50.6402165598
 30
0.0
  0
ENDSEC
  0
SECTION
  2
OBJECTS
  0
DICTIONARY
  5
C
100
AcDbDictionary
280
0
281
1
  3
ACAD_GROUP
350
D
  3
ACAD_MLINESTYLE
350
17
  3
ACAD_LAYOUT
350
1A
  3
ACAD_PLOTSETTINGS
350
19
  3
ACAD_PLOTSTYLENAME
350
E
  0
DICTIONARY
  5
D
102
{ACAD_REACTORS
330
C
102
}
100
AcDbDictionary
280
0
281
1
  0
ACDBDICTIONARYWDFLT
  5
E
102
{ACAD_REACTORS
330
C
102
}
100
AcDbDictionary
281
1
  3
Normal
350
F
100
AcDbDictionaryWithDefault
340
F
  0
DICTIONARY
  5
17
102
{ACAD_REACTORS
330
C
102
}
100
AcDbDictionary
280
0
281
1
  3
Standard
350
18
  0
DICTIONARY
  5
19
102
{ACAD_REACTORS
330
C
102
}
100
AcDbDictionary
281
1
  0
DICTIONARY
  5
1A
102
{ACAD_REACTORS
330
C
102
}
100
AcDbDictionary
281
1
  3
Model
350
2A5
  3
Layout1
350
2A6
  0
ACDBPLACEHOLDER
  5
F
102
{ACAD_REACTORS
330
E
102
}
  0
MLINESTYLE
  5
18
102
{ACAD_REACTORS
330
17
102
}
100
AcDbMlineStyle
  2
STANDARD
 70
0
  3

 62
256
 51
90.0
 52
90.0
 71
2
 49
0.5
 62
256
  6
BYLAYER
 49
-0.5
 62
256
  6
BYLAYER
  0
LAYOUT
  5
2A5
102
{ACAD_REACTORS
330
1A
102
}
100
AcDbPlotSettings
  1

  2
none_device
  4

  6

 40
0.0
 41
0.0
 42
0.0
 43
0.0
 44
210.0
 45
297.0
 46
0.0
 47
0.0
 48
0.0
 49
0.0
140
0.0
141
0.0
142
1.0
143
1.0
 70
1024
 72
1
 73
0
 74
0
  7

 75
0
147
1.0
148
0.0
149
0.0
100
AcDbLayout
  1
Model
 70
0
 71
0
 10
0.0
 20
0.0
 11
210.0
 21
297.0
 12
0.0
 22
0.0
 32
0.0
 14
0.0
 24
0.0
 34
0.0
 15
0.0
 25
0.0
 35
0.0
146
0.0
 13
0.0
 23
0.0
 33
0.0
 16
1.0
 26
0.0
 36
0.0
 17
0.0
 27
1.0
 37
0.0
 76
0
330
210
345
0
346
0
  0
LAYOUT
  5
2A6
102
{ACAD_REACTORS
330
1A
102
}
100
AcDbPlotSettings
  1

  2
none_device
  4

  6

 40
0.0
 41
0.0
 42
0.0
 43
0.0
 44
210.0
 45
297.0
 46
0.0
 47
0.0
 48
0.0
 49
0.0
140
0.0
141
0.0
142
1.0
143
1.0
 70
0
 72
1
 73
0
 74
0
  7

 75
0
147
1.0
148
0.0
149
0.0
100
AcDbLayout
  1
Layout1
 70
0
 71
1
 10
0.0
 20
0.0
 11
210.0
 21
297.0
 12
0.0
 22
0.0
 32
0.0
 14
0.0
 24
0.0
 34
0.0
 15
0.0
 25
0.0
 35
0.0
146
0.0
 13
0.0
 23
0.0
 33
0.0
 16
1.0
 26
0.0
 36
0.0
 17
0.0
 27
1.0
 37
0.0
 76
0
330
211
345
0
346
0
  0
ENDSEC
  0
EOF
