  0
SECTION
  2
HEADER
  9
$ACADVER
  1
AC1009
  9
$DWGCODEPAGE
  3
ansi_1250
  9
$INSBASE
 10
0.0
 20
0.0
 30
0.0
  9
$EXTMIN
 10
-18.864961
 20
-11.566929
 30
0.0
  9
$EXTMAX
 10
10.837402
 20
14.393701
 30
0.0
  9
$LIMMIN
 10
0.0
 20
0.0
  9
$LIMMAX
 10
0.0
 20
0.0
  9
$ORTHOMODE
 70
     0
  9
$REGENMODE
 70
     1
  9
$FILLMODE
 70
     1
  9
$QTEXTMODE
 70
     0
  9
$MIRRTEXT
 70
     1
  9
$DRAGMODE
 70
     2
  9
$LTSCALE
 40
1.0
  9
$OSMODE
 70
     0
  9
$ATTMODE
 70
     1
  9
$TEXTSIZE
 40
0.2
  9
$TRACEWID
 40
0.05
  9
$TEXTSTYLE
  7
STANDARD
  9
$CLAYER
  8
0
  9
$CELTYPE
  6
CONTINUOUS
  9
$CECOLOR
 62
   256
  9
$DIMSCALE
 40
1.0
  9
$DIMASZ
 40
0.18
  9
$DIMEXO
 40
0.0625
  9
$DIMDLI
 40
0.38
  9
$DIMRND
 40
0.0
  9
$DIMDLE
 40
0.0
  9
$DIMEXE
 40
0.18
  9
$DIMTP
 40
0.0
  9
$DIMTM
 40
0.0
  9
$DIMTXT
 40
0.18
  9
$DIMCEN
 40
0.09
  9
$DIMTSZ
 40
0.0
  9
$DIMTOL
 70
     0
  9
$DIMLIM
 70
     0
  9
$DIMTIH
 70
     1
  9
$DIMTOH
 70
     1
  9
$DIMSE1
 70
     0
  9
$DIMSE2
 70
     0
  9
$DIMTAD
 70
     0
  9
$DIMZIN
 70
     0
  9
$DIMBLK
  1

  9
$DIMASO
 70
     1
  9
$DIMSHO
 70
     1
  9
$DIMPOST
  1

  9
$DIMAPOST
  1

  9
$DIMALT
 70
     0
  9
$DIMALTD
 70
     2
  9
$DIMALTF
 40
25.4
  9
$DIMLFAC
 40
1.0
  9
$DIMTOFL
 70
     0
  9
$DIMTVP
 40
0.0
  9
$DIMTIX
 70
     0
  9
$DIMSOXD
 70
     0
  9
$DIMSAH
 70
     0
  9
$DIMBLK1
  1

  9
$DIMBLK2
  1

  9
$DIMSTYLE
  2
STANDARD
  9
$DIMCLRD
 70
     0
  9
$DIMCLRE
 70
     0
  9
$DIMCLRT
 70
     0
  9
$DIMTFAC
 40
1.0
  9
$DIMGAP
 40
0.09
  9
$LUNITS
 70
     2
  9
$LUPREC
 70
     4
  9
$AXISMODE
 70
     0
  9
$AXISUNIT
 10
0.0
 20
0.0
  9
$SKETCHINC
 40
0.1
  9
$FILLETRAD
 40
0.0
  9
$AUNITS
 70
     0
  9
$AUPREC
 70
     0
  9
$MENU
  1
acad
  9
$ELEVATION
 40
0.0
  9
$PELEVATION
 40
0.0
  9
$THICKNESS
 40
0.0
  9
$LIMCHECK
 70
     0
  9
$BLIPMODE
 70
     1
  9
$CHAMFERA
 40
0.0
  9
$CHAMFERB
 40
0.0
  9
$SKPOLY
 70
     0
  9
$TDCREATE
 40
0.000000000
  9
$TDUPDATE
 40
0.000000000
  9
$TDINDWG
 40
0.0000000000
  9
$TDUSRTIMER
 40
0.0000000000
  9
$USRTIMER
 70
     1
  9
$ANGBASE
 50
0.0
  9
$ANGDIR
 70
     0
  9
$PDMODE
 70
     0
  9
$PDSIZE
 40
0.0
  9
$PLINEWID
 40
0.0
  9
$COORDS
 70
     0
  9
$SPLFRAME
 70
     0
  9
$SPLINETYPE
 70
     6
  9
$SPLINESEGS
 70
     8
  9
$ATTDIA
 70
     0
  9
$ATTREQ
 70
     1
  9
$HANDLING
 70
     1
  9
$HANDSEED
  5
EDF
  9
$SURFTAB1
 70
     6
  9
$SURFTAB2
 70
     6
  9
$SURFTYPE
 70
     6
  9
$SURFU
 70
     6
  9
$SURFV
 70
     6
  9
$UCSNAME
  2

  9
$UCSORG
 10
0.0
 20
0.0
 30
0.0
  9
$UCSXDIR
 10
1.0
 20
0.0
 30
0.0
  9
$UCSYDIR
 10
0.0
 20
1.0
 30
0.0
  9
$PUCSNAME
  2

  9
$PUCSORG
 10
0.0
 20
0.0
 30
0.0
  9
$PUCSXDIR
 10
1.0
 20
0.0
 30
0.0
  9
$PUCSYDIR
 10
0.0
 20
1.0
 30
0.0
  9
$USERI1
 70
     0
  9
$USERI2
 70
     0
  9
$USERI3
 70
     0
  9
$USERI4
 70
     0
  9
$USERI5
 70
     0
  9
$USERR1
 40
0.0
  9
$USERR2
 40
0.0
  9
$USERR3
 40
0.0
  9
$USERR4
 40
0.0
  9
$USERR5
 40
0.0
  9
$WORLDVIEW
 70
     1
  9
$SHADEDGE
 70
     3
  9
$SHADEDIF
 70
    70
  9
$TILEMODE
 70
     1
  9
$MAXACTVP
 70
    16
  9
$PINSBASE
 10
0.0
 20
0.0
 30
0.0
  9
$PLIMCHECK
 70
     0
  9
$PEXTMIN
 10
1.000000E+20
 20
1.000000E+20
 30
1.000000E+20
  9
$PEXTMAX
 10
-1.000000E+20
 20
-1.000000E+20
 30
-1.000000E+20
  9
$PLIMMIN
 10
0.0
 20
0.0
  9
$PLIMMAX
 10
12.0
 20
9.0
  9
$UNITMODE
 70
     0
  9
$VISRETAIN
 70
     0
  9
$PLINEGEN
 70
     1
  9
$PSLTSCALE
 70
     0
  9
$TREEDEPTH
 70
  3020
  0
ENDSEC
  0
SECTION
  2
TABLES
  0
TABLE
  2
VPORT
 70
     1
  0
VPORT
  2
*ACTIVE
 70
     0
 10
0.0
 20
0.0
 11
1.0
 21
1.0
 12
6.591288
 22
4.579184
 13
0.0
 23
0.0
 14
1.0
 24
1.0
 15
0.0
 25
0.0
 16
0.0
 26
0.0
 36
1.0
 17
0.0
 27
0.0
 37
0.0
 40
9.158369
 41
0.688564
 42
50.0
 43
0.0
 44
0.0
 50
0.0
 51
0.0
 71
     0
 72
   100
 73
     1
 74
     1
 75
     0
 76
     0
 77
     0
 78
     0
  0
ENDTAB
  0
TABLE
  2
LTYPE
 70
     5
  0
LTYPE
  2
CONTINUOUS
 70
    64
  3
Solid line
 72
    65
 73
     0
 40
0.0
  0
LTYPE
  2
CENTER
 70
    64
  3
Center ____ _ ____ _ ____ _ ____ _ ____ _ ____
 72
    65
 73
     4
 40
50.8
 49
31.75
 49
-6.35
 49
6.35
 49
-6.35
  0
LTYPE
  2
HIDDEN
 70
    64
  3
Hidden __ __ __ __ __ __ __ __ __ __ __ __ __ __
 72
    65
 73
     2
 40
9.525
 49
6.35
 49
-3.175
  0
LTYPE
  2
CENTER2
 70
    64
  3
Center (.5x) ___ _ ___ _ ___ _ ___ _ ___ _ ___
 72
    65
 73
     4
 40
28.575
 49
19.05
 49
-3.175
 49
3.175
 49
-3.175
  0
LTYPE
  2
HIDDEN2
 70
    64
  3
Hidden (.5x) _ _ _ _ _ _ _ _ _ _ _ _ _ _ _ _ _
 72
    65
 73
     2
 40
4.7625
 49
3.175
 49
-1.5875
  0
ENDTAB
  0
TABLE
  2
LAYER
 70
     1
  0
LAYER
  2
0
 70
     0
 62
     7
  6
CONTINUOUS
  0
ENDTAB
  0
TABLE
  2
STYLE
 70
     1
  0
STYLE
  2
STANDARD
 70
     0
 40
0.0
 41
1.0
 50
0.0
 71
     0
 42
0.0
  3
txt
  4

  0
ENDTAB
  0
TABLE
  2
VIEW
 70
     0
  0
ENDTAB
  0
TABLE
  2
UCS
 70
     0
  0
ENDTAB
  0
TABLE
  2
APPID
 70
     1
  0
APPID
  2
ACAD
 70
     0
  0
ENDTAB
  0
TABLE
  2
DIMSTYLE
 70
     1
  0
DIMSTYLE
  2
STANDARD
 70
     0
  3

  4

  5

  6

  7

 40
1.0
 41
0.18
 42
0.0625
 43
0.38
 44
0.18
 45
0.0
 46
0.0
 47
0.0
 48
0.0
 71
     0
 72
     0
 73
     1
 74
     1
 75
     0
 76
     0
 77
     0
 78
     0
140
0.18
141
0.09
142
0.0
143
25.4
144
1.0
145
0.0
146
1.0
147
0.09
170
     0
171
     2
172
     0
173
     0
174
     0
175
     0
176
     0
177
     0
178
     0
  0
ENDTAB
  0
ENDSEC
  0
SECTION
  2
BLOCKS
  0
ENDSEC
  0
SECTION
  2
ENTITIES
  0
LINE
  8
0
  6
CONTINUOUS
 62
     7
  5
820
 10
7.102472
 20
5.704724
 30
0.0
 11
7.102472
 21
4.783465
 31
0.0
  0
ARC
  8
0
  6
CONTINUOUS
 62
     7
  5
821
 10
7.043307
 20
5.704724
 30
0.0
 40
0.059165
 50
0.0
 51
90.0
  0
LINE
  8
0
  6
CONTINUOUS
 62
     7
  5
822
 10
6.688976
 20
5.763889
 30
0.0
 11
7.043307
 21
5.763889
 31
0.0
  0
LINE
  8
0
  6
CONTINUOUS
 62
     7
  5
823
 10
7.043307
 20
-2.937118
 30
0.0
 11
6.688976
 21
-2.937118
 31
0.0
  0
ARC
  8
0
  6
CONTINUOUS
 62
     7
  5
824
 10
7.043307
 20
-2.877953
 30
0.0
 40
0.059165
 50
270.0
 51
360.0
  0
LINE
  8
0
  6
CONTINUOUS
 62
     7
  5
825
 10
7.102472
 20
-1.956693
 30
0.0
 11
7.102472
 21
-2.877953
 31
0.0
  0
LINE
  8
0
  6
CONTINUOUS
 62
     7
  5
826
 10
-6.688976
 20
-2.937118
 30
0.0
 11
-6.689976
 21
-2.937118
 31
0.0
  0
LINE
  8
0
  6
CONTINUOUS
 62
     7
  5
827
 10
-11.630031
 20
-2.877953
 30
0.0
 11
-11.630031
 21
-1.956693
 31
0.0
  0
ARC
  8
0
  6
CONTINUOUS
 62
     7
  5
828
 10
-11.570866
 20
-2.877953
 30
0.0
 40
0.059165
 50
180.0
 51
270.0
  0
LINE
  8
0
  6
CONTINUOUS
 62
     7
  5
829
 10
-11.216535
 20
-2.937118
 30
0.0
 11
-11.570866
 21
-2.937118
 31
0.0
  0
LINE
  8
0
  6
CONTINUOUS
 62
     7
  5
82A
 10
-11.570866
 20
5.763889
 30
0.0
 11
-11.216535
 21
5.763889
 31
0.0
  0
ARC
  8
0
  6
CONTINUOUS
 62
     7
  5
82B
 10
-11.570866
 20
5.704724
 30
0.0
 40
0.059165
 50
90.0
 51
180.0
  0
LINE
  8
0
  6
CONTINUOUS
 62
     7
  5
82C
 10
-11.630031
 20
4.783465
 30
0.0
 11
-11.630031
 21
5.704724
 31
0.0
  0
LINE
  8
0
  6
CONTINUOUS
 62
     7
  5
82D
 10
-12.204724
 20
-0.26378
 30
0.0
 11
-11.649606
 21
-0.26378
 31
0.0
  0
LINE
  8
0
  6
CONTINUOUS
 62
     7
  5
82E
 10
-12.795276
 20
-0.854331
 30
0.0
 11
-12.204724
 21
-0.26378
 31
0.0
  0
LINE
  8
0
  6
CONTINUOUS
 62
     7
  5
82F
 10
-12.795276
 20
-2.366142
 30
0.0
 11
-12.795276
 21
-0.854331
 31
0.0
  0
LINE
  8
0
  6
CONTINUOUS
 62
     7
  5
830
 10
-12.204724
 20
-2.956693
 30
0.0
 11
-12.795276
 21
-2.366142
 31
0.0
  0
LINE
  8
0
  6
CONTINUOUS
 62
     7
  5
831
 10
-11.216535
 20
-2.956693
 30
0.0
 11
-12.204724
 21
-2.956693
 31
0.0
  0
LINE
  8
0
  6
CONTINUOUS
 62
     7
  5
832
 10
7.677165
 20
-2.956693
 30
0.0
 11
6.688976
 21
-2.956693
 31
0.0
  0
LINE
  8
0
  6
CONTINUOUS
 62
     7
  5
833
 10
8.267717
 20
-2.366142
 30
0.0
 11
7.677165
 21
-2.956693
 31
0.0
  0
LINE
  8
0
  6
CONTINUOUS
 62
     7
  5
834
 10
8.267717
 20
-0.854331
 30
0.0
 11
8.267717
 21
-2.366142
 31
0.0
  0
LINE
  8
0
  6
CONTINUOUS
 62
     7
  5
835
 10
7.677165
 20
-0.26378
 30
0.0
 11
8.267717
 21
-0.854331
 31
0.0
  0
LINE
  8
0
  6
CONTINUOUS
 62
     7
  5
836
 10
7.122047
 20
-0.26378
 30
0.0
 11
7.677165
 21
-0.26378
 31
0.0
  0
CIRCLE
  8
0
  6
CONTINUOUS
 62
     7
  5
837
 10
-12.204724
 20
-1.53937
 30
0.0
 40
0.216535
  0
CIRCLE
  8
0
  6
CONTINUOUS
 62
     7
  5
838
 10
7.677165
 20
-1.53937
 30
0.0
 40
0.216535
  0
ARC
  8
0
  6
CONTINUOUS
 62
     7
  5
839
 10
7.043307
 20
-2.877953
 30
0.0
 40
0.07874
 50
270.0
 51
360.0
  0
LINE
  8
0
  6
CONTINUOUS
 62
     7
  5
83A
 10
7.122047
 20
4.783465
 30
0.0
 11
7.122047
 21
5.704724
 31
0.0
  0
LINE
  8
0
  6
CONTINUOUS
 62
     7
  5
83B
 10
7.122047
 20
-2.877953
 30
0.0
 11
7.122047
 21
-1.956693
 31
0.0
  0
LINE
  8
0
  6
CONTINUOUS
 62
     7
  5
83C
 10
-11.649606
 20
3.090551
 30
0.0
 11
-12.204724
 21
3.090551
 31
0.0
  0
LINE
  8
0
  6
CONTINUOUS
 62
     7
  5
83D
 10
7.677165
 20
3.090551
 30
0.0
 11
7.122047
 21
3.090551
 31
0.0
  0
CIRCLE
  8
0
  6
CONTINUOUS
 62
     7
  5
83E
 10
-12.204724
 20
4.366142
 30
0.0
 40
0.216535
  0
CIRCLE
  8
0
  6
CONTINUOUS
 62
     7
  5
83F
 10
7.677165
 20
4.366142
 30
0.0
 40
0.216535
  0
LINE
  8
0
  6
CONTINUOUS
 62
     7
  5
840
 10
-12.795276
 20
3.681102
 30
0.0
 11
-12.795276
 21
5.192913
 31
0.0
  0
LINE
  8
0
  6
CONTINUOUS
 62
     7
  5
841
 10
-12.795276
 20
5.192913
 30
0.0
 11
-12.204724
 21
5.783465
 31
0.0
  0
LINE
  8
0
  6
CONTINUOUS
 62
     7
  5
842
 10
6.688976
 20
5.783465
 30
0.0
 11
7.677165
 21
5.783465
 31
0.0
  0
LINE
  8
0
  6
CONTINUOUS
 62
     7
  5
843
 10
-12.204724
 20
5.783465
 30
0.0
 11
-11.216535
 21
5.783465
 31
0.0
  0
LINE
  8
0
  6
CONTINUOUS
 62
     7
  5
844
 10
7.677165
 20
5.783465
 30
0.0
 11
8.267717
 21
5.192913
 31
0.0
  0
LINE
  8
0
  6
CONTINUOUS
 62
     7
  5
845
 10
8.267717
 20
5.192913
 30
0.0
 11
8.267717
 21
3.681102
 31
0.0
  0
LINE
  8
0
  6
CONTINUOUS
 62
     7
  5
846
 10
8.267717
 20
3.681102
 30
0.0
 11
7.677165
 21
3.090551
 31
0.0
  0
LINE
  8
0
  6
CONTINUOUS
 62
     7
  5
847
 10
-12.204724
 20
3.090551
 30
0.0
 11
-12.795276
 21
3.681102
 31
0.0
  0
ARC
  8
0
  6
CONTINUOUS
 62
     7
  5
848
 10
7.043307
 20
5.704724
 30
0.0
 40
0.07874
 50
0.0
 51
90.0
  0
LINE
  8
0
  6
CONTINUOUS
 62
     7
  5
849
 10
-11.216535
 20
5.783465
 30
0.0
 11
-11.570866
 21
5.783465
 31
0.0
  0
LINE
  8
0
  6
CONTINUOUS
 62
     7
  5
84A
 10
7.043307
 20
5.783465
 30
0.0
 11
6.688976
 21
5.783465
 31
0.0
  0
ARC
  8
0
  6
CONTINUOUS
 62
     7
  5
84B
 10
-11.570866
 20
5.704724
 30
0.0
 40
0.07874
 50
90.0
 51
180.0
  0
LINE
  8
0
  6
CONTINUOUS
 62
     7
  5
84C
 10
-11.649606
 20
-1.956693
 30
0.0
 11
-11.649606
 21
-2.877953
 31
0.0
  0
LINE
  8
0
  6
CONTINUOUS
 62
     7
  5
84D
 10
-11.649606
 20
5.704724
 30
0.0
 11
-11.649606
 21
4.783465
 31
0.0
  0
ARC
  8
0
  6
CONTINUOUS
 62
     7
  5
84E
 10
-11.570866
 20
-2.877953
 30
0.0
 40
0.07874
 50
180.0
 51
270.0
  0
LINE
  8
0
  6
CONTINUOUS
 62
     7
  5
84F
 10
6.688976
 20
-2.956693
 30
0.0
 11
7.043307
 21
-2.956693
 31
0.0
  0
LINE
  8
0
  6
CONTINUOUS
 62
     7
  5
850
 10
-11.570866
 20
-2.956693
 30
0.0
 11
-11.216535
 21
-2.956693
 31
0.0
  0
LINE
  8
0
  6
CONTINUOUS
 62
     7
  5
851
 10
-1.988588
 20
0.374016
 30
0.0
 11
-2.066929
 21
0.374016
 31
0.0
  0
LINE
  8
0
  6
CONTINUOUS
 62
     7
  5
852
 10
-1.884238
 20
0.374016
 30
0.0
 11
-1.988588
 21
0.374016
 31
0.0
  0
LINE
  8
0
  6
CONTINUOUS
 62
     7
  5
853
 10
-0.48341
 20
0.374016
 30
0.0
 11
-1.884238
 21
0.374016
 31
0.0
  0
LINE
  8
0
  6
CONTINUOUS
 62
     7
  5
854
 10
-0.425847
 20
0.374016
 30
0.0
 11
-0.48341
 21
0.374016
 31
0.0
  0
LINE
  8
0
  6
CONTINUOUS
 62
     7
  5
855
 10
-0.360833
 20
0.374016
 30
0.0
 11
-0.425847
 21
0.374016
 31
0.0
  0
LINE
  8
0
  6
CONTINUOUS
 62
     7
  5
856
 10
-0.425847
 20
-0.374016
 30
0.0
 11
-0.360833
 21
-0.374016
 31
0.0
  0
LINE
  8
0
  6
CONTINUOUS
 62
     7
  5
857
 10
-0.48341
 20
-0.374016
 30
0.0
 11
-0.425847
 21
-0.374016
 31
0.0
  0
LINE
  8
0
  6
CONTINUOUS
 62
     7
  5
858
 10
-1.884238
 20
-0.374016
 30
0.0
 11
-0.48341
 21
-0.374016
 31
0.0
  0
LINE
  8
0
  6
CONTINUOUS
 62
     7
  5
859
 10
-1.988588
 20
-0.374016
 30
0.0
 11
-1.884238
 21
-0.374016
 31
0.0
  0
LINE
  8
0
  6
CONTINUOUS
 62
     7
  5
85A
 10
-2.066929
 20
-0.374016
 30
0.0
 11
-1.988588
 21
-0.374016
 31
0.0
  0
LINE
  8
0
  6
CONTINUOUS
 62
     7
  5
85B
 10
-0.360833
 20
-0.374016
 30
0.0
 11
0.295276
 21
-0.374016
 31
0.0
  0
LINE
  8
0
  6
CONTINUOUS
 62
     7
  5
85C
 10
0.295276
 20
-0.374016
 30
0.0
 11
2.696386
 21
-0.374016
 31
0.0
  0
LINE
  8
0
  6
CONTINUOUS
 62
     7
  5
85D
 10
0.295276
 20
0.374016
 30
0.0
 11
-0.360833
 21
0.374016
 31
0.0
  0
LINE
  8
0
  6
CONTINUOUS
 62
     7
  5
85E
 10
0.295276
 20
0.492126
 30
0.0
 11
0.295276
 21
0.374016
 31
0.0
  0
LINE
  8
0
  6
CONTINUOUS
 62
     7
  5
85F
 10
0.295276
 20
0.492126
 30
0.0
 11
-0.492126
 21
0.492126
 31
0.0
  0
LINE
  8
0
  6
CONTINUOUS
 62
     7
  5
860
 10
0.295276
 20
0.492126
 30
0.0
 11
2.696386
 21
0.492126
 31
0.0
  0
LINE
  8
0
  6
CONTINUOUS
 62
     7
  5
861
 10
0.295276
 20
-0.374016
 30
0.0
 11
0.295276
 21
-0.492126
 31
0.0
  0
LINE
  8
0
  6
CONTINUOUS
 62
     7
  5
862
 10
-0.492126
 20
-0.492126
 30
0.0
 11
0.295276
 21
-0.492126
 31
0.0
  0
LINE
  8
0
  6
CONTINUOUS
 62
     7
  5
863
 10
2.696386
 20
-0.492126
 30
0.0
 11
0.295276
 21
-0.492126
 31
0.0
  0
ARC
  8
0
  6
CONTINUOUS
 62
     7
  5
864
 10
2.696386
 20
-0.334646
 30
0.0
 40
0.15748
 50
270.0
 51
300.0
  0
LINE
  8
0
  6
CONTINUOUS
 62
     7
  5
865
 10
3.172688
 20
-0.241495
 30
0.0
 11
2.775126
 21
-0.471028
 31
0.0
  0
ARC
  8
0
  6
CONTINUOUS
 62
     7
  5
866
 10
3.192373
 20
-0.275591
 30
0.0
 40
0.03937
 50
90.0
 51
120.0
  0
LINE
  8
0
  6
CONTINUOUS
 62
     7
  5
867
 10
5.298738
 20
-0.23622
 30
0.0
 11
3.192373
 21
-0.23622
 31
0.0
  0
ARC
  8
0
  6
CONTINUOUS
 62
     7
  5
868
 10
5.826772
 20
0.0
 30
0.0
 40
0.578463
 50
191.781465
 51
204.101777
  0
LINE
  8
0
  6
CONTINUOUS
 62
     7
  5
869
 10
3.192373
 20
-0.11811
 30
0.0
 11
5.260495
 21
-0.11811
 31
0.0
  0
ARC
  8
0
  6
CONTINUOUS
 62
     7
  5
86A
 10
3.192373
 20
-0.275591
 30
0.0
 40
0.15748
 50
90.0
 51
120.0
  0
LINE
  8
0
  6
CONTINUOUS
 62
     7
  5
86B
 10
2.716071
 20
-0.368741
 30
0.0
 11
3.113633
 21
-0.139209
 31
0.0
  0
ARC
  8
0
  6
CONTINUOUS
 62
     7
  5
86C
 10
2.696386
 20
-0.334646
 30
0.0
 40
0.03937
 50
270.0
 51
300.0
  0
LINE
  8
0
  6
CONTINUOUS
 62
     7
  5
86D
 10
2.696386
 20
0.374016
 30
0.0
 11
0.295276
 21
0.374016
 31
0.0
  0
ARC
  8
0
  6
CONTINUOUS
 62
     7
  5
86E
 10
2.696386
 20
0.334646
 30
0.0
 40
0.03937
 50
60.0
 51
90.0
  0
LINE
  8
0
  6
CONTINUOUS
 62
     7
  5
86F
 10
3.113633
 20
0.139209
 30
0.0
 11
2.716071
 21
0.368741
 31
0.0
  0
ARC
  8
0
  6
CONTINUOUS
 62
     7
  5
870
 10
3.192373
 20
0.275591
 30
0.0
 40
0.15748
 50
240.0
 51
270.0
  0
LINE
  8
0
  6
CONTINUOUS
 62
     7
  5
871
 10
5.260495
 20
0.11811
 30
0.0
 11
3.192373
 21
0.11811
 31
0.0
  0
ARC
  8
0
  6
CONTINUOUS
 62
     7
  5
872
 10
5.826772
 20
0.0
 30
0.0
 40
0.578463
 50
155.898223
 51
168.218535
  0
LINE
  8
0
  6
CONTINUOUS
 62
     7
  5
873
 10
3.192373
 20
0.23622
 30
0.0
 11
5.298738
 21
0.23622
 31
0.0
  0
ARC
  8
0
  6
CONTINUOUS
 62
     7
  5
874
 10
3.192373
 20
0.275591
 30
0.0
 40
0.03937
 50
240.0
 51
270.0
  0
LINE
  8
0
  6
CONTINUOUS
 62
     7
  5
875
 10
2.775126
 20
0.471028
 30
0.0
 11
3.172688
 21
0.241495
 31
0.0
  0
ARC
  8
0
  6
CONTINUOUS
 62
     7
  5
876
 10
2.696386
 20
0.334646
 30
0.0
 40
0.15748
 50
60.0
 51
90.0
  0
LINE
  8
0
  6
CONTINUOUS
 62
     7
  5
877
 10
-2.066929
 20
-1.476378
 30
0.0
 11
2.066929
 21
-1.476378
 31
0.0
  0
LINE
  8
0
  6
CONTINUOUS
 62
     7
  5
878
 10
2.066929
 20
1.476378
 30
0.0
 11
-2.066929
 21
1.476378
 31
0.0
  0
LINE
  8
0
  6
CONTINUOUS
 62
     7
  5
879
 10
-6.688976
 20
5.333465
 30
0.0
 11
-7.074091
 21
4.783465
 31
0.0
  0
LINE
  8
0
  6
CONTINUOUS
 62
     7
  5
87A
 10
-7.074091
 20
4.783465
 30
0.0
 11
-7.122047
 21
4.783465
 31
0.0
  0
LINE
  8
0
  6
CONTINUOUS
 62
     7
  5
87B
 10
-7.122047
 20
4.783465
 30
0.0
 11
-7.122047
 21
-1.956693
 31
0.0
  0
LINE
  8
0
  6
CONTINUOUS
 62
     7
  5
87C
 10
6.688976
 20
5.783465
 30
0.0
 11
-6.688976
 21
5.783465
 31
0.0
  0
LINE
  8
0
  6
CONTINUOUS
 62
     7
  5
87D
 10
6.688976
 20
-2.506693
 30
0.0
 11
7.074091
 21
-1.956693
 31
0.0
  0
LINE
  8
0
  6
CONTINUOUS
 62
     7
  5
87E
 10
7.074091
 20
-1.956693
 30
0.0
 11
7.122047
 21
-1.956693
 31
0.0
  0
LINE
  8
0
  6
CONTINUOUS
 62
     7
  5
87F
 10
7.122047
 20
-1.956693
 30
0.0
 11
7.122047
 21
4.783465
 31
0.0
  0
LINE
  8
0
  6
CONTINUOUS
 62
     7
  5
880
 10
-6.688976
 20
-2.956693
 30
0.0
 11
6.688976
 21
-2.956693
 31
0.0
  0
LINE
  8
0
  6
CONTINUOUS
 62
     7
  5
881
 10
7.122047
 20
4.783465
 30
0.0
 11
7.074091
 21
4.783465
 31
0.0
  0
LINE
  8
0
  6
CONTINUOUS
 62
     7
  5
882
 10
7.074091
 20
4.783465
 30
0.0
 11
6.688976
 21
5.333465
 31
0.0
  0
LINE
  8
0
  6
CONTINUOUS
 62
     7
  5
883
 10
-7.122047
 20
-1.956693
 30
0.0
 11
-7.074091
 21
-1.956693
 31
0.0
  0
LINE
  8
0
  6
CONTINUOUS
 62
     7
  5
884
 10
-7.074091
 20
-1.956693
 30
0.0
 11
-6.688976
 21
-2.506693
 31
0.0
  0
LINE
  8
0
  6
CONTINUOUS
 62
     7
  5
885
 10
6.688976
 20
5.547244
 30
0.0
 11
6.688976
 21
5.783465
 31
0.0
  0
LINE
  8
0
  6
CONTINUOUS
 62
     7
  5
886
 10
6.688976
 20
-2.720472
 30
0.0
 11
6.688976
 21
5.547244
 31
0.0
  0
LINE
  8
0
  6
CONTINUOUS
 62
     7
  5
887
 10
6.688976
 20
-2.956693
 30
0.0
 11
6.688976
 21
-2.720472
 31
0.0
  0
LINE
  8
0
  6
CONTINUOUS
 62
     7
  5
888
 10
-6.688976
 20
-2.720472
 30
0.0
 11
-6.688976
 21
-2.956693
 31
0.0
  0
LINE
  8
0
  6
CONTINUOUS
 62
     7
  5
889
 10
-6.688976
 20
5.783465
 30
0.0
 11
-6.688976
 21
5.547244
 31
0.0
  0
LINE
  8
0
  6
CONTINUOUS
 62
     7
  5
88A
 10
6.688976
 20
5.547244
 30
0.0
 11
-6.688976
 21
5.547244
 31
0.0
  0
LINE
  8
0
  6
CONTINUOUS
 62
     7
  5
88B
 10
-6.688976
 20
5.547244
 30
0.0
 11
-6.688976
 21
-2.720472
 31
0.0
  0
LINE
  8
0
  6
CONTINUOUS
 62
     7
  5
88C
 10
-6.688976
 20
-2.720472
 30
0.0
 11
6.688976
 21
-2.720472
 31
0.0
  0
LINE
  8
0
  6
CONTINUOUS
 62
     7
  5
88D
 10
6.417323
 20
-2.425197
 30
0.0
 11
6.417323
 21
5.251969
 31
0.0
  0
LINE
  8
0
  6
CONTINUOUS
 62
     7
  5
88E
 10
6.417323
 20
5.251969
 30
0.0
 11
-6.417323
 21
5.251969
 31
0.0
  0
LINE
  8
0
  6
CONTINUOUS
 62
     7
  5
88F
 10
-6.417323
 20
5.251969
 30
0.0
 11
-6.417323
 21
-2.425197
 31
0.0
  0
LINE
  8
0
  6
CONTINUOUS
 62
     7
  5
890
 10
-6.417323
 20
-2.425197
 30
0.0
 11
6.417323
 21
-2.425197
 31
0.0
  0
LINE
  8
0
  6
CONTINUOUS
 62
     7
  5
891
 10
-2.066929
 20
1.581045
 30
0.0
 11
2.066929
 21
1.581045
 31
0.0
  0
LINE
  8
0
  6
CONTINUOUS
 62
     7
  5
892
 10
2.748031
 20
0.483417
 30
0.0
 11
2.748031
 21
2.224409
 31
0.0
  0
LINE
  8
0
  6
CONTINUOUS
 62
     7
  5
893
 10
2.748031
 20
-0.350289
 30
0.0
 11
2.748031
 21
0.350289
 31
0.0
  0
LINE
  8
0
  6
CONTINUOUS
 62
     7
  5
894
 10
2.748031
 20
-2.224409
 30
0.0
 11
2.748031
 21
-0.483417
 31
0.0
  0
LINE
  8
0
  6
CONTINUOUS
 62
     7
  5
895
 10
2.748031
 20
2.224409
 30
0.0
 11
-2.748031
 21
2.224409
 31
0.0
  0
LINE
  8
0
  6
CONTINUOUS
 62
     7
  5
896
 10
-2.748031
 20
2.224409
 30
0.0
 11
-2.748031
 21
-2.224409
 31
0.0
  0
LINE
  8
0
  6
CONTINUOUS
 62
     7
  5
897
 10
-2.748031
 20
-2.224409
 30
0.0
 11
2.748031
 21
-2.224409
 31
0.0
  0
LINE
  8
0
  6
CONTINUOUS
 62
     7
  5
898
 10
-2.066929
 20
-1.581045
 30
0.0
 11
-2.066929
 21
1.581045
 31
0.0
  0
LINE
  8
0
  6
CONTINUOUS
 62
     7
  5
899
 10
2.066929
 20
-0.492126
 30
0.0
 11
2.066929
 21
-1.581045
 31
0.0
  0
LINE
  8
0
  6
CONTINUOUS
 62
     7
  5
89A
 10
2.066929
 20
0.374016
 30
0.0
 11
2.066929
 21
-0.374016
 31
0.0
  0
LINE
  8
0
  6
CONTINUOUS
 62
     7
  5
89B
 10
2.066929
 20
1.581045
 30
0.0
 11
2.066929
 21
0.492126
 31
0.0
  0
LINE
  8
0
  6
CONTINUOUS
 62
     7
  5
89C
 10
2.066929
 20
-1.581045
 30
0.0
 11
-2.066929
 21
-1.581045
 31
0.0
  0
LINE
  8
0
  6
CONTINUOUS
 62
     7
  5
89D
 10
-6.689976
 20
5.783465
 30
0.0
 11
-6.689976
 21
5.334465
 31
0.0
  0
LINE
  8
0
  6
CONTINUOUS
 62
     7
  5
89E
 10
-6.689976
 20
5.334465
 30
0.0
 11
-7.075091
 21
4.784465
 31
0.0
  0
LINE
  8
0
  6
CONTINUOUS
 62
     7
  5
89F
 10
-7.075091
 20
4.784465
 30
0.0
 11
-7.123047
 21
4.784465
 31
0.0
  0
LINE
  8
0
  6
CONTINUOUS
 62
     7
  5
8A0
 10
-7.123047
 20
-1.957693
 30
0.0
 11
-7.075091
 21
-1.957693
 31
0.0
  0
LINE
  8
0
  6
CONTINUOUS
 62
     7
  5
8A1
 10
-7.075091
 20
-1.957693
 30
0.0
 11
-6.689976
 21
-2.507693
 31
0.0
  0
LINE
  8
0
  6
CONTINUOUS
 62
     7
  5
8A2
 10
-6.689976
 20
-2.507693
 30
0.0
 11
-6.689976
 21
-2.956693
 31
0.0
  0
LINE
  8
0
  6
CONTINUOUS
 62
     7
  5
8A3
 10
-7.123047
 20
-1.957693
 30
0.0
 11
-7.123047
 21
4.784465
 31
0.0
  0
LINE
  8
0
  6
CONTINUOUS
 62
     7
  5
8A4
 10
-11.216535
 20
5.783465
 30
0.0
 11
-11.216535
 21
5.333465
 31
0.0
  0
LINE
  8
0
  6
CONTINUOUS
 62
     7
  5
8A5
 10
-11.216535
 20
5.333465
 30
0.0
 11
-11.60165
 21
4.783465
 31
0.0
  0
LINE
  8
0
  6
CONTINUOUS
 62
     7
  5
8A6
 10
-11.60165
 20
4.783465
 30
0.0
 11
-11.649606
 21
4.783465
 31
0.0
  0
LINE
  8
0
  6
CONTINUOUS
 62
     7
  5
8A7
 10
-6.689976
 20
5.783465
 30
0.0
 11
-11.216535
 21
5.783465
 31
0.0
  0
LINE
  8
0
  6
CONTINUOUS
 62
     7
  5
8A8
 10
-11.649606
 20
-1.956693
 30
0.0
 11
-11.60165
 21
-1.956693
 31
0.0
  0
LINE
  8
0
  6
CONTINUOUS
 62
     7
  5
8A9
 10
-11.60165
 20
-1.956693
 30
0.0
 11
-11.216535
 21
-2.506693
 31
0.0
  0
LINE
  8
0
  6
CONTINUOUS
 62
     7
  5
8AA
 10
-11.216535
 20
-2.506693
 30
0.0
 11
-11.216535
 21
-2.956693
 31
0.0
  0
LINE
  8
0
  6
CONTINUOUS
 62
     7
  5
8AB
 10
-6.689976
 20
-2.956693
 30
0.0
 11
-11.216535
 21
-2.956693
 31
0.0
  0
LINE
  8
0
  6
CONTINUOUS
 62
     7
  5
8AC
 10
-11.649606
 20
4.783465
 30
0.0
 11
-11.649606
 21
-1.956693
 31
0.0
  0
LINE
  8
0
  6
CONTINUOUS
 62
     7
  5
8AD
 10
5.816793
 20
6.094333
 30
0.0
 11
5.993701
 21
6.177165
 31
0.0
  0
LINE
  8
0
  6
CONTINUOUS
 62
     7
  5
8AE
 10
5.766398
 20
5.980315
 30
0.0
 11
5.766445
 21
5.984724
 31
0.0
  0
LINE
  8
0
  6
CONTINUOUS
 62
     7
  5
8AF
 10
5.766445
 20
5.984724
 30
0.0
 11
5.766588
 21
5.989126
 31
0.0
  0
LINE
  8
0
  6
CONTINUOUS
 62
     7
  5
8B0
 10
5.766588
 20
5.989126
 30
0.0
 11
5.766825
 21
5.993517
 31
0.0
  0
LINE
  8
0
  6
CONTINUOUS
 62
     7
  5
8B1
 10
5.766825
 20
5.993517
 30
0.0
 11
5.767157
 21
5.997889
 31
0.0
  0
LINE
  8
0
  6
CONTINUOUS
 62
     7
  5
8B2
 10
5.767157
 20
5.997889
 30
0.0
 11
5.767582
 21
6.002236
 31
0.0
  0
LINE
  8
0
  6
CONTINUOUS
 62
     7
  5
8B3
 10
5.767582
 20
6.002236
 30
0.0
 11
5.768101
 21
6.006553
 31
0.0
  0
LINE
  8
0
  6
CONTINUOUS
 62
     7
  5
8B4
 10
5.768101
 20
6.006553
 30
0.0
 11
5.768713
 21
6.010833
 31
0.0
  0
LINE
  8
0
  6
CONTINUOUS
 62
     7
  5
8B5
 10
5.768713
 20
6.010833
 30
0.0
 11
5.769417
 21
6.015071
 31
0.0
  0
LINE
  8
0
  6
CONTINUOUS
 62
     7
  5
8B6
 10
5.769417
 20
6.015071
 30
0.0
 11
5.770211
 21
6.019261
 31
0.0
  0
LINE
  8
0
  6
CONTINUOUS
 62
     7
  5
8B7
 10
5.770211
 20
6.019261
 30
0.0
 11
5.771096
 21
6.023396
 31
0.0
  0
LINE
  8
0
  6
CONTINUOUS
 62
     7
  5
8B8
 10
5.771096
 20
6.023396
 30
0.0
 11
5.772068
 21
6.027471
 31
0.0
  0
LINE
  8
0
  6
CONTINUOUS
 62
     7
  5
8B9
 10
5.772068
 20
6.027471
 30
0.0
 11
5.773128
 21
6.03148
 31
0.0
  0
LINE
  8
0
  6
CONTINUOUS
 62
     7
  5
8BA
 10
5.773128
 20
6.03148
 30
0.0
 11
5.774274
 21
6.035418
 31
0.0
  0
LINE
  8
0
  6
CONTINUOUS
 62
     7
  5
8BB
 10
5.774274
 20
6.035418
 30
0.0
 11
5.775503
 21
6.039279
 31
0.0
  0
LINE
  8
0
  6
CONTINUOUS
 62
     7
  5
8BC
 10
5.775503
 20
6.039279
 30
0.0
 11
5.776815
 21
6.043058
 31
0.0
  0
LINE
  8
0
  6
CONTINUOUS
 62
     7
  5
8BD
 10
5.776815
 20
6.043058
 30
0.0
 11
5.778208
 21
6.04675
 31
0.0
  0
LINE
  8
0
  6
CONTINUOUS
 62
     7
  5
8BE
 10
5.778208
 20
6.04675
 30
0.0
 11
5.779679
 21
6.050349
 31
0.0
  0
LINE
  8
0
  6
CONTINUOUS
 62
     7
  5
8BF
 10
5.779679
 20
6.050349
 30
0.0
 11
5.781226
 21
6.05385
 31
0.0
  0
LINE
  8
0
  6
CONTINUOUS
 62
     7
  5
8C0
 10
5.781226
 20
6.05385
 30
0.0
 11
5.782848
 21
6.057249
 31
0.0
  0
LINE
  8
0
  6
CONTINUOUS
 62
     7
  5
8C1
 10
5.782848
 20
6.057249
 30
0.0
 11
5.784542
 21
6.06054
 31
0.0
  0
LINE
  8
0
  6
CONTINUOUS
 62
     7
  5
8C2
 10
5.784542
 20
6.06054
 30
0.0
 11
5.786306
 21
6.06372
 31
0.0
  0
LINE
  8
0
  6
CONTINUOUS
 62
     7
  5
8C3
 10
5.786306
 20
6.06372
 30
0.0
 11
5.788137
 21
6.066784
 31
0.0
  0
LINE
  8
0
  6
CONTINUOUS
 62
     7
  5
8C4
 10
5.788137
 20
6.066784
 30
0.0
 11
5.790033
 21
6.069727
 31
0.0
  0
LINE
  8
0
  6
CONTINUOUS
 62
     7
  5
8C5
 10
5.790033
 20
6.069727
 30
0.0
 11
5.791991
 21
6.072545
 31
0.0
  0
LINE
  8
0
  6
CONTINUOUS
 62
     7
  5
8C6
 10
5.791991
 20
6.072545
 30
0.0
 11
5.794008
 21
6.075235
 31
0.0
  0
LINE
  8
0
  6
CONTINUOUS
 62
     7
  5
8C7
 10
5.794008
 20
6.075235
 30
0.0
 11
5.796082
 21
6.077792
 31
0.0
  0
LINE
  8
0
  6
CONTINUOUS
 62
     7
  5
8C8
 10
5.796082
 20
6.077792
 30
0.0
 11
5.79821
 21
6.080214
 31
0.0
  0
LINE
  8
0
  6
CONTINUOUS
 62
     7
  5
8C9
 10
5.79821
 20
6.080214
 30
0.0
 11
5.800388
 21
6.082496
 31
0.0
  0
LINE
  8
0
  6
CONTINUOUS
 62
     7
  5
8CA
 10
5.800388
 20
6.082496
 30
0.0
 11
5.802614
 21
6.084636
 31
0.0
  0
LINE
  8
0
  6
CONTINUOUS
 62
     7
  5
8CB
 10
5.802614
 20
6.084636
 30
0.0
 11
5.804885
 21
6.086631
 31
0.0
  0
LINE
  8
0
  6
CONTINUOUS
 62
     7
  5
8CC
 10
5.804885
 20
6.086631
 30
0.0
 11
5.807197
 21
6.088477
 31
0.0
  0
LINE
  8
0
  6
CONTINUOUS
 62
     7
  5
8CD
 10
5.807197
 20
6.088477
 30
0.0
 11
5.809547
 21
6.090173
 31
0.0
  0
LINE
  8
0
  6
CONTINUOUS
 62
     7
  5
8CE
 10
5.809547
 20
6.090173
 30
0.0
 11
5.811932
 21
6.091715
 31
0.0
  0
LINE
  8
0
  6
CONTINUOUS
 62
     7
  5
8CF
 10
5.811932
 20
6.091715
 30
0.0
 11
5.814348
 21
6.093103
 31
0.0
  0
LINE
  8
0
  6
CONTINUOUS
 62
     7
  5
8D0
 10
5.814348
 20
6.093103
 30
0.0
 11
5.816793
 21
6.094333
 31
0.0
  0
LINE
  8
0
  6
CONTINUOUS
 62
     7
  5
8D1
 10
5.816793
 20
5.866297
 30
0.0
 11
5.814348
 21
5.867527
 31
0.0
  0
LINE
  8
0
  6
CONTINUOUS
 62
     7
  5
8D2
 10
5.814348
 20
5.867527
 30
0.0
 11
5.811932
 21
5.868915
 31
0.0
  0
LINE
  8
0
  6
CONTINUOUS
 62
     7
  5
8D3
 10
5.811932
 20
5.868915
 30
0.0
 11
5.809547
 21
5.870457
 31
0.0
  0
LINE
  8
0
  6
CONTINUOUS
 62
     7
  5
8D4
 10
5.809547
 20
5.870457
 30
0.0
 11
5.807197
 21
5.872153
 31
0.0
  0
LINE
  8
0
  6
CONTINUOUS
 62
     7
  5
8D5
 10
5.807197
 20
5.872153
 30
0.0
 11
5.804885
 21
5.873999
 31
0.0
  0
LINE
  8
0
  6
CONTINUOUS
 62
     7
  5
8D6
 10
5.804885
 20
5.873999
 30
0.0
 11
5.802614
 21
5.875994
 31
0.0
  0
LINE
  8
0
  6
CONTINUOUS
 62
     7
  5
8D7
 10
5.802614
 20
5.875994
 30
0.0
 11
5.800388
 21
5.878134
 31
0.0
  0
LINE
  8
0
  6
CONTINUOUS
 62
     7
  5
8D8
 10
5.800388
 20
5.878134
 30
0.0
 11
5.79821
 21
5.880416
 31
0.0
  0
LINE
  8
0
  6
CONTINUOUS
 62
     7
  5
8D9
 10
5.79821
 20
5.880416
 30
0.0
 11
5.796082
 21
5.882838
 31
0.0
  0
LINE
  8
0
  6
CONTINUOUS
 62
     7
  5
8DA
 10
5.796082
 20
5.882838
 30
0.0
 11
5.794008
 21
5.885395
 31
0.0
  0
LINE
  8
0
  6
CONTINUOUS
 62
     7
  5
8DB
 10
5.794008
 20
5.885395
 30
0.0
 11
5.791991
 21
5.888085
 31
0.0
  0
LINE
  8
0
  6
CONTINUOUS
 62
     7
  5
8DC
 10
5.791991
 20
5.888085
 30
0.0
 11
5.790033
 21
5.890903
 31
0.0
  0
LINE
  8
0
  6
CONTINUOUS
 62
     7
  5
8DD
 10
5.790033
 20
5.890903
 30
0.0
 11
5.788137
 21
5.893846
 31
0.0
  0
LINE
  8
0
  6
CONTINUOUS
 62
     7
  5
8DE
 10
5.788137
 20
5.893846
 30
0.0
 11
5.786306
 21
5.89691
 31
0.0
  0
LINE
  8
0
  6
CONTINUOUS
 62
     7
  5
8DF
 10
5.786306
 20
5.89691
 30
0.0
 11
5.784542
 21
5.90009
 31
0.0
  0
LINE
  8
0
  6
CONTINUOUS
 62
     7
  5
8E0
 10
5.784542
 20
5.90009
 30
0.0
 11
5.782848
 21
5.903381
 31
0.0
  0
LINE
  8
0
  6
CONTINUOUS
 62
     7
  5
8E1
 10
5.782848
 20
5.903381
 30
0.0
 11
5.781226
 21
5.90678
 31
0.0
  0
LINE
  8
0
  6
CONTINUOUS
 62
     7
  5
8E2
 10
5.781226
 20
5.90678
 30
0.0
 11
5.779679
 21
5.910281
 31
0.0
  0
LINE
  8
0
  6
CONTINUOUS
 62
     7
  5
8E3
 10
5.779679
 20
5.910281
 30
0.0
 11
5.778208
 21
5.91388
 31
0.0
  0
LINE
  8
0
  6
CONTINUOUS
 62
     7
  5
8E4
 10
5.778208
 20
5.91388
 30
0.0
 11
5.776815
 21
5.917572
 31
0.0
  0
LINE
  8
0
  6
CONTINUOUS
 62
     7
  5
8E5
 10
5.776815
 20
5.917572
 30
0.0
 11
5.775503
 21
5.921351
 31
0.0
  0
LINE
  8
0
  6
CONTINUOUS
 62
     7
  5
8E6
 10
5.775503
 20
5.921351
 30
0.0
 11
5.774274
 21
5.925212
 31
0.0
  0
LINE
  8
0
  6
CONTINUOUS
 62
     7
  5
8E7
 10
5.774274
 20
5.925212
 30
0.0
 11
5.773128
 21
5.92915
 31
0.0
  0
LINE
  8
0
  6
CONTINUOUS
 62
     7
  5
8E8
 10
5.773128
 20
5.92915
 30
0.0
 11
5.772068
 21
5.933159
 31
0.0
  0
LINE
  8
0
  6
CONTINUOUS
 62
     7
  5
8E9
 10
5.772068
 20
5.933159
 30
0.0
 11
5.771096
 21
5.937234
 31
0.0
  0
LINE
  8
0
  6
CONTINUOUS
 62
     7
  5
8EA
 10
5.771096
 20
5.937234
 30
0.0
 11
5.770211
 21
5.941369
 31
0.0
  0
LINE
  8
0
  6
CONTINUOUS
 62
     7
  5
8EB
 10
5.770211
 20
5.941369
 30
0.0
 11
5.769417
 21
5.945559
 31
0.0
  0
LINE
  8
0
  6
CONTINUOUS
 62
     7
  5
8EC
 10
5.769417
 20
5.945559
 30
0.0
 11
5.768713
 21
5.949796
 31
0.0
  0
LINE
  8
0
  6
CONTINUOUS
 62
     7
  5
8ED
 10
5.768713
 20
5.949796
 30
0.0
 11
5.768101
 21
5.954077
 31
0.0
  0
LINE
  8
0
  6
CONTINUOUS
 62
     7
  5
8EE
 10
5.768101
 20
5.954077
 30
0.0
 11
5.767582
 21
5.958394
 31
0.0
  0
LINE
  8
0
  6
CONTINUOUS
 62
     7
  5
8EF
 10
5.767582
 20
5.958394
 30
0.0
 11
5.767157
 21
5.962741
 31
0.0
  0
LINE
  8
0
  6
CONTINUOUS
 62
     7
  5
8F0
 10
5.767157
 20
5.962741
 30
0.0
 11
5.766825
 21
5.967113
 31
0.0
  0
LINE
  8
0
  6
CONTINUOUS
 62
     7
  5
8F1
 10
5.766825
 20
5.967113
 30
0.0
 11
5.766588
 21
5.971504
 31
0.0
  0
LINE
  8
0
  6
CONTINUOUS
 62
     7
  5
8F2
 10
5.766588
 20
5.971504
 30
0.0
 11
5.766445
 21
5.975906
 31
0.0
  0
LINE
  8
0
  6
CONTINUOUS
 62
     7
  5
8F3
 10
5.766445
 20
5.975906
 30
0.0
 11
5.766398
 21
5.980315
 31
0.0
  0
LINE
  8
0
  6
CONTINUOUS
 62
     7
  5
8F4
 10
5.993701
 20
5.783465
 30
0.0
 11
5.816793
 21
5.866297
 31
0.0
  0
LINE
  8
0
  6
CONTINUOUS
 62
     7
  5
8F5
 10
5.993701
 20
6.177165
 30
0.0
 11
5.993701
 21
5.783465
 31
0.0
  0
LINE
  8
0
  6
CONTINUOUS
 62
     7
  5
8F6
 10
3.238325
 20
5.866297
 30
0.0
 11
3.061417
 21
5.783465
 31
0.0
  0
LINE
  8
0
  6
CONTINUOUS
 62
     7
  5
8F7
 10
3.061417
 20
6.177165
 30
0.0
 11
3.238325
 21
6.094333
 31
0.0
  0
LINE
  8
0
  6
CONTINUOUS
 62
     7
  5
8F8
 10
3.061417
 20
5.783465
 30
0.0
 11
3.061417
 21
6.177165
 31
0.0
  0
LINE
  8
0
  6
CONTINUOUS
 62
     7
  5
8F9
 10
3.288721
 20
5.980315
 30
0.0
 11
3.288673
 21
5.975906
 31
0.0
  0
LINE
  8
0
  6
CONTINUOUS
 62
     7
  5
8FA
 10
3.288673
 20
5.975906
 30
0.0
 11
3.288531
 21
5.971504
 31
0.0
  0
LINE
  8
0
  6
CONTINUOUS
 62
     7
  5
8FB
 10
3.288531
 20
5.971504
 30
0.0
 11
3.288293
 21
5.967113
 31
0.0
  0
LINE
  8
0
  6
CONTINUOUS
 62
     7
  5
8FC
 10
3.288293
 20
5.967113
 30
0.0
 11
3.287962
 21
5.962741
 31
0.0
  0
LINE
  8
0
  6
CONTINUOUS
 62
     7
  5
8FD
 10
3.287962
 20
5.962741
 30
0.0
 11
3.287536
 21
5.958394
 31
0.0
  0
LINE
  8
0
  6
CONTINUOUS
 62
     7
  5
8FE
 10
3.287536
 20
5.958394
 30
0.0
 11
3.287017
 21
5.954077
 31
0.0
  0
LINE
  8
0
  6
CONTINUOUS
 62
     7
  5
8FF
 10
3.287017
 20
5.954077
 30
0.0
 11
3.286405
 21
5.949796
 31
0.0
  0
LINE
  8
0
  6
CONTINUOUS
 62
     7
  5
900
 10
3.286405
 20
5.949796
 30
0.0
 11
3.285701
 21
5.945559
 31
0.0
  0
LINE
  8
0
  6
CONTINUOUS
 62
     7
  5
901
 10
3.285701
 20
5.945559
 30
0.0
 11
3.284907
 21
5.941369
 31
0.0
  0
LINE
  8
0
  6
CONTINUOUS
 62
     7
  5
902
 10
3.284907
 20
5.941369
 30
0.0
 11
3.284023
 21
5.937234
 31
0.0
  0
LINE
  8
0
  6
CONTINUOUS
 62
     7
  5
903
 10
3.284023
 20
5.937234
 30
0.0
 11
3.28305
 21
5.933159
 31
0.0
  0
LINE
  8
0
  6
CONTINUOUS
 62
     7
  5
904
 10
3.28305
 20
5.933159
 30
0.0
 11
3.28199
 21
5.92915
 31
0.0
  0
LINE
  8
0
  6
CONTINUOUS
 62
     7
  5
905
 10
3.28199
 20
5.92915
 30
0.0
 11
3.280845
 21
5.925212
 31
0.0
  0
LINE
  8
0
  6
CONTINUOUS
 62
     7
  5
906
 10
3.280845
 20
5.925212
 30
0.0
 11
3.279615
 21
5.921351
 31
0.0
  0
LINE
  8
0
  6
CONTINUOUS
 62
     7
  5
907
 10
3.279615
 20
5.921351
 30
0.0
 11
3.278303
 21
5.917572
 31
0.0
  0
LINE
  8
0
  6
CONTINUOUS
 62
     7
  5
908
 10
3.278303
 20
5.917572
 30
0.0
 11
3.276911
 21
5.91388
 31
0.0
  0
LINE
  8
0
  6
CONTINUOUS
 62
     7
  5
909
 10
3.276911
 20
5.91388
 30
0.0
 11
3.27544
 21
5.910281
 31
0.0
  0
LINE
  8
0
  6
CONTINUOUS
 62
     7
  5
90A
 10
3.27544
 20
5.910281
 30
0.0
 11
3.273892
 21
5.90678
 31
0.0
  0
LINE
  8
0
  6
CONTINUOUS
 62
     7
  5
90B
 10
3.273892
 20
5.90678
 30
0.0
 11
3.27227
 21
5.903381
 31
0.0
  0
LINE
  8
0
  6
CONTINUOUS
 62
     7
  5
90C
 10
3.27227
 20
5.903381
 30
0.0
 11
3.270576
 21
5.90009
 31
0.0
  0
LINE
  8
0
  6
CONTINUOUS
 62
     7
  5
90D
 10
3.270576
 20
5.90009
 30
0.0
 11
3.268812
 21
5.89691
 31
0.0
  0
LINE
  8
0
  6
CONTINUOUS
 62
     7
  5
90E
 10
3.268812
 20
5.89691
 30
0.0
 11
3.266981
 21
5.893846
 31
0.0
  0
LINE
  8
0
  6
CONTINUOUS
 62
     7
  5
90F
 10
3.266981
 20
5.893846
 30
0.0
 11
3.265085
 21
5.890903
 31
0.0
  0
LINE
  8
0
  6
CONTINUOUS
 62
     7
  5
910
 10
3.265085
 20
5.890903
 30
0.0
 11
3.263127
 21
5.888085
 31
0.0
  0
LINE
  8
0
  6
CONTINUOUS
 62
     7
  5
911
 10
3.263127
 20
5.888085
 30
0.0
 11
3.26111
 21
5.885395
 31
0.0
  0
LINE
  8
0
  6
CONTINUOUS
 62
     7
  5
912
 10
3.26111
 20
5.885395
 30
0.0
 11
3.259036
 21
5.882838
 31
0.0
  0
LINE
  8
0
  6
CONTINUOUS
 62
     7
  5
913
 10
3.259036
 20
5.882838
 30
0.0
 11
3.256908
 21
5.880416
 31
0.0
  0
LINE
  8
0
  6
CONTINUOUS
 62
     7
  5
914
 10
3.256908
 20
5.880416
 30
0.0
 11
3.25473
 21
5.878134
 31
0.0
  0
LINE
  8
0
  6
CONTINUOUS
 62
     7
  5
915
 10
3.25473
 20
5.878134
 30
0.0
 11
3.252504
 21
5.875994
 31
0.0
  0
LINE
  8
0
  6
CONTINUOUS
 62
     7
  5
916
 10
3.252504
 20
5.875994
 30
0.0
 11
3.250233
 21
5.873999
 31
0.0
  0
LINE
  8
0
  6
CONTINUOUS
 62
     7
  5
917
 10
3.250233
 20
5.873999
 30
0.0
 11
3.247922
 21
5.872153
 31
0.0
  0
LINE
  8
0
  6
CONTINUOUS
 62
     7
  5
918
 10
3.247922
 20
5.872153
 30
0.0
 11
3.245571
 21
5.870457
 31
0.0
  0
LINE
  8
0
  6
CONTINUOUS
 62
     7
  5
919
 10
3.245571
 20
5.870457
 30
0.0
 11
3.243186
 21
5.868915
 31
0.0
  0
LINE
  8
0
  6
CONTINUOUS
 62
     7
  5
91A
 10
3.243186
 20
5.868915
 30
0.0
 11
3.24077
 21
5.867527
 31
0.0
  0
LINE
  8
0
  6
CONTINUOUS
 62
     7
  5
91B
 10
3.24077
 20
5.867527
 30
0.0
 11
3.238325
 21
5.866297
 31
0.0
  0
LINE
  8
0
  6
CONTINUOUS
 62
     7
  5
91C
 10
3.238325
 20
6.094333
 30
0.0
 11
3.24077
 21
6.093103
 31
0.0
  0
LINE
  8
0
  6
CONTINUOUS
 62
     7
  5
91D
 10
3.24077
 20
6.093103
 30
0.0
 11
3.243186
 21
6.091715
 31
0.0
  0
LINE
  8
0
  6
CONTINUOUS
 62
     7
  5
91E
 10
3.243186
 20
6.091715
 30
0.0
 11
3.245571
 21
6.090173
 31
0.0
  0
LINE
  8
0
  6
CONTINUOUS
 62
     7
  5
91F
 10
3.245571
 20
6.090173
 30
0.0
 11
3.247922
 21
6.088477
 31
0.0
  0
LINE
  8
0
  6
CONTINUOUS
 62
     7
  5
920
 10
3.247922
 20
6.088477
 30
0.0
 11
3.250233
 21
6.086631
 31
0.0
  0
LINE
  8
0
  6
CONTINUOUS
 62
     7
  5
921
 10
3.250233
 20
6.086631
 30
0.0
 11
3.252504
 21
6.084636
 31
0.0
  0
LINE
  8
0
  6
CONTINUOUS
 62
     7
  5
922
 10
3.252504
 20
6.084636
 30
0.0
 11
3.25473
 21
6.082496
 31
0.0
  0
LINE
  8
0
  6
CONTINUOUS
 62
     7
  5
923
 10
3.25473
 20
6.082496
 30
0.0
 11
3.256908
 21
6.080214
 31
0.0
  0
LINE
  8
0
  6
CONTINUOUS
 62
     7
  5
924
 10
3.256908
 20
6.080214
 30
0.0
 11
3.259036
 21
6.077792
 31
0.0
  0
LINE
  8
0
  6
CONTINUOUS
 62
     7
  5
925
 10
3.259036
 20
6.077792
 30
0.0
 11
3.26111
 21
6.075235
 31
0.0
  0
LINE
  8
0
  6
CONTINUOUS
 62
     7
  5
926
 10
3.26111
 20
6.075235
 30
0.0
 11
3.263127
 21
6.072545
 31
0.0
  0
LINE
  8
0
  6
CONTINUOUS
 62
     7
  5
927
 10
3.263127
 20
6.072545
 30
0.0
 11
3.265085
 21
6.069727
 31
0.0
  0
LINE
  8
0
  6
CONTINUOUS
 62
     7
  5
928
 10
3.265085
 20
6.069727
 30
0.0
 11
3.266981
 21
6.066784
 31
0.0
  0
LINE
  8
0
  6
CONTINUOUS
 62
     7
  5
929
 10
3.266981
 20
6.066784
 30
0.0
 11
3.268812
 21
6.06372
 31
0.0
  0
LINE
  8
0
  6
CONTINUOUS
 62
     7
  5
92A
 10
3.268812
 20
6.06372
 30
0.0
 11
3.270576
 21
6.06054
 31
0.0
  0
LINE
  8
0
  6
CONTINUOUS
 62
     7
  5
92B
 10
3.270576
 20
6.06054
 30
0.0
 11
3.27227
 21
6.057249
 31
0.0
  0
LINE
  8
0
  6
CONTINUOUS
 62
     7
  5
92C
 10
3.27227
 20
6.057249
 30
0.0
 11
3.273892
 21
6.05385
 31
0.0
  0
LINE
  8
0
  6
CONTINUOUS
 62
     7
  5
92D
 10
3.273892
 20
6.05385
 30
0.0
 11
3.27544
 21
6.050349
 31
0.0
  0
LINE
  8
0
  6
CONTINUOUS
 62
     7
  5
92E
 10
3.27544
 20
6.050349
 30
0.0
 11
3.276911
 21
6.04675
 31
0.0
  0
LINE
  8
0
  6
CONTINUOUS
 62
     7
  5
92F
 10
3.276911
 20
6.04675
 30
0.0
 11
3.278303
 21
6.043058
 31
0.0
  0
LINE
  8
0
  6
CONTINUOUS
 62
     7
  5
930
 10
3.278303
 20
6.043058
 30
0.0
 11
3.279615
 21
6.039279
 31
0.0
  0
LINE
  8
0
  6
CONTINUOUS
 62
     7
  5
931
 10
3.279615
 20
6.039279
 30
0.0
 11
3.280845
 21
6.035418
 31
0.0
  0
LINE
  8
0
  6
CONTINUOUS
 62
     7
  5
932
 10
3.280845
 20
6.035418
 30
0.0
 11
3.28199
 21
6.03148
 31
0.0
  0
LINE
  8
0
  6
CONTINUOUS
 62
     7
  5
933
 10
3.28199
 20
6.03148
 30
0.0
 11
3.28305
 21
6.027471
 31
0.0
  0
LINE
  8
0
  6
CONTINUOUS
 62
     7
  5
934
 10
3.28305
 20
6.027471
 30
0.0
 11
3.284023
 21
6.023396
 31
0.0
  0
LINE
  8
0
  6
CONTINUOUS
 62
     7
  5
935
 10
3.284023
 20
6.023396
 30
0.0
 11
3.284907
 21
6.019261
 31
0.0
  0
LINE
  8
0
  6
CONTINUOUS
 62
     7
  5
936
 10
3.284907
 20
6.019261
 30
0.0
 11
3.285701
 21
6.015071
 31
0.0
  0
LINE
  8
0
  6
CONTINUOUS
 62
     7
  5
937
 10
3.285701
 20
6.015071
 30
0.0
 11
3.286405
 21
6.010833
 31
0.0
  0
LINE
  8
0
  6
CONTINUOUS
 62
     7
  5
938
 10
3.286405
 20
6.010833
 30
0.0
 11
3.287017
 21
6.006553
 31
0.0
  0
LINE
  8
0
  6
CONTINUOUS
 62
     7
  5
939
 10
3.287017
 20
6.006553
 30
0.0
 11
3.287536
 21
6.002236
 31
0.0
  0
LINE
  8
0
  6
CONTINUOUS
 62
     7
  5
93A
 10
3.287536
 20
6.002236
 30
0.0
 11
3.287962
 21
5.997889
 31
0.0
  0
LINE
  8
0
  6
CONTINUOUS
 62
     7
  5
93B
 10
3.287962
 20
5.997889
 30
0.0
 11
3.288293
 21
5.993517
 31
0.0
  0
LINE
  8
0
  6
CONTINUOUS
 62
     7
  5
93C
 10
3.288293
 20
5.993517
 30
0.0
 11
3.288531
 21
5.989126
 31
0.0
  0
LINE
  8
0
  6
CONTINUOUS
 62
     7
  5
93D
 10
3.288531
 20
5.989126
 30
0.0
 11
3.288673
 21
5.984724
 31
0.0
  0
LINE
  8
0
  6
CONTINUOUS
 62
     7
  5
93E
 10
3.288673
 20
5.984724
 30
0.0
 11
3.288721
 21
5.980315
 31
0.0
  0
LINE
  8
0
  6
CONTINUOUS
 62
     7
  5
93F
 10
3.061417
 20
6.177165
 30
0.0
 11
5.993701
 21
6.177165
 31
0.0
  0
CIRCLE
  8
0
  6
CONTINUOUS
 62
     7
  5
940
 10
3.651575
 20
7.163386
 30
0.0
 40
0.285433
  0
CIRCLE
  8
0
  6
CONTINUOUS
 62
     7
  5
941
 10
5.403543
 20
7.163386
 30
0.0
 40
0.285433
  0
CIRCLE
  8
0
  6
CONTINUOUS
 62
     7
  5
942
 10
3.651575
 20
8.915354
 30
0.0
 40
0.285433
  0
CIRCLE
  8
0
  6
CONTINUOUS
 62
     7
  5
943
 10
5.403543
 20
8.915354
 30
0.0
 40
0.285433
  0
LINE
  8
0
  6
CONTINUOUS
 62
     7
  5
944
 10
6.023622
 20
5.783465
 30
0.0
 11
6.023622
 21
9.537402
 31
0.0
  0
LINE
  8
0
  6
CONTINUOUS
 62
     7
  5
945
 10
6.023622
 20
9.537402
 30
0.0
 11
3.031496
 21
9.537402
 31
0.0
  0
LINE
  8
0
  6
CONTINUOUS
 62
     7
  5
946
 10
3.031496
 20
9.537402
 30
0.0
 11
3.031496
 21
5.783465
 31
0.0
  0
LINE
  8
0
  6
CONTINUOUS
 62
     7
  5
947
 10
8.46063
 20
11.181102
 30
0.0
 11
9.956693
 21
11.181102
 31
0.0
  0
LINE
  8
0
  6
CONTINUOUS
 62
     7
  5
948
 10
8.46063
 20
9.606299
 30
0.0
 11
8.46063
 21
11.181102
 31
0.0
  0
LINE
  8
0
  6
CONTINUOUS
 62
     7
  5
949
 10
9.956693
 20
11.181102
 30
0.0
 11
9.956693
 21
12.755906
 31
0.0
  0
LINE
  8
0
  6
CONTINUOUS
 62
     7
  5
94A
 10
9.956693
 20
12.755906
 30
0.0
 11
8.185039
 21
12.755906
 31
0.0
  0
LINE
  8
0
  6
CONTINUOUS
 62
     7
  5
94B
 10
8.185039
 20
9.606299
 30
0.0
 11
8.46063
 21
9.606299
 31
0.0
  0
LINE
  8
0
  6
CONTINUOUS
 62
     7
  5
94C
 10
8.5
 20
8.622047
 30
0.0
 11
8.34252
 21
8.622047
 31
0.0
  0
LINE
  8
0
  6
CONTINUOUS
 62
     7
  5
94D
 10
8.34252
 20
8.622047
 30
0.0
 11
8.34252
 21
9.606299
 31
0.0
  0
LINE
  8
0
  6
CONTINUOUS
 62
     7
  5
94E
 10
8.34252
 20
8.622047
 30
0.0
 11
8.185039
 21
8.622047
 31
0.0
  0
LINE
  8
0
  6
CONTINUOUS
 62
     7
  5
94F
 10
10.837402
 20
8.622047
 30
0.0
 11
10.837402
 21
12.165354
 31
0.0
  0
LINE
  8
0
  6
CONTINUOUS
 62
     7
  5
950
 10
10.837402
 20
12.165354
 30
0.0
 11
9.956693
 21
12.165354
 31
0.0
  0
LINE
  8
0
  6
CONTINUOUS
 62
     7
  5
951
 10
10.837402
 20
8.622047
 30
0.0
 11
8.5
 21
8.622047
 31
0.0
  0
LINE
  8
0
  6
CONTINUOUS
 62
     7
  5
952
 10
8.185039
 20
6.394701
 30
0.0
 11
8.185039
 21
14.392701
 31
0.0
  0
LINE
  8
0
  6
CONTINUOUS
 62
     7
  5
953
 10
5.206693
 20
13.820866
 30
0.0
 11
5.600394
 21
13.820866
 31
0.0
  0
LINE
  8
0
  6
CONTINUOUS
 62
     7
  5
954
 10
5.206693
 20
13.427165
 30
0.0
 11
5.206693
 21
13.820866
 31
0.0
  0
LINE
  8
0
  6
CONTINUOUS
 62
     7
  5
955
 10
5.600394
 20
13.427165
 30
0.0
 11
5.206693
 21
13.427165
 31
0.0
  0
LINE
  8
0
  6
CONTINUOUS
 62
     7
  5
956
 10
5.600394
 20
13.820866
 30
0.0
 11
5.600394
 21
13.427165
 31
0.0
  0
LINE
  8
0
  6
CONTINUOUS
 62
     7
  5
957
 10
3.454724
 20
13.820866
 30
0.0
 11
3.848425
 21
13.820866
 31
0.0
  0
LINE
  8
0
  6
CONTINUOUS
 62
     7
  5
958
 10
3.454724
 20
13.427165
 30
0.0
 11
3.454724
 21
13.820866
 31
0.0
  0
LINE
  8
0
  6
CONTINUOUS
 62
     7
  5
959
 10
3.848425
 20
13.427165
 30
0.0
 11
3.454724
 21
13.427165
 31
0.0
  0
LINE
  8
0
  6
CONTINUOUS
 62
     7
  5
95A
 10
3.848425
 20
13.820866
 30
0.0
 11
3.848425
 21
13.427165
 31
0.0
  0
LINE
  8
0
  6
CONTINUOUS
 62
     7
  5
95B
 10
5.206693
 20
12.068898
 30
0.0
 11
5.600394
 21
12.068898
 31
0.0
  0
LINE
  8
0
  6
CONTINUOUS
 62
     7
  5
95C
 10
5.206693
 20
11.675197
 30
0.0
 11
5.206693
 21
12.068898
 31
0.0
  0
LINE
  8
0
  6
CONTINUOUS
 62
     7
  5
95D
 10
5.600394
 20
11.675197
 30
0.0
 11
5.206693
 21
11.675197
 31
0.0
  0
LINE
  8
0
  6
CONTINUOUS
 62
     7
  5
95E
 10
5.600394
 20
12.068898
 30
0.0
 11
5.600394
 21
11.675197
 31
0.0
  0
LINE
  8
0
  6
CONTINUOUS
 62
     7
  5
95F
 10
3.454724
 20
12.068898
 30
0.0
 11
3.848425
 21
12.068898
 31
0.0
  0
LINE
  8
0
  6
CONTINUOUS
 62
     7
  5
960
 10
3.454724
 20
11.675197
 30
0.0
 11
3.454724
 21
12.068898
 31
0.0
  0
LINE
  8
0
  6
CONTINUOUS
 62
     7
  5
961
 10
3.848425
 20
11.675197
 30
0.0
 11
3.454724
 21
11.675197
 31
0.0
  0
LINE
  8
0
  6
CONTINUOUS
 62
     7
  5
962
 10
3.848425
 20
12.068898
 30
0.0
 11
3.848425
 21
11.675197
 31
0.0
  0
LINE
  8
0
  6
CONTINUOUS
 62
     7
  5
963
 10
8.185039
 20
14.392701
 30
0.0
 11
7.988189
 21
14.392701
 31
0.0
  0
LINE
  8
0
  6
CONTINUOUS
 62
     7
  5
964
 10
8.185039
 20
6.394701
 30
0.0
 11
7.988189
 21
6.394701
 31
0.0
  0
LINE
  8
0
  6
CONTINUOUS
 62
     7
  5
965
 10
7.988189
 20
6.394701
 30
0.0
 11
6.023622
 21
6.394701
 31
0.0
  0
LINE
  8
0
  6
CONTINUOUS
 62
     7
  5
966
 10
7.988189
 20
14.392701
 30
0.0
 11
3.032496
 21
14.392701
 31
0.0
  0
LINE
  8
0
  6
CONTINUOUS
 62
     7
  5
967
 10
3.032496
 20
9.537402
 30
0.0
 11
3.032496
 21
14.392701
 31
0.0
  0
LINE
  8
0
  6
CONTINUOUS
 62
     7
  5
968
 10
8.027559
 20
14.392701
 30
0.0
 11
8.027559
 21
14.393701
 31
0.0
  0
LINE
  8
0
  6
CONTINUOUS
 62
     7
  5
969
 10
8.027559
 20
14.393701
 30
0.0
 11
7.830709
 21
14.393701
 31
0.0
  0
LINE
  8
0
  6
CONTINUOUS
 62
     7
  5
96A
 10
8.027559
 20
6.393701
 30
0.0
 11
7.830709
 21
6.393701
 31
0.0
  0
LINE
  8
0
  6
CONTINUOUS
 62
     7
  5
96B
 10
7.830709
 20
14.393701
 30
0.0
 11
3.031496
 21
14.393701
 31
0.0
  0
LINE
  8
0
  6
CONTINUOUS
 62
     7
  5
96C
 10
3.031496
 20
9.537402
 30
0.0
 11
3.031496
 21
14.393701
 31
0.0
  0
LINE
  8
0
  6
CONTINUOUS
 62
     7
  5
96D
 10
7.830709
 20
6.393701
 30
0.0
 11
6.023622
 21
6.393701
 31
0.0
  0
LINE
  8
0
  6
CONTINUOUS
 62
     7
  5
96E
 10
-7.765884
 20
6.094333
 30
0.0
 11
-7.588976
 21
6.177165
 31
0.0
  0
LINE
  8
0
  6
CONTINUOUS
 62
     7
  5
96F
 10
-7.81628
 20
5.980315
 30
0.0
 11
-7.816232
 21
5.984724
 31
0.0
  0
LINE
  8
0
  6
CONTINUOUS
 62
     7
  5
970
 10
-7.816232
 20
5.984724
 30
0.0
 11
-7.81609
 21
5.989126
 31
0.0
  0
LINE
  8
0
  6
CONTINUOUS
 62
     7
  5
971
 10
-7.81609
 20
5.989126
 30
0.0
 11
-7.815852
 21
5.993517
 31
0.0
  0
LINE
  8
0
  6
CONTINUOUS
 62
     7
  5
972
 10
-7.815852
 20
5.993517
 30
0.0
 11
-7.815521
 21
5.997889
 31
0.0
  0
LINE
  8
0
  6
CONTINUOUS
 62
     7
  5
973
 10
-7.815521
 20
5.997889
 30
0.0
 11
-7.815095
 21
6.002236
 31
0.0
  0
LINE
  8
0
  6
CONTINUOUS
 62
     7
  5
974
 10
-7.815095
 20
6.002236
 30
0.0
 11
-7.814576
 21
6.006553
 31
0.0
  0
LINE
  8
0
  6
CONTINUOUS
 62
     7
  5
975
 10
-7.814576
 20
6.006553
 30
0.0
 11
-7.813964
 21
6.010833
 31
0.0
  0
LINE
  8
0
  6
CONTINUOUS
 62
     7
  5
976
 10
-7.813964
 20
6.010833
 30
0.0
 11
-7.81326
 21
6.015071
 31
0.0
  0
LINE
  8
0
  6
CONTINUOUS
 62
     7
  5
977
 10
-7.81326
 20
6.015071
 30
0.0
 11
-7.812466
 21
6.019261
 31
0.0
  0
LINE
  8
0
  6
CONTINUOUS
 62
     7
  5
978
 10
-7.812466
 20
6.019261
 30
0.0
 11
-7.811582
 21
6.023396
 31
0.0
  0
LINE
  8
0
  6
CONTINUOUS
 62
     7
  5
979
 10
-7.811582
 20
6.023396
 30
0.0
 11
-7.810609
 21
6.027471
 31
0.0
  0
LINE
  8
0
  6
CONTINUOUS
 62
     7
  5
97A
 10
-7.810609
 20
6.027471
 30
0.0
 11
-7.809549
 21
6.03148
 31
0.0
  0
LINE
  8
0
  6
CONTINUOUS
 62
     7
  5
97B
 10
-7.809549
 20
6.03148
 30
0.0
 11
-7.808404
 21
6.035418
 31
0.0
  0
LINE
  8
0
  6
CONTINUOUS
 62
     7
  5
97C
 10
-7.808404
 20
6.035418
 30
0.0
 11
-7.807174
 21
6.039279
 31
0.0
  0
LINE
  8
0
  6
CONTINUOUS
 62
     7
  5
97D
 10
-7.807174
 20
6.039279
 30
0.0
 11
-7.805862
 21
6.043058
 31
0.0
  0
LINE
  8
0
  6
CONTINUOUS
 62
     7
  5
97E
 10
-7.805862
 20
6.043058
 30
0.0
 11
-7.80447
 21
6.04675
 31
0.0
  0
LINE
  8
0
  6
CONTINUOUS
 62
     7
  5
97F
 10
-7.80447
 20
6.04675
 30
0.0
 11
-7.802999
 21
6.050349
 31
0.0
  0
LINE
  8
0
  6
CONTINUOUS
 62
     7
  5
980
 10
-7.802999
 20
6.050349
 30
0.0
 11
-7.801451
 21
6.05385
 31
0.0
  0
LINE
  8
0
  6
CONTINUOUS
 62
     7
  5
981
 10
-7.801451
 20
6.05385
 30
0.0
 11
-7.799829
 21
6.057249
 31
0.0
  0
LINE
  8
0
  6
CONTINUOUS
 62
     7
  5
982
 10
-7.799829
 20
6.057249
 30
0.0
 11
-7.798135
 21
6.06054
 31
0.0
  0
LINE
  8
0
  6
CONTINUOUS
 62
     7
  5
983
 10
-7.798135
 20
6.06054
 30
0.0
 11
-7.796371
 21
6.06372
 31
0.0
  0
LINE
  8
0
  6
CONTINUOUS
 62
     7
  5
984
 10
-7.796371
 20
6.06372
 30
0.0
 11
-7.79454
 21
6.066784
 31
0.0
  0
LINE
  8
0
  6
CONTINUOUS
 62
     7
  5
985
 10
-7.79454
 20
6.066784
 30
0.0
 11
-7.792644
 21
6.069727
 31
0.0
  0
LINE
  8
0
  6
CONTINUOUS
 62
     7
  5
986
 10
-7.792644
 20
6.069727
 30
0.0
 11
-7.790686
 21
6.072545
 31
0.0
  0
LINE
  8
0
  6
CONTINUOUS
 62
     7
  5
987
 10
-7.790686
 20
6.072545
 30
0.0
 11
-7.788669
 21
6.075235
 31
0.0
  0
LINE
  8
0
  6
CONTINUOUS
 62
     7
  5
988
 10
-7.788669
 20
6.075235
 30
0.0
 11
-7.786595
 21
6.077792
 31
0.0
  0
LINE
  8
0
  6
CONTINUOUS
 62
     7
  5
989
 10
-7.786595
 20
6.077792
 30
0.0
 11
-7.784467
 21
6.080214
 31
0.0
  0
LINE
  8
0
  6
CONTINUOUS
 62
     7
  5
98A
 10
-7.784467
 20
6.080214
 30
0.0
 11
-7.782289
 21
6.082496
 31
0.0
  0
LINE
  8
0
  6
CONTINUOUS
 62
     7
  5
98B
 10
-7.782289
 20
6.082496
 30
0.0
 11
-7.780063
 21
6.084636
 31
0.0
  0
LINE
  8
0
  6
CONTINUOUS
 62
     7
  5
98C
 10
-7.780063
 20
6.084636
 30
0.0
 11
-7.777792
 21
6.086631
 31
0.0
  0
LINE
  8
0
  6
CONTINUOUS
 62
     7
  5
98D
 10
-7.777792
 20
6.086631
 30
0.0
 11
-7.775481
 21
6.088477
 31
0.0
  0
LINE
  8
0
  6
CONTINUOUS
 62
     7
  5
98E
 10
-7.775481
 20
6.088477
 30
0.0
 11
-7.77313
 21
6.090173
 31
0.0
  0
LINE
  8
0
  6
CONTINUOUS
 62
     7
  5
98F
 10
-7.77313
 20
6.090173
 30
0.0
 11
-7.770745
 21
6.091715
 31
0.0
  0
LINE
  8
0
  6
CONTINUOUS
 62
     7
  5
990
 10
-7.770745
 20
6.091715
 30
0.0
 11
-7.768329
 21
6.093103
 31
0.0
  0
LINE
  8
0
  6
CONTINUOUS
 62
     7
  5
991
 10
-7.768329
 20
6.093103
 30
0.0
 11
-7.765884
 21
6.094333
 31
0.0
  0
LINE
  8
0
  6
CONTINUOUS
 62
     7
  5
992
 10
-7.765884
 20
5.866297
 30
0.0
 11
-7.768329
 21
5.867527
 31
0.0
  0
LINE
  8
0
  6
CONTINUOUS
 62
     7
  5
993
 10
-7.768329
 20
5.867527
 30
0.0
 11
-7.770745
 21
5.868915
 31
0.0
  0
LINE
  8
0
  6
CONTINUOUS
 62
     7
  5
994
 10
-7.770745
 20
5.868915
 30
0.0
 11
-7.77313
 21
5.870457
 31
0.0
  0
LINE
  8
0
  6
CONTINUOUS
 62
     7
  5
995
 10
-7.77313
 20
5.870457
 30
0.0
 11
-7.775481
 21
5.872153
 31
0.0
  0
LINE
  8
0
  6
CONTINUOUS
 62
     7
  5
996
 10
-7.775481
 20
5.872153
 30
0.0
 11
-7.777792
 21
5.873999
 31
0.0
  0
LINE
  8
0
  6
CONTINUOUS
 62
     7
  5
997
 10
-7.777792
 20
5.873999
 30
0.0
 11
-7.780063
 21
5.875994
 31
0.0
  0
LINE
  8
0
  6
CONTINUOUS
 62
     7
  5
998
 10
-7.780063
 20
5.875994
 30
0.0
 11
-7.782289
 21
5.878134
 31
0.0
  0
LINE
  8
0
  6
CONTINUOUS
 62
     7
  5
999
 10
-7.782289
 20
5.878134
 30
0.0
 11
-7.784467
 21
5.880416
 31
0.0
  0
LINE
  8
0
  6
CONTINUOUS
 62
     7
  5
99A
 10
-7.784467
 20
5.880416
 30
0.0
 11
-7.786595
 21
5.882838
 31
0.0
  0
LINE
  8
0
  6
CONTINUOUS
 62
     7
  5
99B
 10
-7.786595
 20
5.882838
 30
0.0
 11
-7.788669
 21
5.885395
 31
0.0
  0
LINE
  8
0
  6
CONTINUOUS
 62
     7
  5
99C
 10
-7.788669
 20
5.885395
 30
0.0
 11
-7.790686
 21
5.888085
 31
0.0
  0
LINE
  8
0
  6
CONTINUOUS
 62
     7
  5
99D
 10
-7.790686
 20
5.888085
 30
0.0
 11
-7.792644
 21
5.890903
 31
0.0
  0
LINE
  8
0
  6
CONTINUOUS
 62
     7
  5
99E
 10
-7.792644
 20
5.890903
 30
0.0
 11
-7.79454
 21
5.893846
 31
0.0
  0
LINE
  8
0
  6
CONTINUOUS
 62
     7
  5
99F
 10
-7.79454
 20
5.893846
 30
0.0
 11
-7.796371
 21
5.89691
 31
0.0
  0
LINE
  8
0
  6
CONTINUOUS
 62
     7
  5
9A0
 10
-7.796371
 20
5.89691
 30
0.0
 11
-7.798135
 21
5.90009
 31
0.0
  0
LINE
  8
0
  6
CONTINUOUS
 62
     7
  5
9A1
 10
-7.798135
 20
5.90009
 30
0.0
 11
-7.799829
 21
5.903381
 31
0.0
  0
LINE
  8
0
  6
CONTINUOUS
 62
     7
  5
9A2
 10
-7.799829
 20
5.903381
 30
0.0
 11
-7.801451
 21
5.90678
 31
0.0
  0
LINE
  8
0
  6
CONTINUOUS
 62
     7
  5
9A3
 10
-7.801451
 20
5.90678
 30
0.0
 11
-7.802999
 21
5.910281
 31
0.0
  0
LINE
  8
0
  6
CONTINUOUS
 62
     7
  5
9A4
 10
-7.802999
 20
5.910281
 30
0.0
 11
-7.80447
 21
5.91388
 31
0.0
  0
LINE
  8
0
  6
CONTINUOUS
 62
     7
  5
9A5
 10
-7.80447
 20
5.91388
 30
0.0
 11
-7.805862
 21
5.917572
 31
0.0
  0
LINE
  8
0
  6
CONTINUOUS
 62
     7
  5
9A6
 10
-7.805862
 20
5.917572
 30
0.0
 11
-7.807174
 21
5.921351
 31
0.0
  0
LINE
  8
0
  6
CONTINUOUS
 62
     7
  5
9A7
 10
-7.807174
 20
5.921351
 30
0.0
 11
-7.808404
 21
5.925212
 31
0.0
  0
LINE
  8
0
  6
CONTINUOUS
 62
     7
  5
9A8
 10
-7.808404
 20
5.925212
 30
0.0
 11
-7.809549
 21
5.92915
 31
0.0
  0
LINE
  8
0
  6
CONTINUOUS
 62
     7
  5
9A9
 10
-7.809549
 20
5.92915
 30
0.0
 11
-7.810609
 21
5.933159
 31
0.0
  0
LINE
  8
0
  6
CONTINUOUS
 62
     7
  5
9AA
 10
-7.810609
 20
5.933159
 30
0.0
 11
-7.811582
 21
5.937234
 31
0.0
  0
LINE
  8
0
  6
CONTINUOUS
 62
     7
  5
9AB
 10
-7.811582
 20
5.937234
 30
0.0
 11
-7.812466
 21
5.941369
 31
0.0
  0
LINE
  8
0
  6
CONTINUOUS
 62
     7
  5
9AC
 10
-7.812466
 20
5.941369
 30
0.0
 11
-7.81326
 21
5.945559
 31
0.0
  0
LINE
  8
0
  6
CONTINUOUS
 62
     7
  5
9AD
 10
-7.81326
 20
5.945559
 30
0.0
 11
-7.813964
 21
5.949796
 31
0.0
  0
LINE
  8
0
  6
CONTINUOUS
 62
     7
  5
9AE
 10
-7.813964
 20
5.949796
 30
0.0
 11
-7.814576
 21
5.954077
 31
0.0
  0
LINE
  8
0
  6
CONTINUOUS
 62
     7
  5
9AF
 10
-7.814576
 20
5.954077
 30
0.0
 11
-7.815095
 21
5.958394
 31
0.0
  0
LINE
  8
0
  6
CONTINUOUS
 62
     7
  5
9B0
 10
-7.815095
 20
5.958394
 30
0.0
 11
-7.815521
 21
5.962741
 31
0.0
  0
LINE
  8
0
  6
CONTINUOUS
 62
     7
  5
9B1
 10
-7.815521
 20
5.962741
 30
0.0
 11
-7.815852
 21
5.967113
 31
0.0
  0
LINE
  8
0
  6
CONTINUOUS
 62
     7
  5
9B2
 10
-7.815852
 20
5.967113
 30
0.0
 11
-7.81609
 21
5.971504
 31
0.0
  0
LINE
  8
0
  6
CONTINUOUS
 62
     7
  5
9B3
 10
-7.81609
 20
5.971504
 30
0.0
 11
-7.816232
 21
5.975906
 31
0.0
  0
LINE
  8
0
  6
CONTINUOUS
 62
     7
  5
9B4
 10
-7.816232
 20
5.975906
 30
0.0
 11
-7.81628
 21
5.980315
 31
0.0
  0
LINE
  8
0
  6
CONTINUOUS
 62
     7
  5
9B5
 10
-7.588976
 20
5.783465
 30
0.0
 11
-7.765884
 21
5.866297
 31
0.0
  0
LINE
  8
0
  6
CONTINUOUS
 62
     7
  5
9B6
 10
-7.588976
 20
6.177165
 30
0.0
 11
-7.588976
 21
5.783465
 31
0.0
  0
LINE
  8
0
  6
CONTINUOUS
 62
     7
  5
9B7
 10
-10.344352
 20
5.866297
 30
0.0
 11
-10.52126
 21
5.783465
 31
0.0
  0
LINE
  8
0
  6
CONTINUOUS
 62
     7
  5
9B8
 10
-10.52126
 20
6.177165
 30
0.0
 11
-10.344352
 21
6.094333
 31
0.0
  0
LINE
  8
0
  6
CONTINUOUS
 62
     7
  5
9B9
 10
-10.52126
 20
5.783465
 30
0.0
 11
-10.52126
 21
6.177165
 31
0.0
  0
LINE
  8
0
  6
CONTINUOUS
 62
     7
  5
9BA
 10
-10.293957
 20
5.980315
 30
0.0
 11
-10.294004
 21
5.975906
 31
0.0
  0
LINE
  8
0
  6
CONTINUOUS
 62
     7
  5
9BB
 10
-10.294004
 20
5.975906
 30
0.0
 11
-10.294147
 21
5.971504
 31
0.0
  0
LINE
  8
0
  6
CONTINUOUS
 62
     7
  5
9BC
 10
-10.294147
 20
5.971504
 30
0.0
 11
-10.294384
 21
5.967113
 31
0.0
  0
LINE
  8
0
  6
CONTINUOUS
 62
     7
  5
9BD
 10
-10.294384
 20
5.967113
 30
0.0
 11
-10.294716
 21
5.962741
 31
0.0
  0
LINE
  8
0
  6
CONTINUOUS
 62
     7
  5
9BE
 10
-10.294716
 20
5.962741
 30
0.0
 11
-10.295141
 21
5.958394
 31
0.0
  0
LINE
  8
0
  6
CONTINUOUS
 62
     7
  5
9BF
 10
-10.295141
 20
5.958394
 30
0.0
 11
-10.295661
 21
5.954077
 31
0.0
  0
LINE
  8
0
  6
CONTINUOUS
 62
     7
  5
9C0
 10
-10.295661
 20
5.954077
 30
0.0
 11
-10.296272
 21
5.949796
 31
0.0
  0
LINE
  8
0
  6
CONTINUOUS
 62
     7
  5
9C1
 10
-10.296272
 20
5.949796
 30
0.0
 11
-10.296976
 21
5.945559
 31
0.0
  0
LINE
  8
0
  6
CONTINUOUS
 62
     7
  5
9C2
 10
-10.296976
 20
5.945559
 30
0.0
 11
-10.29777
 21
5.941369
 31
0.0
  0
LINE
  8
0
  6
CONTINUOUS
 62
     7
  5
9C3
 10
-10.29777
 20
5.941369
 30
0.0
 11
-10.298655
 21
5.937234
 31
0.0
  0
LINE
  8
0
  6
CONTINUOUS
 62
     7
  5
9C4
 10
-10.298655
 20
5.937234
 30
0.0
 11
-10.299627
 21
5.933159
 31
0.0
  0
LINE
  8
0
  6
CONTINUOUS
 62
     7
  5
9C5
 10
-10.299627
 20
5.933159
 30
0.0
 11
-10.300687
 21
5.92915
 31
0.0
  0
LINE
  8
0
  6
CONTINUOUS
 62
     7
  5
9C6
 10
-10.300687
 20
5.92915
 30
0.0
 11
-10.301833
 21
5.925212
 31
0.0
  0
LINE
  8
0
  6
CONTINUOUS
 62
     7
  5
9C7
 10
-10.301833
 20
5.925212
 30
0.0
 11
-10.303062
 21
5.921351
 31
0.0
  0
LINE
  8
0
  6
CONTINUOUS
 62
     7
  5
9C8
 10
-10.303062
 20
5.921351
 30
0.0
 11
-10.304374
 21
5.917572
 31
0.0
  0
LINE
  8
0
  6
CONTINUOUS
 62
     7
  5
9C9
 10
-10.304374
 20
5.917572
 30
0.0
 11
-10.305767
 21
5.91388
 31
0.0
  0
LINE
  8
0
  6
CONTINUOUS
 62
     7
  5
9CA
 10
-10.305767
 20
5.91388
 30
0.0
 11
-10.307238
 21
5.910281
 31
0.0
  0
LINE
  8
0
  6
CONTINUOUS
 62
     7
  5
9CB
 10
-10.307238
 20
5.910281
 30
0.0
 11
-10.308785
 21
5.90678
 31
0.0
  0
LINE
  8
0
  6
CONTINUOUS
 62
     7
  5
9CC
 10
-10.308785
 20
5.90678
 30
0.0
 11
-10.310407
 21
5.903381
 31
0.0
  0
LINE
  8
0
  6
CONTINUOUS
 62
     7
  5
9CD
 10
-10.310407
 20
5.903381
 30
0.0
 11
-10.312101
 21
5.90009
 31
0.0
  0
LINE
  8
0
  6
CONTINUOUS
 62
     7
  5
9CE
 10
-10.312101
 20
5.90009
 30
0.0
 11
-10.313865
 21
5.89691
 31
0.0
  0
LINE
  8
0
  6
CONTINUOUS
 62
     7
  5
9CF
 10
-10.313865
 20
5.89691
 30
0.0
 11
-10.315696
 21
5.893846
 31
0.0
  0
LINE
  8
0
  6
CONTINUOUS
 62
     7
  5
9D0
 10
-10.315696
 20
5.893846
 30
0.0
 11
-10.317592
 21
5.890903
 31
0.0
  0
LINE
  8
0
  6
CONTINUOUS
 62
     7
  5
9D1
 10
-10.317592
 20
5.890903
 30
0.0
 11
-10.31955
 21
5.888085
 31
0.0
  0
LINE
  8
0
  6
CONTINUOUS
 62
     7
  5
9D2
 10
-10.31955
 20
5.888085
 30
0.0
 11
-10.321567
 21
5.885395
 31
0.0
  0
LINE
  8
0
  6
CONTINUOUS
 62
     7
  5
9D3
 10
-10.321567
 20
5.885395
 30
0.0
 11
-10.323641
 21
5.882838
 31
0.0
  0
LINE
  8
0
  6
CONTINUOUS
 62
     7
  5
9D4
 10
-10.323641
 20
5.882838
 30
0.0
 11
-10.325769
 21
5.880416
 31
0.0
  0
LINE
  8
0
  6
CONTINUOUS
 62
     7
  5
9D5
 10
-10.325769
 20
5.880416
 30
0.0
 11
-10.327947
 21
5.878134
 31
0.0
  0
LINE
  8
0
  6
CONTINUOUS
 62
     7
  5
9D6
 10
-10.327947
 20
5.878134
 30
0.0
 11
-10.330173
 21
5.875994
 31
0.0
  0
LINE
  8
0
  6
CONTINUOUS
 62
     7
  5
9D7
 10
-10.330173
 20
5.875994
 30
0.0
 11
-10.332444
 21
5.873999
 31
0.0
  0
LINE
  8
0
  6
CONTINUOUS
 62
     7
  5
9D8
 10
-10.332444
 20
5.873999
 30
0.0
 11
-10.334756
 21
5.872153
 31
0.0
  0
LINE
  8
0
  6
CONTINUOUS
 62
     7
  5
9D9
 10
-10.334756
 20
5.872153
 30
0.0
 11
-10.337106
 21
5.870457
 31
0.0
  0
LINE
  8
0
  6
CONTINUOUS
 62
     7
  5
9DA
 10
-10.337106
 20
5.870457
 30
0.0
 11
-10.339491
 21
5.868915
 31
0.0
  0
LINE
  8
0
  6
CONTINUOUS
 62
     7
  5
9DB
 10
-10.339491
 20
5.868915
 30
0.0
 11
-10.341907
 21
5.867527
 31
0.0
  0
LINE
  8
0
  6
CONTINUOUS
 62
     7
  5
9DC
 10
-10.341907
 20
5.867527
 30
0.0
 11
-10.344352
 21
5.866297
 31
0.0
  0
LINE
  8
0
  6
CONTINUOUS
 62
     7
  5
9DD
 10
-10.344352
 20
6.094333
 30
0.0
 11
-10.341907
 21
6.093103
 31
0.0
  0
LINE
  8
0
  6
CONTINUOUS
 62
     7
  5
9DE
 10
-10.341907
 20
6.093103
 30
0.0
 11
-10.339491
 21
6.091715
 31
0.0
  0
LINE
  8
0
  6
CONTINUOUS
 62
     7
  5
9DF
 10
-10.339491
 20
6.091715
 30
0.0
 11
-10.337106
 21
6.090173
 31
0.0
  0
LINE
  8
0
  6
CONTINUOUS
 62
     7
  5
9E0
 10
-10.337106
 20
6.090173
 30
0.0
 11
-10.334756
 21
6.088477
 31
0.0
  0
LINE
  8
0
  6
CONTINUOUS
 62
     7
  5
9E1
 10
-10.334756
 20
6.088477
 30
0.0
 11
-10.332444
 21
6.086631
 31
0.0
  0
LINE
  8
0
  6
CONTINUOUS
 62
     7
  5
9E2
 10
-10.332444
 20
6.086631
 30
0.0
 11
-10.330173
 21
6.084636
 31
0.0
  0
LINE
  8
0
  6
CONTINUOUS
 62
     7
  5
9E3
 10
-10.330173
 20
6.084636
 30
0.0
 11
-10.327947
 21
6.082496
 31
0.0
  0
LINE
  8
0
  6
CONTINUOUS
 62
     7
  5
9E4
 10
-10.327947
 20
6.082496
 30
0.0
 11
-10.325769
 21
6.080214
 31
0.0
  0
LINE
  8
0
  6
CONTINUOUS
 62
     7
  5
9E5
 10
-10.325769
 20
6.080214
 30
0.0
 11
-10.323641
 21
6.077792
 31
0.0
  0
LINE
  8
0
  6
CONTINUOUS
 62
     7
  5
9E6
 10
-10.323641
 20
6.077792
 30
0.0
 11
-10.321567
 21
6.075235
 31
0.0
  0
LINE
  8
0
  6
CONTINUOUS
 62
     7
  5
9E7
 10
-10.321567
 20
6.075235
 30
0.0
 11
-10.31955
 21
6.072545
 31
0.0
  0
LINE
  8
0
  6
CONTINUOUS
 62
     7
  5
9E8
 10
-10.31955
 20
6.072545
 30
0.0
 11
-10.317592
 21
6.069727
 31
0.0
  0
LINE
  8
0
  6
CONTINUOUS
 62
     7
  5
9E9
 10
-10.317592
 20
6.069727
 30
0.0
 11
-10.315696
 21
6.066784
 31
0.0
  0
LINE
  8
0
  6
CONTINUOUS
 62
     7
  5
9EA
 10
-10.315696
 20
6.066784
 30
0.0
 11
-10.313865
 21
6.06372
 31
0.0
  0
LINE
  8
0
  6
CONTINUOUS
 62
     7
  5
9EB
 10
-10.313865
 20
6.06372
 30
0.0
 11
-10.312101
 21
6.06054
 31
0.0
  0
LINE
  8
0
  6
CONTINUOUS
 62
     7
  5
9EC
 10
-10.312101
 20
6.06054
 30
0.0
 11
-10.310407
 21
6.057249
 31
0.0
  0
LINE
  8
0
  6
CONTINUOUS
 62
     7
  5
9ED
 10
-10.310407
 20
6.057249
 30
0.0
 11
-10.308785
 21
6.05385
 31
0.0
  0
LINE
  8
0
  6
CONTINUOUS
 62
     7
  5
9EE
 10
-10.308785
 20
6.05385
 30
0.0
 11
-10.307238
 21
6.050349
 31
0.0
  0
LINE
  8
0
  6
CONTINUOUS
 62
     7
  5
9EF
 10
-10.307238
 20
6.050349
 30
0.0
 11
-10.305767
 21
6.04675
 31
0.0
  0
LINE
  8
0
  6
CONTINUOUS
 62
     7
  5
9F0
 10
-10.305767
 20
6.04675
 30
0.0
 11
-10.304374
 21
6.043058
 31
0.0
  0
LINE
  8
0
  6
CONTINUOUS
 62
     7
  5
9F1
 10
-10.304374
 20
6.043058
 30
0.0
 11
-10.303062
 21
6.039279
 31
0.0
  0
LINE
  8
0
  6
CONTINUOUS
 62
     7
  5
9F2
 10
-10.303062
 20
6.039279
 30
0.0
 11
-10.301833
 21
6.035418
 31
0.0
  0
LINE
  8
0
  6
CONTINUOUS
 62
     7
  5
9F3
 10
-10.301833
 20
6.035418
 30
0.0
 11
-10.300687
 21
6.03148
 31
0.0
  0
LINE
  8
0
  6
CONTINUOUS
 62
     7
  5
9F4
 10
-10.300687
 20
6.03148
 30
0.0
 11
-10.299627
 21
6.027471
 31
0.0
  0
LINE
  8
0
  6
CONTINUOUS
 62
     7
  5
9F5
 10
-10.299627
 20
6.027471
 30
0.0
 11
-10.298655
 21
6.023396
 31
0.0
  0
LINE
  8
0
  6
CONTINUOUS
 62
     7
  5
9F6
 10
-10.298655
 20
6.023396
 30
0.0
 11
-10.29777
 21
6.019261
 31
0.0
  0
LINE
  8
0
  6
CONTINUOUS
 62
     7
  5
9F7
 10
-10.29777
 20
6.019261
 30
0.0
 11
-10.296976
 21
6.015071
 31
0.0
  0
LINE
  8
0
  6
CONTINUOUS
 62
     7
  5
9F8
 10
-10.296976
 20
6.015071
 30
0.0
 11
-10.296272
 21
6.010833
 31
0.0
  0
LINE
  8
0
  6
CONTINUOUS
 62
     7
  5
9F9
 10
-10.296272
 20
6.010833
 30
0.0
 11
-10.295661
 21
6.006553
 31
0.0
  0
LINE
  8
0
  6
CONTINUOUS
 62
     7
  5
9FA
 10
-10.295661
 20
6.006553
 30
0.0
 11
-10.295141
 21
6.002236
 31
0.0
  0
LINE
  8
0
  6
CONTINUOUS
 62
     7
  5
9FB
 10
-10.295141
 20
6.002236
 30
0.0
 11
-10.294716
 21
5.997889
 31
0.0
  0
LINE
  8
0
  6
CONTINUOUS
 62
     7
  5
9FC
 10
-10.294716
 20
5.997889
 30
0.0
 11
-10.294384
 21
5.993517
 31
0.0
  0
LINE
  8
0
  6
CONTINUOUS
 62
     7
  5
9FD
 10
-10.294384
 20
5.993517
 30
0.0
 11
-10.294147
 21
5.989126
 31
0.0
  0
LINE
  8
0
  6
CONTINUOUS
 62
     7
  5
9FE
 10
-10.294147
 20
5.989126
 30
0.0
 11
-10.294004
 21
5.984724
 31
0.0
  0
LINE
  8
0
  6
CONTINUOUS
 62
     7
  5
9FF
 10
-10.294004
 20
5.984724
 30
0.0
 11
-10.293957
 21
5.980315
 31
0.0
  0
LINE
  8
0
  6
CONTINUOUS
 62
     7
  5
A00
 10
-10.52126
 20
6.177165
 30
0.0
 11
-7.588976
 21
6.177165
 31
0.0
  0
CIRCLE
  8
0
  6
CONTINUOUS
 62
     7
  5
A01
 10
-9.931102
 20
7.163386
 30
0.0
 40
0.285433
  0
CIRCLE
  8
0
  6
CONTINUOUS
 62
     7
  5
A02
 10
-8.179134
 20
7.163386
 30
0.0
 40
0.285433
  0
CIRCLE
  8
0
  6
CONTINUOUS
 62
     7
  5
A03
 10
-9.931102
 20
8.915354
 30
0.0
 40
0.285433
  0
CIRCLE
  8
0
  6
CONTINUOUS
 62
     7
  5
A04
 10
-8.179134
 20
8.915354
 30
0.0
 40
0.285433
  0
LINE
  8
0
  6
CONTINUOUS
 62
     7
  5
A05
 10
-7.559055
 20
5.783465
 30
0.0
 11
-7.559055
 21
9.537402
 31
0.0
  0
LINE
  8
0
  6
CONTINUOUS
 62
     7
  5
A06
 10
-7.559055
 20
9.537402
 30
0.0
 11
-10.551181
 21
9.537402
 31
0.0
  0
LINE
  8
0
  6
CONTINUOUS
 62
     7
  5
A07
 10
-10.551181
 20
9.537402
 30
0.0
 11
-10.551181
 21
5.783465
 31
0.0
  0
LINE
  8
0
  6
CONTINUOUS
 62
     7
  5
A08
 10
-7.560055
 20
14.392701
 30
0.0
 11
-7.560055
 21
9.537402
 31
0.0
  0
LINE
  8
0
  6
CONTINUOUS
 62
     7
  5
A09
 10
-16.015748
 20
14.392701
 30
0.0
 11
-7.560055
 21
14.392701
 31
0.0
  0
LINE
  8
0
  6
CONTINUOUS
 62
     7
  5
A0A
 10
-16.015748
 20
6.394701
 30
0.0
 11
-10.551181
 21
6.394701
 31
0.0
  0
LINE
  8
0
  6
CONTINUOUS
 62
     7
  5
A0B
 10
-10.127953
 20
12.068898
 30
0.0
 11
-9.734252
 21
12.068898
 31
0.0
  0
LINE
  8
0
  6
CONTINUOUS
 62
     7
  5
A0C
 10
-9.734252
 20
12.068898
 30
0.0
 11
-9.734252
 21
11.675197
 31
0.0
  0
LINE
  8
0
  6
CONTINUOUS
 62
     7
  5
A0D
 10
-9.734252
 20
11.675197
 30
0.0
 11
-10.127953
 21
11.675197
 31
0.0
  0
LINE
  8
0
  6
CONTINUOUS
 62
     7
  5
A0E
 10
-10.127953
 20
11.675197
 30
0.0
 11
-10.127953
 21
12.068898
 31
0.0
  0
LINE
  8
0
  6
CONTINUOUS
 62
     7
  5
A0F
 10
-8.375984
 20
12.068898
 30
0.0
 11
-7.982283
 21
12.068898
 31
0.0
  0
LINE
  8
0
  6
CONTINUOUS
 62
     7
  5
A10
 10
-7.982283
 20
12.068898
 30
0.0
 11
-7.982283
 21
11.675197
 31
0.0
  0
LINE
  8
0
  6
CONTINUOUS
 62
     7
  5
A11
 10
-7.982283
 20
11.675197
 30
0.0
 11
-8.375984
 21
11.675197
 31
0.0
  0
LINE
  8
0
  6
CONTINUOUS
 62
     7
  5
A12
 10
-8.375984
 20
11.675197
 30
0.0
 11
-8.375984
 21
12.068898
 31
0.0
  0
LINE
  8
0
  6
CONTINUOUS
 62
     7
  5
A13
 10
-10.127953
 20
13.820866
 30
0.0
 11
-9.734252
 21
13.820866
 31
0.0
  0
LINE
  8
0
  6
CONTINUOUS
 62
     7
  5
A14
 10
-9.734252
 20
13.820866
 30
0.0
 11
-9.734252
 21
13.427165
 31
0.0
  0
LINE
  8
0
  6
CONTINUOUS
 62
     7
  5
A15
 10
-9.734252
 20
13.427165
 30
0.0
 11
-10.127953
 21
13.427165
 31
0.0
  0
LINE
  8
0
  6
CONTINUOUS
 62
     7
  5
A16
 10
-10.127953
 20
13.427165
 30
0.0
 11
-10.127953
 21
13.820866
 31
0.0
  0
LINE
  8
0
  6
CONTINUOUS
 62
     7
  5
A17
 10
-8.375984
 20
13.820866
 30
0.0
 11
-7.982283
 21
13.820866
 31
0.0
  0
LINE
  8
0
  6
CONTINUOUS
 62
     7
  5
A18
 10
-7.982283
 20
13.820866
 30
0.0
 11
-7.982283
 21
13.427165
 31
0.0
  0
LINE
  8
0
  6
CONTINUOUS
 62
     7
  5
A19
 10
-7.982283
 20
13.427165
 30
0.0
 11
-8.375984
 21
13.427165
 31
0.0
  0
LINE
  8
0
  6
CONTINUOUS
 62
     7
  5
A1A
 10
-8.375984
 20
13.427165
 30
0.0
 11
-8.375984
 21
13.820866
 31
0.0
  0
LINE
  8
0
  6
CONTINUOUS
 62
     7
  5
A1B
 10
-17.984252
 20
11.181102
 30
0.0
 11
-16.488189
 21
11.181102
 31
0.0
  0
LINE
  8
0
  6
CONTINUOUS
 62
     7
  5
A1C
 10
-16.488189
 20
11.181102
 30
0.0
 11
-16.488189
 21
9.606299
 31
0.0
  0
LINE
  8
0
  6
CONTINUOUS
 62
     7
  5
A1D
 10
-17.984252
 20
12.755906
 30
0.0
 11
-17.984252
 21
11.181102
 31
0.0
  0
LINE
  8
0
  6
CONTINUOUS
 62
     7
  5
A1E
 10
-16.488189
 20
9.606299
 30
0.0
 11
-16.212598
 21
9.606299
 31
0.0
  0
LINE
  8
0
  6
CONTINUOUS
 62
     7
  5
A1F
 10
-16.212598
 20
12.755906
 30
0.0
 11
-17.984252
 21
12.755906
 31
0.0
  0
LINE
  8
0
  6
CONTINUOUS
 62
     7
  5
A20
 10
-16.527559
 20
8.622047
 30
0.0
 11
-16.370079
 21
8.622047
 31
0.0
  0
LINE
  8
0
  6
CONTINUOUS
 62
     7
  5
A21
 10
-16.370079
 20
9.606299
 30
0.0
 11
-16.370079
 21
8.622047
 31
0.0
  0
LINE
  8
0
  6
CONTINUOUS
 62
     7
  5
A22
 10
-16.370079
 20
8.622047
 30
0.0
 11
-16.212598
 21
8.622047
 31
0.0
  0
LINE
  8
0
  6
CONTINUOUS
 62
     7
  5
A23
 10
-18.864961
 20
12.165354
 30
0.0
 11
-18.864961
 21
8.622047
 31
0.0
  0
LINE
  8
0
  6
CONTINUOUS
 62
     7
  5
A24
 10
-18.864961
 20
8.622047
 30
0.0
 11
-16.527559
 21
8.622047
 31
0.0
  0
LINE
  8
0
  6
CONTINUOUS
 62
     7
  5
A25
 10
-18.864961
 20
12.165354
 30
0.0
 11
-17.984252
 21
12.165354
 31
0.0
  0
LINE
  8
0
  6
CONTINUOUS
 62
     7
  5
A26
 10
-16.212598
 20
14.392701
 30
0.0
 11
-16.212598
 21
6.394701
 31
0.0
  0
LINE
  8
0
  6
CONTINUOUS
 62
     7
  5
A27
 10
-16.212598
 20
6.394701
 30
0.0
 11
-16.015748
 21
6.394701
 31
0.0
  0
LINE
  8
0
  6
CONTINUOUS
 62
     7
  5
A28
 10
-16.212598
 20
14.392701
 30
0.0
 11
-16.015748
 21
14.392701
 31
0.0
  0
LINE
  8
0
  6
CONTINUOUS
 62
     7
  5
A29
 10
-16.055118
 20
6.394701
 30
0.0
 11
-16.055118
 21
6.393701
 31
0.0
  0
LINE
  8
0
  6
CONTINUOUS
 62
     7
  5
A2A
 10
-16.055118
 20
6.393701
 30
0.0
 11
-15.858268
 21
6.393701
 31
0.0
  0
LINE
  8
0
  6
CONTINUOUS
 62
     7
  5
A2B
 10
-16.055118
 20
14.393701
 30
0.0
 11
-15.858268
 21
14.393701
 31
0.0
  0
LINE
  8
0
  6
CONTINUOUS
 62
     7
  5
A2C
 10
-15.858268
 20
6.393701
 30
0.0
 11
-10.551181
 21
6.393701
 31
0.0
  0
LINE
  8
0
  6
CONTINUOUS
 62
     7
  5
A2D
 10
-7.559055
 20
14.393701
 30
0.0
 11
-7.559055
 21
9.537402
 31
0.0
  0
LINE
  8
0
  6
CONTINUOUS
 62
     7
  5
A2E
 10
-15.858268
 20
14.393701
 30
0.0
 11
-7.559055
 21
14.393701
 31
0.0
  0
LINE
  8
0
  6
CONTINUOUS
 62
     7
  5
A2F
 10
-3.238325
 20
6.094333
 30
0.0
 11
-3.061417
 21
6.177165
 31
0.0
  0
LINE
  8
0
  6
CONTINUOUS
 62
     7
  5
A30
 10
-3.288721
 20
5.980315
 30
0.0
 11
-3.288673
 21
5.984724
 31
0.0
  0
LINE
  8
0
  6
CONTINUOUS
 62
     7
  5
A31
 10
-3.288673
 20
5.984724
 30
0.0
 11
-3.288531
 21
5.989126
 31
0.0
  0
LINE
  8
0
  6
CONTINUOUS
 62
     7
  5
A32
 10
-3.288531
 20
5.989126
 30
0.0
 11
-3.288293
 21
5.993517
 31
0.0
  0
LINE
  8
0
  6
CONTINUOUS
 62
     7
  5
A33
 10
-3.288293
 20
5.993517
 30
0.0
 11
-3.287962
 21
5.997889
 31
0.0
  0
LINE
  8
0
  6
CONTINUOUS
 62
     7
  5
A34
 10
-3.287962
 20
5.997889
 30
0.0
 11
-3.287536
 21
6.002236
 31
0.0
  0
LINE
  8
0
  6
CONTINUOUS
 62
     7
  5
A35
 10
-3.287536
 20
6.002236
 30
0.0
 11
-3.287017
 21
6.006553
 31
0.0
  0
LINE
  8
0
  6
CONTINUOUS
 62
     7
  5
A36
 10
-3.287017
 20
6.006553
 30
0.0
 11
-3.286405
 21
6.010833
 31
0.0
  0
LINE
  8
0
  6
CONTINUOUS
 62
     7
  5
A37
 10
-3.286405
 20
6.010833
 30
0.0
 11
-3.285701
 21
6.015071
 31
0.0
  0
LINE
  8
0
  6
CONTINUOUS
 62
     7
  5
A38
 10
-3.285701
 20
6.015071
 30
0.0
 11
-3.284907
 21
6.019261
 31
0.0
  0
LINE
  8
0
  6
CONTINUOUS
 62
     7
  5
A39
 10
-3.284907
 20
6.019261
 30
0.0
 11
-3.284023
 21
6.023396
 31
0.0
  0
LINE
  8
0
  6
CONTINUOUS
 62
     7
  5
A3A
 10
-3.284023
 20
6.023396
 30
0.0
 11
-3.28305
 21
6.027471
 31
0.0
  0
LINE
  8
0
  6
CONTINUOUS
 62
     7
  5
A3B
 10
-3.28305
 20
6.027471
 30
0.0
 11
-3.28199
 21
6.03148
 31
0.0
  0
LINE
  8
0
  6
CONTINUOUS
 62
     7
  5
A3C
 10
-3.28199
 20
6.03148
 30
0.0
 11
-3.280845
 21
6.035418
 31
0.0
  0
LINE
  8
0
  6
CONTINUOUS
 62
     7
  5
A3D
 10
-3.280845
 20
6.035418
 30
0.0
 11
-3.279615
 21
6.039279
 31
0.0
  0
LINE
  8
0
  6
CONTINUOUS
 62
     7
  5
A3E
 10
-3.279615
 20
6.039279
 30
0.0
 11
-3.278303
 21
6.043058
 31
0.0
  0
LINE
  8
0
  6
CONTINUOUS
 62
     7
  5
A3F
 10
-3.278303
 20
6.043058
 30
0.0
 11
-3.276911
 21
6.04675
 31
0.0
  0
LINE
  8
0
  6
CONTINUOUS
 62
     7
  5
A40
 10
-3.276911
 20
6.04675
 30
0.0
 11
-3.27544
 21
6.050349
 31
0.0
  0
LINE
  8
0
  6
CONTINUOUS
 62
     7
  5
A41
 10
-3.27544
 20
6.050349
 30
0.0
 11
-3.273892
 21
6.05385
 31
0.0
  0
LINE
  8
0
  6
CONTINUOUS
 62
     7
  5
A42
 10
-3.273892
 20
6.05385
 30
0.0
 11
-3.27227
 21
6.057249
 31
0.0
  0
LINE
  8
0
  6
CONTINUOUS
 62
     7
  5
A43
 10
-3.27227
 20
6.057249
 30
0.0
 11
-3.270576
 21
6.06054
 31
0.0
  0
LINE
  8
0
  6
CONTINUOUS
 62
     7
  5
A44
 10
-3.270576
 20
6.06054
 30
0.0
 11
-3.268812
 21
6.06372
 31
0.0
  0
LINE
  8
0
  6
CONTINUOUS
 62
     7
  5
A45
 10
-3.268812
 20
6.06372
 30
0.0
 11
-3.266981
 21
6.066784
 31
0.0
  0
LINE
  8
0
  6
CONTINUOUS
 62
     7
  5
A46
 10
-3.266981
 20
6.066784
 30
0.0
 11
-3.265085
 21
6.069727
 31
0.0
  0
LINE
  8
0
  6
CONTINUOUS
 62
     7
  5
A47
 10
-3.265085
 20
6.069727
 30
0.0
 11
-3.263127
 21
6.072545
 31
0.0
  0
LINE
  8
0
  6
CONTINUOUS
 62
     7
  5
A48
 10
-3.263127
 20
6.072545
 30
0.0
 11
-3.26111
 21
6.075235
 31
0.0
  0
LINE
  8
0
  6
CONTINUOUS
 62
     7
  5
A49
 10
-3.26111
 20
6.075235
 30
0.0
 11
-3.259036
 21
6.077792
 31
0.0
  0
LINE
  8
0
  6
CONTINUOUS
 62
     7
  5
A4A
 10
-3.259036
 20
6.077792
 30
0.0
 11
-3.256908
 21
6.080214
 31
0.0
  0
LINE
  8
0
  6
CONTINUOUS
 62
     7
  5
A4B
 10
-3.256908
 20
6.080214
 30
0.0
 11
-3.25473
 21
6.082496
 31
0.0
  0
LINE
  8
0
  6
CONTINUOUS
 62
     7
  5
A4C
 10
-3.25473
 20
6.082496
 30
0.0
 11
-3.252504
 21
6.084636
 31
0.0
  0
LINE
  8
0
  6
CONTINUOUS
 62
     7
  5
A4D
 10
-3.252504
 20
6.084636
 30
0.0
 11
-3.250233
 21
6.086631
 31
0.0
  0
LINE
  8
0
  6
CONTINUOUS
 62
     7
  5
A4E
 10
-3.250233
 20
6.086631
 30
0.0
 11
-3.247922
 21
6.088477
 31
0.0
  0
LINE
  8
0
  6
CONTINUOUS
 62
     7
  5
A4F
 10
-3.247922
 20
6.088477
 30
0.0
 11
-3.245571
 21
6.090173
 31
0.0
  0
LINE
  8
0
  6
CONTINUOUS
 62
     7
  5
A50
 10
-3.245571
 20
6.090173
 30
0.0
 11
-3.243186
 21
6.091715
 31
0.0
  0
LINE
  8
0
  6
CONTINUOUS
 62
     7
  5
A51
 10
-3.243186
 20
6.091715
 30
0.0
 11
-3.24077
 21
6.093103
 31
0.0
  0
LINE
  8
0
  6
CONTINUOUS
 62
     7
  5
A52
 10
-3.24077
 20
6.093103
 30
0.0
 11
-3.238325
 21
6.094333
 31
0.0
  0
LINE
  8
0
  6
CONTINUOUS
 62
     7
  5
A53
 10
-3.238325
 20
5.866297
 30
0.0
 11
-3.24077
 21
5.867527
 31
0.0
  0
LINE
  8
0
  6
CONTINUOUS
 62
     7
  5
A54
 10
-3.24077
 20
5.867527
 30
0.0
 11
-3.243186
 21
5.868915
 31
0.0
  0
LINE
  8
0
  6
CONTINUOUS
 62
     7
  5
A55
 10
-3.243186
 20
5.868915
 30
0.0
 11
-3.245571
 21
5.870457
 31
0.0
  0
LINE
  8
0
  6
CONTINUOUS
 62
     7
  5
A56
 10
-3.245571
 20
5.870457
 30
0.0
 11
-3.247922
 21
5.872153
 31
0.0
  0
LINE
  8
0
  6
CONTINUOUS
 62
     7
  5
A57
 10
-3.247922
 20
5.872153
 30
0.0
 11
-3.250233
 21
5.873999
 31
0.0
  0
LINE
  8
0
  6
CONTINUOUS
 62
     7
  5
A58
 10
-3.250233
 20
5.873999
 30
0.0
 11
-3.252504
 21
5.875994
 31
0.0
  0
LINE
  8
0
  6
CONTINUOUS
 62
     7
  5
A59
 10
-3.252504
 20
5.875994
 30
0.0
 11
-3.25473
 21
5.878134
 31
0.0
  0
LINE
  8
0
  6
CONTINUOUS
 62
     7
  5
A5A
 10
-3.25473
 20
5.878134
 30
0.0
 11
-3.256908
 21
5.880416
 31
0.0
  0
LINE
  8
0
  6
CONTINUOUS
 62
     7
  5
A5B
 10
-3.256908
 20
5.880416
 30
0.0
 11
-3.259036
 21
5.882838
 31
0.0
  0
LINE
  8
0
  6
CONTINUOUS
 62
     7
  5
A5C
 10
-3.259036
 20
5.882838
 30
0.0
 11
-3.26111
 21
5.885395
 31
0.0
  0
LINE
  8
0
  6
CONTINUOUS
 62
     7
  5
A5D
 10
-3.26111
 20
5.885395
 30
0.0
 11
-3.263127
 21
5.888085
 31
0.0
  0
LINE
  8
0
  6
CONTINUOUS
 62
     7
  5
A5E
 10
-3.263127
 20
5.888085
 30
0.0
 11
-3.265085
 21
5.890903
 31
0.0
  0
LINE
  8
0
  6
CONTINUOUS
 62
     7
  5
A5F
 10
-3.265085
 20
5.890903
 30
0.0
 11
-3.266981
 21
5.893846
 31
0.0
  0
LINE
  8
0
  6
CONTINUOUS
 62
     7
  5
A60
 10
-3.266981
 20
5.893846
 30
0.0
 11
-3.268812
 21
5.89691
 31
0.0
  0
LINE
  8
0
  6
CONTINUOUS
 62
     7
  5
A61
 10
-3.268812
 20
5.89691
 30
0.0
 11
-3.270576
 21
5.90009
 31
0.0
  0
LINE
  8
0
  6
CONTINUOUS
 62
     7
  5
A62
 10
-3.270576
 20
5.90009
 30
0.0
 11
-3.27227
 21
5.903381
 31
0.0
  0
LINE
  8
0
  6
CONTINUOUS
 62
     7
  5
A63
 10
-3.27227
 20
5.903381
 30
0.0
 11
-3.273892
 21
5.90678
 31
0.0
  0
LINE
  8
0
  6
CONTINUOUS
 62
     7
  5
A64
 10
-3.273892
 20
5.90678
 30
0.0
 11
-3.27544
 21
5.910281
 31
0.0
  0
LINE
  8
0
  6
CONTINUOUS
 62
     7
  5
A65
 10
-3.27544
 20
5.910281
 30
0.0
 11
-3.276911
 21
5.91388
 31
0.0
  0
LINE
  8
0
  6
CONTINUOUS
 62
     7
  5
A66
 10
-3.276911
 20
5.91388
 30
0.0
 11
-3.278303
 21
5.917572
 31
0.0
  0
LINE
  8
0
  6
CONTINUOUS
 62
     7
  5
A67
 10
-3.278303
 20
5.917572
 30
0.0
 11
-3.279615
 21
5.921351
 31
0.0
  0
LINE
  8
0
  6
CONTINUOUS
 62
     7
  5
A68
 10
-3.279615
 20
5.921351
 30
0.0
 11
-3.280845
 21
5.925212
 31
0.0
  0
LINE
  8
0
  6
CONTINUOUS
 62
     7
  5
A69
 10
-3.280845
 20
5.925212
 30
0.0
 11
-3.28199
 21
5.92915
 31
0.0
  0
LINE
  8
0
  6
CONTINUOUS
 62
     7
  5
A6A
 10
-3.28199
 20
5.92915
 30
0.0
 11
-3.28305
 21
5.933159
 31
0.0
  0
LINE
  8
0
  6
CONTINUOUS
 62
     7
  5
A6B
 10
-3.28305
 20
5.933159
 30
0.0
 11
-3.284023
 21
5.937234
 31
0.0
  0
LINE
  8
0
  6
CONTINUOUS
 62
     7
  5
A6C
 10
-3.284023
 20
5.937234
 30
0.0
 11
-3.284907
 21
5.941369
 31
0.0
  0
LINE
  8
0
  6
CONTINUOUS
 62
     7
  5
A6D
 10
-3.284907
 20
5.941369
 30
0.0
 11
-3.285701
 21
5.945559
 31
0.0
  0
LINE
  8
0
  6
CONTINUOUS
 62
     7
  5
A6E
 10
-3.285701
 20
5.945559
 30
0.0
 11
-3.286405
 21
5.949796
 31
0.0
  0
LINE
  8
0
  6
CONTINUOUS
 62
     7
  5
A6F
 10
-3.286405
 20
5.949796
 30
0.0
 11
-3.287017
 21
5.954077
 31
0.0
  0
LINE
  8
0
  6
CONTINUOUS
 62
     7
  5
A70
 10
-3.287017
 20
5.954077
 30
0.0
 11
-3.287536
 21
5.958394
 31
0.0
  0
LINE
  8
0
  6
CONTINUOUS
 62
     7
  5
A71
 10
-3.287536
 20
5.958394
 30
0.0
 11
-3.287962
 21
5.962741
 31
0.0
  0
LINE
  8
0
  6
CONTINUOUS
 62
     7
  5
A72
 10
-3.287962
 20
5.962741
 30
0.0
 11
-3.288293
 21
5.967113
 31
0.0
  0
LINE
  8
0
  6
CONTINUOUS
 62
     7
  5
A73
 10
-3.288293
 20
5.967113
 30
0.0
 11
-3.288531
 21
5.971504
 31
0.0
  0
LINE
  8
0
  6
CONTINUOUS
 62
     7
  5
A74
 10
-3.288531
 20
5.971504
 30
0.0
 11
-3.288673
 21
5.975906
 31
0.0
  0
LINE
  8
0
  6
CONTINUOUS
 62
     7
  5
A75
 10
-3.288673
 20
5.975906
 30
0.0
 11
-3.288721
 21
5.980315
 31
0.0
  0
LINE
  8
0
  6
CONTINUOUS
 62
     7
  5
A76
 10
-3.061417
 20
5.783465
 30
0.0
 11
-3.238325
 21
5.866297
 31
0.0
  0
LINE
  8
0
  6
CONTINUOUS
 62
     7
  5
A77
 10
-3.061417
 20
6.177165
 30
0.0
 11
-3.061417
 21
5.783465
 31
0.0
  0
LINE
  8
0
  6
CONTINUOUS
 62
     7
  5
A78
 10
-5.816793
 20
5.866297
 30
0.0
 11
-5.993701
 21
5.783465
 31
0.0
  0
LINE
  8
0
  6
CONTINUOUS
 62
     7
  5
A79
 10
-5.993701
 20
6.177165
 30
0.0
 11
-5.816793
 21
6.094333
 31
0.0
  0
LINE
  8
0
  6
CONTINUOUS
 62
     7
  5
A7A
 10
-5.993701
 20
5.783465
 30
0.0
 11
-5.993701
 21
6.177165
 31
0.0
  0
LINE
  8
0
  6
CONTINUOUS
 62
     7
  5
A7B
 10
-5.766398
 20
5.980315
 30
0.0
 11
-5.766445
 21
5.975906
 31
0.0
  0
LINE
  8
0
  6
CONTINUOUS
 62
     7
  5
A7C
 10
-5.766445
 20
5.975906
 30
0.0
 11
-5.766588
 21
5.971504
 31
0.0
  0
LINE
  8
0
  6
CONTINUOUS
 62
     7
  5
A7D
 10
-5.766588
 20
5.971504
 30
0.0
 11
-5.766825
 21
5.967113
 31
0.0
  0
LINE
  8
0
  6
CONTINUOUS
 62
     7
  5
A7E
 10
-5.766825
 20
5.967113
 30
0.0
 11
-5.767157
 21
5.962741
 31
0.0
  0
LINE
  8
0
  6
CONTINUOUS
 62
     7
  5
A7F
 10
-5.767157
 20
5.962741
 30
0.0
 11
-5.767582
 21
5.958394
 31
0.0
  0
LINE
  8
0
  6
CONTINUOUS
 62
     7
  5
A80
 10
-5.767582
 20
5.958394
 30
0.0
 11
-5.768101
 21
5.954077
 31
0.0
  0
LINE
  8
0
  6
CONTINUOUS
 62
     7
  5
A81
 10
-5.768101
 20
5.954077
 30
0.0
 11
-5.768713
 21
5.949796
 31
0.0
  0
LINE
  8
0
  6
CONTINUOUS
 62
     7
  5
A82
 10
-5.768713
 20
5.949796
 30
0.0
 11
-5.769417
 21
5.945559
 31
0.0
  0
LINE
  8
0
  6
CONTINUOUS
 62
     7
  5
A83
 10
-5.769417
 20
5.945559
 30
0.0
 11
-5.770211
 21
5.941369
 31
0.0
  0
LINE
  8
0
  6
CONTINUOUS
 62
     7
  5
A84
 10
-5.770211
 20
5.941369
 30
0.0
 11
-5.771096
 21
5.937234
 31
0.0
  0
LINE
  8
0
  6
CONTINUOUS
 62
     7
  5
A85
 10
-5.771096
 20
5.937234
 30
0.0
 11
-5.772068
 21
5.933159
 31
0.0
  0
LINE
  8
0
  6
CONTINUOUS
 62
     7
  5
A86
 10
-5.772068
 20
5.933159
 30
0.0
 11
-5.773128
 21
5.92915
 31
0.0
  0
LINE
  8
0
  6
CONTINUOUS
 62
     7
  5
A87
 10
-5.773128
 20
5.92915
 30
0.0
 11
-5.774274
 21
5.925212
 31
0.0
  0
LINE
  8
0
  6
CONTINUOUS
 62
     7
  5
A88
 10
-5.774274
 20
5.925212
 30
0.0
 11
-5.775503
 21
5.921351
 31
0.0
  0
LINE
  8
0
  6
CONTINUOUS
 62
     7
  5
A89
 10
-5.775503
 20
5.921351
 30
0.0
 11
-5.776815
 21
5.917572
 31
0.0
  0
LINE
  8
0
  6
CONTINUOUS
 62
     7
  5
A8A
 10
-5.776815
 20
5.917572
 30
0.0
 11
-5.778208
 21
5.91388
 31
0.0
  0
LINE
  8
0
  6
CONTINUOUS
 62
     7
  5
A8B
 10
-5.778208
 20
5.91388
 30
0.0
 11
-5.779679
 21
5.910281
 31
0.0
  0
LINE
  8
0
  6
CONTINUOUS
 62
     7
  5
A8C
 10
-5.779679
 20
5.910281
 30
0.0
 11
-5.781226
 21
5.90678
 31
0.0
  0
LINE
  8
0
  6
CONTINUOUS
 62
     7
  5
A8D
 10
-5.781226
 20
5.90678
 30
0.0
 11
-5.782848
 21
5.903381
 31
0.0
  0
LINE
  8
0
  6
CONTINUOUS
 62
     7
  5
A8E
 10
-5.782848
 20
5.903381
 30
0.0
 11
-5.784542
 21
5.90009
 31
0.0
  0
LINE
  8
0
  6
CONTINUOUS
 62
     7
  5
A8F
 10
-5.784542
 20
5.90009
 30
0.0
 11
-5.786306
 21
5.89691
 31
0.0
  0
LINE
  8
0
  6
CONTINUOUS
 62
     7
  5
A90
 10
-5.786306
 20
5.89691
 30
0.0
 11
-5.788137
 21
5.893846
 31
0.0
  0
LINE
  8
0
  6
CONTINUOUS
 62
     7
  5
A91
 10
-5.788137
 20
5.893846
 30
0.0
 11
-5.790033
 21
5.890903
 31
0.0
  0
LINE
  8
0
  6
CONTINUOUS
 62
     7
  5
A92
 10
-5.790033
 20
5.890903
 30
0.0
 11
-5.791991
 21
5.888085
 31
0.0
  0
LINE
  8
0
  6
CONTINUOUS
 62
     7
  5
A93
 10
-5.791991
 20
5.888085
 30
0.0
 11
-5.794008
 21
5.885395
 31
0.0
  0
LINE
  8
0
  6
CONTINUOUS
 62
     7
  5
A94
 10
-5.794008
 20
5.885395
 30
0.0
 11
-5.796082
 21
5.882838
 31
0.0
  0
LINE
  8
0
  6
CONTINUOUS
 62
     7
  5
A95
 10
-5.796082
 20
5.882838
 30
0.0
 11
-5.79821
 21
5.880416
 31
0.0
  0
LINE
  8
0
  6
CONTINUOUS
 62
     7
  5
A96
 10
-5.79821
 20
5.880416
 30
0.0
 11
-5.800388
 21
5.878134
 31
0.0
  0
LINE
  8
0
  6
CONTINUOUS
 62
     7
  5
A97
 10
-5.800388
 20
5.878134
 30
0.0
 11
-5.802614
 21
5.875994
 31
0.0
  0
LINE
  8
0
  6
CONTINUOUS
 62
     7
  5
A98
 10
-5.802614
 20
5.875994
 30
0.0
 11
-5.804885
 21
5.873999
 31
0.0
  0
LINE
  8
0
  6
CONTINUOUS
 62
     7
  5
A99
 10
-5.804885
 20
5.873999
 30
0.0
 11
-5.807197
 21
5.872153
 31
0.0
  0
LINE
  8
0
  6
CONTINUOUS
 62
     7
  5
A9A
 10
-5.807197
 20
5.872153
 30
0.0
 11
-5.809547
 21
5.870457
 31
0.0
  0
LINE
  8
0
  6
CONTINUOUS
 62
     7
  5
A9B
 10
-5.809547
 20
5.870457
 30
0.0
 11
-5.811932
 21
5.868915
 31
0.0
  0
LINE
  8
0
  6
CONTINUOUS
 62
     7
  5
A9C
 10
-5.811932
 20
5.868915
 30
0.0
 11
-5.814348
 21
5.867527
 31
0.0
  0
LINE
  8
0
  6
CONTINUOUS
 62
     7
  5
A9D
 10
-5.814348
 20
5.867527
 30
0.0
 11
-5.816793
 21
5.866297
 31
0.0
  0
LINE
  8
0
  6
CONTINUOUS
 62
     7
  5
A9E
 10
-5.816793
 20
6.094333
 30
0.0
 11
-5.814348
 21
6.093103
 31
0.0
  0
LINE
  8
0
  6
CONTINUOUS
 62
     7
  5
A9F
 10
-5.814348
 20
6.093103
 30
0.0
 11
-5.811932
 21
6.091715
 31
0.0
  0
LINE
  8
0
  6
CONTINUOUS
 62
     7
  5
AA0
 10
-5.811932
 20
6.091715
 30
0.0
 11
-5.809547
 21
6.090173
 31
0.0
  0
LINE
  8
0
  6
CONTINUOUS
 62
     7
  5
AA1
 10
-5.809547
 20
6.090173
 30
0.0
 11
-5.807197
 21
6.088477
 31
0.0
  0
LINE
  8
0
  6
CONTINUOUS
 62
     7
  5
AA2
 10
-5.807197
 20
6.088477
 30
0.0
 11
-5.804885
 21
6.086631
 31
0.0
  0
LINE
  8
0
  6
CONTINUOUS
 62
     7
  5
AA3
 10
-5.804885
 20
6.086631
 30
0.0
 11
-5.802614
 21
6.084636
 31
0.0
  0
LINE
  8
0
  6
CONTINUOUS
 62
     7
  5
AA4
 10
-5.802614
 20
6.084636
 30
0.0
 11
-5.800388
 21
6.082496
 31
0.0
  0
LINE
  8
0
  6
CONTINUOUS
 62
     7
  5
AA5
 10
-5.800388
 20
6.082496
 30
0.0
 11
-5.79821
 21
6.080214
 31
0.0
  0
LINE
  8
0
  6
CONTINUOUS
 62
     7
  5
AA6
 10
-5.79821
 20
6.080214
 30
0.0
 11
-5.796082
 21
6.077792
 31
0.0
  0
LINE
  8
0
  6
CONTINUOUS
 62
     7
  5
AA7
 10
-5.796082
 20
6.077792
 30
0.0
 11
-5.794008
 21
6.075235
 31
0.0
  0
LINE
  8
0
  6
CONTINUOUS
 62
     7
  5
AA8
 10
-5.794008
 20
6.075235
 30
0.0
 11
-5.791991
 21
6.072545
 31
0.0
  0
LINE
  8
0
  6
CONTINUOUS
 62
     7
  5
AA9
 10
-5.791991
 20
6.072545
 30
0.0
 11
-5.790033
 21
6.069727
 31
0.0
  0
LINE
  8
0
  6
CONTINUOUS
 62
     7
  5
AAA
 10
-5.790033
 20
6.069727
 30
0.0
 11
-5.788137
 21
6.066784
 31
0.0
  0
LINE
  8
0
  6
CONTINUOUS
 62
     7
  5
AAB
 10
-5.788137
 20
6.066784
 30
0.0
 11
-5.786306
 21
6.06372
 31
0.0
  0
LINE
  8
0
  6
CONTINUOUS
 62
     7
  5
AAC
 10
-5.786306
 20
6.06372
 30
0.0
 11
-5.784542
 21
6.06054
 31
0.0
  0
LINE
  8
0
  6
CONTINUOUS
 62
     7
  5
AAD
 10
-5.784542
 20
6.06054
 30
0.0
 11
-5.782848
 21
6.057249
 31
0.0
  0
LINE
  8
0
  6
CONTINUOUS
 62
     7
  5
AAE
 10
-5.782848
 20
6.057249
 30
0.0
 11
-5.781226
 21
6.05385
 31
0.0
  0
LINE
  8
0
  6
CONTINUOUS
 62
     7
  5
AAF
 10
-5.781226
 20
6.05385
 30
0.0
 11
-5.779679
 21
6.050349
 31
0.0
  0
LINE
  8
0
  6
CONTINUOUS
 62
     7
  5
AB0
 10
-5.779679
 20
6.050349
 30
0.0
 11
-5.778208
 21
6.04675
 31
0.0
  0
LINE
  8
0
  6
CONTINUOUS
 62
     7
  5
AB1
 10
-5.778208
 20
6.04675
 30
0.0
 11
-5.776815
 21
6.043058
 31
0.0
  0
LINE
  8
0
  6
CONTINUOUS
 62
     7
  5
AB2
 10
-5.776815
 20
6.043058
 30
0.0
 11
-5.775503
 21
6.039279
 31
0.0
  0
LINE
  8
0
  6
CONTINUOUS
 62
     7
  5
AB3
 10
-5.775503
 20
6.039279
 30
0.0
 11
-5.774274
 21
6.035418
 31
0.0
  0
LINE
  8
0
  6
CONTINUOUS
 62
     7
  5
AB4
 10
-5.774274
 20
6.035418
 30
0.0
 11
-5.773128
 21
6.03148
 31
0.0
  0
LINE
  8
0
  6
CONTINUOUS
 62
     7
  5
AB5
 10
-5.773128
 20
6.03148
 30
0.0
 11
-5.772068
 21
6.027471
 31
0.0
  0
LINE
  8
0
  6
CONTINUOUS
 62
     7
  5
AB6
 10
-5.772068
 20
6.027471
 30
0.0
 11
-5.771096
 21
6.023396
 31
0.0
  0
LINE
  8
0
  6
CONTINUOUS
 62
     7
  5
AB7
 10
-5.771096
 20
6.023396
 30
0.0
 11
-5.770211
 21
6.019261
 31
0.0
  0
LINE
  8
0
  6
CONTINUOUS
 62
     7
  5
AB8
 10
-5.770211
 20
6.019261
 30
0.0
 11
-5.769417
 21
6.015071
 31
0.0
  0
LINE
  8
0
  6
CONTINUOUS
 62
     7
  5
AB9
 10
-5.769417
 20
6.015071
 30
0.0
 11
-5.768713
 21
6.010833
 31
0.0
  0
LINE
  8
0
  6
CONTINUOUS
 62
     7
  5
ABA
 10
-5.768713
 20
6.010833
 30
0.0
 11
-5.768101
 21
6.006553
 31
0.0
  0
LINE
  8
0
  6
CONTINUOUS
 62
     7
  5
ABB
 10
-5.768101
 20
6.006553
 30
0.0
 11
-5.767582
 21
6.002236
 31
0.0
  0
LINE
  8
0
  6
CONTINUOUS
 62
     7
  5
ABC
 10
-5.767582
 20
6.002236
 30
0.0
 11
-5.767157
 21
5.997889
 31
0.0
  0
LINE
  8
0
  6
CONTINUOUS
 62
     7
  5
ABD
 10
-5.767157
 20
5.997889
 30
0.0
 11
-5.766825
 21
5.993517
 31
0.0
  0
LINE
  8
0
  6
CONTINUOUS
 62
     7
  5
ABE
 10
-5.766825
 20
5.993517
 30
0.0
 11
-5.766588
 21
5.989126
 31
0.0
  0
LINE
  8
0
  6
CONTINUOUS
 62
     7
  5
ABF
 10
-5.766588
 20
5.989126
 30
0.0
 11
-5.766445
 21
5.984724
 31
0.0
  0
LINE
  8
0
  6
CONTINUOUS
 62
     7
  5
AC0
 10
-5.766445
 20
5.984724
 30
0.0
 11
-5.766398
 21
5.980315
 31
0.0
  0
LINE
  8
0
  6
CONTINUOUS
 62
     7
  5
AC1
 10
-5.993701
 20
6.177165
 30
0.0
 11
-3.061417
 21
6.177165
 31
0.0
  0
CIRCLE
  8
0
  6
CONTINUOUS
 62
     7
  5
AC2
 10
-5.403543
 20
7.163386
 30
0.0
 40
0.285433
  0
CIRCLE
  8
0
  6
CONTINUOUS
 62
     7
  5
AC3
 10
-3.651575
 20
7.163386
 30
0.0
 40
0.285433
  0
CIRCLE
  8
0
  6
CONTINUOUS
 62
     7
  5
AC4
 10
-5.403543
 20
8.915354
 30
0.0
 40
0.285433
  0
CIRCLE
  8
0
  6
CONTINUOUS
 62
     7
  5
AC5
 10
-3.651575
 20
8.915354
 30
0.0
 40
0.285433
  0
LINE
  8
0
  6
CONTINUOUS
 62
     7
  5
AC6
 10
-3.031496
 20
5.783465
 30
0.0
 11
-3.031496
 21
9.537402
 31
0.0
  0
LINE
  8
0
  6
CONTINUOUS
 62
     7
  5
AC7
 10
-3.031496
 20
9.537402
 30
0.0
 11
-6.023622
 21
9.537402
 31
0.0
  0
LINE
  8
0
  6
CONTINUOUS
 62
     7
  5
AC8
 10
-6.023622
 20
9.537402
 30
0.0
 11
-6.023622
 21
5.783465
 31
0.0
  0
LINE
  8
0
  6
CONTINUOUS
 62
     7
  5
AC9
 10
-3.848425
 20
13.820866
 30
0.0
 11
-3.454724
 21
13.820866
 31
0.0
  0
LINE
  8
0
  6
CONTINUOUS
 62
     7
  5
ACA
 10
-3.848425
 20
13.427165
 30
0.0
 11
-3.848425
 21
13.820866
 31
0.0
  0
LINE
  8
0
  6
CONTINUOUS
 62
     7
  5
ACB
 10
-3.454724
 20
13.427165
 30
0.0
 11
-3.848425
 21
13.427165
 31
0.0
  0
LINE
  8
0
  6
CONTINUOUS
 62
     7
  5
ACC
 10
-3.454724
 20
13.820866
 30
0.0
 11
-3.454724
 21
13.427165
 31
0.0
  0
LINE
  8
0
  6
CONTINUOUS
 62
     7
  5
ACD
 10
-5.600394
 20
13.820866
 30
0.0
 11
-5.206693
 21
13.820866
 31
0.0
  0
LINE
  8
0
  6
CONTINUOUS
 62
     7
  5
ACE
 10
-5.600394
 20
13.427165
 30
0.0
 11
-5.600394
 21
13.820866
 31
0.0
  0
LINE
  8
0
  6
CONTINUOUS
 62
     7
  5
ACF
 10
-5.206693
 20
13.427165
 30
0.0
 11
-5.600394
 21
13.427165
 31
0.0
  0
LINE
  8
0
  6
CONTINUOUS
 62
     7
  5
AD0
 10
-5.206693
 20
13.820866
 30
0.0
 11
-5.206693
 21
13.427165
 31
0.0
  0
LINE
  8
0
  6
CONTINUOUS
 62
     7
  5
AD1
 10
-3.848425
 20
12.068898
 30
0.0
 11
-3.454724
 21
12.068898
 31
0.0
  0
LINE
  8
0
  6
CONTINUOUS
 62
     7
  5
AD2
 10
-3.848425
 20
11.675197
 30
0.0
 11
-3.848425
 21
12.068898
 31
0.0
  0
LINE
  8
0
  6
CONTINUOUS
 62
     7
  5
AD3
 10
-3.454724
 20
11.675197
 30
0.0
 11
-3.848425
 21
11.675197
 31
0.0
  0
LINE
  8
0
  6
CONTINUOUS
 62
     7
  5
AD4
 10
-3.454724
 20
12.068898
 30
0.0
 11
-3.454724
 21
11.675197
 31
0.0
  0
LINE
  8
0
  6
CONTINUOUS
 62
     7
  5
AD5
 10
-5.600394
 20
12.068898
 30
0.0
 11
-5.206693
 21
12.068898
 31
0.0
  0
LINE
  8
0
  6
CONTINUOUS
 62
     7
  5
AD6
 10
-5.600394
 20
11.675197
 30
0.0
 11
-5.600394
 21
12.068898
 31
0.0
  0
LINE
  8
0
  6
CONTINUOUS
 62
     7
  5
AD7
 10
-5.206693
 20
11.675197
 30
0.0
 11
-5.600394
 21
11.675197
 31
0.0
  0
LINE
  8
0
  6
CONTINUOUS
 62
     7
  5
AD8
 10
-5.206693
 20
12.068898
 30
0.0
 11
-5.206693
 21
11.675197
 31
0.0
  0
LINE
  8
0
  6
CONTINUOUS
 62
     7
  5
AD9
 10
-3.032496
 20
14.393701
 30
0.0
 11
-3.032496
 21
9.537402
 31
0.0
  0
LINE
  8
0
  6
CONTINUOUS
 62
     7
  5
ADA
 10
-7.559055
 20
6.393701
 30
0.0
 11
-7.551181
 21
6.393701
 31
0.0
  0
LINE
  8
0
  6
CONTINUOUS
 62
     7
  5
ADB
 10
-7.559055
 20
14.393701
 30
0.0
 11
-7.551181
 21
14.393701
 31
0.0
  0
LINE
  8
0
  6
CONTINUOUS
 62
     7
  5
ADC
 10
-7.551181
 20
6.393701
 30
0.0
 11
-6.173228
 21
6.393701
 31
0.0
  0
LINE
  8
0
  6
CONTINUOUS
 62
     7
  5
ADD
 10
-7.551181
 20
14.393701
 30
0.0
 11
-6.173228
 21
14.393701
 31
0.0
  0
LINE
  8
0
  6
CONTINUOUS
 62
     7
  5
ADE
 10
-6.173228
 20
14.393701
 30
0.0
 11
-6.173228
 21
6.393701
 31
0.0
  0
LINE
  8
0
  6
CONTINUOUS
 62
     7
  5
ADF
 10
-6.173228
 20
6.393701
 30
0.0
 11
-6.02367
 21
6.393701
 31
0.0
  0
LINE
  8
0
  6
CONTINUOUS
 62
     7
  5
AE0
 10
-6.173228
 20
14.393701
 30
0.0
 11
-6.015748
 21
14.393701
 31
0.0
  0
LINE
  8
0
  6
CONTINUOUS
 62
     7
  5
AE1
 10
-6.015748
 20
14.393701
 30
0.0
 11
-3.032496
 21
14.393701
 31
0.0
  0
LINE
  8
0
  6
CONTINUOUS
 62
     7
  5
AE2
 10
1.289234
 20
6.094333
 30
0.0
 11
1.466142
 21
6.177165
 31
0.0
  0
LINE
  8
0
  6
CONTINUOUS
 62
     7
  5
AE3
 10
1.238838
 20
5.980315
 30
0.0
 11
1.238886
 21
5.984724
 31
0.0
  0
LINE
  8
0
  6
CONTINUOUS
 62
     7
  5
AE4
 10
1.238886
 20
5.984724
 30
0.0
 11
1.239029
 21
5.989126
 31
0.0
  0
LINE
  8
0
  6
CONTINUOUS
 62
     7
  5
AE5
 10
1.239029
 20
5.989126
 30
0.0
 11
1.239266
 21
5.993517
 31
0.0
  0
LINE
  8
0
  6
CONTINUOUS
 62
     7
  5
AE6
 10
1.239266
 20
5.993517
 30
0.0
 11
1.239598
 21
5.997889
 31
0.0
  0
LINE
  8
0
  6
CONTINUOUS
 62
     7
  5
AE7
 10
1.239598
 20
5.997889
 30
0.0
 11
1.240023
 21
6.002236
 31
0.0
  0
LINE
  8
0
  6
CONTINUOUS
 62
     7
  5
AE8
 10
1.240023
 20
6.002236
 30
0.0
 11
1.240542
 21
6.006553
 31
0.0
  0
LINE
  8
0
  6
CONTINUOUS
 62
     7
  5
AE9
 10
1.240542
 20
6.006553
 30
0.0
 11
1.241154
 21
6.010833
 31
0.0
  0
LINE
  8
0
  6
CONTINUOUS
 62
     7
  5
AEA
 10
1.241154
 20
6.010833
 30
0.0
 11
1.241858
 21
6.015071
 31
0.0
  0
LINE
  8
0
  6
CONTINUOUS
 62
     7
  5
AEB
 10
1.241858
 20
6.015071
 30
0.0
 11
1.242652
 21
6.019261
 31
0.0
  0
LINE
  8
0
  6
CONTINUOUS
 62
     7
  5
AEC
 10
1.242652
 20
6.019261
 30
0.0
 11
1.243536
 21
6.023396
 31
0.0
  0
LINE
  8
0
  6
CONTINUOUS
 62
     7
  5
AED
 10
1.243536
 20
6.023396
 30
0.0
 11
1.244509
 21
6.027471
 31
0.0
  0
LINE
  8
0
  6
CONTINUOUS
 62
     7
  5
AEE
 10
1.244509
 20
6.027471
 30
0.0
 11
1.245569
 21
6.03148
 31
0.0
  0
LINE
  8
0
  6
CONTINUOUS
 62
     7
  5
AEF
 10
1.245569
 20
6.03148
 30
0.0
 11
1.246715
 21
6.035418
 31
0.0
  0
LINE
  8
0
  6
CONTINUOUS
 62
     7
  5
AF0
 10
1.246715
 20
6.035418
 30
0.0
 11
1.247944
 21
6.039279
 31
0.0
  0
LINE
  8
0
  6
CONTINUOUS
 62
     7
  5
AF1
 10
1.247944
 20
6.039279
 30
0.0
 11
1.249256
 21
6.043058
 31
0.0
  0
LINE
  8
0
  6
CONTINUOUS
 62
     7
  5
AF2
 10
1.249256
 20
6.043058
 30
0.0
 11
1.250648
 21
6.04675
 31
0.0
  0
LINE
  8
0
  6
CONTINUOUS
 62
     7
  5
AF3
 10
1.250648
 20
6.04675
 30
0.0
 11
1.25212
 21
6.050349
 31
0.0
  0
LINE
  8
0
  6
CONTINUOUS
 62
     7
  5
AF4
 10
1.25212
 20
6.050349
 30
0.0
 11
1.253667
 21
6.05385
 31
0.0
  0
LINE
  8
0
  6
CONTINUOUS
 62
     7
  5
AF5
 10
1.253667
 20
6.05385
 30
0.0
 11
1.255289
 21
6.057249
 31
0.0
  0
LINE
  8
0
  6
CONTINUOUS
 62
     7
  5
AF6
 10
1.255289
 20
6.057249
 30
0.0
 11
1.256983
 21
6.06054
 31
0.0
  0
LINE
  8
0
  6
CONTINUOUS
 62
     7
  5
AF7
 10
1.256983
 20
6.06054
 30
0.0
 11
1.258747
 21
6.06372
 31
0.0
  0
LINE
  8
0
  6
CONTINUOUS
 62
     7
  5
AF8
 10
1.258747
 20
6.06372
 30
0.0
 11
1.260578
 21
6.066784
 31
0.0
  0
LINE
  8
0
  6
CONTINUOUS
 62
     7
  5
AF9
 10
1.260578
 20
6.066784
 30
0.0
 11
1.262474
 21
6.069727
 31
0.0
  0
LINE
  8
0
  6
CONTINUOUS
 62
     7
  5
AFA
 10
1.262474
 20
6.069727
 30
0.0
 11
1.264432
 21
6.072545
 31
0.0
  0
LINE
  8
0
  6
CONTINUOUS
 62
     7
  5
AFB
 10
1.264432
 20
6.072545
 30
0.0
 11
1.266449
 21
6.075235
 31
0.0
  0
LINE
  8
0
  6
CONTINUOUS
 62
     7
  5
AFC
 10
1.266449
 20
6.075235
 30
0.0
 11
1.268523
 21
6.077792
 31
0.0
  0
LINE
  8
0
  6
CONTINUOUS
 62
     7
  5
AFD
 10
1.268523
 20
6.077792
 30
0.0
 11
1.270651
 21
6.080214
 31
0.0
  0
LINE
  8
0
  6
CONTINUOUS
 62
     7
  5
AFE
 10
1.270651
 20
6.080214
 30
0.0
 11
1.272829
 21
6.082496
 31
0.0
  0
LINE
  8
0
  6
CONTINUOUS
 62
     7
  5
AFF
 10
1.272829
 20
6.082496
 30
0.0
 11
1.275055
 21
6.084636
 31
0.0
  0
LINE
  8
0
  6
CONTINUOUS
 62
     7
  5
B00
 10
1.275055
 20
6.084636
 30
0.0
 11
1.277326
 21
6.086631
 31
0.0
  0
LINE
  8
0
  6
CONTINUOUS
 62
     7
  5
B01
 10
1.277326
 20
6.086631
 30
0.0
 11
1.279638
 21
6.088477
 31
0.0
  0
LINE
  8
0
  6
CONTINUOUS
 62
     7
  5
B02
 10
1.279638
 20
6.088477
 30
0.0
 11
1.281988
 21
6.090173
 31
0.0
  0
LINE
  8
0
  6
CONTINUOUS
 62
     7
  5
B03
 10
1.281988
 20
6.090173
 30
0.0
 11
1.284373
 21
6.091715
 31
0.0
  0
LINE
  8
0
  6
CONTINUOUS
 62
     7
  5
B04
 10
1.284373
 20
6.091715
 30
0.0
 11
1.286789
 21
6.093103
 31
0.0
  0
LINE
  8
0
  6
CONTINUOUS
 62
     7
  5
B05
 10
1.286789
 20
6.093103
 30
0.0
 11
1.289234
 21
6.094333
 31
0.0
  0
LINE
  8
0
  6
CONTINUOUS
 62
     7
  5
B06
 10
1.289234
 20
5.866297
 30
0.0
 11
1.286789
 21
5.867527
 31
0.0
  0
LINE
  8
0
  6
CONTINUOUS
 62
     7
  5
B07
 10
1.286789
 20
5.867527
 30
0.0
 11
1.284373
 21
5.868915
 31
0.0
  0
LINE
  8
0
  6
CONTINUOUS
 62
     7
  5
B08
 10
1.284373
 20
5.868915
 30
0.0
 11
1.281988
 21
5.870457
 31
0.0
  0
LINE
  8
0
  6
CONTINUOUS
 62
     7
  5
B09
 10
1.281988
 20
5.870457
 30
0.0
 11
1.279638
 21
5.872153
 31
0.0
  0
LINE
  8
0
  6
CONTINUOUS
 62
     7
  5
B0A
 10
1.279638
 20
5.872153
 30
0.0
 11
1.277326
 21
5.873999
 31
0.0
  0
LINE
  8
0
  6
CONTINUOUS
 62
     7
  5
B0B
 10
1.277326
 20
5.873999
 30
0.0
 11
1.275055
 21
5.875994
 31
0.0
  0
LINE
  8
0
  6
CONTINUOUS
 62
     7
  5
B0C
 10
1.275055
 20
5.875994
 30
0.0
 11
1.272829
 21
5.878134
 31
0.0
  0
LINE
  8
0
  6
CONTINUOUS
 62
     7
  5
B0D
 10
1.272829
 20
5.878134
 30
0.0
 11
1.270651
 21
5.880416
 31
0.0
  0
LINE
  8
0
  6
CONTINUOUS
 62
     7
  5
B0E
 10
1.270651
 20
5.880416
 30
0.0
 11
1.268523
 21
5.882838
 31
0.0
  0
LINE
  8
0
  6
CONTINUOUS
 62
     7
  5
B0F
 10
1.268523
 20
5.882838
 30
0.0
 11
1.266449
 21
5.885395
 31
0.0
  0
LINE
  8
0
  6
CONTINUOUS
 62
     7
  5
B10
 10
1.266449
 20
5.885395
 30
0.0
 11
1.264432
 21
5.888085
 31
0.0
  0
LINE
  8
0
  6
CONTINUOUS
 62
     7
  5
B11
 10
1.264432
 20
5.888085
 30
0.0
 11
1.262474
 21
5.890903
 31
0.0
  0
LINE
  8
0
  6
CONTINUOUS
 62
     7
  5
B12
 10
1.262474
 20
5.890903
 30
0.0
 11
1.260578
 21
5.893846
 31
0.0
  0
LINE
  8
0
  6
CONTINUOUS
 62
     7
  5
B13
 10
1.260578
 20
5.893846
 30
0.0
 11
1.258747
 21
5.89691
 31
0.0
  0
LINE
  8
0
  6
CONTINUOUS
 62
     7
  5
B14
 10
1.258747
 20
5.89691
 30
0.0
 11
1.256983
 21
5.90009
 31
0.0
  0
LINE
  8
0
  6
CONTINUOUS
 62
     7
  5
B15
 10
1.256983
 20
5.90009
 30
0.0
 11
1.255289
 21
5.903381
 31
0.0
  0
LINE
  8
0
  6
CONTINUOUS
 62
     7
  5
B16
 10
1.255289
 20
5.903381
 30
0.0
 11
1.253667
 21
5.90678
 31
0.0
  0
LINE
  8
0
  6
CONTINUOUS
 62
     7
  5
B17
 10
1.253667
 20
5.90678
 30
0.0
 11
1.25212
 21
5.910281
 31
0.0
  0
LINE
  8
0
  6
CONTINUOUS
 62
     7
  5
B18
 10
1.25212
 20
5.910281
 30
0.0
 11
1.250648
 21
5.91388
 31
0.0
  0
LINE
  8
0
  6
CONTINUOUS
 62
     7
  5
B19
 10
1.250648
 20
5.91388
 30
0.0
 11
1.249256
 21
5.917572
 31
0.0
  0
LINE
  8
0
  6
CONTINUOUS
 62
     7
  5
B1A
 10
1.249256
 20
5.917572
 30
0.0
 11
1.247944
 21
5.921351
 31
0.0
  0
LINE
  8
0
  6
CONTINUOUS
 62
     7
  5
B1B
 10
1.247944
 20
5.921351
 30
0.0
 11
1.246715
 21
5.925212
 31
0.0
  0
LINE
  8
0
  6
CONTINUOUS
 62
     7
  5
B1C
 10
1.246715
 20
5.925212
 30
0.0
 11
1.245569
 21
5.92915
 31
0.0
  0
LINE
  8
0
  6
CONTINUOUS
 62
     7
  5
B1D
 10
1.245569
 20
5.92915
 30
0.0
 11
1.244509
 21
5.933159
 31
0.0
  0
LINE
  8
0
  6
CONTINUOUS
 62
     7
  5
B1E
 10
1.244509
 20
5.933159
 30
0.0
 11
1.243536
 21
5.937234
 31
0.0
  0
LINE
  8
0
  6
CONTINUOUS
 62
     7
  5
B1F
 10
1.243536
 20
5.937234
 30
0.0
 11
1.242652
 21
5.941369
 31
0.0
  0
LINE
  8
0
  6
CONTINUOUS
 62
     7
  5
B20
 10
1.242652
 20
5.941369
 30
0.0
 11
1.241858
 21
5.945559
 31
0.0
  0
LINE
  8
0
  6
CONTINUOUS
 62
     7
  5
B21
 10
1.241858
 20
5.945559
 30
0.0
 11
1.241154
 21
5.949796
 31
0.0
  0
LINE
  8
0
  6
CONTINUOUS
 62
     7
  5
B22
 10
1.241154
 20
5.949796
 30
0.0
 11
1.240542
 21
5.954077
 31
0.0
  0
LINE
  8
0
  6
CONTINUOUS
 62
     7
  5
B23
 10
1.240542
 20
5.954077
 30
0.0
 11
1.240023
 21
5.958394
 31
0.0
  0
LINE
  8
0
  6
CONTINUOUS
 62
     7
  5
B24
 10
1.240023
 20
5.958394
 30
0.0
 11
1.239598
 21
5.962741
 31
0.0
  0
LINE
  8
0
  6
CONTINUOUS
 62
     7
  5
B25
 10
1.239598
 20
5.962741
 30
0.0
 11
1.239266
 21
5.967113
 31
0.0
  0
LINE
  8
0
  6
CONTINUOUS
 62
     7
  5
B26
 10
1.239266
 20
5.967113
 30
0.0
 11
1.239029
 21
5.971504
 31
0.0
  0
LINE
  8
0
  6
CONTINUOUS
 62
     7
  5
B27
 10
1.239029
 20
5.971504
 30
0.0
 11
1.238886
 21
5.975906
 31
0.0
  0
LINE
  8
0
  6
CONTINUOUS
 62
     7
  5
B28
 10
1.238886
 20
5.975906
 30
0.0
 11
1.238838
 21
5.980315
 31
0.0
  0
LINE
  8
0
  6
CONTINUOUS
 62
     7
  5
B29
 10
1.466142
 20
5.783465
 30
0.0
 11
1.289234
 21
5.866297
 31
0.0
  0
LINE
  8
0
  6
CONTINUOUS
 62
     7
  5
B2A
 10
1.466142
 20
6.177165
 30
0.0
 11
1.466142
 21
5.783465
 31
0.0
  0
LINE
  8
0
  6
CONTINUOUS
 62
     7
  5
B2B
 10
-1.289234
 20
5.866297
 30
0.0
 11
-1.466142
 21
5.783465
 31
0.0
  0
LINE
  8
0
  6
CONTINUOUS
 62
     7
  5
B2C
 10
-1.466142
 20
6.177165
 30
0.0
 11
-1.289234
 21
6.094333
 31
0.0
  0
LINE
  8
0
  6
CONTINUOUS
 62
     7
  5
B2D
 10
-1.466142
 20
5.783465
 30
0.0
 11
-1.466142
 21
6.177165
 31
0.0
  0
LINE
  8
0
  6
CONTINUOUS
 62
     7
  5
B2E
 10
-1.238838
 20
5.980315
 30
0.0
 11
-1.238886
 21
5.975906
 31
0.0
  0
LINE
  8
0
  6
CONTINUOUS
 62
     7
  5
B2F
 10
-1.238886
 20
5.975906
 30
0.0
 11
-1.239029
 21
5.971504
 31
0.0
  0
LINE
  8
0
  6
CONTINUOUS
 62
     7
  5
B30
 10
-1.239029
 20
5.971504
 30
0.0
 11
-1.239266
 21
5.967113
 31
0.0
  0
LINE
  8
0
  6
CONTINUOUS
 62
     7
  5
B31
 10
-1.239266
 20
5.967113
 30
0.0
 11
-1.239598
 21
5.962741
 31
0.0
  0
LINE
  8
0
  6
CONTINUOUS
 62
     7
  5
B32
 10
-1.239598
 20
5.962741
 30
0.0
 11
-1.240023
 21
5.958394
 31
0.0
  0
LINE
  8
0
  6
CONTINUOUS
 62
     7
  5
B33
 10
-1.240023
 20
5.958394
 30
0.0
 11
-1.240542
 21
5.954077
 31
0.0
  0
LINE
  8
0
  6
CONTINUOUS
 62
     7
  5
B34
 10
-1.240542
 20
5.954077
 30
0.0
 11
-1.241154
 21
5.949796
 31
0.0
  0
LINE
  8
0
  6
CONTINUOUS
 62
     7
  5
B35
 10
-1.241154
 20
5.949796
 30
0.0
 11
-1.241858
 21
5.945559
 31
0.0
  0
LINE
  8
0
  6
CONTINUOUS
 62
     7
  5
B36
 10
-1.241858
 20
5.945559
 30
0.0
 11
-1.242652
 21
5.941369
 31
0.0
  0
LINE
  8
0
  6
CONTINUOUS
 62
     7
  5
B37
 10
-1.242652
 20
5.941369
 30
0.0
 11
-1.243536
 21
5.937234
 31
0.0
  0
LINE
  8
0
  6
CONTINUOUS
 62
     7
  5
B38
 10
-1.243536
 20
5.937234
 30
0.0
 11
-1.244509
 21
5.933159
 31
0.0
  0
LINE
  8
0
  6
CONTINUOUS
 62
     7
  5
B39
 10
-1.244509
 20
5.933159
 30
0.0
 11
-1.245569
 21
5.92915
 31
0.0
  0
LINE
  8
0
  6
CONTINUOUS
 62
     7
  5
B3A
 10
-1.245569
 20
5.92915
 30
0.0
 11
-1.246715
 21
5.925212
 31
0.0
  0
LINE
  8
0
  6
CONTINUOUS
 62
     7
  5
B3B
 10
-1.246715
 20
5.925212
 30
0.0
 11
-1.247944
 21
5.921351
 31
0.0
  0
LINE
  8
0
  6
CONTINUOUS
 62
     7
  5
B3C
 10
-1.247944
 20
5.921351
 30
0.0
 11
-1.249256
 21
5.917572
 31
0.0
  0
LINE
  8
0
  6
CONTINUOUS
 62
     7
  5
B3D
 10
-1.249256
 20
5.917572
 30
0.0
 11
-1.250648
 21
5.91388
 31
0.0
  0
LINE
  8
0
  6
CONTINUOUS
 62
     7
  5
B3E
 10
-1.250648
 20
5.91388
 30
0.0
 11
-1.25212
 21
5.910281
 31
0.0
  0
LINE
  8
0
  6
CONTINUOUS
 62
     7
  5
B3F
 10
-1.25212
 20
5.910281
 30
0.0
 11
-1.253667
 21
5.90678
 31
0.0
  0
LINE
  8
0
  6
CONTINUOUS
 62
     7
  5
B40
 10
-1.253667
 20
5.90678
 30
0.0
 11
-1.255289
 21
5.903381
 31
0.0
  0
LINE
  8
0
  6
CONTINUOUS
 62
     7
  5
B41
 10
-1.255289
 20
5.903381
 30
0.0
 11
-1.256983
 21
5.90009
 31
0.0
  0
LINE
  8
0
  6
CONTINUOUS
 62
     7
  5
B42
 10
-1.256983
 20
5.90009
 30
0.0
 11
-1.258747
 21
5.89691
 31
0.0
  0
LINE
  8
0
  6
CONTINUOUS
 62
     7
  5
B43
 10
-1.258747
 20
5.89691
 30
0.0
 11
-1.260578
 21
5.893846
 31
0.0
  0
LINE
  8
0
  6
CONTINUOUS
 62
     7
  5
B44
 10
-1.260578
 20
5.893846
 30
0.0
 11
-1.262474
 21
5.890903
 31
0.0
  0
LINE
  8
0
  6
CONTINUOUS
 62
     7
  5
B45
 10
-1.262474
 20
5.890903
 30
0.0
 11
-1.264432
 21
5.888085
 31
0.0
  0
LINE
  8
0
  6
CONTINUOUS
 62
     7
  5
B46
 10
-1.264432
 20
5.888085
 30
0.0
 11
-1.266449
 21
5.885395
 31
0.0
  0
LINE
  8
0
  6
CONTINUOUS
 62
     7
  5
B47
 10
-1.266449
 20
5.885395
 30
0.0
 11
-1.268523
 21
5.882838
 31
0.0
  0
LINE
  8
0
  6
CONTINUOUS
 62
     7
  5
B48
 10
-1.268523
 20
5.882838
 30
0.0
 11
-1.270651
 21
5.880416
 31
0.0
  0
LINE
  8
0
  6
CONTINUOUS
 62
     7
  5
B49
 10
-1.270651
 20
5.880416
 30
0.0
 11
-1.272829
 21
5.878134
 31
0.0
  0
LINE
  8
0
  6
CONTINUOUS
 62
     7
  5
B4A
 10
-1.272829
 20
5.878134
 30
0.0
 11
-1.275055
 21
5.875994
 31
0.0
  0
LINE
  8
0
  6
CONTINUOUS
 62
     7
  5
B4B
 10
-1.275055
 20
5.875994
 30
0.0
 11
-1.277326
 21
5.873999
 31
0.0
  0
LINE
  8
0
  6
CONTINUOUS
 62
     7
  5
B4C
 10
-1.277326
 20
5.873999
 30
0.0
 11
-1.279638
 21
5.872153
 31
0.0
  0
LINE
  8
0
  6
CONTINUOUS
 62
     7
  5
B4D
 10
-1.279638
 20
5.872153
 30
0.0
 11
-1.281988
 21
5.870457
 31
0.0
  0
LINE
  8
0
  6
CONTINUOUS
 62
     7
  5
B4E
 10
-1.281988
 20
5.870457
 30
0.0
 11
-1.284373
 21
5.868915
 31
0.0
  0
LINE
  8
0
  6
CONTINUOUS
 62
     7
  5
B4F
 10
-1.284373
 20
5.868915
 30
0.0
 11
-1.286789
 21
5.867527
 31
0.0
  0
LINE
  8
0
  6
CONTINUOUS
 62
     7
  5
B50
 10
-1.286789
 20
5.867527
 30
0.0
 11
-1.289234
 21
5.866297
 31
0.0
  0
LINE
  8
0
  6
CONTINUOUS
 62
     7
  5
B51
 10
-1.289234
 20
6.094333
 30
0.0
 11
-1.286789
 21
6.093103
 31
0.0
  0
LINE
  8
0
  6
CONTINUOUS
 62
     7
  5
B52
 10
-1.286789
 20
6.093103
 30
0.0
 11
-1.284373
 21
6.091715
 31
0.0
  0
LINE
  8
0
  6
CONTINUOUS
 62
     7
  5
B53
 10
-1.284373
 20
6.091715
 30
0.0
 11
-1.281988
 21
6.090173
 31
0.0
  0
LINE
  8
0
  6
CONTINUOUS
 62
     7
  5
B54
 10
-1.281988
 20
6.090173
 30
0.0
 11
-1.279638
 21
6.088477
 31
0.0
  0
LINE
  8
0
  6
CONTINUOUS
 62
     7
  5
B55
 10
-1.279638
 20
6.088477
 30
0.0
 11
-1.277326
 21
6.086631
 31
0.0
  0
LINE
  8
0
  6
CONTINUOUS
 62
     7
  5
B56
 10
-1.277326
 20
6.086631
 30
0.0
 11
-1.275055
 21
6.084636
 31
0.0
  0
LINE
  8
0
  6
CONTINUOUS
 62
     7
  5
B57
 10
-1.275055
 20
6.084636
 30
0.0
 11
-1.272829
 21
6.082496
 31
0.0
  0
LINE
  8
0
  6
CONTINUOUS
 62
     7
  5
B58
 10
-1.272829
 20
6.082496
 30
0.0
 11
-1.270651
 21
6.080214
 31
0.0
  0
LINE
  8
0
  6
CONTINUOUS
 62
     7
  5
B59
 10
-1.270651
 20
6.080214
 30
0.0
 11
-1.268523
 21
6.077792
 31
0.0
  0
LINE
  8
0
  6
CONTINUOUS
 62
     7
  5
B5A
 10
-1.268523
 20
6.077792
 30
0.0
 11
-1.266449
 21
6.075235
 31
0.0
  0
LINE
  8
0
  6
CONTINUOUS
 62
     7
  5
B5B
 10
-1.266449
 20
6.075235
 30
0.0
 11
-1.264432
 21
6.072545
 31
0.0
  0
LINE
  8
0
  6
CONTINUOUS
 62
     7
  5
B5C
 10
-1.264432
 20
6.072545
 30
0.0
 11
-1.262474
 21
6.069727
 31
0.0
  0
LINE
  8
0
  6
CONTINUOUS
 62
     7
  5
B5D
 10
-1.262474
 20
6.069727
 30
0.0
 11
-1.260578
 21
6.066784
 31
0.0
  0
LINE
  8
0
  6
CONTINUOUS
 62
     7
  5
B5E
 10
-1.260578
 20
6.066784
 30
0.0
 11
-1.258747
 21
6.06372
 31
0.0
  0
LINE
  8
0
  6
CONTINUOUS
 62
     7
  5
B5F
 10
-1.258747
 20
6.06372
 30
0.0
 11
-1.256983
 21
6.06054
 31
0.0
  0
LINE
  8
0
  6
CONTINUOUS
 62
     7
  5
B60
 10
-1.256983
 20
6.06054
 30
0.0
 11
-1.255289
 21
6.057249
 31
0.0
  0
LINE
  8
0
  6
CONTINUOUS
 62
     7
  5
B61
 10
-1.255289
 20
6.057249
 30
0.0
 11
-1.253667
 21
6.05385
 31
0.0
  0
LINE
  8
0
  6
CONTINUOUS
 62
     7
  5
B62
 10
-1.253667
 20
6.05385
 30
0.0
 11
-1.25212
 21
6.050349
 31
0.0
  0
LINE
  8
0
  6
CONTINUOUS
 62
     7
  5
B63
 10
-1.25212
 20
6.050349
 30
0.0
 11
-1.250648
 21
6.04675
 31
0.0
  0
LINE
  8
0
  6
CONTINUOUS
 62
     7
  5
B64
 10
-1.250648
 20
6.04675
 30
0.0
 11
-1.249256
 21
6.043058
 31
0.0
  0
LINE
  8
0
  6
CONTINUOUS
 62
     7
  5
B65
 10
-1.249256
 20
6.043058
 30
0.0
 11
-1.247944
 21
6.039279
 31
0.0
  0
LINE
  8
0
  6
CONTINUOUS
 62
     7
  5
B66
 10
-1.247944
 20
6.039279
 30
0.0
 11
-1.246715
 21
6.035418
 31
0.0
  0
LINE
  8
0
  6
CONTINUOUS
 62
     7
  5
B67
 10
-1.246715
 20
6.035418
 30
0.0
 11
-1.245569
 21
6.03148
 31
0.0
  0
LINE
  8
0
  6
CONTINUOUS
 62
     7
  5
B68
 10
-1.245569
 20
6.03148
 30
0.0
 11
-1.244509
 21
6.027471
 31
0.0
  0
LINE
  8
0
  6
CONTINUOUS
 62
     7
  5
B69
 10
-1.244509
 20
6.027471
 30
0.0
 11
-1.243536
 21
6.023396
 31
0.0
  0
LINE
  8
0
  6
CONTINUOUS
 62
     7
  5
B6A
 10
-1.243536
 20
6.023396
 30
0.0
 11
-1.242652
 21
6.019261
 31
0.0
  0
LINE
  8
0
  6
CONTINUOUS
 62
     7
  5
B6B
 10
-1.242652
 20
6.019261
 30
0.0
 11
-1.241858
 21
6.015071
 31
0.0
  0
LINE
  8
0
  6
CONTINUOUS
 62
     7
  5
B6C
 10
-1.241858
 20
6.015071
 30
0.0
 11
-1.241154
 21
6.010833
 31
0.0
  0
LINE
  8
0
  6
CONTINUOUS
 62
     7
  5
B6D
 10
-1.241154
 20
6.010833
 30
0.0
 11
-1.240542
 21
6.006553
 31
0.0
  0
LINE
  8
0
  6
CONTINUOUS
 62
     7
  5
B6E
 10
-1.240542
 20
6.006553
 30
0.0
 11
-1.240023
 21
6.002236
 31
0.0
  0
LINE
  8
0
  6
CONTINUOUS
 62
     7
  5
B6F
 10
-1.240023
 20
6.002236
 30
0.0
 11
-1.239598
 21
5.997889
 31
0.0
  0
LINE
  8
0
  6
CONTINUOUS
 62
     7
  5
B70
 10
-1.239598
 20
5.997889
 30
0.0
 11
-1.239266
 21
5.993517
 31
0.0
  0
LINE
  8
0
  6
CONTINUOUS
 62
     7
  5
B71
 10
-1.239266
 20
5.993517
 30
0.0
 11
-1.239029
 21
5.989126
 31
0.0
  0
LINE
  8
0
  6
CONTINUOUS
 62
     7
  5
B72
 10
-1.239029
 20
5.989126
 30
0.0
 11
-1.238886
 21
5.984724
 31
0.0
  0
LINE
  8
0
  6
CONTINUOUS
 62
     7
  5
B73
 10
-1.238886
 20
5.984724
 30
0.0
 11
-1.238838
 21
5.980315
 31
0.0
  0
LINE
  8
0
  6
CONTINUOUS
 62
     7
  5
B74
 10
-1.466142
 20
6.177165
 30
0.0
 11
1.466142
 21
6.177165
 31
0.0
  0
CIRCLE
  8
0
  6
CONTINUOUS
 62
     7
  5
B75
 10
-0.875984
 20
7.163386
 30
0.0
 40
0.285433
  0
CIRCLE
  8
0
  6
CONTINUOUS
 62
     7
  5
B76
 10
0.875984
 20
7.163386
 30
0.0
 40
0.285433
  0
CIRCLE
  8
0
  6
CONTINUOUS
 62
     7
  5
B77
 10
-0.875984
 20
8.915354
 30
0.0
 40
0.285433
  0
CIRCLE
  8
0
  6
CONTINUOUS
 62
     7
  5
B78
 10
0.875984
 20
8.915354
 30
0.0
 40
0.285433
  0
LINE
  8
0
  6
CONTINUOUS
 62
     7
  5
B79
 10
1.496063
 20
5.783465
 30
0.0
 11
1.496063
 21
9.537402
 31
0.0
  0
LINE
  8
0
  6
CONTINUOUS
 62
     7
  5
B7A
 10
1.496063
 20
9.537402
 30
0.0
 11
-1.496063
 21
9.537402
 31
0.0
  0
LINE
  8
0
  6
CONTINUOUS
 62
     7
  5
B7B
 10
-1.496063
 20
9.537402
 30
0.0
 11
-1.496063
 21
5.783465
 31
0.0
  0
LINE
  8
0
  6
CONTINUOUS
 62
     7
  5
B7C
 10
1.495063
 20
14.392701
 30
0.0
 11
1.495063
 21
9.537402
 31
0.0
  0
LINE
  8
0
  6
CONTINUOUS
 62
     7
  5
B7D
 10
0.19685
 20
14.392701
 30
0.0
 11
1.495063
 21
14.392701
 31
0.0
  0
LINE
  8
0
  6
CONTINUOUS
 62
     7
  5
B7E
 10
0.679134
 20
12.068898
 30
0.0
 11
1.072835
 21
12.068898
 31
0.0
  0
LINE
  8
0
  6
CONTINUOUS
 62
     7
  5
B7F
 10
1.072835
 20
12.068898
 30
0.0
 11
1.072835
 21
11.675197
 31
0.0
  0
LINE
  8
0
  6
CONTINUOUS
 62
     7
  5
B80
 10
1.072835
 20
11.675197
 30
0.0
 11
0.679134
 21
11.675197
 31
0.0
  0
LINE
  8
0
  6
CONTINUOUS
 62
     7
  5
B81
 10
0.679134
 20
11.675197
 30
0.0
 11
0.679134
 21
12.068898
 31
0.0
  0
LINE
  8
0
  6
CONTINUOUS
 62
     7
  5
B82
 10
0.679134
 20
13.820866
 30
0.0
 11
1.072835
 21
13.820866
 31
0.0
  0
LINE
  8
0
  6
CONTINUOUS
 62
     7
  5
B83
 10
1.072835
 20
13.820866
 30
0.0
 11
1.072835
 21
13.427165
 31
0.0
  0
LINE
  8
0
  6
CONTINUOUS
 62
     7
  5
B84
 10
1.072835
 20
13.427165
 30
0.0
 11
0.679134
 21
13.427165
 31
0.0
  0
LINE
  8
0
  6
CONTINUOUS
 62
     7
  5
B85
 10
0.679134
 20
13.427165
 30
0.0
 11
0.679134
 21
13.820866
 31
0.0
  0
LINE
  8
0
  6
CONTINUOUS
 62
     7
  5
B86
 10
-1.929134
 20
11.181102
 30
0.0
 11
-1.495063
 21
11.181102
 31
0.0
  0
LINE
  8
0
  6
CONTINUOUS
 62
     7
  5
B87
 10
-1.929134
 20
12.755906
 30
0.0
 11
-1.929134
 21
11.181102
 31
0.0
  0
LINE
  8
0
  6
CONTINUOUS
 62
     7
  5
B88
 10
-1.495063
 20
12.755906
 30
0.0
 11
-1.929134
 21
12.755906
 31
0.0
  0
LINE
  8
0
  6
CONTINUOUS
 62
     7
  5
B89
 10
1.495063
 20
11.181102
 30
0.0
 11
1.929134
 21
11.181102
 31
0.0
  0
LINE
  8
0
  6
CONTINUOUS
 62
     7
  5
B8A
 10
1.929134
 20
11.181102
 30
0.0
 11
1.929134
 21
12.755906
 31
0.0
  0
LINE
  8
0
  6
CONTINUOUS
 62
     7
  5
B8B
 10
1.929134
 20
12.755906
 30
0.0
 11
1.495063
 21
12.755906
 31
0.0
  0
LINE
  8
0
  6
CONTINUOUS
 62
     7
  5
B8C
 10
2.809843
 20
8.622047
 30
0.0
 11
2.809843
 21
12.165354
 31
0.0
  0
LINE
  8
0
  6
CONTINUOUS
 62
     7
  5
B8D
 10
2.809843
 20
12.165354
 30
0.0
 11
1.929134
 21
12.165354
 31
0.0
  0
LINE
  8
0
  6
CONTINUOUS
 62
     7
  5
B8E
 10
2.809843
 20
8.622047
 30
0.0
 11
1.496063
 21
8.622047
 31
0.0
  0
LINE
  8
0
  6
CONTINUOUS
 62
     7
  5
B8F
 10
-2.809843
 20
12.165354
 30
0.0
 11
-2.809843
 21
8.622047
 31
0.0
  0
LINE
  8
0
  6
CONTINUOUS
 62
     7
  5
B90
 10
-2.809843
 20
8.622047
 30
0.0
 11
-1.496063
 21
8.622047
 31
0.0
  0
LINE
  8
0
  6
CONTINUOUS
 62
     7
  5
B91
 10
-2.809843
 20
12.165354
 30
0.0
 11
-1.929134
 21
12.165354
 31
0.0
  0
LINE
  8
0
  6
CONTINUOUS
 62
     7
  5
B92
 10
-1.072835
 20
13.820866
 30
0.0
 11
-0.679134
 21
13.820866
 31
0.0
  0
LINE
  8
0
  6
CONTINUOUS
 62
     7
  5
B93
 10
-1.072835
 20
13.427165
 30
0.0
 11
-1.072835
 21
13.820866
 31
0.0
  0
LINE
  8
0
  6
CONTINUOUS
 62
     7
  5
B94
 10
-0.679134
 20
13.427165
 30
0.0
 11
-1.072835
 21
13.427165
 31
0.0
  0
LINE
  8
0
  6
CONTINUOUS
 62
     7
  5
B95
 10
-0.679134
 20
13.820866
 30
0.0
 11
-0.679134
 21
13.427165
 31
0.0
  0
LINE
  8
0
  6
CONTINUOUS
 62
     7
  5
B96
 10
-1.072835
 20
12.068898
 30
0.0
 11
-0.679134
 21
12.068898
 31
0.0
  0
LINE
  8
0
  6
CONTINUOUS
 62
     7
  5
B97
 10
-1.072835
 20
11.675197
 30
0.0
 11
-1.072835
 21
12.068898
 31
0.0
  0
LINE
  8
0
  6
CONTINUOUS
 62
     7
  5
B98
 10
-0.679134
 20
11.675197
 30
0.0
 11
-1.072835
 21
11.675197
 31
0.0
  0
LINE
  8
0
  6
CONTINUOUS
 62
     7
  5
B99
 10
-0.679134
 20
12.068898
 30
0.0
 11
-0.679134
 21
11.675197
 31
0.0
  0
LINE
  8
0
  6
CONTINUOUS
 62
     7
  5
B9A
 10
0.0
 20
14.392701
 30
0.0
 11
0.19685
 21
14.392701
 31
0.0
  0
LINE
  8
0
  6
CONTINUOUS
 62
     7
  5
B9B
 10
0.0
 20
9.537402
 30
0.0
 11
0.0
 21
14.392701
 31
0.0
  0
LINE
  8
0
  6
CONTINUOUS
 62
     7
  5
B9C
 10
0.0
 20
14.393701
 30
0.0
 11
-0.19685
 21
14.393701
 31
0.0
  0
LINE
  8
0
  6
CONTINUOUS
 62
     7
  5
B9D
 10
-0.19685
 20
14.393701
 30
0.0
 11
-1.495063
 21
14.393701
 31
0.0
  0
LINE
  8
0
  6
CONTINUOUS
 62
     7
  5
B9E
 10
-1.495063
 20
9.537402
 30
0.0
 11
-1.495063
 21
14.393701
 31
0.0
  0
LINE
  8
0
  6
CONTINUOUS
 62
     7
  5
B9F
 10
3.238325
 20
-3.267561
 30
0.0
 11
3.061417
 21
-3.350394
 31
0.0
  0
LINE
  8
0
  6
CONTINUOUS
 62
     7
  5
BA0
 10
3.288721
 20
-3.153543
 30
0.0
 11
3.288673
 21
-3.157952
 31
0.0
  0
LINE
  8
0
  6
CONTINUOUS
 62
     7
  5
BA1
 10
3.288673
 20
-3.157952
 30
0.0
 11
3.288531
 21
-3.162355
 31
0.0
  0
LINE
  8
0
  6
CONTINUOUS
 62
     7
  5
BA2
 10
3.288531
 20
-3.162355
 30
0.0
 11
3.288293
 21
-3.166745
 31
0.0
  0
LINE
  8
0
  6
CONTINUOUS
 62
     7
  5
BA3
 10
3.288293
 20
-3.166745
 30
0.0
 11
3.287962
 21
-3.171117
 31
0.0
  0
LINE
  8
0
  6
CONTINUOUS
 62
     7
  5
BA4
 10
3.287962
 20
-3.171117
 30
0.0
 11
3.287536
 21
-3.175465
 31
0.0
  0
LINE
  8
0
  6
CONTINUOUS
 62
     7
  5
BA5
 10
3.287536
 20
-3.175465
 30
0.0
 11
3.287017
 21
-3.179781
 31
0.0
  0
LINE
  8
0
  6
CONTINUOUS
 62
     7
  5
BA6
 10
3.287017
 20
-3.179781
 30
0.0
 11
3.286405
 21
-3.184062
 31
0.0
  0
LINE
  8
0
  6
CONTINUOUS
 62
     7
  5
BA7
 10
3.286405
 20
-3.184062
 30
0.0
 11
3.285701
 21
-3.1883
 31
0.0
  0
LINE
  8
0
  6
CONTINUOUS
 62
     7
  5
BA8
 10
3.285701
 20
-3.1883
 30
0.0
 11
3.284907
 21
-3.192489
 31
0.0
  0
LINE
  8
0
  6
CONTINUOUS
 62
     7
  5
BA9
 10
3.284907
 20
-3.192489
 30
0.0
 11
3.284023
 21
-3.196624
 31
0.0
  0
LINE
  8
0
  6
CONTINUOUS
 62
     7
  5
BAA
 10
3.284023
 20
-3.196624
 30
0.0
 11
3.28305
 21
-3.200699
 31
0.0
  0
LINE
  8
0
  6
CONTINUOUS
 62
     7
  5
BAB
 10
3.28305
 20
-3.200699
 30
0.0
 11
3.28199
 21
-3.204708
 31
0.0
  0
LINE
  8
0
  6
CONTINUOUS
 62
     7
  5
BAC
 10
3.28199
 20
-3.204708
 30
0.0
 11
3.280845
 21
-3.208646
 31
0.0
  0
LINE
  8
0
  6
CONTINUOUS
 62
     7
  5
BAD
 10
3.280845
 20
-3.208646
 30
0.0
 11
3.279615
 21
-3.212508
 31
0.0
  0
LINE
  8
0
  6
CONTINUOUS
 62
     7
  5
BAE
 10
3.279615
 20
-3.212508
 30
0.0
 11
3.278303
 21
-3.216287
 31
0.0
  0
LINE
  8
0
  6
CONTINUOUS
 62
     7
  5
BAF
 10
3.278303
 20
-3.216287
 30
0.0
 11
3.276911
 21
-3.219978
 31
0.0
  0
LINE
  8
0
  6
CONTINUOUS
 62
     7
  5
BB0
 10
3.276911
 20
-3.219978
 30
0.0
 11
3.27544
 21
-3.223577
 31
0.0
  0
LINE
  8
0
  6
CONTINUOUS
 62
     7
  5
BB1
 10
3.27544
 20
-3.223577
 30
0.0
 11
3.273892
 21
-3.227078
 31
0.0
  0
LINE
  8
0
  6
CONTINUOUS
 62
     7
  5
BB2
 10
3.273892
 20
-3.227078
 30
0.0
 11
3.27227
 21
-3.230477
 31
0.0
  0
LINE
  8
0
  6
CONTINUOUS
 62
     7
  5
BB3
 10
3.27227
 20
-3.230477
 30
0.0
 11
3.270576
 21
-3.233769
 31
0.0
  0
LINE
  8
0
  6
CONTINUOUS
 62
     7
  5
BB4
 10
3.270576
 20
-3.233769
 30
0.0
 11
3.268812
 21
-3.236949
 31
0.0
  0
LINE
  8
0
  6
CONTINUOUS
 62
     7
  5
BB5
 10
3.268812
 20
-3.236949
 30
0.0
 11
3.266981
 21
-3.240012
 31
0.0
  0
LINE
  8
0
  6
CONTINUOUS
 62
     7
  5
BB6
 10
3.266981
 20
-3.240012
 30
0.0
 11
3.265085
 21
-3.242955
 31
0.0
  0
LINE
  8
0
  6
CONTINUOUS
 62
     7
  5
BB7
 10
3.265085
 20
-3.242955
 30
0.0
 11
3.263127
 21
-3.245773
 31
0.0
  0
LINE
  8
0
  6
CONTINUOUS
 62
     7
  5
BB8
 10
3.263127
 20
-3.245773
 30
0.0
 11
3.26111
 21
-3.248463
 31
0.0
  0
LINE
  8
0
  6
CONTINUOUS
 62
     7
  5
BB9
 10
3.26111
 20
-3.248463
 30
0.0
 11
3.259036
 21
-3.251021
 31
0.0
  0
LINE
  8
0
  6
CONTINUOUS
 62
     7
  5
BBA
 10
3.259036
 20
-3.251021
 30
0.0
 11
3.256908
 21
-3.253442
 31
0.0
  0
LINE
  8
0
  6
CONTINUOUS
 62
     7
  5
BBB
 10
3.256908
 20
-3.253442
 30
0.0
 11
3.25473
 21
-3.255725
 31
0.0
  0
LINE
  8
0
  6
CONTINUOUS
 62
     7
  5
BBC
 10
3.25473
 20
-3.255725
 30
0.0
 11
3.252504
 21
-3.257865
 31
0.0
  0
LINE
  8
0
  6
CONTINUOUS
 62
     7
  5
BBD
 10
3.252504
 20
-3.257865
 30
0.0
 11
3.250233
 21
-3.259859
 31
0.0
  0
LINE
  8
0
  6
CONTINUOUS
 62
     7
  5
BBE
 10
3.250233
 20
-3.259859
 30
0.0
 11
3.247922
 21
-3.261706
 31
0.0
  0
LINE
  8
0
  6
CONTINUOUS
 62
     7
  5
BBF
 10
3.247922
 20
-3.261706
 30
0.0
 11
3.245571
 21
-3.263401
 31
0.0
  0
LINE
  8
0
  6
CONTINUOUS
 62
     7
  5
BC0
 10
3.245571
 20
-3.263401
 30
0.0
 11
3.243186
 21
-3.264944
 31
0.0
  0
LINE
  8
0
  6
CONTINUOUS
 62
     7
  5
BC1
 10
3.243186
 20
-3.264944
 30
0.0
 11
3.24077
 21
-3.266331
 31
0.0
  0
LINE
  8
0
  6
CONTINUOUS
 62
     7
  5
BC2
 10
3.24077
 20
-3.266331
 30
0.0
 11
3.238325
 21
-3.267561
 31
0.0
  0
LINE
  8
0
  6
CONTINUOUS
 62
     7
  5
BC3
 10
3.238325
 20
-3.039526
 30
0.0
 11
3.24077
 21
-3.040756
 31
0.0
  0
LINE
  8
0
  6
CONTINUOUS
 62
     7
  5
BC4
 10
3.24077
 20
-3.040756
 30
0.0
 11
3.243186
 21
-3.042143
 31
0.0
  0
LINE
  8
0
  6
CONTINUOUS
 62
     7
  5
BC5
 10
3.243186
 20
-3.042143
 30
0.0
 11
3.245571
 21
-3.043685
 31
0.0
  0
LINE
  8
0
  6
CONTINUOUS
 62
     7
  5
BC6
 10
3.245571
 20
-3.043685
 30
0.0
 11
3.247922
 21
-3.045381
 31
0.0
  0
LINE
  8
0
  6
CONTINUOUS
 62
     7
  5
BC7
 10
3.247922
 20
-3.045381
 30
0.0
 11
3.250233
 21
-3.047227
 31
0.0
  0
LINE
  8
0
  6
CONTINUOUS
 62
     7
  5
BC8
 10
3.250233
 20
-3.047227
 30
0.0
 11
3.252504
 21
-3.049222
 31
0.0
  0
LINE
  8
0
  6
CONTINUOUS
 62
     7
  5
BC9
 10
3.252504
 20
-3.049222
 30
0.0
 11
3.25473
 21
-3.051362
 31
0.0
  0
LINE
  8
0
  6
CONTINUOUS
 62
     7
  5
BCA
 10
3.25473
 20
-3.051362
 30
0.0
 11
3.256908
 21
-3.053644
 31
0.0
  0
LINE
  8
0
  6
CONTINUOUS
 62
     7
  5
BCB
 10
3.256908
 20
-3.053644
 30
0.0
 11
3.259036
 21
-3.056066
 31
0.0
  0
LINE
  8
0
  6
CONTINUOUS
 62
     7
  5
BCC
 10
3.259036
 20
-3.056066
 30
0.0
 11
3.26111
 21
-3.058623
 31
0.0
  0
LINE
  8
0
  6
CONTINUOUS
 62
     7
  5
BCD
 10
3.26111
 20
-3.058623
 30
0.0
 11
3.263127
 21
-3.061313
 31
0.0
  0
LINE
  8
0
  6
CONTINUOUS
 62
     7
  5
BCE
 10
3.263127
 20
-3.061313
 30
0.0
 11
3.265085
 21
-3.064132
 31
0.0
  0
LINE
  8
0
  6
CONTINUOUS
 62
     7
  5
BCF
 10
3.265085
 20
-3.064132
 30
0.0
 11
3.266981
 21
-3.067075
 31
0.0
  0
LINE
  8
0
  6
CONTINUOUS
 62
     7
  5
BD0
 10
3.266981
 20
-3.067075
 30
0.0
 11
3.268812
 21
-3.070138
 31
0.0
  0
LINE
  8
0
  6
CONTINUOUS
 62
     7
  5
BD1
 10
3.268812
 20
-3.070138
 30
0.0
 11
3.270576
 21
-3.073318
 31
0.0
  0
LINE
  8
0
  6
CONTINUOUS
 62
     7
  5
BD2
 10
3.270576
 20
-3.073318
 30
0.0
 11
3.27227
 21
-3.076609
 31
0.0
  0
LINE
  8
0
  6
CONTINUOUS
 62
     7
  5
BD3
 10
3.27227
 20
-3.076609
 30
0.0
 11
3.273892
 21
-3.080008
 31
0.0
  0
LINE
  8
0
  6
CONTINUOUS
 62
     7
  5
BD4
 10
3.273892
 20
-3.080008
 30
0.0
 11
3.27544
 21
-3.08351
 31
0.0
  0
LINE
  8
0
  6
CONTINUOUS
 62
     7
  5
BD5
 10
3.27544
 20
-3.08351
 30
0.0
 11
3.276911
 21
-3.087109
 31
0.0
  0
LINE
  8
0
  6
CONTINUOUS
 62
     7
  5
BD6
 10
3.276911
 20
-3.087109
 30
0.0
 11
3.278303
 21
-3.0908
 31
0.0
  0
LINE
  8
0
  6
CONTINUOUS
 62
     7
  5
BD7
 10
3.278303
 20
-3.0908
 30
0.0
 11
3.279615
 21
-3.094579
 31
0.0
  0
LINE
  8
0
  6
CONTINUOUS
 62
     7
  5
BD8
 10
3.279615
 20
-3.094579
 30
0.0
 11
3.280845
 21
-3.09844
 31
0.0
  0
LINE
  8
0
  6
CONTINUOUS
 62
     7
  5
BD9
 10
3.280845
 20
-3.09844
 30
0.0
 11
3.28199
 21
-3.102378
 31
0.0
  0
LINE
  8
0
  6
CONTINUOUS
 62
     7
  5
BDA
 10
3.28199
 20
-3.102378
 30
0.0
 11
3.28305
 21
-3.106388
 31
0.0
  0
LINE
  8
0
  6
CONTINUOUS
 62
     7
  5
BDB
 10
3.28305
 20
-3.106388
 30
0.0
 11
3.284023
 21
-3.110463
 31
0.0
  0
LINE
  8
0
  6
CONTINUOUS
 62
     7
  5
BDC
 10
3.284023
 20
-3.110463
 30
0.0
 11
3.284907
 21
-3.114598
 31
0.0
  0
LINE
  8
0
  6
CONTINUOUS
 62
     7
  5
BDD
 10
3.284907
 20
-3.114598
 30
0.0
 11
3.285701
 21
-3.118787
 31
0.0
  0
LINE
  8
0
  6
CONTINUOUS
 62
     7
  5
BDE
 10
3.285701
 20
-3.118787
 30
0.0
 11
3.286405
 21
-3.123025
 31
0.0
  0
LINE
  8
0
  6
CONTINUOUS
 62
     7
  5
BDF
 10
3.286405
 20
-3.123025
 30
0.0
 11
3.287017
 21
-3.127305
 31
0.0
  0
LINE
  8
0
  6
CONTINUOUS
 62
     7
  5
BE0
 10
3.287017
 20
-3.127305
 30
0.0
 11
3.287536
 21
-3.131622
 31
0.0
  0
LINE
  8
0
  6
CONTINUOUS
 62
     7
  5
BE1
 10
3.287536
 20
-3.131622
 30
0.0
 11
3.287962
 21
-3.13597
 31
0.0
  0
LINE
  8
0
  6
CONTINUOUS
 62
     7
  5
BE2
 10
3.287962
 20
-3.13597
 30
0.0
 11
3.288293
 21
-3.140341
 31
0.0
  0
LINE
  8
0
  6
CONTINUOUS
 62
     7
  5
BE3
 10
3.288293
 20
-3.140341
 30
0.0
 11
3.288531
 21
-3.144732
 31
0.0
  0
LINE
  8
0
  6
CONTINUOUS
 62
     7
  5
BE4
 10
3.288531
 20
-3.144732
 30
0.0
 11
3.288673
 21
-3.149135
 31
0.0
  0
LINE
  8
0
  6
CONTINUOUS
 62
     7
  5
BE5
 10
3.288673
 20
-3.149135
 30
0.0
 11
3.288721
 21
-3.153543
 31
0.0
  0
LINE
  8
0
  6
CONTINUOUS
 62
     7
  5
BE6
 10
3.061417
 20
-2.956693
 30
0.0
 11
3.238325
 21
-3.039526
 31
0.0
  0
LINE
  8
0
  6
CONTINUOUS
 62
     7
  5
BE7
 10
3.061417
 20
-3.350394
 30
0.0
 11
3.061417
 21
-2.956693
 31
0.0
  0
LINE
  8
0
  6
CONTINUOUS
 62
     7
  5
BE8
 10
5.816793
 20
-3.039526
 30
0.0
 11
5.993701
 21
-2.956693
 31
0.0
  0
LINE
  8
0
  6
CONTINUOUS
 62
     7
  5
BE9
 10
5.993701
 20
-3.350394
 30
0.0
 11
5.816793
 21
-3.267561
 31
0.0
  0
LINE
  8
0
  6
CONTINUOUS
 62
     7
  5
BEA
 10
5.993701
 20
-2.956693
 30
0.0
 11
5.993701
 21
-3.350394
 31
0.0
  0
LINE
  8
0
  6
CONTINUOUS
 62
     7
  5
BEB
 10
5.766398
 20
-3.153543
 30
0.0
 11
5.766445
 21
-3.149135
 31
0.0
  0
LINE
  8
0
  6
CONTINUOUS
 62
     7
  5
BEC
 10
5.766445
 20
-3.149135
 30
0.0
 11
5.766588
 21
-3.144732
 31
0.0
  0
LINE
  8
0
  6
CONTINUOUS
 62
     7
  5
BED
 10
5.766588
 20
-3.144732
 30
0.0
 11
5.766825
 21
-3.140341
 31
0.0
  0
LINE
  8
0
  6
CONTINUOUS
 62
     7
  5
BEE
 10
5.766825
 20
-3.140341
 30
0.0
 11
5.767157
 21
-3.13597
 31
0.0
  0
LINE
  8
0
  6
CONTINUOUS
 62
     7
  5
BEF
 10
5.767157
 20
-3.13597
 30
0.0
 11
5.767582
 21
-3.131622
 31
0.0
  0
LINE
  8
0
  6
CONTINUOUS
 62
     7
  5
BF0
 10
5.767582
 20
-3.131622
 30
0.0
 11
5.768101
 21
-3.127305
 31
0.0
  0
LINE
  8
0
  6
CONTINUOUS
 62
     7
  5
BF1
 10
5.768101
 20
-3.127305
 30
0.0
 11
5.768713
 21
-3.123025
 31
0.0
  0
LINE
  8
0
  6
CONTINUOUS
 62
     7
  5
BF2
 10
5.768713
 20
-3.123025
 30
0.0
 11
5.769417
 21
-3.118787
 31
0.0
  0
LINE
  8
0
  6
CONTINUOUS
 62
     7
  5
BF3
 10
5.769417
 20
-3.118787
 30
0.0
 11
5.770211
 21
-3.114598
 31
0.0
  0
LINE
  8
0
  6
CONTINUOUS
 62
     7
  5
BF4
 10
5.770211
 20
-3.114598
 30
0.0
 11
5.771096
 21
-3.110463
 31
0.0
  0
LINE
  8
0
  6
CONTINUOUS
 62
     7
  5
BF5
 10
5.771096
 20
-3.110463
 30
0.0
 11
5.772068
 21
-3.106388
 31
0.0
  0
LINE
  8
0
  6
CONTINUOUS
 62
     7
  5
BF6
 10
5.772068
 20
-3.106388
 30
0.0
 11
5.773128
 21
-3.102378
 31
0.0
  0
LINE
  8
0
  6
CONTINUOUS
 62
     7
  5
BF7
 10
5.773128
 20
-3.102378
 30
0.0
 11
5.774274
 21
-3.09844
 31
0.0
  0
LINE
  8
0
  6
CONTINUOUS
 62
     7
  5
BF8
 10
5.774274
 20
-3.09844
 30
0.0
 11
5.775503
 21
-3.094579
 31
0.0
  0
LINE
  8
0
  6
CONTINUOUS
 62
     7
  5
BF9
 10
5.775503
 20
-3.094579
 30
0.0
 11
5.776815
 21
-3.0908
 31
0.0
  0
LINE
  8
0
  6
CONTINUOUS
 62
     7
  5
BFA
 10
5.776815
 20
-3.0908
 30
0.0
 11
5.778208
 21
-3.087109
 31
0.0
  0
LINE
  8
0
  6
CONTINUOUS
 62
     7
  5
BFB
 10
5.778208
 20
-3.087109
 30
0.0
 11
5.779679
 21
-3.08351
 31
0.0
  0
LINE
  8
0
  6
CONTINUOUS
 62
     7
  5
BFC
 10
5.779679
 20
-3.08351
 30
0.0
 11
5.781226
 21
-3.080008
 31
0.0
  0
LINE
  8
0
  6
CONTINUOUS
 62
     7
  5
BFD
 10
5.781226
 20
-3.080008
 30
0.0
 11
5.782848
 21
-3.076609
 31
0.0
  0
LINE
  8
0
  6
CONTINUOUS
 62
     7
  5
BFE
 10
5.782848
 20
-3.076609
 30
0.0
 11
5.784542
 21
-3.073318
 31
0.0
  0
LINE
  8
0
  6
CONTINUOUS
 62
     7
  5
BFF
 10
5.784542
 20
-3.073318
 30
0.0
 11
5.786306
 21
-3.070138
 31
0.0
  0
LINE
  8
0
  6
CONTINUOUS
 62
     7
  5
C00
 10
5.786306
 20
-3.070138
 30
0.0
 11
5.788137
 21
-3.067075
 31
0.0
  0
LINE
  8
0
  6
CONTINUOUS
 62
     7
  5
C01
 10
5.788137
 20
-3.067075
 30
0.0
 11
5.790033
 21
-3.064132
 31
0.0
  0
LINE
  8
0
  6
CONTINUOUS
 62
     7
  5
C02
 10
5.790033
 20
-3.064132
 30
0.0
 11
5.791991
 21
-3.061313
 31
0.0
  0
LINE
  8
0
  6
CONTINUOUS
 62
     7
  5
C03
 10
5.791991
 20
-3.061313
 30
0.0
 11
5.794008
 21
-3.058623
 31
0.0
  0
LINE
  8
0
  6
CONTINUOUS
 62
     7
  5
C04
 10
5.794008
 20
-3.058623
 30
0.0
 11
5.796082
 21
-3.056066
 31
0.0
  0
LINE
  8
0
  6
CONTINUOUS
 62
     7
  5
C05
 10
5.796082
 20
-3.056066
 30
0.0
 11
5.79821
 21
-3.053644
 31
0.0
  0
LINE
  8
0
  6
CONTINUOUS
 62
     7
  5
C06
 10
5.79821
 20
-3.053644
 30
0.0
 11
5.800388
 21
-3.051362
 31
0.0
  0
LINE
  8
0
  6
CONTINUOUS
 62
     7
  5
C07
 10
5.800388
 20
-3.051362
 30
0.0
 11
5.802614
 21
-3.049222
 31
0.0
  0
LINE
  8
0
  6
CONTINUOUS
 62
     7
  5
C08
 10
5.802614
 20
-3.049222
 30
0.0
 11
5.804885
 21
-3.047227
 31
0.0
  0
LINE
  8
0
  6
CONTINUOUS
 62
     7
  5
C09
 10
5.804885
 20
-3.047227
 30
0.0
 11
5.807197
 21
-3.045381
 31
0.0
  0
LINE
  8
0
  6
CONTINUOUS
 62
     7
  5
C0A
 10
5.807197
 20
-3.045381
 30
0.0
 11
5.809547
 21
-3.043685
 31
0.0
  0
LINE
  8
0
  6
CONTINUOUS
 62
     7
  5
C0B
 10
5.809547
 20
-3.043685
 30
0.0
 11
5.811932
 21
-3.042143
 31
0.0
  0
LINE
  8
0
  6
CONTINUOUS
 62
     7
  5
C0C
 10
5.811932
 20
-3.042143
 30
0.0
 11
5.814348
 21
-3.040756
 31
0.0
  0
LINE
  8
0
  6
CONTINUOUS
 62
     7
  5
C0D
 10
5.814348
 20
-3.040756
 30
0.0
 11
5.816793
 21
-3.039526
 31
0.0
  0
LINE
  8
0
  6
CONTINUOUS
 62
     7
  5
C0E
 10
5.816793
 20
-3.267561
 30
0.0
 11
5.814348
 21
-3.266331
 31
0.0
  0
LINE
  8
0
  6
CONTINUOUS
 62
     7
  5
C0F
 10
5.814348
 20
-3.266331
 30
0.0
 11
5.811932
 21
-3.264944
 31
0.0
  0
LINE
  8
0
  6
CONTINUOUS
 62
     7
  5
C10
 10
5.811932
 20
-3.264944
 30
0.0
 11
5.809547
 21
-3.263401
 31
0.0
  0
LINE
  8
0
  6
CONTINUOUS
 62
     7
  5
C11
 10
5.809547
 20
-3.263401
 30
0.0
 11
5.807197
 21
-3.261706
 31
0.0
  0
LINE
  8
0
  6
CONTINUOUS
 62
     7
  5
C12
 10
5.807197
 20
-3.261706
 30
0.0
 11
5.804885
 21
-3.259859
 31
0.0
  0
LINE
  8
0
  6
CONTINUOUS
 62
     7
  5
C13
 10
5.804885
 20
-3.259859
 30
0.0
 11
5.802614
 21
-3.257865
 31
0.0
  0
LINE
  8
0
  6
CONTINUOUS
 62
     7
  5
C14
 10
5.802614
 20
-3.257865
 30
0.0
 11
5.800388
 21
-3.255725
 31
0.0
  0
LINE
  8
0
  6
CONTINUOUS
 62
     7
  5
C15
 10
5.800388
 20
-3.255725
 30
0.0
 11
5.79821
 21
-3.253442
 31
0.0
  0
LINE
  8
0
  6
CONTINUOUS
 62
     7
  5
C16
 10
5.79821
 20
-3.253442
 30
0.0
 11
5.796082
 21
-3.251021
 31
0.0
  0
LINE
  8
0
  6
CONTINUOUS
 62
     7
  5
C17
 10
5.796082
 20
-3.251021
 30
0.0
 11
5.794008
 21
-3.248463
 31
0.0
  0
LINE
  8
0
  6
CONTINUOUS
 62
     7
  5
C18
 10
5.794008
 20
-3.248463
 30
0.0
 11
5.791991
 21
-3.245773
 31
0.0
  0
LINE
  8
0
  6
CONTINUOUS
 62
     7
  5
C19
 10
5.791991
 20
-3.245773
 30
0.0
 11
5.790033
 21
-3.242955
 31
0.0
  0
LINE
  8
0
  6
CONTINUOUS
 62
     7
  5
C1A
 10
5.790033
 20
-3.242955
 30
0.0
 11
5.788137
 21
-3.240012
 31
0.0
  0
LINE
  8
0
  6
CONTINUOUS
 62
     7
  5
C1B
 10
5.788137
 20
-3.240012
 30
0.0
 11
5.786306
 21
-3.236949
 31
0.0
  0
LINE
  8
0
  6
CONTINUOUS
 62
     7
  5
C1C
 10
5.786306
 20
-3.236949
 30
0.0
 11
5.784542
 21
-3.233769
 31
0.0
  0
LINE
  8
0
  6
CONTINUOUS
 62
     7
  5
C1D
 10
5.784542
 20
-3.233769
 30
0.0
 11
5.782848
 21
-3.230477
 31
0.0
  0
LINE
  8
0
  6
CONTINUOUS
 62
     7
  5
C1E
 10
5.782848
 20
-3.230477
 30
0.0
 11
5.781226
 21
-3.227078
 31
0.0
  0
LINE
  8
0
  6
CONTINUOUS
 62
     7
  5
C1F
 10
5.781226
 20
-3.227078
 30
0.0
 11
5.779679
 21
-3.223577
 31
0.0
  0
LINE
  8
0
  6
CONTINUOUS
 62
     7
  5
C20
 10
5.779679
 20
-3.223577
 30
0.0
 11
5.778208
 21
-3.219978
 31
0.0
  0
LINE
  8
0
  6
CONTINUOUS
 62
     7
  5
C21
 10
5.778208
 20
-3.219978
 30
0.0
 11
5.776815
 21
-3.216287
 31
0.0
  0
LINE
  8
0
  6
CONTINUOUS
 62
     7
  5
C22
 10
5.776815
 20
-3.216287
 30
0.0
 11
5.775503
 21
-3.212508
 31
0.0
  0
LINE
  8
0
  6
CONTINUOUS
 62
     7
  5
C23
 10
5.775503
 20
-3.212508
 30
0.0
 11
5.774274
 21
-3.208646
 31
0.0
  0
LINE
  8
0
  6
CONTINUOUS
 62
     7
  5
C24
 10
5.774274
 20
-3.208646
 30
0.0
 11
5.773128
 21
-3.204708
 31
0.0
  0
LINE
  8
0
  6
CONTINUOUS
 62
     7
  5
C25
 10
5.773128
 20
-3.204708
 30
0.0
 11
5.772068
 21
-3.200699
 31
0.0
  0
LINE
  8
0
  6
CONTINUOUS
 62
     7
  5
C26
 10
5.772068
 20
-3.200699
 30
0.0
 11
5.771096
 21
-3.196624
 31
0.0
  0
LINE
  8
0
  6
CONTINUOUS
 62
     7
  5
C27
 10
5.771096
 20
-3.196624
 30
0.0
 11
5.770211
 21
-3.192489
 31
0.0
  0
LINE
  8
0
  6
CONTINUOUS
 62
     7
  5
C28
 10
5.770211
 20
-3.192489
 30
0.0
 11
5.769417
 21
-3.1883
 31
0.0
  0
LINE
  8
0
  6
CONTINUOUS
 62
     7
  5
C29
 10
5.769417
 20
-3.1883
 30
0.0
 11
5.768713
 21
-3.184062
 31
0.0
  0
LINE
  8
0
  6
CONTINUOUS
 62
     7
  5
C2A
 10
5.768713
 20
-3.184062
 30
0.0
 11
5.768101
 21
-3.179781
 31
0.0
  0
LINE
  8
0
  6
CONTINUOUS
 62
     7
  5
C2B
 10
5.768101
 20
-3.179781
 30
0.0
 11
5.767582
 21
-3.175465
 31
0.0
  0
LINE
  8
0
  6
CONTINUOUS
 62
     7
  5
C2C
 10
5.767582
 20
-3.175465
 30
0.0
 11
5.767157
 21
-3.171117
 31
0.0
  0
LINE
  8
0
  6
CONTINUOUS
 62
     7
  5
C2D
 10
5.767157
 20
-3.171117
 30
0.0
 11
5.766825
 21
-3.166745
 31
0.0
  0
LINE
  8
0
  6
CONTINUOUS
 62
     7
  5
C2E
 10
5.766825
 20
-3.166745
 30
0.0
 11
5.766588
 21
-3.162355
 31
0.0
  0
LINE
  8
0
  6
CONTINUOUS
 62
     7
  5
C2F
 10
5.766588
 20
-3.162355
 30
0.0
 11
5.766445
 21
-3.157952
 31
0.0
  0
LINE
  8
0
  6
CONTINUOUS
 62
     7
  5
C30
 10
5.766445
 20
-3.157952
 30
0.0
 11
5.766398
 21
-3.153543
 31
0.0
  0
LINE
  8
0
  6
CONTINUOUS
 62
     7
  5
C31
 10
5.993701
 20
-3.350394
 30
0.0
 11
3.061417
 21
-3.350394
 31
0.0
  0
CIRCLE
  8
0
  6
CONTINUOUS
 62
     7
  5
C32
 10
5.403543
 20
-4.336614
 30
0.0
 40
0.285433
  0
CIRCLE
  8
0
  6
CONTINUOUS
 62
     7
  5
C33
 10
3.651575
 20
-4.336614
 30
0.0
 40
0.285433
  0
CIRCLE
  8
0
  6
CONTINUOUS
 62
     7
  5
C34
 10
5.403543
 20
-6.088583
 30
0.0
 40
0.285433
  0
CIRCLE
  8
0
  6
CONTINUOUS
 62
     7
  5
C35
 10
3.651575
 20
-6.088583
 30
0.0
 40
0.285433
  0
LINE
  8
0
  6
CONTINUOUS
 62
     7
  5
C36
 10
3.031496
 20
-2.956693
 30
0.0
 11
3.031496
 21
-6.71063
 31
0.0
  0
LINE
  8
0
  6
CONTINUOUS
 62
     7
  5
C37
 10
3.031496
 20
-6.71063
 30
0.0
 11
6.023622
 21
-6.71063
 31
0.0
  0
LINE
  8
0
  6
CONTINUOUS
 62
     7
  5
C38
 10
6.023622
 20
-6.71063
 30
0.0
 11
6.023622
 21
-2.956693
 31
0.0
  0
LINE
  8
0
  6
CONTINUOUS
 62
     7
  5
C39
 10
3.032496
 20
-11.565929
 30
0.0
 11
3.032496
 21
-6.71063
 31
0.0
  0
LINE
  8
0
  6
CONTINUOUS
 62
     7
  5
C3A
 10
7.988189
 20
-11.565929
 30
0.0
 11
3.032496
 21
-11.565929
 31
0.0
  0
LINE
  8
0
  6
CONTINUOUS
 62
     7
  5
C3B
 10
7.988189
 20
-3.567929
 30
0.0
 11
6.023622
 21
-3.567929
 31
0.0
  0
LINE
  8
0
  6
CONTINUOUS
 62
     7
  5
C3C
 10
3.454724
 20
-8.848425
 30
0.0
 11
3.848425
 21
-8.848425
 31
0.0
  0
LINE
  8
0
  6
CONTINUOUS
 62
     7
  5
C3D
 10
3.848425
 20
-8.848425
 30
0.0
 11
3.848425
 21
-9.242126
 31
0.0
  0
LINE
  8
0
  6
CONTINUOUS
 62
     7
  5
C3E
 10
3.848425
 20
-9.242126
 30
0.0
 11
3.454724
 21
-9.242126
 31
0.0
  0
LINE
  8
0
  6
CONTINUOUS
 62
     7
  5
C3F
 10
3.454724
 20
-9.242126
 30
0.0
 11
3.454724
 21
-8.848425
 31
0.0
  0
LINE
  8
0
  6
CONTINUOUS
 62
     7
  5
C40
 10
5.206693
 20
-8.848425
 30
0.0
 11
5.600394
 21
-8.848425
 31
0.0
  0
LINE
  8
0
  6
CONTINUOUS
 62
     7
  5
C41
 10
5.600394
 20
-8.848425
 30
0.0
 11
5.600394
 21
-9.242126
 31
0.0
  0
LINE
  8
0
  6
CONTINUOUS
 62
     7
  5
C42
 10
5.600394
 20
-9.242126
 30
0.0
 11
5.206693
 21
-9.242126
 31
0.0
  0
LINE
  8
0
  6
CONTINUOUS
 62
     7
  5
C43
 10
5.206693
 20
-9.242126
 30
0.0
 11
5.206693
 21
-8.848425
 31
0.0
  0
LINE
  8
0
  6
CONTINUOUS
 62
     7
  5
C44
 10
3.454724
 20
-10.600394
 30
0.0
 11
3.848425
 21
-10.600394
 31
0.0
  0
LINE
  8
0
  6
CONTINUOUS
 62
     7
  5
C45
 10
3.848425
 20
-10.600394
 30
0.0
 11
3.848425
 21
-10.994094
 31
0.0
  0
LINE
  8
0
  6
CONTINUOUS
 62
     7
  5
C46
 10
3.848425
 20
-10.994094
 30
0.0
 11
3.454724
 21
-10.994094
 31
0.0
  0
LINE
  8
0
  6
CONTINUOUS
 62
     7
  5
C47
 10
3.454724
 20
-10.994094
 30
0.0
 11
3.454724
 21
-10.600394
 31
0.0
  0
LINE
  8
0
  6
CONTINUOUS
 62
     7
  5
C48
 10
5.206693
 20
-10.600394
 30
0.0
 11
5.600394
 21
-10.600394
 31
0.0
  0
LINE
  8
0
  6
CONTINUOUS
 62
     7
  5
C49
 10
5.600394
 20
-10.600394
 30
0.0
 11
5.600394
 21
-10.994094
 31
0.0
  0
LINE
  8
0
  6
CONTINUOUS
 62
     7
  5
C4A
 10
5.600394
 20
-10.994094
 30
0.0
 11
5.206693
 21
-10.994094
 31
0.0
  0
LINE
  8
0
  6
CONTINUOUS
 62
     7
  5
C4B
 10
5.206693
 20
-10.994094
 30
0.0
 11
5.206693
 21
-10.600394
 31
0.0
  0
LINE
  8
0
  6
CONTINUOUS
 62
     7
  5
C4C
 10
9.956693
 20
-8.354331
 30
0.0
 11
8.46063
 21
-8.354331
 31
0.0
  0
LINE
  8
0
  6
CONTINUOUS
 62
     7
  5
C4D
 10
8.46063
 20
-8.354331
 30
0.0
 11
8.46063
 21
-6.779528
 31
0.0
  0
LINE
  8
0
  6
CONTINUOUS
 62
     7
  5
C4E
 10
9.956693
 20
-9.929134
 30
0.0
 11
9.956693
 21
-8.354331
 31
0.0
  0
LINE
  8
0
  6
CONTINUOUS
 62
     7
  5
C4F
 10
8.46063
 20
-6.779528
 30
0.0
 11
8.185039
 21
-6.779528
 31
0.0
  0
LINE
  8
0
  6
CONTINUOUS
 62
     7
  5
C50
 10
8.185039
 20
-9.929134
 30
0.0
 11
9.956693
 21
-9.929134
 31
0.0
  0
LINE
  8
0
  6
CONTINUOUS
 62
     7
  5
C51
 10
8.5
 20
-5.795276
 30
0.0
 11
8.34252
 21
-5.795276
 31
0.0
  0
LINE
  8
0
  6
CONTINUOUS
 62
     7
  5
C52
 10
8.34252
 20
-6.779528
 30
0.0
 11
8.34252
 21
-5.795276
 31
0.0
  0
LINE
  8
0
  6
CONTINUOUS
 62
     7
  5
C53
 10
8.34252
 20
-5.795276
 30
0.0
 11
8.185039
 21
-5.795276
 31
0.0
  0
LINE
  8
0
  6
CONTINUOUS
 62
     7
  5
C54
 10
10.837402
 20
-9.338583
 30
0.0
 11
10.837402
 21
-5.795276
 31
0.0
  0
LINE
  8
0
  6
CONTINUOUS
 62
     7
  5
C55
 10
10.837402
 20
-5.795276
 30
0.0
 11
8.5
 21
-5.795276
 31
0.0
  0
LINE
  8
0
  6
CONTINUOUS
 62
     7
  5
C56
 10
10.837402
 20
-9.338583
 30
0.0
 11
9.956693
 21
-9.338583
 31
0.0
  0
LINE
  8
0
  6
CONTINUOUS
 62
     7
  5
C57
 10
8.185039
 20
-11.565929
 30
0.0
 11
8.185039
 21
-3.567929
 31
0.0
  0
LINE
  8
0
  6
CONTINUOUS
 62
     7
  5
C58
 10
8.185039
 20
-3.567929
 30
0.0
 11
7.988189
 21
-3.567929
 31
0.0
  0
LINE
  8
0
  6
CONTINUOUS
 62
     7
  5
C59
 10
8.185039
 20
-11.565929
 30
0.0
 11
7.988189
 21
-11.565929
 31
0.0
  0
LINE
  8
0
  6
CONTINUOUS
 62
     7
  5
C5A
 10
8.027559
 20
-3.567929
 30
0.0
 11
8.027559
 21
-3.566929
 31
0.0
  0
LINE
  8
0
  6
CONTINUOUS
 62
     7
  5
C5B
 10
8.027559
 20
-3.566929
 30
0.0
 11
7.830709
 21
-3.566929
 31
0.0
  0
LINE
  8
0
  6
CONTINUOUS
 62
     7
  5
C5C
 10
8.027559
 20
-11.566929
 30
0.0
 11
7.830709
 21
-11.566929
 31
0.0
  0
LINE
  8
0
  6
CONTINUOUS
 62
     7
  5
C5D
 10
7.830709
 20
-3.566929
 30
0.0
 11
6.023622
 21
-3.566929
 31
0.0
  0
LINE
  8
0
  6
CONTINUOUS
 62
     7
  5
C5E
 10
3.031496
 20
-11.566929
 30
0.0
 11
3.031496
 21
-6.71063
 31
0.0
  0
LINE
  8
0
  6
CONTINUOUS
 62
     7
  5
C5F
 10
7.830709
 20
-11.566929
 30
0.0
 11
3.031496
 21
-11.566929
 31
0.0
  0
LINE
  8
0
  6
CONTINUOUS
 62
     7
  5
C60
 10
-10.344352
 20
-3.267561
 30
0.0
 11
-10.52126
 21
-3.350394
 31
0.0
  0
LINE
  8
0
  6
CONTINUOUS
 62
     7
  5
C61
 10
-10.293957
 20
-3.153543
 30
0.0
 11
-10.294004
 21
-3.157952
 31
0.0
  0
LINE
  8
0
  6
CONTINUOUS
 62
     7
  5
C62
 10
-10.294004
 20
-3.157952
 30
0.0
 11
-10.294147
 21
-3.162355
 31
0.0
  0
LINE
  8
0
  6
CONTINUOUS
 62
     7
  5
C63
 10
-10.294147
 20
-3.162355
 30
0.0
 11
-10.294384
 21
-3.166745
 31
0.0
  0
LINE
  8
0
  6
CONTINUOUS
 62
     7
  5
C64
 10
-10.294384
 20
-3.166745
 30
0.0
 11
-10.294716
 21
-3.171117
 31
0.0
  0
LINE
  8
0
  6
CONTINUOUS
 62
     7
  5
C65
 10
-10.294716
 20
-3.171117
 30
0.0
 11
-10.295141
 21
-3.175465
 31
0.0
  0
LINE
  8
0
  6
CONTINUOUS
 62
     7
  5
C66
 10
-10.295141
 20
-3.175465
 30
0.0
 11
-10.295661
 21
-3.179781
 31
0.0
  0
LINE
  8
0
  6
CONTINUOUS
 62
     7
  5
C67
 10
-10.295661
 20
-3.179781
 30
0.0
 11
-10.296272
 21
-3.184062
 31
0.0
  0
LINE
  8
0
  6
CONTINUOUS
 62
     7
  5
C68
 10
-10.296272
 20
-3.184062
 30
0.0
 11
-10.296976
 21
-3.1883
 31
0.0
  0
LINE
  8
0
  6
CONTINUOUS
 62
     7
  5
C69
 10
-10.296976
 20
-3.1883
 30
0.0
 11
-10.29777
 21
-3.192489
 31
0.0
  0
LINE
  8
0
  6
CONTINUOUS
 62
     7
  5
C6A
 10
-10.29777
 20
-3.192489
 30
0.0
 11
-10.298655
 21
-3.196624
 31
0.0
  0
LINE
  8
0
  6
CONTINUOUS
 62
     7
  5
C6B
 10
-10.298655
 20
-3.196624
 30
0.0
 11
-10.299627
 21
-3.200699
 31
0.0
  0
LINE
  8
0
  6
CONTINUOUS
 62
     7
  5
C6C
 10
-10.299627
 20
-3.200699
 30
0.0
 11
-10.300687
 21
-3.204708
 31
0.0
  0
LINE
  8
0
  6
CONTINUOUS
 62
     7
  5
C6D
 10
-10.300687
 20
-3.204708
 30
0.0
 11
-10.301833
 21
-3.208646
 31
0.0
  0
LINE
  8
0
  6
CONTINUOUS
 62
     7
  5
C6E
 10
-10.301833
 20
-3.208646
 30
0.0
 11
-10.303062
 21
-3.212508
 31
0.0
  0
LINE
  8
0
  6
CONTINUOUS
 62
     7
  5
C6F
 10
-10.303062
 20
-3.212508
 30
0.0
 11
-10.304374
 21
-3.216287
 31
0.0
  0
LINE
  8
0
  6
CONTINUOUS
 62
     7
  5
C70
 10
-10.304374
 20
-3.216287
 30
0.0
 11
-10.305767
 21
-3.219978
 31
0.0
  0
LINE
  8
0
  6
CONTINUOUS
 62
     7
  5
C71
 10
-10.305767
 20
-3.219978
 30
0.0
 11
-10.307238
 21
-3.223577
 31
0.0
  0
LINE
  8
0
  6
CONTINUOUS
 62
     7
  5
C72
 10
-10.307238
 20
-3.223577
 30
0.0
 11
-10.308785
 21
-3.227078
 31
0.0
  0
LINE
  8
0
  6
CONTINUOUS
 62
     7
  5
C73
 10
-10.308785
 20
-3.227078
 30
0.0
 11
-10.310407
 21
-3.230477
 31
0.0
  0
LINE
  8
0
  6
CONTINUOUS
 62
     7
  5
C74
 10
-10.310407
 20
-3.230477
 30
0.0
 11
-10.312101
 21
-3.233769
 31
0.0
  0
LINE
  8
0
  6
CONTINUOUS
 62
     7
  5
C75
 10
-10.312101
 20
-3.233769
 30
0.0
 11
-10.313865
 21
-3.236949
 31
0.0
  0
LINE
  8
0
  6
CONTINUOUS
 62
     7
  5
C76
 10
-10.313865
 20
-3.236949
 30
0.0
 11
-10.315696
 21
-3.240012
 31
0.0
  0
LINE
  8
0
  6
CONTINUOUS
 62
     7
  5
C77
 10
-10.315696
 20
-3.240012
 30
0.0
 11
-10.317592
 21
-3.242955
 31
0.0
  0
LINE
  8
0
  6
CONTINUOUS
 62
     7
  5
C78
 10
-10.317592
 20
-3.242955
 30
0.0
 11
-10.31955
 21
-3.245773
 31
0.0
  0
LINE
  8
0
  6
CONTINUOUS
 62
     7
  5
C79
 10
-10.31955
 20
-3.245773
 30
0.0
 11
-10.321567
 21
-3.248463
 31
0.0
  0
LINE
  8
0
  6
CONTINUOUS
 62
     7
  5
C7A
 10
-10.321567
 20
-3.248463
 30
0.0
 11
-10.323641
 21
-3.251021
 31
0.0
  0
LINE
  8
0
  6
CONTINUOUS
 62
     7
  5
C7B
 10
-10.323641
 20
-3.251021
 30
0.0
 11
-10.325769
 21
-3.253442
 31
0.0
  0
LINE
  8
0
  6
CONTINUOUS
 62
     7
  5
C7C
 10
-10.325769
 20
-3.253442
 30
0.0
 11
-10.327947
 21
-3.255725
 31
0.0
  0
LINE
  8
0
  6
CONTINUOUS
 62
     7
  5
C7D
 10
-10.327947
 20
-3.255725
 30
0.0
 11
-10.330173
 21
-3.257865
 31
0.0
  0
LINE
  8
0
  6
CONTINUOUS
 62
     7
  5
C7E
 10
-10.330173
 20
-3.257865
 30
0.0
 11
-10.332444
 21
-3.259859
 31
0.0
  0
LINE
  8
0
  6
CONTINUOUS
 62
     7
  5
C7F
 10
-10.332444
 20
-3.259859
 30
0.0
 11
-10.334756
 21
-3.261706
 31
0.0
  0
LINE
  8
0
  6
CONTINUOUS
 62
     7
  5
C80
 10
-10.334756
 20
-3.261706
 30
0.0
 11
-10.337106
 21
-3.263401
 31
0.0
  0
LINE
  8
0
  6
CONTINUOUS
 62
     7
  5
C81
 10
-10.337106
 20
-3.263401
 30
0.0
 11
-10.339491
 21
-3.264944
 31
0.0
  0
LINE
  8
0
  6
CONTINUOUS
 62
     7
  5
C82
 10
-10.339491
 20
-3.264944
 30
0.0
 11
-10.341907
 21
-3.266331
 31
0.0
  0
LINE
  8
0
  6
CONTINUOUS
 62
     7
  5
C83
 10
-10.341907
 20
-3.266331
 30
0.0
 11
-10.344352
 21
-3.267561
 31
0.0
  0
LINE
  8
0
  6
CONTINUOUS
 62
     7
  5
C84
 10
-10.344352
 20
-3.039526
 30
0.0
 11
-10.341907
 21
-3.040756
 31
0.0
  0
LINE
  8
0
  6
CONTINUOUS
 62
     7
  5
C85
 10
-10.341907
 20
-3.040756
 30
0.0
 11
-10.339491
 21
-3.042143
 31
0.0
  0
LINE
  8
0
  6
CONTINUOUS
 62
     7
  5
C86
 10
-10.339491
 20
-3.042143
 30
0.0
 11
-10.337106
 21
-3.043685
 31
0.0
  0
LINE
  8
0
  6
CONTINUOUS
 62
     7
  5
C87
 10
-10.337106
 20
-3.043685
 30
0.0
 11
-10.334756
 21
-3.045381
 31
0.0
  0
LINE
  8
0
  6
CONTINUOUS
 62
     7
  5
C88
 10
-10.334756
 20
-3.045381
 30
0.0
 11
-10.332444
 21
-3.047227
 31
0.0
  0
LINE
  8
0
  6
CONTINUOUS
 62
     7
  5
C89
 10
-10.332444
 20
-3.047227
 30
0.0
 11
-10.330173
 21
-3.049222
 31
0.0
  0
LINE
  8
0
  6
CONTINUOUS
 62
     7
  5
C8A
 10
-10.330173
 20
-3.049222
 30
0.0
 11
-10.327947
 21
-3.051362
 31
0.0
  0
LINE
  8
0
  6
CONTINUOUS
 62
     7
  5
C8B
 10
-10.327947
 20
-3.051362
 30
0.0
 11
-10.325769
 21
-3.053644
 31
0.0
  0
LINE
  8
0
  6
CONTINUOUS
 62
     7
  5
C8C
 10
-10.325769
 20
-3.053644
 30
0.0
 11
-10.323641
 21
-3.056066
 31
0.0
  0
LINE
  8
0
  6
CONTINUOUS
 62
     7
  5
C8D
 10
-10.323641
 20
-3.056066
 30
0.0
 11
-10.321567
 21
-3.058623
 31
0.0
  0
LINE
  8
0
  6
CONTINUOUS
 62
     7
  5
C8E
 10
-10.321567
 20
-3.058623
 30
0.0
 11
-10.31955
 21
-3.061313
 31
0.0
  0
LINE
  8
0
  6
CONTINUOUS
 62
     7
  5
C8F
 10
-10.31955
 20
-3.061313
 30
0.0
 11
-10.317592
 21
-3.064132
 31
0.0
  0
LINE
  8
0
  6
CONTINUOUS
 62
     7
  5
C90
 10
-10.317592
 20
-3.064132
 30
0.0
 11
-10.315696
 21
-3.067075
 31
0.0
  0
LINE
  8
0
  6
CONTINUOUS
 62
     7
  5
C91
 10
-10.315696
 20
-3.067075
 30
0.0
 11
-10.313865
 21
-3.070138
 31
0.0
  0
LINE
  8
0
  6
CONTINUOUS
 62
     7
  5
C92
 10
-10.313865
 20
-3.070138
 30
0.0
 11
-10.312101
 21
-3.073318
 31
0.0
  0
LINE
  8
0
  6
CONTINUOUS
 62
     7
  5
C93
 10
-10.312101
 20
-3.073318
 30
0.0
 11
-10.310407
 21
-3.076609
 31
0.0
  0
LINE
  8
0
  6
CONTINUOUS
 62
     7
  5
C94
 10
-10.310407
 20
-3.076609
 30
0.0
 11
-10.308785
 21
-3.080008
 31
0.0
  0
LINE
  8
0
  6
CONTINUOUS
 62
     7
  5
C95
 10
-10.308785
 20
-3.080008
 30
0.0
 11
-10.307238
 21
-3.08351
 31
0.0
  0
LINE
  8
0
  6
CONTINUOUS
 62
     7
  5
C96
 10
-10.307238
 20
-3.08351
 30
0.0
 11
-10.305767
 21
-3.087109
 31
0.0
  0
LINE
  8
0
  6
CONTINUOUS
 62
     7
  5
C97
 10
-10.305767
 20
-3.087109
 30
0.0
 11
-10.304374
 21
-3.0908
 31
0.0
  0
LINE
  8
0
  6
CONTINUOUS
 62
     7
  5
C98
 10
-10.304374
 20
-3.0908
 30
0.0
 11
-10.303062
 21
-3.094579
 31
0.0
  0
LINE
  8
0
  6
CONTINUOUS
 62
     7
  5
C99
 10
-10.303062
 20
-3.094579
 30
0.0
 11
-10.301833
 21
-3.09844
 31
0.0
  0
LINE
  8
0
  6
CONTINUOUS
 62
     7
  5
C9A
 10
-10.301833
 20
-3.09844
 30
0.0
 11
-10.300687
 21
-3.102378
 31
0.0
  0
LINE
  8
0
  6
CONTINUOUS
 62
     7
  5
C9B
 10
-10.300687
 20
-3.102378
 30
0.0
 11
-10.299627
 21
-3.106388
 31
0.0
  0
LINE
  8
0
  6
CONTINUOUS
 62
     7
  5
C9C
 10
-10.299627
 20
-3.106388
 30
0.0
 11
-10.298655
 21
-3.110463
 31
0.0
  0
LINE
  8
0
  6
CONTINUOUS
 62
     7
  5
C9D
 10
-10.298655
 20
-3.110463
 30
0.0
 11
-10.29777
 21
-3.114598
 31
0.0
  0
LINE
  8
0
  6
CONTINUOUS
 62
     7
  5
C9E
 10
-10.29777
 20
-3.114598
 30
0.0
 11
-10.296976
 21
-3.118787
 31
0.0
  0
LINE
  8
0
  6
CONTINUOUS
 62
     7
  5
C9F
 10
-10.296976
 20
-3.118787
 30
0.0
 11
-10.296272
 21
-3.123025
 31
0.0
  0
LINE
  8
0
  6
CONTINUOUS
 62
     7
  5
CA0
 10
-10.296272
 20
-3.123025
 30
0.0
 11
-10.295661
 21
-3.127305
 31
0.0
  0
LINE
  8
0
  6
CONTINUOUS
 62
     7
  5
CA1
 10
-10.295661
 20
-3.127305
 30
0.0
 11
-10.295141
 21
-3.131622
 31
0.0
  0
LINE
  8
0
  6
CONTINUOUS
 62
     7
  5
CA2
 10
-10.295141
 20
-3.131622
 30
0.0
 11
-10.294716
 21
-3.13597
 31
0.0
  0
LINE
  8
0
  6
CONTINUOUS
 62
     7
  5
CA3
 10
-10.294716
 20
-3.13597
 30
0.0
 11
-10.294384
 21
-3.140341
 31
0.0
  0
LINE
  8
0
  6
CONTINUOUS
 62
     7
  5
CA4
 10
-10.294384
 20
-3.140341
 30
0.0
 11
-10.294147
 21
-3.144732
 31
0.0
  0
LINE
  8
0
  6
CONTINUOUS
 62
     7
  5
CA5
 10
-10.294147
 20
-3.144732
 30
0.0
 11
-10.294004
 21
-3.149135
 31
0.0
  0
LINE
  8
0
  6
CONTINUOUS
 62
     7
  5
CA6
 10
-10.294004
 20
-3.149135
 30
0.0
 11
-10.293957
 21
-3.153543
 31
0.0
  0
LINE
  8
0
  6
CONTINUOUS
 62
     7
  5
CA7
 10
-10.52126
 20
-2.956693
 30
0.0
 11
-10.344352
 21
-3.039526
 31
0.0
  0
LINE
  8
0
  6
CONTINUOUS
 62
     7
  5
CA8
 10
-10.52126
 20
-3.350394
 30
0.0
 11
-10.52126
 21
-2.956693
 31
0.0
  0
LINE
  8
0
  6
CONTINUOUS
 62
     7
  5
CA9
 10
-7.765884
 20
-3.039526
 30
0.0
 11
-7.588976
 21
-2.956693
 31
0.0
  0
LINE
  8
0
  6
CONTINUOUS
 62
     7
  5
CAA
 10
-7.588976
 20
-3.350394
 30
0.0
 11
-7.765884
 21
-3.267561
 31
0.0
  0
LINE
  8
0
  6
CONTINUOUS
 62
     7
  5
CAB
 10
-7.588976
 20
-2.956693
 30
0.0
 11
-7.588976
 21
-3.350394
 31
0.0
  0
LINE
  8
0
  6
CONTINUOUS
 62
     7
  5
CAC
 10
-7.81628
 20
-3.153543
 30
0.0
 11
-7.816232
 21
-3.149135
 31
0.0
  0
LINE
  8
0
  6
CONTINUOUS
 62
     7
  5
CAD
 10
-7.816232
 20
-3.149135
 30
0.0
 11
-7.81609
 21
-3.144732
 31
0.0
  0
LINE
  8
0
  6
CONTINUOUS
 62
     7
  5
CAE
 10
-7.81609
 20
-3.144732
 30
0.0
 11
-7.815852
 21
-3.140341
 31
0.0
  0
LINE
  8
0
  6
CONTINUOUS
 62
     7
  5
CAF
 10
-7.815852
 20
-3.140341
 30
0.0
 11
-7.815521
 21
-3.13597
 31
0.0
  0
LINE
  8
0
  6
CONTINUOUS
 62
     7
  5
CB0
 10
-7.815521
 20
-3.13597
 30
0.0
 11
-7.815095
 21
-3.131622
 31
0.0
  0
LINE
  8
0
  6
CONTINUOUS
 62
     7
  5
CB1
 10
-7.815095
 20
-3.131622
 30
0.0
 11
-7.814576
 21
-3.127305
 31
0.0
  0
LINE
  8
0
  6
CONTINUOUS
 62
     7
  5
CB2
 10
-7.814576
 20
-3.127305
 30
0.0
 11
-7.813964
 21
-3.123025
 31
0.0
  0
LINE
  8
0
  6
CONTINUOUS
 62
     7
  5
CB3
 10
-7.813964
 20
-3.123025
 30
0.0
 11
-7.81326
 21
-3.118787
 31
0.0
  0
LINE
  8
0
  6
CONTINUOUS
 62
     7
  5
CB4
 10
-7.81326
 20
-3.118787
 30
0.0
 11
-7.812466
 21
-3.114598
 31
0.0
  0
LINE
  8
0
  6
CONTINUOUS
 62
     7
  5
CB5
 10
-7.812466
 20
-3.114598
 30
0.0
 11
-7.811582
 21
-3.110463
 31
0.0
  0
LINE
  8
0
  6
CONTINUOUS
 62
     7
  5
CB6
 10
-7.811582
 20
-3.110463
 30
0.0
 11
-7.810609
 21
-3.106388
 31
0.0
  0
LINE
  8
0
  6
CONTINUOUS
 62
     7
  5
CB7
 10
-7.810609
 20
-3.106388
 30
0.0
 11
-7.809549
 21
-3.102378
 31
0.0
  0
LINE
  8
0
  6
CONTINUOUS
 62
     7
  5
CB8
 10
-7.809549
 20
-3.102378
 30
0.0
 11
-7.808404
 21
-3.09844
 31
0.0
  0
LINE
  8
0
  6
CONTINUOUS
 62
     7
  5
CB9
 10
-7.808404
 20
-3.09844
 30
0.0
 11
-7.807174
 21
-3.094579
 31
0.0
  0
LINE
  8
0
  6
CONTINUOUS
 62
     7
  5
CBA
 10
-7.807174
 20
-3.094579
 30
0.0
 11
-7.805862
 21
-3.0908
 31
0.0
  0
LINE
  8
0
  6
CONTINUOUS
 62
     7
  5
CBB
 10
-7.805862
 20
-3.0908
 30
0.0
 11
-7.80447
 21
-3.087109
 31
0.0
  0
LINE
  8
0
  6
CONTINUOUS
 62
     7
  5
CBC
 10
-7.80447
 20
-3.087109
 30
0.0
 11
-7.802999
 21
-3.08351
 31
0.0
  0
LINE
  8
0
  6
CONTINUOUS
 62
     7
  5
CBD
 10
-7.802999
 20
-3.08351
 30
0.0
 11
-7.801451
 21
-3.080008
 31
0.0
  0
LINE
  8
0
  6
CONTINUOUS
 62
     7
  5
CBE
 10
-7.801451
 20
-3.080008
 30
0.0
 11
-7.799829
 21
-3.076609
 31
0.0
  0
LINE
  8
0
  6
CONTINUOUS
 62
     7
  5
CBF
 10
-7.799829
 20
-3.076609
 30
0.0
 11
-7.798135
 21
-3.073318
 31
0.0
  0
LINE
  8
0
  6
CONTINUOUS
 62
     7
  5
CC0
 10
-7.798135
 20
-3.073318
 30
0.0
 11
-7.796371
 21
-3.070138
 31
0.0
  0
LINE
  8
0
  6
CONTINUOUS
 62
     7
  5
CC1
 10
-7.796371
 20
-3.070138
 30
0.0
 11
-7.79454
 21
-3.067075
 31
0.0
  0
LINE
  8
0
  6
CONTINUOUS
 62
     7
  5
CC2
 10
-7.79454
 20
-3.067075
 30
0.0
 11
-7.792644
 21
-3.064132
 31
0.0
  0
LINE
  8
0
  6
CONTINUOUS
 62
     7
  5
CC3
 10
-7.792644
 20
-3.064132
 30
0.0
 11
-7.790686
 21
-3.061313
 31
0.0
  0
LINE
  8
0
  6
CONTINUOUS
 62
     7
  5
CC4
 10
-7.790686
 20
-3.061313
 30
0.0
 11
-7.788669
 21
-3.058623
 31
0.0
  0
LINE
  8
0
  6
CONTINUOUS
 62
     7
  5
CC5
 10
-7.788669
 20
-3.058623
 30
0.0
 11
-7.786595
 21
-3.056066
 31
0.0
  0
LINE
  8
0
  6
CONTINUOUS
 62
     7
  5
CC6
 10
-7.786595
 20
-3.056066
 30
0.0
 11
-7.784467
 21
-3.053644
 31
0.0
  0
LINE
  8
0
  6
CONTINUOUS
 62
     7
  5
CC7
 10
-7.784467
 20
-3.053644
 30
0.0
 11
-7.782289
 21
-3.051362
 31
0.0
  0
LINE
  8
0
  6
CONTINUOUS
 62
     7
  5
CC8
 10
-7.782289
 20
-3.051362
 30
0.0
 11
-7.780063
 21
-3.049222
 31
0.0
  0
LINE
  8
0
  6
CONTINUOUS
 62
     7
  5
CC9
 10
-7.780063
 20
-3.049222
 30
0.0
 11
-7.777792
 21
-3.047227
 31
0.0
  0
LINE
  8
0
  6
CONTINUOUS
 62
     7
  5
CCA
 10
-7.777792
 20
-3.047227
 30
0.0
 11
-7.775481
 21
-3.045381
 31
0.0
  0
LINE
  8
0
  6
CONTINUOUS
 62
     7
  5
CCB
 10
-7.775481
 20
-3.045381
 30
0.0
 11
-7.77313
 21
-3.043685
 31
0.0
  0
LINE
  8
0
  6
CONTINUOUS
 62
     7
  5
CCC
 10
-7.77313
 20
-3.043685
 30
0.0
 11
-7.770745
 21
-3.042143
 31
0.0
  0
LINE
  8
0
  6
CONTINUOUS
 62
     7
  5
CCD
 10
-7.770745
 20
-3.042143
 30
0.0
 11
-7.768329
 21
-3.040756
 31
0.0
  0
LINE
  8
0
  6
CONTINUOUS
 62
     7
  5
CCE
 10
-7.768329
 20
-3.040756
 30
0.0
 11
-7.765884
 21
-3.039526
 31
0.0
  0
LINE
  8
0
  6
CONTINUOUS
 62
     7
  5
CCF
 10
-7.765884
 20
-3.267561
 30
0.0
 11
-7.768329
 21
-3.266331
 31
0.0
  0
LINE
  8
0
  6
CONTINUOUS
 62
     7
  5
CD0
 10
-7.768329
 20
-3.266331
 30
0.0
 11
-7.770745
 21
-3.264944
 31
0.0
  0
LINE
  8
0
  6
CONTINUOUS
 62
     7
  5
CD1
 10
-7.770745
 20
-3.264944
 30
0.0
 11
-7.77313
 21
-3.263401
 31
0.0
  0
LINE
  8
0
  6
CONTINUOUS
 62
     7
  5
CD2
 10
-7.77313
 20
-3.263401
 30
0.0
 11
-7.775481
 21
-3.261706
 31
0.0
  0
LINE
  8
0
  6
CONTINUOUS
 62
     7
  5
CD3
 10
-7.775481
 20
-3.261706
 30
0.0
 11
-7.777792
 21
-3.259859
 31
0.0
  0
LINE
  8
0
  6
CONTINUOUS
 62
     7
  5
CD4
 10
-7.777792
 20
-3.259859
 30
0.0
 11
-7.780063
 21
-3.257865
 31
0.0
  0
LINE
  8
0
  6
CONTINUOUS
 62
     7
  5
CD5
 10
-7.780063
 20
-3.257865
 30
0.0
 11
-7.782289
 21
-3.255725
 31
0.0
  0
LINE
  8
0
  6
CONTINUOUS
 62
     7
  5
CD6
 10
-7.782289
 20
-3.255725
 30
0.0
 11
-7.784467
 21
-3.253442
 31
0.0
  0
LINE
  8
0
  6
CONTINUOUS
 62
     7
  5
CD7
 10
-7.784467
 20
-3.253442
 30
0.0
 11
-7.786595
 21
-3.251021
 31
0.0
  0
LINE
  8
0
  6
CONTINUOUS
 62
     7
  5
CD8
 10
-7.786595
 20
-3.251021
 30
0.0
 11
-7.788669
 21
-3.248463
 31
0.0
  0
LINE
  8
0
  6
CONTINUOUS
 62
     7
  5
CD9
 10
-7.788669
 20
-3.248463
 30
0.0
 11
-7.790686
 21
-3.245773
 31
0.0
  0
LINE
  8
0
  6
CONTINUOUS
 62
     7
  5
CDA
 10
-7.790686
 20
-3.245773
 30
0.0
 11
-7.792644
 21
-3.242955
 31
0.0
  0
LINE
  8
0
  6
CONTINUOUS
 62
     7
  5
CDB
 10
-7.792644
 20
-3.242955
 30
0.0
 11
-7.79454
 21
-3.240012
 31
0.0
  0
LINE
  8
0
  6
CONTINUOUS
 62
     7
  5
CDC
 10
-7.79454
 20
-3.240012
 30
0.0
 11
-7.796371
 21
-3.236949
 31
0.0
  0
LINE
  8
0
  6
CONTINUOUS
 62
     7
  5
CDD
 10
-7.796371
 20
-3.236949
 30
0.0
 11
-7.798135
 21
-3.233769
 31
0.0
  0
LINE
  8
0
  6
CONTINUOUS
 62
     7
  5
CDE
 10
-7.798135
 20
-3.233769
 30
0.0
 11
-7.799829
 21
-3.230477
 31
0.0
  0
LINE
  8
0
  6
CONTINUOUS
 62
     7
  5
CDF
 10
-7.799829
 20
-3.230477
 30
0.0
 11
-7.801451
 21
-3.227078
 31
0.0
  0
LINE
  8
0
  6
CONTINUOUS
 62
     7
  5
CE0
 10
-7.801451
 20
-3.227078
 30
0.0
 11
-7.802999
 21
-3.223577
 31
0.0
  0
LINE
  8
0
  6
CONTINUOUS
 62
     7
  5
CE1
 10
-7.802999
 20
-3.223577
 30
0.0
 11
-7.80447
 21
-3.219978
 31
0.0
  0
LINE
  8
0
  6
CONTINUOUS
 62
     7
  5
CE2
 10
-7.80447
 20
-3.219978
 30
0.0
 11
-7.805862
 21
-3.216287
 31
0.0
  0
LINE
  8
0
  6
CONTINUOUS
 62
     7
  5
CE3
 10
-7.805862
 20
-3.216287
 30
0.0
 11
-7.807174
 21
-3.212508
 31
0.0
  0
LINE
  8
0
  6
CONTINUOUS
 62
     7
  5
CE4
 10
-7.807174
 20
-3.212508
 30
0.0
 11
-7.808404
 21
-3.208646
 31
0.0
  0
LINE
  8
0
  6
CONTINUOUS
 62
     7
  5
CE5
 10
-7.808404
 20
-3.208646
 30
0.0
 11
-7.809549
 21
-3.204708
 31
0.0
  0
LINE
  8
0
  6
CONTINUOUS
 62
     7
  5
CE6
 10
-7.809549
 20
-3.204708
 30
0.0
 11
-7.810609
 21
-3.200699
 31
0.0
  0
LINE
  8
0
  6
CONTINUOUS
 62
     7
  5
CE7
 10
-7.810609
 20
-3.200699
 30
0.0
 11
-7.811582
 21
-3.196624
 31
0.0
  0
LINE
  8
0
  6
CONTINUOUS
 62
     7
  5
CE8
 10
-7.811582
 20
-3.196624
 30
0.0
 11
-7.812466
 21
-3.192489
 31
0.0
  0
LINE
  8
0
  6
CONTINUOUS
 62
     7
  5
CE9
 10
-7.812466
 20
-3.192489
 30
0.0
 11
-7.81326
 21
-3.1883
 31
0.0
  0
LINE
  8
0
  6
CONTINUOUS
 62
     7
  5
CEA
 10
-7.81326
 20
-3.1883
 30
0.0
 11
-7.813964
 21
-3.184062
 31
0.0
  0
LINE
  8
0
  6
CONTINUOUS
 62
     7
  5
CEB
 10
-7.813964
 20
-3.184062
 30
0.0
 11
-7.814576
 21
-3.179781
 31
0.0
  0
LINE
  8
0
  6
CONTINUOUS
 62
     7
  5
CEC
 10
-7.814576
 20
-3.179781
 30
0.0
 11
-7.815095
 21
-3.175465
 31
0.0
  0
LINE
  8
0
  6
CONTINUOUS
 62
     7
  5
CED
 10
-7.815095
 20
-3.175465
 30
0.0
 11
-7.815521
 21
-3.171117
 31
0.0
  0
LINE
  8
0
  6
CONTINUOUS
 62
     7
  5
CEE
 10
-7.815521
 20
-3.171117
 30
0.0
 11
-7.815852
 21
-3.166745
 31
0.0
  0
LINE
  8
0
  6
CONTINUOUS
 62
     7
  5
CEF
 10
-7.815852
 20
-3.166745
 30
0.0
 11
-7.81609
 21
-3.162355
 31
0.0
  0
LINE
  8
0
  6
CONTINUOUS
 62
     7
  5
CF0
 10
-7.81609
 20
-3.162355
 30
0.0
 11
-7.816232
 21
-3.157952
 31
0.0
  0
LINE
  8
0
  6
CONTINUOUS
 62
     7
  5
CF1
 10
-7.816232
 20
-3.157952
 30
0.0
 11
-7.81628
 21
-3.153543
 31
0.0
  0
LINE
  8
0
  6
CONTINUOUS
 62
     7
  5
CF2
 10
-7.588976
 20
-3.350394
 30
0.0
 11
-10.52126
 21
-3.350394
 31
0.0
  0
CIRCLE
  8
0
  6
CONTINUOUS
 62
     7
  5
CF3
 10
-8.179134
 20
-4.336614
 30
0.0
 40
0.285433
  0
CIRCLE
  8
0
  6
CONTINUOUS
 62
     7
  5
CF4
 10
-9.931102
 20
-4.336614
 30
0.0
 40
0.285433
  0
CIRCLE
  8
0
  6
CONTINUOUS
 62
     7
  5
CF5
 10
-8.179134
 20
-6.088583
 30
0.0
 40
0.285433
  0
CIRCLE
  8
0
  6
CONTINUOUS
 62
     7
  5
CF6
 10
-9.931102
 20
-6.088583
 30
0.0
 40
0.285433
  0
LINE
  8
0
  6
CONTINUOUS
 62
     7
  5
CF7
 10
-10.551181
 20
-2.956693
 30
0.0
 11
-10.551181
 21
-6.71063
 31
0.0
  0
LINE
  8
0
  6
CONTINUOUS
 62
     7
  5
CF8
 10
-10.551181
 20
-6.71063
 30
0.0
 11
-7.559055
 21
-6.71063
 31
0.0
  0
LINE
  8
0
  6
CONTINUOUS
 62
     7
  5
CF9
 10
-7.559055
 20
-6.71063
 30
0.0
 11
-7.559055
 21
-2.956693
 31
0.0
  0
LINE
  8
0
  6
CONTINUOUS
 62
     7
  5
CFA
 10
-16.488189
 20
-8.354331
 30
0.0
 11
-17.984252
 21
-8.354331
 31
0.0
  0
LINE
  8
0
  6
CONTINUOUS
 62
     7
  5
CFB
 10
-16.488189
 20
-6.779528
 30
0.0
 11
-16.488189
 21
-8.354331
 31
0.0
  0
LINE
  8
0
  6
CONTINUOUS
 62
     7
  5
CFC
 10
-17.984252
 20
-8.354331
 30
0.0
 11
-17.984252
 21
-9.929134
 31
0.0
  0
LINE
  8
0
  6
CONTINUOUS
 62
     7
  5
CFD
 10
-17.984252
 20
-9.929134
 30
0.0
 11
-16.212598
 21
-9.929134
 31
0.0
  0
LINE
  8
0
  6
CONTINUOUS
 62
     7
  5
CFE
 10
-16.212598
 20
-6.779528
 30
0.0
 11
-16.488189
 21
-6.779528
 31
0.0
  0
LINE
  8
0
  6
CONTINUOUS
 62
     7
  5
CFF
 10
-16.527559
 20
-5.795276
 30
0.0
 11
-16.370079
 21
-5.795276
 31
0.0
  0
LINE
  8
0
  6
CONTINUOUS
 62
     7
  5
D00
 10
-16.370079
 20
-5.795276
 30
0.0
 11
-16.370079
 21
-6.779528
 31
0.0
  0
LINE
  8
0
  6
CONTINUOUS
 62
     7
  5
D01
 10
-16.370079
 20
-5.795276
 30
0.0
 11
-16.212598
 21
-5.795276
 31
0.0
  0
LINE
  8
0
  6
CONTINUOUS
 62
     7
  5
D02
 10
-18.864961
 20
-5.795276
 30
0.0
 11
-18.864961
 21
-9.338583
 31
0.0
  0
LINE
  8
0
  6
CONTINUOUS
 62
     7
  5
D03
 10
-18.864961
 20
-9.338583
 30
0.0
 11
-17.984252
 21
-9.338583
 31
0.0
  0
LINE
  8
0
  6
CONTINUOUS
 62
     7
  5
D04
 10
-18.864961
 20
-5.795276
 30
0.0
 11
-16.527559
 21
-5.795276
 31
0.0
  0
LINE
  8
0
  6
CONTINUOUS
 62
     7
  5
D05
 10
-16.212598
 20
-3.567929
 30
0.0
 11
-16.212598
 21
-11.565929
 31
0.0
  0
LINE
  8
0
  6
CONTINUOUS
 62
     7
  5
D06
 10
-8.375984
 20
-10.600394
 30
0.0
 11
-7.982283
 21
-10.600394
 31
0.0
  0
LINE
  8
0
  6
CONTINUOUS
 62
     7
  5
D07
 10
-8.375984
 20
-10.994094
 30
0.0
 11
-8.375984
 21
-10.600394
 31
0.0
  0
LINE
  8
0
  6
CONTINUOUS
 62
     7
  5
D08
 10
-7.982283
 20
-10.994094
 30
0.0
 11
-8.375984
 21
-10.994094
 31
0.0
  0
LINE
  8
0
  6
CONTINUOUS
 62
     7
  5
D09
 10
-7.982283
 20
-10.600394
 30
0.0
 11
-7.982283
 21
-10.994094
 31
0.0
  0
LINE
  8
0
  6
CONTINUOUS
 62
     7
  5
D0A
 10
-10.127953
 20
-10.600394
 30
0.0
 11
-9.734252
 21
-10.600394
 31
0.0
  0
LINE
  8
0
  6
CONTINUOUS
 62
     7
  5
D0B
 10
-10.127953
 20
-10.994094
 30
0.0
 11
-10.127953
 21
-10.600394
 31
0.0
  0
LINE
  8
0
  6
CONTINUOUS
 62
     7
  5
D0C
 10
-9.734252
 20
-10.994094
 30
0.0
 11
-10.127953
 21
-10.994094
 31
0.0
  0
LINE
  8
0
  6
CONTINUOUS
 62
     7
  5
D0D
 10
-9.734252
 20
-10.600394
 30
0.0
 11
-9.734252
 21
-10.994094
 31
0.0
  0
LINE
  8
0
  6
CONTINUOUS
 62
     7
  5
D0E
 10
-8.375984
 20
-8.848425
 30
0.0
 11
-7.982283
 21
-8.848425
 31
0.0
  0
LINE
  8
0
  6
CONTINUOUS
 62
     7
  5
D0F
 10
-8.375984
 20
-9.242126
 30
0.0
 11
-8.375984
 21
-8.848425
 31
0.0
  0
LINE
  8
0
  6
CONTINUOUS
 62
     7
  5
D10
 10
-7.982283
 20
-9.242126
 30
0.0
 11
-8.375984
 21
-9.242126
 31
0.0
  0
LINE
  8
0
  6
CONTINUOUS
 62
     7
  5
D11
 10
-7.982283
 20
-8.848425
 30
0.0
 11
-7.982283
 21
-9.242126
 31
0.0
  0
LINE
  8
0
  6
CONTINUOUS
 62
     7
  5
D12
 10
-10.127953
 20
-8.848425
 30
0.0
 11
-9.734252
 21
-8.848425
 31
0.0
  0
LINE
  8
0
  6
CONTINUOUS
 62
     7
  5
D13
 10
-10.127953
 20
-9.242126
 30
0.0
 11
-10.127953
 21
-8.848425
 31
0.0
  0
LINE
  8
0
  6
CONTINUOUS
 62
     7
  5
D14
 10
-9.734252
 20
-9.242126
 30
0.0
 11
-10.127953
 21
-9.242126
 31
0.0
  0
LINE
  8
0
  6
CONTINUOUS
 62
     7
  5
D15
 10
-9.734252
 20
-8.848425
 30
0.0
 11
-9.734252
 21
-9.242126
 31
0.0
  0
LINE
  8
0
  6
CONTINUOUS
 62
     7
  5
D16
 10
-16.212598
 20
-11.565929
 30
0.0
 11
-16.015748
 21
-11.565929
 31
0.0
  0
LINE
  8
0
  6
CONTINUOUS
 62
     7
  5
D17
 10
-16.212598
 20
-3.567929
 30
0.0
 11
-16.015748
 21
-3.567929
 31
0.0
  0
LINE
  8
0
  6
CONTINUOUS
 62
     7
  5
D18
 10
-16.015748
 20
-3.567929
 30
0.0
 11
-10.551181
 21
-3.567929
 31
0.0
  0
LINE
  8
0
  6
CONTINUOUS
 62
     7
  5
D19
 10
-16.015748
 20
-11.565929
 30
0.0
 11
-7.560055
 21
-11.565929
 31
0.0
  0
LINE
  8
0
  6
CONTINUOUS
 62
     7
  5
D1A
 10
-7.560055
 20
-6.71063
 30
0.0
 11
-7.560055
 21
-11.565929
 31
0.0
  0
LINE
  8
0
  6
CONTINUOUS
 62
     7
  5
D1B
 10
-16.055118
 20
-11.565929
 30
0.0
 11
-16.055118
 21
-11.566929
 31
0.0
  0
LINE
  8
0
  6
CONTINUOUS
 62
     7
  5
D1C
 10
-16.055118
 20
-11.566929
 30
0.0
 11
-15.858268
 21
-11.566929
 31
0.0
  0
LINE
  8
0
  6
CONTINUOUS
 62
     7
  5
D1D
 10
-16.055118
 20
-3.566929
 30
0.0
 11
-15.858268
 21
-3.566929
 31
0.0
  0
LINE
  8
0
  6
CONTINUOUS
 62
     7
  5
D1E
 10
-15.858268
 20
-11.566929
 30
0.0
 11
-7.559055
 21
-11.566929
 31
0.0
  0
LINE
  8
0
  6
CONTINUOUS
 62
     7
  5
D1F
 10
-7.559055
 20
-6.71063
 30
0.0
 11
-7.559055
 21
-11.566929
 31
0.0
  0
LINE
  8
0
  6
CONTINUOUS
 62
     7
  5
D20
 10
-15.858268
 20
-3.566929
 30
0.0
 11
-10.551181
 21
-3.566929
 31
0.0
  0
LINE
  8
0
  6
CONTINUOUS
 62
     7
  5
D21
 10
-5.816793
 20
-3.267561
 30
0.0
 11
-5.993701
 21
-3.350394
 31
0.0
  0
LINE
  8
0
  6
CONTINUOUS
 62
     7
  5
D22
 10
-5.766398
 20
-3.153543
 30
0.0
 11
-5.766445
 21
-3.157952
 31
0.0
  0
LINE
  8
0
  6
CONTINUOUS
 62
     7
  5
D23
 10
-5.766445
 20
-3.157952
 30
0.0
 11
-5.766588
 21
-3.162355
 31
0.0
  0
LINE
  8
0
  6
CONTINUOUS
 62
     7
  5
D24
 10
-5.766588
 20
-3.162355
 30
0.0
 11
-5.766825
 21
-3.166745
 31
0.0
  0
LINE
  8
0
  6
CONTINUOUS
 62
     7
  5
D25
 10
-5.766825
 20
-3.166745
 30
0.0
 11
-5.767157
 21
-3.171117
 31
0.0
  0
LINE
  8
0
  6
CONTINUOUS
 62
     7
  5
D26
 10
-5.767157
 20
-3.171117
 30
0.0
 11
-5.767582
 21
-3.175465
 31
0.0
  0
LINE
  8
0
  6
CONTINUOUS
 62
     7
  5
D27
 10
-5.767582
 20
-3.175465
 30
0.0
 11
-5.768101
 21
-3.179781
 31
0.0
  0
LINE
  8
0
  6
CONTINUOUS
 62
     7
  5
D28
 10
-5.768101
 20
-3.179781
 30
0.0
 11
-5.768713
 21
-3.184062
 31
0.0
  0
LINE
  8
0
  6
CONTINUOUS
 62
     7
  5
D29
 10
-5.768713
 20
-3.184062
 30
0.0
 11
-5.769417
 21
-3.1883
 31
0.0
  0
LINE
  8
0
  6
CONTINUOUS
 62
     7
  5
D2A
 10
-5.769417
 20
-3.1883
 30
0.0
 11
-5.770211
 21
-3.192489
 31
0.0
  0
LINE
  8
0
  6
CONTINUOUS
 62
     7
  5
D2B
 10
-5.770211
 20
-3.192489
 30
0.0
 11
-5.771096
 21
-3.196624
 31
0.0
  0
LINE
  8
0
  6
CONTINUOUS
 62
     7
  5
D2C
 10
-5.771096
 20
-3.196624
 30
0.0
 11
-5.772068
 21
-3.200699
 31
0.0
  0
LINE
  8
0
  6
CONTINUOUS
 62
     7
  5
D2D
 10
-5.772068
 20
-3.200699
 30
0.0
 11
-5.773128
 21
-3.204708
 31
0.0
  0
LINE
  8
0
  6
CONTINUOUS
 62
     7
  5
D2E
 10
-5.773128
 20
-3.204708
 30
0.0
 11
-5.774274
 21
-3.208646
 31
0.0
  0
LINE
  8
0
  6
CONTINUOUS
 62
     7
  5
D2F
 10
-5.774274
 20
-3.208646
 30
0.0
 11
-5.775503
 21
-3.212508
 31
0.0
  0
LINE
  8
0
  6
CONTINUOUS
 62
     7
  5
D30
 10
-5.775503
 20
-3.212508
 30
0.0
 11
-5.776815
 21
-3.216287
 31
0.0
  0
LINE
  8
0
  6
CONTINUOUS
 62
     7
  5
D31
 10
-5.776815
 20
-3.216287
 30
0.0
 11
-5.778208
 21
-3.219978
 31
0.0
  0
LINE
  8
0
  6
CONTINUOUS
 62
     7
  5
D32
 10
-5.778208
 20
-3.219978
 30
0.0
 11
-5.779679
 21
-3.223577
 31
0.0
  0
LINE
  8
0
  6
CONTINUOUS
 62
     7
  5
D33
 10
-5.779679
 20
-3.223577
 30
0.0
 11
-5.781226
 21
-3.227078
 31
0.0
  0
LINE
  8
0
  6
CONTINUOUS
 62
     7
  5
D34
 10
-5.781226
 20
-3.227078
 30
0.0
 11
-5.782848
 21
-3.230477
 31
0.0
  0
LINE
  8
0
  6
CONTINUOUS
 62
     7
  5
D35
 10
-5.782848
 20
-3.230477
 30
0.0
 11
-5.784542
 21
-3.233769
 31
0.0
  0
LINE
  8
0
  6
CONTINUOUS
 62
     7
  5
D36
 10
-5.784542
 20
-3.233769
 30
0.0
 11
-5.786306
 21
-3.236949
 31
0.0
  0
LINE
  8
0
  6
CONTINUOUS
 62
     7
  5
D37
 10
-5.786306
 20
-3.236949
 30
0.0
 11
-5.788137
 21
-3.240012
 31
0.0
  0
LINE
  8
0
  6
CONTINUOUS
 62
     7
  5
D38
 10
-5.788137
 20
-3.240012
 30
0.0
 11
-5.790033
 21
-3.242955
 31
0.0
  0
LINE
  8
0
  6
CONTINUOUS
 62
     7
  5
D39
 10
-5.790033
 20
-3.242955
 30
0.0
 11
-5.791991
 21
-3.245773
 31
0.0
  0
LINE
  8
0
  6
CONTINUOUS
 62
     7
  5
D3A
 10
-5.791991
 20
-3.245773
 30
0.0
 11
-5.794008
 21
-3.248463
 31
0.0
  0
LINE
  8
0
  6
CONTINUOUS
 62
     7
  5
D3B
 10
-5.794008
 20
-3.248463
 30
0.0
 11
-5.796082
 21
-3.251021
 31
0.0
  0
LINE
  8
0
  6
CONTINUOUS
 62
     7
  5
D3C
 10
-5.796082
 20
-3.251021
 30
0.0
 11
-5.79821
 21
-3.253442
 31
0.0
  0
LINE
  8
0
  6
CONTINUOUS
 62
     7
  5
D3D
 10
-5.79821
 20
-3.253442
 30
0.0
 11
-5.800388
 21
-3.255725
 31
0.0
  0
LINE
  8
0
  6
CONTINUOUS
 62
     7
  5
D3E
 10
-5.800388
 20
-3.255725
 30
0.0
 11
-5.802614
 21
-3.257865
 31
0.0
  0
LINE
  8
0
  6
CONTINUOUS
 62
     7
  5
D3F
 10
-5.802614
 20
-3.257865
 30
0.0
 11
-5.804885
 21
-3.259859
 31
0.0
  0
LINE
  8
0
  6
CONTINUOUS
 62
     7
  5
D40
 10
-5.804885
 20
-3.259859
 30
0.0
 11
-5.807197
 21
-3.261706
 31
0.0
  0
LINE
  8
0
  6
CONTINUOUS
 62
     7
  5
D41
 10
-5.807197
 20
-3.261706
 30
0.0
 11
-5.809547
 21
-3.263401
 31
0.0
  0
LINE
  8
0
  6
CONTINUOUS
 62
     7
  5
D42
 10
-5.809547
 20
-3.263401
 30
0.0
 11
-5.811932
 21
-3.264944
 31
0.0
  0
LINE
  8
0
  6
CONTINUOUS
 62
     7
  5
D43
 10
-5.811932
 20
-3.264944
 30
0.0
 11
-5.814348
 21
-3.266331
 31
0.0
  0
LINE
  8
0
  6
CONTINUOUS
 62
     7
  5
D44
 10
-5.814348
 20
-3.266331
 30
0.0
 11
-5.816793
 21
-3.267561
 31
0.0
  0
LINE
  8
0
  6
CONTINUOUS
 62
     7
  5
D45
 10
-5.816793
 20
-3.039526
 30
0.0
 11
-5.814348
 21
-3.040756
 31
0.0
  0
LINE
  8
0
  6
CONTINUOUS
 62
     7
  5
D46
 10
-5.814348
 20
-3.040756
 30
0.0
 11
-5.811932
 21
-3.042143
 31
0.0
  0
LINE
  8
0
  6
CONTINUOUS
 62
     7
  5
D47
 10
-5.811932
 20
-3.042143
 30
0.0
 11
-5.809547
 21
-3.043685
 31
0.0
  0
LINE
  8
0
  6
CONTINUOUS
 62
     7
  5
D48
 10
-5.809547
 20
-3.043685
 30
0.0
 11
-5.807197
 21
-3.045381
 31
0.0
  0
LINE
  8
0
  6
CONTINUOUS
 62
     7
  5
D49
 10
-5.807197
 20
-3.045381
 30
0.0
 11
-5.804885
 21
-3.047227
 31
0.0
  0
LINE
  8
0
  6
CONTINUOUS
 62
     7
  5
D4A
 10
-5.804885
 20
-3.047227
 30
0.0
 11
-5.802614
 21
-3.049222
 31
0.0
  0
LINE
  8
0
  6
CONTINUOUS
 62
     7
  5
D4B
 10
-5.802614
 20
-3.049222
 30
0.0
 11
-5.800388
 21
-3.051362
 31
0.0
  0
LINE
  8
0
  6
CONTINUOUS
 62
     7
  5
D4C
 10
-5.800388
 20
-3.051362
 30
0.0
 11
-5.79821
 21
-3.053644
 31
0.0
  0
LINE
  8
0
  6
CONTINUOUS
 62
     7
  5
D4D
 10
-5.79821
 20
-3.053644
 30
0.0
 11
-5.796082
 21
-3.056066
 31
0.0
  0
LINE
  8
0
  6
CONTINUOUS
 62
     7
  5
D4E
 10
-5.796082
 20
-3.056066
 30
0.0
 11
-5.794008
 21
-3.058623
 31
0.0
  0
LINE
  8
0
  6
CONTINUOUS
 62
     7
  5
D4F
 10
-5.794008
 20
-3.058623
 30
0.0
 11
-5.791991
 21
-3.061313
 31
0.0
  0
LINE
  8
0
  6
CONTINUOUS
 62
     7
  5
D50
 10
-5.791991
 20
-3.061313
 30
0.0
 11
-5.790033
 21
-3.064132
 31
0.0
  0
LINE
  8
0
  6
CONTINUOUS
 62
     7
  5
D51
 10
-5.790033
 20
-3.064132
 30
0.0
 11
-5.788137
 21
-3.067075
 31
0.0
  0
LINE
  8
0
  6
CONTINUOUS
 62
     7
  5
D52
 10
-5.788137
 20
-3.067075
 30
0.0
 11
-5.786306
 21
-3.070138
 31
0.0
  0
LINE
  8
0
  6
CONTINUOUS
 62
     7
  5
D53
 10
-5.786306
 20
-3.070138
 30
0.0
 11
-5.784542
 21
-3.073318
 31
0.0
  0
LINE
  8
0
  6
CONTINUOUS
 62
     7
  5
D54
 10
-5.784542
 20
-3.073318
 30
0.0
 11
-5.782848
 21
-3.076609
 31
0.0
  0
LINE
  8
0
  6
CONTINUOUS
 62
     7
  5
D55
 10
-5.782848
 20
-3.076609
 30
0.0
 11
-5.781226
 21
-3.080008
 31
0.0
  0
LINE
  8
0
  6
CONTINUOUS
 62
     7
  5
D56
 10
-5.781226
 20
-3.080008
 30
0.0
 11
-5.779679
 21
-3.08351
 31
0.0
  0
LINE
  8
0
  6
CONTINUOUS
 62
     7
  5
D57
 10
-5.779679
 20
-3.08351
 30
0.0
 11
-5.778208
 21
-3.087109
 31
0.0
  0
LINE
  8
0
  6
CONTINUOUS
 62
     7
  5
D58
 10
-5.778208
 20
-3.087109
 30
0.0
 11
-5.776815
 21
-3.0908
 31
0.0
  0
LINE
  8
0
  6
CONTINUOUS
 62
     7
  5
D59
 10
-5.776815
 20
-3.0908
 30
0.0
 11
-5.775503
 21
-3.094579
 31
0.0
  0
LINE
  8
0
  6
CONTINUOUS
 62
     7
  5
D5A
 10
-5.775503
 20
-3.094579
 30
0.0
 11
-5.774274
 21
-3.09844
 31
0.0
  0
LINE
  8
0
  6
CONTINUOUS
 62
     7
  5
D5B
 10
-5.774274
 20
-3.09844
 30
0.0
 11
-5.773128
 21
-3.102378
 31
0.0
  0
LINE
  8
0
  6
CONTINUOUS
 62
     7
  5
D5C
 10
-5.773128
 20
-3.102378
 30
0.0
 11
-5.772068
 21
-3.106388
 31
0.0
  0
LINE
  8
0
  6
CONTINUOUS
 62
     7
  5
D5D
 10
-5.772068
 20
-3.106388
 30
0.0
 11
-5.771096
 21
-3.110463
 31
0.0
  0
LINE
  8
0
  6
CONTINUOUS
 62
     7
  5
D5E
 10
-5.771096
 20
-3.110463
 30
0.0
 11
-5.770211
 21
-3.114598
 31
0.0
  0
LINE
  8
0
  6
CONTINUOUS
 62
     7
  5
D5F
 10
-5.770211
 20
-3.114598
 30
0.0
 11
-5.769417
 21
-3.118787
 31
0.0
  0
LINE
  8
0
  6
CONTINUOUS
 62
     7
  5
D60
 10
-5.769417
 20
-3.118787
 30
0.0
 11
-5.768713
 21
-3.123025
 31
0.0
  0
LINE
  8
0
  6
CONTINUOUS
 62
     7
  5
D61
 10
-5.768713
 20
-3.123025
 30
0.0
 11
-5.768101
 21
-3.127305
 31
0.0
  0
LINE
  8
0
  6
CONTINUOUS
 62
     7
  5
D62
 10
-5.768101
 20
-3.127305
 30
0.0
 11
-5.767582
 21
-3.131622
 31
0.0
  0
LINE
  8
0
  6
CONTINUOUS
 62
     7
  5
D63
 10
-5.767582
 20
-3.131622
 30
0.0
 11
-5.767157
 21
-3.13597
 31
0.0
  0
LINE
  8
0
  6
CONTINUOUS
 62
     7
  5
D64
 10
-5.767157
 20
-3.13597
 30
0.0
 11
-5.766825
 21
-3.140341
 31
0.0
  0
LINE
  8
0
  6
CONTINUOUS
 62
     7
  5
D65
 10
-5.766825
 20
-3.140341
 30
0.0
 11
-5.766588
 21
-3.144732
 31
0.0
  0
LINE
  8
0
  6
CONTINUOUS
 62
     7
  5
D66
 10
-5.766588
 20
-3.144732
 30
0.0
 11
-5.766445
 21
-3.149135
 31
0.0
  0
LINE
  8
0
  6
CONTINUOUS
 62
     7
  5
D67
 10
-5.766445
 20
-3.149135
 30
0.0
 11
-5.766398
 21
-3.153543
 31
0.0
  0
LINE
  8
0
  6
CONTINUOUS
 62
     7
  5
D68
 10
-5.993701
 20
-2.956693
 30
0.0
 11
-5.816793
 21
-3.039526
 31
0.0
  0
LINE
  8
0
  6
CONTINUOUS
 62
     7
  5
D69
 10
-5.993701
 20
-3.350394
 30
0.0
 11
-5.993701
 21
-2.956693
 31
0.0
  0
LINE
  8
0
  6
CONTINUOUS
 62
     7
  5
D6A
 10
-3.238325
 20
-3.039526
 30
0.0
 11
-3.061417
 21
-2.956693
 31
0.0
  0
LINE
  8
0
  6
CONTINUOUS
 62
     7
  5
D6B
 10
-3.061417
 20
-3.350394
 30
0.0
 11
-3.238325
 21
-3.267561
 31
0.0
  0
LINE
  8
0
  6
CONTINUOUS
 62
     7
  5
D6C
 10
-3.061417
 20
-2.956693
 30
0.0
 11
-3.061417
 21
-3.350394
 31
0.0
  0
LINE
  8
0
  6
CONTINUOUS
 62
     7
  5
D6D
 10
-3.288721
 20
-3.153543
 30
0.0
 11
-3.288673
 21
-3.149135
 31
0.0
  0
LINE
  8
0
  6
CONTINUOUS
 62
     7
  5
D6E
 10
-3.288673
 20
-3.149135
 30
0.0
 11
-3.288531
 21
-3.144732
 31
0.0
  0
LINE
  8
0
  6
CONTINUOUS
 62
     7
  5
D6F
 10
-3.288531
 20
-3.144732
 30
0.0
 11
-3.288293
 21
-3.140341
 31
0.0
  0
LINE
  8
0
  6
CONTINUOUS
 62
     7
  5
D70
 10
-3.288293
 20
-3.140341
 30
0.0
 11
-3.287962
 21
-3.13597
 31
0.0
  0
LINE
  8
0
  6
CONTINUOUS
 62
     7
  5
D71
 10
-3.287962
 20
-3.13597
 30
0.0
 11
-3.287536
 21
-3.131622
 31
0.0
  0
LINE
  8
0
  6
CONTINUOUS
 62
     7
  5
D72
 10
-3.287536
 20
-3.131622
 30
0.0
 11
-3.287017
 21
-3.127305
 31
0.0
  0
LINE
  8
0
  6
CONTINUOUS
 62
     7
  5
D73
 10
-3.287017
 20
-3.127305
 30
0.0
 11
-3.286405
 21
-3.123025
 31
0.0
  0
LINE
  8
0
  6
CONTINUOUS
 62
     7
  5
D74
 10
-3.286405
 20
-3.123025
 30
0.0
 11
-3.285701
 21
-3.118787
 31
0.0
  0
LINE
  8
0
  6
CONTINUOUS
 62
     7
  5
D75
 10
-3.285701
 20
-3.118787
 30
0.0
 11
-3.284907
 21
-3.114598
 31
0.0
  0
LINE
  8
0
  6
CONTINUOUS
 62
     7
  5
D76
 10
-3.284907
 20
-3.114598
 30
0.0
 11
-3.284023
 21
-3.110463
 31
0.0
  0
LINE
  8
0
  6
CONTINUOUS
 62
     7
  5
D77
 10
-3.284023
 20
-3.110463
 30
0.0
 11
-3.28305
 21
-3.106388
 31
0.0
  0
LINE
  8
0
  6
CONTINUOUS
 62
     7
  5
D78
 10
-3.28305
 20
-3.106388
 30
0.0
 11
-3.28199
 21
-3.102378
 31
0.0
  0
LINE
  8
0
  6
CONTINUOUS
 62
     7
  5
D79
 10
-3.28199
 20
-3.102378
 30
0.0
 11
-3.280845
 21
-3.09844
 31
0.0
  0
LINE
  8
0
  6
CONTINUOUS
 62
     7
  5
D7A
 10
-3.280845
 20
-3.09844
 30
0.0
 11
-3.279615
 21
-3.094579
 31
0.0
  0
LINE
  8
0
  6
CONTINUOUS
 62
     7
  5
D7B
 10
-3.279615
 20
-3.094579
 30
0.0
 11
-3.278303
 21
-3.0908
 31
0.0
  0
LINE
  8
0
  6
CONTINUOUS
 62
     7
  5
D7C
 10
-3.278303
 20
-3.0908
 30
0.0
 11
-3.276911
 21
-3.087109
 31
0.0
  0
LINE
  8
0
  6
CONTINUOUS
 62
     7
  5
D7D
 10
-3.276911
 20
-3.087109
 30
0.0
 11
-3.27544
 21
-3.08351
 31
0.0
  0
LINE
  8
0
  6
CONTINUOUS
 62
     7
  5
D7E
 10
-3.27544
 20
-3.08351
 30
0.0
 11
-3.273892
 21
-3.080008
 31
0.0
  0
LINE
  8
0
  6
CONTINUOUS
 62
     7
  5
D7F
 10
-3.273892
 20
-3.080008
 30
0.0
 11
-3.27227
 21
-3.076609
 31
0.0
  0
LINE
  8
0
  6
CONTINUOUS
 62
     7
  5
D80
 10
-3.27227
 20
-3.076609
 30
0.0
 11
-3.270576
 21
-3.073318
 31
0.0
  0
LINE
  8
0
  6
CONTINUOUS
 62
     7
  5
D81
 10
-3.270576
 20
-3.073318
 30
0.0
 11
-3.268812
 21
-3.070138
 31
0.0
  0
LINE
  8
0
  6
CONTINUOUS
 62
     7
  5
D82
 10
-3.268812
 20
-3.070138
 30
0.0
 11
-3.266981
 21
-3.067075
 31
0.0
  0
LINE
  8
0
  6
CONTINUOUS
 62
     7
  5
D83
 10
-3.266981
 20
-3.067075
 30
0.0
 11
-3.265085
 21
-3.064132
 31
0.0
  0
LINE
  8
0
  6
CONTINUOUS
 62
     7
  5
D84
 10
-3.265085
 20
-3.064132
 30
0.0
 11
-3.263127
 21
-3.061313
 31
0.0
  0
LINE
  8
0
  6
CONTINUOUS
 62
     7
  5
D85
 10
-3.263127
 20
-3.061313
 30
0.0
 11
-3.26111
 21
-3.058623
 31
0.0
  0
LINE
  8
0
  6
CONTINUOUS
 62
     7
  5
D86
 10
-3.26111
 20
-3.058623
 30
0.0
 11
-3.259036
 21
-3.056066
 31
0.0
  0
LINE
  8
0
  6
CONTINUOUS
 62
     7
  5
D87
 10
-3.259036
 20
-3.056066
 30
0.0
 11
-3.256908
 21
-3.053644
 31
0.0
  0
LINE
  8
0
  6
CONTINUOUS
 62
     7
  5
D88
 10
-3.256908
 20
-3.053644
 30
0.0
 11
-3.25473
 21
-3.051362
 31
0.0
  0
LINE
  8
0
  6
CONTINUOUS
 62
     7
  5
D89
 10
-3.25473
 20
-3.051362
 30
0.0
 11
-3.252504
 21
-3.049222
 31
0.0
  0
LINE
  8
0
  6
CONTINUOUS
 62
     7
  5
D8A
 10
-3.252504
 20
-3.049222
 30
0.0
 11
-3.250233
 21
-3.047227
 31
0.0
  0
LINE
  8
0
  6
CONTINUOUS
 62
     7
  5
D8B
 10
-3.250233
 20
-3.047227
 30
0.0
 11
-3.247922
 21
-3.045381
 31
0.0
  0
LINE
  8
0
  6
CONTINUOUS
 62
     7
  5
D8C
 10
-3.247922
 20
-3.045381
 30
0.0
 11
-3.245571
 21
-3.043685
 31
0.0
  0
LINE
  8
0
  6
CONTINUOUS
 62
     7
  5
D8D
 10
-3.245571
 20
-3.043685
 30
0.0
 11
-3.243186
 21
-3.042143
 31
0.0
  0
LINE
  8
0
  6
CONTINUOUS
 62
     7
  5
D8E
 10
-3.243186
 20
-3.042143
 30
0.0
 11
-3.24077
 21
-3.040756
 31
0.0
  0
LINE
  8
0
  6
CONTINUOUS
 62
     7
  5
D8F
 10
-3.24077
 20
-3.040756
 30
0.0
 11
-3.238325
 21
-3.039526
 31
0.0
  0
LINE
  8
0
  6
CONTINUOUS
 62
     7
  5
D90
 10
-3.238325
 20
-3.267561
 30
0.0
 11
-3.24077
 21
-3.266331
 31
0.0
  0
LINE
  8
0
  6
CONTINUOUS
 62
     7
  5
D91
 10
-3.24077
 20
-3.266331
 30
0.0
 11
-3.243186
 21
-3.264944
 31
0.0
  0
LINE
  8
0
  6
CONTINUOUS
 62
     7
  5
D92
 10
-3.243186
 20
-3.264944
 30
0.0
 11
-3.245571
 21
-3.263401
 31
0.0
  0
LINE
  8
0
  6
CONTINUOUS
 62
     7
  5
D93
 10
-3.245571
 20
-3.263401
 30
0.0
 11
-3.247922
 21
-3.261706
 31
0.0
  0
LINE
  8
0
  6
CONTINUOUS
 62
     7
  5
D94
 10
-3.247922
 20
-3.261706
 30
0.0
 11
-3.250233
 21
-3.259859
 31
0.0
  0
LINE
  8
0
  6
CONTINUOUS
 62
     7
  5
D95
 10
-3.250233
 20
-3.259859
 30
0.0
 11
-3.252504
 21
-3.257865
 31
0.0
  0
LINE
  8
0
  6
CONTINUOUS
 62
     7
  5
D96
 10
-3.252504
 20
-3.257865
 30
0.0
 11
-3.25473
 21
-3.255725
 31
0.0
  0
LINE
  8
0
  6
CONTINUOUS
 62
     7
  5
D97
 10
-3.25473
 20
-3.255725
 30
0.0
 11
-3.256908
 21
-3.253442
 31
0.0
  0
LINE
  8
0
  6
CONTINUOUS
 62
     7
  5
D98
 10
-3.256908
 20
-3.253442
 30
0.0
 11
-3.259036
 21
-3.251021
 31
0.0
  0
LINE
  8
0
  6
CONTINUOUS
 62
     7
  5
D99
 10
-3.259036
 20
-3.251021
 30
0.0
 11
-3.26111
 21
-3.248463
 31
0.0
  0
LINE
  8
0
  6
CONTINUOUS
 62
     7
  5
D9A
 10
-3.26111
 20
-3.248463
 30
0.0
 11
-3.263127
 21
-3.245773
 31
0.0
  0
LINE
  8
0
  6
CONTINUOUS
 62
     7
  5
D9B
 10
-3.263127
 20
-3.245773
 30
0.0
 11
-3.265085
 21
-3.242955
 31
0.0
  0
LINE
  8
0
  6
CONTINUOUS
 62
     7
  5
D9C
 10
-3.265085
 20
-3.242955
 30
0.0
 11
-3.266981
 21
-3.240012
 31
0.0
  0
LINE
  8
0
  6
CONTINUOUS
 62
     7
  5
D9D
 10
-3.266981
 20
-3.240012
 30
0.0
 11
-3.268812
 21
-3.236949
 31
0.0
  0
LINE
  8
0
  6
CONTINUOUS
 62
     7
  5
D9E
 10
-3.268812
 20
-3.236949
 30
0.0
 11
-3.270576
 21
-3.233769
 31
0.0
  0
LINE
  8
0
  6
CONTINUOUS
 62
     7
  5
D9F
 10
-3.270576
 20
-3.233769
 30
0.0
 11
-3.27227
 21
-3.230477
 31
0.0
  0
LINE
  8
0
  6
CONTINUOUS
 62
     7
  5
DA0
 10
-3.27227
 20
-3.230477
 30
0.0
 11
-3.273892
 21
-3.227078
 31
0.0
  0
LINE
  8
0
  6
CONTINUOUS
 62
     7
  5
DA1
 10
-3.273892
 20
-3.227078
 30
0.0
 11
-3.27544
 21
-3.223577
 31
0.0
  0
LINE
  8
0
  6
CONTINUOUS
 62
     7
  5
DA2
 10
-3.27544
 20
-3.223577
 30
0.0
 11
-3.276911
 21
-3.219978
 31
0.0
  0
LINE
  8
0
  6
CONTINUOUS
 62
     7
  5
DA3
 10
-3.276911
 20
-3.219978
 30
0.0
 11
-3.278303
 21
-3.216287
 31
0.0
  0
LINE
  8
0
  6
CONTINUOUS
 62
     7
  5
DA4
 10
-3.278303
 20
-3.216287
 30
0.0
 11
-3.279615
 21
-3.212508
 31
0.0
  0
LINE
  8
0
  6
CONTINUOUS
 62
     7
  5
DA5
 10
-3.279615
 20
-3.212508
 30
0.0
 11
-3.280845
 21
-3.208646
 31
0.0
  0
LINE
  8
0
  6
CONTINUOUS
 62
     7
  5
DA6
 10
-3.280845
 20
-3.208646
 30
0.0
 11
-3.28199
 21
-3.204708
 31
0.0
  0
LINE
  8
0
  6
CONTINUOUS
 62
     7
  5
DA7
 10
-3.28199
 20
-3.204708
 30
0.0
 11
-3.28305
 21
-3.200699
 31
0.0
  0
LINE
  8
0
  6
CONTINUOUS
 62
     7
  5
DA8
 10
-3.28305
 20
-3.200699
 30
0.0
 11
-3.284023
 21
-3.196624
 31
0.0
  0
LINE
  8
0
  6
CONTINUOUS
 62
     7
  5
DA9
 10
-3.284023
 20
-3.196624
 30
0.0
 11
-3.284907
 21
-3.192489
 31
0.0
  0
LINE
  8
0
  6
CONTINUOUS
 62
     7
  5
DAA
 10
-3.284907
 20
-3.192489
 30
0.0
 11
-3.285701
 21
-3.1883
 31
0.0
  0
LINE
  8
0
  6
CONTINUOUS
 62
     7
  5
DAB
 10
-3.285701
 20
-3.1883
 30
0.0
 11
-3.286405
 21
-3.184062
 31
0.0
  0
LINE
  8
0
  6
CONTINUOUS
 62
     7
  5
DAC
 10
-3.286405
 20
-3.184062
 30
0.0
 11
-3.287017
 21
-3.179781
 31
0.0
  0
LINE
  8
0
  6
CONTINUOUS
 62
     7
  5
DAD
 10
-3.287017
 20
-3.179781
 30
0.0
 11
-3.287536
 21
-3.175465
 31
0.0
  0
LINE
  8
0
  6
CONTINUOUS
 62
     7
  5
DAE
 10
-3.287536
 20
-3.175465
 30
0.0
 11
-3.287962
 21
-3.171117
 31
0.0
  0
LINE
  8
0
  6
CONTINUOUS
 62
     7
  5
DAF
 10
-3.287962
 20
-3.171117
 30
0.0
 11
-3.288293
 21
-3.166745
 31
0.0
  0
LINE
  8
0
  6
CONTINUOUS
 62
     7
  5
DB0
 10
-3.288293
 20
-3.166745
 30
0.0
 11
-3.288531
 21
-3.162355
 31
0.0
  0
LINE
  8
0
  6
CONTINUOUS
 62
     7
  5
DB1
 10
-3.288531
 20
-3.162355
 30
0.0
 11
-3.288673
 21
-3.157952
 31
0.0
  0
LINE
  8
0
  6
CONTINUOUS
 62
     7
  5
DB2
 10
-3.288673
 20
-3.157952
 30
0.0
 11
-3.288721
 21
-3.153543
 31
0.0
  0
LINE
  8
0
  6
CONTINUOUS
 62
     7
  5
DB3
 10
-3.061417
 20
-3.350394
 30
0.0
 11
-5.993701
 21
-3.350394
 31
0.0
  0
CIRCLE
  8
0
  6
CONTINUOUS
 62
     7
  5
DB4
 10
-3.651575
 20
-4.336614
 30
0.0
 40
0.285433
  0
CIRCLE
  8
0
  6
CONTINUOUS
 62
     7
  5
DB5
 10
-5.403543
 20
-4.336614
 30
0.0
 40
0.285433
  0
CIRCLE
  8
0
  6
CONTINUOUS
 62
     7
  5
DB6
 10
-3.651575
 20
-6.088583
 30
0.0
 40
0.285433
  0
CIRCLE
  8
0
  6
CONTINUOUS
 62
     7
  5
DB7
 10
-5.403543
 20
-6.088583
 30
0.0
 40
0.285433
  0
LINE
  8
0
  6
CONTINUOUS
 62
     7
  5
DB8
 10
-6.023622
 20
-2.956693
 30
0.0
 11
-6.023622
 21
-6.71063
 31
0.0
  0
LINE
  8
0
  6
CONTINUOUS
 62
     7
  5
DB9
 10
-6.023622
 20
-6.71063
 30
0.0
 11
-3.031496
 21
-6.71063
 31
0.0
  0
LINE
  8
0
  6
CONTINUOUS
 62
     7
  5
DBA
 10
-3.031496
 20
-6.71063
 30
0.0
 11
-3.031496
 21
-2.956693
 31
0.0
  0
LINE
  8
0
  6
CONTINUOUS
 62
     7
  5
DBB
 10
-6.015748
 20
-11.566929
 30
0.0
 11
-3.032496
 21
-11.566929
 31
0.0
  0
LINE
  8
0
  6
CONTINUOUS
 62
     7
  5
DBC
 10
-3.032496
 20
-6.71063
 30
0.0
 11
-3.032496
 21
-11.566929
 31
0.0
  0
LINE
  8
0
  6
CONTINUOUS
 62
     7
  5
DBD
 10
-5.600394
 20
-8.848425
 30
0.0
 11
-5.206693
 21
-8.848425
 31
0.0
  0
LINE
  8
0
  6
CONTINUOUS
 62
     7
  5
DBE
 10
-5.206693
 20
-8.848425
 30
0.0
 11
-5.206693
 21
-9.242126
 31
0.0
  0
LINE
  8
0
  6
CONTINUOUS
 62
     7
  5
DBF
 10
-5.206693
 20
-9.242126
 30
0.0
 11
-5.600394
 21
-9.242126
 31
0.0
  0
LINE
  8
0
  6
CONTINUOUS
 62
     7
  5
DC0
 10
-5.600394
 20
-9.242126
 30
0.0
 11
-5.600394
 21
-8.848425
 31
0.0
  0
LINE
  8
0
  6
CONTINUOUS
 62
     7
  5
DC1
 10
-3.848425
 20
-8.848425
 30
0.0
 11
-3.454724
 21
-8.848425
 31
0.0
  0
LINE
  8
0
  6
CONTINUOUS
 62
     7
  5
DC2
 10
-3.454724
 20
-8.848425
 30
0.0
 11
-3.454724
 21
-9.242126
 31
0.0
  0
LINE
  8
0
  6
CONTINUOUS
 62
     7
  5
DC3
 10
-3.454724
 20
-9.242126
 30
0.0
 11
-3.848425
 21
-9.242126
 31
0.0
  0
LINE
  8
0
  6
CONTINUOUS
 62
     7
  5
DC4
 10
-3.848425
 20
-9.242126
 30
0.0
 11
-3.848425
 21
-8.848425
 31
0.0
  0
LINE
  8
0
  6
CONTINUOUS
 62
     7
  5
DC5
 10
-5.600394
 20
-10.600394
 30
0.0
 11
-5.206693
 21
-10.600394
 31
0.0
  0
LINE
  8
0
  6
CONTINUOUS
 62
     7
  5
DC6
 10
-5.206693
 20
-10.600394
 30
0.0
 11
-5.206693
 21
-10.994094
 31
0.0
  0
LINE
  8
0
  6
CONTINUOUS
 62
     7
  5
DC7
 10
-5.206693
 20
-10.994094
 30
0.0
 11
-5.600394
 21
-10.994094
 31
0.0
  0
LINE
  8
0
  6
CONTINUOUS
 62
     7
  5
DC8
 10
-5.600394
 20
-10.994094
 30
0.0
 11
-5.600394
 21
-10.600394
 31
0.0
  0
LINE
  8
0
  6
CONTINUOUS
 62
     7
  5
DC9
 10
-3.848425
 20
-10.600394
 30
0.0
 11
-3.454724
 21
-10.600394
 31
0.0
  0
LINE
  8
0
  6
CONTINUOUS
 62
     7
  5
DCA
 10
-3.454724
 20
-10.600394
 30
0.0
 11
-3.454724
 21
-10.994094
 31
0.0
  0
LINE
  8
0
  6
CONTINUOUS
 62
     7
  5
DCB
 10
-3.454724
 20
-10.994094
 30
0.0
 11
-3.848425
 21
-10.994094
 31
0.0
  0
LINE
  8
0
  6
CONTINUOUS
 62
     7
  5
DCC
 10
-3.848425
 20
-10.994094
 30
0.0
 11
-3.848425
 21
-10.600394
 31
0.0
  0
LINE
  8
0
  6
CONTINUOUS
 62
     7
  5
DCD
 10
-7.559055
 20
-11.566929
 30
0.0
 11
-7.551181
 21
-11.566929
 31
0.0
  0
LINE
  8
0
  6
CONTINUOUS
 62
     7
  5
DCE
 10
-7.559055
 20
-3.566929
 30
0.0
 11
-7.551181
 21
-3.566929
 31
0.0
  0
LINE
  8
0
  6
CONTINUOUS
 62
     7
  5
DCF
 10
-7.551181
 20
-11.566929
 30
0.0
 11
-6.173228
 21
-11.566929
 31
0.0
  0
LINE
  8
0
  6
CONTINUOUS
 62
     7
  5
DD0
 10
-7.551181
 20
-3.566929
 30
0.0
 11
-6.173228
 21
-3.566929
 31
0.0
  0
LINE
  8
0
  6
CONTINUOUS
 62
     7
  5
DD1
 10
-6.173228
 20
-3.566929
 30
0.0
 11
-6.173228
 21
-11.566929
 31
0.0
  0
LINE
  8
0
  6
CONTINUOUS
 62
     7
  5
DD2
 10
-6.173228
 20
-11.566929
 30
0.0
 11
-6.015748
 21
-11.566929
 31
0.0
  0
LINE
  8
0
  6
CONTINUOUS
 62
     7
  5
DD3
 10
-6.173228
 20
-3.566929
 30
0.0
 11
-6.02367
 21
-3.566929
 31
0.0
  0
LINE
  8
0
  6
CONTINUOUS
 62
     7
  5
DD4
 10
-1.289234
 20
-3.267561
 30
0.0
 11
-1.466142
 21
-3.350394
 31
0.0
  0
LINE
  8
0
  6
CONTINUOUS
 62
     7
  5
DD5
 10
-1.238838
 20
-3.153543
 30
0.0
 11
-1.238886
 21
-3.157952
 31
0.0
  0
LINE
  8
0
  6
CONTINUOUS
 62
     7
  5
DD6
 10
-1.238886
 20
-3.157952
 30
0.0
 11
-1.239029
 21
-3.162355
 31
0.0
  0
LINE
  8
0
  6
CONTINUOUS
 62
     7
  5
DD7
 10
-1.239029
 20
-3.162355
 30
0.0
 11
-1.239266
 21
-3.166745
 31
0.0
  0
LINE
  8
0
  6
CONTINUOUS
 62
     7
  5
DD8
 10
-1.239266
 20
-3.166745
 30
0.0
 11
-1.239598
 21
-3.171117
 31
0.0
  0
LINE
  8
0
  6
CONTINUOUS
 62
     7
  5
DD9
 10
-1.239598
 20
-3.171117
 30
0.0
 11
-1.240023
 21
-3.175465
 31
0.0
  0
LINE
  8
0
  6
CONTINUOUS
 62
     7
  5
DDA
 10
-1.240023
 20
-3.175465
 30
0.0
 11
-1.240542
 21
-3.179781
 31
0.0
  0
LINE
  8
0
  6
CONTINUOUS
 62
     7
  5
DDB
 10
-1.240542
 20
-3.179781
 30
0.0
 11
-1.241154
 21
-3.184062
 31
0.0
  0
LINE
  8
0
  6
CONTINUOUS
 62
     7
  5
DDC
 10
-1.241154
 20
-3.184062
 30
0.0
 11
-1.241858
 21
-3.1883
 31
0.0
  0
LINE
  8
0
  6
CONTINUOUS
 62
     7
  5
DDD
 10
-1.241858
 20
-3.1883
 30
0.0
 11
-1.242652
 21
-3.192489
 31
0.0
  0
LINE
  8
0
  6
CONTINUOUS
 62
     7
  5
DDE
 10
-1.242652
 20
-3.192489
 30
0.0
 11
-1.243536
 21
-3.196624
 31
0.0
  0
LINE
  8
0
  6
CONTINUOUS
 62
     7
  5
DDF
 10
-1.243536
 20
-3.196624
 30
0.0
 11
-1.244509
 21
-3.200699
 31
0.0
  0
LINE
  8
0
  6
CONTINUOUS
 62
     7
  5
DE0
 10
-1.244509
 20
-3.200699
 30
0.0
 11
-1.245569
 21
-3.204708
 31
0.0
  0
LINE
  8
0
  6
CONTINUOUS
 62
     7
  5
DE1
 10
-1.245569
 20
-3.204708
 30
0.0
 11
-1.246715
 21
-3.208646
 31
0.0
  0
LINE
  8
0
  6
CONTINUOUS
 62
     7
  5
DE2
 10
-1.246715
 20
-3.208646
 30
0.0
 11
-1.247944
 21
-3.212508
 31
0.0
  0
LINE
  8
0
  6
CONTINUOUS
 62
     7
  5
DE3
 10
-1.247944
 20
-3.212508
 30
0.0
 11
-1.249256
 21
-3.216287
 31
0.0
  0
LINE
  8
0
  6
CONTINUOUS
 62
     7
  5
DE4
 10
-1.249256
 20
-3.216287
 30
0.0
 11
-1.250648
 21
-3.219978
 31
0.0
  0
LINE
  8
0
  6
CONTINUOUS
 62
     7
  5
DE5
 10
-1.250648
 20
-3.219978
 30
0.0
 11
-1.25212
 21
-3.223577
 31
0.0
  0
LINE
  8
0
  6
CONTINUOUS
 62
     7
  5
DE6
 10
-1.25212
 20
-3.223577
 30
0.0
 11
-1.253667
 21
-3.227078
 31
0.0
  0
LINE
  8
0
  6
CONTINUOUS
 62
     7
  5
DE7
 10
-1.253667
 20
-3.227078
 30
0.0
 11
-1.255289
 21
-3.230477
 31
0.0
  0
LINE
  8
0
  6
CONTINUOUS
 62
     7
  5
DE8
 10
-1.255289
 20
-3.230477
 30
0.0
 11
-1.256983
 21
-3.233769
 31
0.0
  0
LINE
  8
0
  6
CONTINUOUS
 62
     7
  5
DE9
 10
-1.256983
 20
-3.233769
 30
0.0
 11
-1.258747
 21
-3.236949
 31
0.0
  0
LINE
  8
0
  6
CONTINUOUS
 62
     7
  5
DEA
 10
-1.258747
 20
-3.236949
 30
0.0
 11
-1.260578
 21
-3.240012
 31
0.0
  0
LINE
  8
0
  6
CONTINUOUS
 62
     7
  5
DEB
 10
-1.260578
 20
-3.240012
 30
0.0
 11
-1.262474
 21
-3.242955
 31
0.0
  0
LINE
  8
0
  6
CONTINUOUS
 62
     7
  5
DEC
 10
-1.262474
 20
-3.242955
 30
0.0
 11
-1.264432
 21
-3.245773
 31
0.0
  0
LINE
  8
0
  6
CONTINUOUS
 62
     7
  5
DED
 10
-1.264432
 20
-3.245773
 30
0.0
 11
-1.266449
 21
-3.248463
 31
0.0
  0
LINE
  8
0
  6
CONTINUOUS
 62
     7
  5
DEE
 10
-1.266449
 20
-3.248463
 30
0.0
 11
-1.268523
 21
-3.251021
 31
0.0
  0
LINE
  8
0
  6
CONTINUOUS
 62
     7
  5
DEF
 10
-1.268523
 20
-3.251021
 30
0.0
 11
-1.270651
 21
-3.253442
 31
0.0
  0
LINE
  8
0
  6
CONTINUOUS
 62
     7
  5
DF0
 10
-1.270651
 20
-3.253442
 30
0.0
 11
-1.272829
 21
-3.255725
 31
0.0
  0
LINE
  8
0
  6
CONTINUOUS
 62
     7
  5
DF1
 10
-1.272829
 20
-3.255725
 30
0.0
 11
-1.275055
 21
-3.257865
 31
0.0
  0
LINE
  8
0
  6
CONTINUOUS
 62
     7
  5
DF2
 10
-1.275055
 20
-3.257865
 30
0.0
 11
-1.277326
 21
-3.259859
 31
0.0
  0
LINE
  8
0
  6
CONTINUOUS
 62
     7
  5
DF3
 10
-1.277326
 20
-3.259859
 30
0.0
 11
-1.279638
 21
-3.261706
 31
0.0
  0
LINE
  8
0
  6
CONTINUOUS
 62
     7
  5
DF4
 10
-1.279638
 20
-3.261706
 30
0.0
 11
-1.281988
 21
-3.263401
 31
0.0
  0
LINE
  8
0
  6
CONTINUOUS
 62
     7
  5
DF5
 10
-1.281988
 20
-3.263401
 30
0.0
 11
-1.284373
 21
-3.264944
 31
0.0
  0
LINE
  8
0
  6
CONTINUOUS
 62
     7
  5
DF6
 10
-1.284373
 20
-3.264944
 30
0.0
 11
-1.286789
 21
-3.266331
 31
0.0
  0
LINE
  8
0
  6
CONTINUOUS
 62
     7
  5
DF7
 10
-1.286789
 20
-3.266331
 30
0.0
 11
-1.289234
 21
-3.267561
 31
0.0
  0
LINE
  8
0
  6
CONTINUOUS
 62
     7
  5
DF8
 10
-1.289234
 20
-3.039526
 30
0.0
 11
-1.286789
 21
-3.040756
 31
0.0
  0
LINE
  8
0
  6
CONTINUOUS
 62
     7
  5
DF9
 10
-1.286789
 20
-3.040756
 30
0.0
 11
-1.284373
 21
-3.042143
 31
0.0
  0
LINE
  8
0
  6
CONTINUOUS
 62
     7
  5
DFA
 10
-1.284373
 20
-3.042143
 30
0.0
 11
-1.281988
 21
-3.043685
 31
0.0
  0
LINE
  8
0
  6
CONTINUOUS
 62
     7
  5
DFB
 10
-1.281988
 20
-3.043685
 30
0.0
 11
-1.279638
 21
-3.045381
 31
0.0
  0
LINE
  8
0
  6
CONTINUOUS
 62
     7
  5
DFC
 10
-1.279638
 20
-3.045381
 30
0.0
 11
-1.277326
 21
-3.047227
 31
0.0
  0
LINE
  8
0
  6
CONTINUOUS
 62
     7
  5
DFD
 10
-1.277326
 20
-3.047227
 30
0.0
 11
-1.275055
 21
-3.049222
 31
0.0
  0
LINE
  8
0
  6
CONTINUOUS
 62
     7
  5
DFE
 10
-1.275055
 20
-3.049222
 30
0.0
 11
-1.272829
 21
-3.051362
 31
0.0
  0
LINE
  8
0
  6
CONTINUOUS
 62
     7
  5
DFF
 10
-1.272829
 20
-3.051362
 30
0.0
 11
-1.270651
 21
-3.053644
 31
0.0
  0
LINE
  8
0
  6
CONTINUOUS
 62
     7
  5
E00
 10
-1.270651
 20
-3.053644
 30
0.0
 11
-1.268523
 21
-3.056066
 31
0.0
  0
LINE
  8
0
  6
CONTINUOUS
 62
     7
  5
E01
 10
-1.268523
 20
-3.056066
 30
0.0
 11
-1.266449
 21
-3.058623
 31
0.0
  0
LINE
  8
0
  6
CONTINUOUS
 62
     7
  5
E02
 10
-1.266449
 20
-3.058623
 30
0.0
 11
-1.264432
 21
-3.061313
 31
0.0
  0
LINE
  8
0
  6
CONTINUOUS
 62
     7
  5
E03
 10
-1.264432
 20
-3.061313
 30
0.0
 11
-1.262474
 21
-3.064132
 31
0.0
  0
LINE
  8
0
  6
CONTINUOUS
 62
     7
  5
E04
 10
-1.262474
 20
-3.064132
 30
0.0
 11
-1.260578
 21
-3.067075
 31
0.0
  0
LINE
  8
0
  6
CONTINUOUS
 62
     7
  5
E05
 10
-1.260578
 20
-3.067075
 30
0.0
 11
-1.258747
 21
-3.070138
 31
0.0
  0
LINE
  8
0
  6
CONTINUOUS
 62
     7
  5
E06
 10
-1.258747
 20
-3.070138
 30
0.0
 11
-1.256983
 21
-3.073318
 31
0.0
  0
LINE
  8
0
  6
CONTINUOUS
 62
     7
  5
E07
 10
-1.256983
 20
-3.073318
 30
0.0
 11
-1.255289
 21
-3.076609
 31
0.0
  0
LINE
  8
0
  6
CONTINUOUS
 62
     7
  5
E08
 10
-1.255289
 20
-3.076609
 30
0.0
 11
-1.253667
 21
-3.080008
 31
0.0
  0
LINE
  8
0
  6
CONTINUOUS
 62
     7
  5
E09
 10
-1.253667
 20
-3.080008
 30
0.0
 11
-1.25212
 21
-3.08351
 31
0.0
  0
LINE
  8
0
  6
CONTINUOUS
 62
     7
  5
E0A
 10
-1.25212
 20
-3.08351
 30
0.0
 11
-1.250648
 21
-3.087109
 31
0.0
  0
LINE
  8
0
  6
CONTINUOUS
 62
     7
  5
E0B
 10
-1.250648
 20
-3.087109
 30
0.0
 11
-1.249256
 21
-3.0908
 31
0.0
  0
LINE
  8
0
  6
CONTINUOUS
 62
     7
  5
E0C
 10
-1.249256
 20
-3.0908
 30
0.0
 11
-1.247944
 21
-3.094579
 31
0.0
  0
LINE
  8
0
  6
CONTINUOUS
 62
     7
  5
E0D
 10
-1.247944
 20
-3.094579
 30
0.0
 11
-1.246715
 21
-3.09844
 31
0.0
  0
LINE
  8
0
  6
CONTINUOUS
 62
     7
  5
E0E
 10
-1.246715
 20
-3.09844
 30
0.0
 11
-1.245569
 21
-3.102378
 31
0.0
  0
LINE
  8
0
  6
CONTINUOUS
 62
     7
  5
E0F
 10
-1.245569
 20
-3.102378
 30
0.0
 11
-1.244509
 21
-3.106388
 31
0.0
  0
LINE
  8
0
  6
CONTINUOUS
 62
     7
  5
E10
 10
-1.244509
 20
-3.106388
 30
0.0
 11
-1.243536
 21
-3.110463
 31
0.0
  0
LINE
  8
0
  6
CONTINUOUS
 62
     7
  5
E11
 10
-1.243536
 20
-3.110463
 30
0.0
 11
-1.242652
 21
-3.114598
 31
0.0
  0
LINE
  8
0
  6
CONTINUOUS
 62
     7
  5
E12
 10
-1.242652
 20
-3.114598
 30
0.0
 11
-1.241858
 21
-3.118787
 31
0.0
  0
LINE
  8
0
  6
CONTINUOUS
 62
     7
  5
E13
 10
-1.241858
 20
-3.118787
 30
0.0
 11
-1.241154
 21
-3.123025
 31
0.0
  0
LINE
  8
0
  6
CONTINUOUS
 62
     7
  5
E14
 10
-1.241154
 20
-3.123025
 30
0.0
 11
-1.240542
 21
-3.127305
 31
0.0
  0
LINE
  8
0
  6
CONTINUOUS
 62
     7
  5
E15
 10
-1.240542
 20
-3.127305
 30
0.0
 11
-1.240023
 21
-3.131622
 31
0.0
  0
LINE
  8
0
  6
CONTINUOUS
 62
     7
  5
E16
 10
-1.240023
 20
-3.131622
 30
0.0
 11
-1.239598
 21
-3.13597
 31
0.0
  0
LINE
  8
0
  6
CONTINUOUS
 62
     7
  5
E17
 10
-1.239598
 20
-3.13597
 30
0.0
 11
-1.239266
 21
-3.140341
 31
0.0
  0
LINE
  8
0
  6
CONTINUOUS
 62
     7
  5
E18
 10
-1.239266
 20
-3.140341
 30
0.0
 11
-1.239029
 21
-3.144732
 31
0.0
  0
LINE
  8
0
  6
CONTINUOUS
 62
     7
  5
E19
 10
-1.239029
 20
-3.144732
 30
0.0
 11
-1.238886
 21
-3.149135
 31
0.0
  0
LINE
  8
0
  6
CONTINUOUS
 62
     7
  5
E1A
 10
-1.238886
 20
-3.149135
 30
0.0
 11
-1.238838
 21
-3.153543
 31
0.0
  0
LINE
  8
0
  6
CONTINUOUS
 62
     7
  5
E1B
 10
-1.466142
 20
-2.956693
 30
0.0
 11
-1.289234
 21
-3.039526
 31
0.0
  0
LINE
  8
0
  6
CONTINUOUS
 62
     7
  5
E1C
 10
-1.466142
 20
-3.350394
 30
0.0
 11
-1.466142
 21
-2.956693
 31
0.0
  0
LINE
  8
0
  6
CONTINUOUS
 62
     7
  5
E1D
 10
1.289234
 20
-3.039526
 30
0.0
 11
1.466142
 21
-2.956693
 31
0.0
  0
LINE
  8
0
  6
CONTINUOUS
 62
     7
  5
E1E
 10
1.466142
 20
-3.350394
 30
0.0
 11
1.289234
 21
-3.267561
 31
0.0
  0
LINE
  8
0
  6
CONTINUOUS
 62
     7
  5
E1F
 10
1.466142
 20
-2.956693
 30
0.0
 11
1.466142
 21
-3.350394
 31
0.0
  0
LINE
  8
0
  6
CONTINUOUS
 62
     7
  5
E20
 10
1.238838
 20
-3.153543
 30
0.0
 11
1.238886
 21
-3.149135
 31
0.0
  0
LINE
  8
0
  6
CONTINUOUS
 62
     7
  5
E21
 10
1.238886
 20
-3.149135
 30
0.0
 11
1.239029
 21
-3.144732
 31
0.0
  0
LINE
  8
0
  6
CONTINUOUS
 62
     7
  5
E22
 10
1.239029
 20
-3.144732
 30
0.0
 11
1.239266
 21
-3.140341
 31
0.0
  0
LINE
  8
0
  6
CONTINUOUS
 62
     7
  5
E23
 10
1.239266
 20
-3.140341
 30
0.0
 11
1.239598
 21
-3.13597
 31
0.0
  0
LINE
  8
0
  6
CONTINUOUS
 62
     7
  5
E24
 10
1.239598
 20
-3.13597
 30
0.0
 11
1.240023
 21
-3.131622
 31
0.0
  0
LINE
  8
0
  6
CONTINUOUS
 62
     7
  5
E25
 10
1.240023
 20
-3.131622
 30
0.0
 11
1.240542
 21
-3.127305
 31
0.0
  0
LINE
  8
0
  6
CONTINUOUS
 62
     7
  5
E26
 10
1.240542
 20
-3.127305
 30
0.0
 11
1.241154
 21
-3.123025
 31
0.0
  0
LINE
  8
0
  6
CONTINUOUS
 62
     7
  5
E27
 10
1.241154
 20
-3.123025
 30
0.0
 11
1.241858
 21
-3.118787
 31
0.0
  0
LINE
  8
0
  6
CONTINUOUS
 62
     7
  5
E28
 10
1.241858
 20
-3.118787
 30
0.0
 11
1.242652
 21
-3.114598
 31
0.0
  0
LINE
  8
0
  6
CONTINUOUS
 62
     7
  5
E29
 10
1.242652
 20
-3.114598
 30
0.0
 11
1.243536
 21
-3.110463
 31
0.0
  0
LINE
  8
0
  6
CONTINUOUS
 62
     7
  5
E2A
 10
1.243536
 20
-3.110463
 30
0.0
 11
1.244509
 21
-3.106388
 31
0.0
  0
LINE
  8
0
  6
CONTINUOUS
 62
     7
  5
E2B
 10
1.244509
 20
-3.106388
 30
0.0
 11
1.245569
 21
-3.102378
 31
0.0
  0
LINE
  8
0
  6
CONTINUOUS
 62
     7
  5
E2C
 10
1.245569
 20
-3.102378
 30
0.0
 11
1.246715
 21
-3.09844
 31
0.0
  0
LINE
  8
0
  6
CONTINUOUS
 62
     7
  5
E2D
 10
1.246715
 20
-3.09844
 30
0.0
 11
1.247944
 21
-3.094579
 31
0.0
  0
LINE
  8
0
  6
CONTINUOUS
 62
     7
  5
E2E
 10
1.247944
 20
-3.094579
 30
0.0
 11
1.249256
 21
-3.0908
 31
0.0
  0
LINE
  8
0
  6
CONTINUOUS
 62
     7
  5
E2F
 10
1.249256
 20
-3.0908
 30
0.0
 11
1.250648
 21
-3.087109
 31
0.0
  0
LINE
  8
0
  6
CONTINUOUS
 62
     7
  5
E30
 10
1.250648
 20
-3.087109
 30
0.0
 11
1.25212
 21
-3.08351
 31
0.0
  0
LINE
  8
0
  6
CONTINUOUS
 62
     7
  5
E31
 10
1.25212
 20
-3.08351
 30
0.0
 11
1.253667
 21
-3.080008
 31
0.0
  0
LINE
  8
0
  6
CONTINUOUS
 62
     7
  5
E32
 10
1.253667
 20
-3.080008
 30
0.0
 11
1.255289
 21
-3.076609
 31
0.0
  0
LINE
  8
0
  6
CONTINUOUS
 62
     7
  5
E33
 10
1.255289
 20
-3.076609
 30
0.0
 11
1.256983
 21
-3.073318
 31
0.0
  0
LINE
  8
0
  6
CONTINUOUS
 62
     7
  5
E34
 10
1.256983
 20
-3.073318
 30
0.0
 11
1.258747
 21
-3.070138
 31
0.0
  0
LINE
  8
0
  6
CONTINUOUS
 62
     7
  5
E35
 10
1.258747
 20
-3.070138
 30
0.0
 11
1.260578
 21
-3.067075
 31
0.0
  0
LINE
  8
0
  6
CONTINUOUS
 62
     7
  5
E36
 10
1.260578
 20
-3.067075
 30
0.0
 11
1.262474
 21
-3.064132
 31
0.0
  0
LINE
  8
0
  6
CONTINUOUS
 62
     7
  5
E37
 10
1.262474
 20
-3.064132
 30
0.0
 11
1.264432
 21
-3.061313
 31
0.0
  0
LINE
  8
0
  6
CONTINUOUS
 62
     7
  5
E38
 10
1.264432
 20
-3.061313
 30
0.0
 11
1.266449
 21
-3.058623
 31
0.0
  0
LINE
  8
0
  6
CONTINUOUS
 62
     7
  5
E39
 10
1.266449
 20
-3.058623
 30
0.0
 11
1.268523
 21
-3.056066
 31
0.0
  0
LINE
  8
0
  6
CONTINUOUS
 62
     7
  5
E3A
 10
1.268523
 20
-3.056066
 30
0.0
 11
1.270651
 21
-3.053644
 31
0.0
  0
LINE
  8
0
  6
CONTINUOUS
 62
     7
  5
E3B
 10
1.270651
 20
-3.053644
 30
0.0
 11
1.272829
 21
-3.051362
 31
0.0
  0
LINE
  8
0
  6
CONTINUOUS
 62
     7
  5
E3C
 10
1.272829
 20
-3.051362
 30
0.0
 11
1.275055
 21
-3.049222
 31
0.0
  0
LINE
  8
0
  6
CONTINUOUS
 62
     7
  5
E3D
 10
1.275055
 20
-3.049222
 30
0.0
 11
1.277326
 21
-3.047227
 31
0.0
  0
LINE
  8
0
  6
CONTINUOUS
 62
     7
  5
E3E
 10
1.277326
 20
-3.047227
 30
0.0
 11
1.279638
 21
-3.045381
 31
0.0
  0
LINE
  8
0
  6
CONTINUOUS
 62
     7
  5
E3F
 10
1.279638
 20
-3.045381
 30
0.0
 11
1.281988
 21
-3.043685
 31
0.0
  0
LINE
  8
0
  6
CONTINUOUS
 62
     7
  5
E40
 10
1.281988
 20
-3.043685
 30
0.0
 11
1.284373
 21
-3.042143
 31
0.0
  0
LINE
  8
0
  6
CONTINUOUS
 62
     7
  5
E41
 10
1.284373
 20
-3.042143
 30
0.0
 11
1.286789
 21
-3.040756
 31
0.0
  0
LINE
  8
0
  6
CONTINUOUS
 62
     7
  5
E42
 10
1.286789
 20
-3.040756
 30
0.0
 11
1.289234
 21
-3.039526
 31
0.0
  0
LINE
  8
0
  6
CONTINUOUS
 62
     7
  5
E43
 10
1.289234
 20
-3.267561
 30
0.0
 11
1.286789
 21
-3.266331
 31
0.0
  0
LINE
  8
0
  6
CONTINUOUS
 62
     7
  5
E44
 10
1.286789
 20
-3.266331
 30
0.0
 11
1.284373
 21
-3.264944
 31
0.0
  0
LINE
  8
0
  6
CONTINUOUS
 62
     7
  5
E45
 10
1.284373
 20
-3.264944
 30
0.0
 11
1.281988
 21
-3.263401
 31
0.0
  0
LINE
  8
0
  6
CONTINUOUS
 62
     7
  5
E46
 10
1.281988
 20
-3.263401
 30
0.0
 11
1.279638
 21
-3.261706
 31
0.0
  0
LINE
  8
0
  6
CONTINUOUS
 62
     7
  5
E47
 10
1.279638
 20
-3.261706
 30
0.0
 11
1.277326
 21
-3.259859
 31
0.0
  0
LINE
  8
0
  6
CONTINUOUS
 62
     7
  5
E48
 10
1.277326
 20
-3.259859
 30
0.0
 11
1.275055
 21
-3.257865
 31
0.0
  0
LINE
  8
0
  6
CONTINUOUS
 62
     7
  5
E49
 10
1.275055
 20
-3.257865
 30
0.0
 11
1.272829
 21
-3.255725
 31
0.0
  0
LINE
  8
0
  6
CONTINUOUS
 62
     7
  5
E4A
 10
1.272829
 20
-3.255725
 30
0.0
 11
1.270651
 21
-3.253442
 31
0.0
  0
LINE
  8
0
  6
CONTINUOUS
 62
     7
  5
E4B
 10
1.270651
 20
-3.253442
 30
0.0
 11
1.268523
 21
-3.251021
 31
0.0
  0
LINE
  8
0
  6
CONTINUOUS
 62
     7
  5
E4C
 10
1.268523
 20
-3.251021
 30
0.0
 11
1.266449
 21
-3.248463
 31
0.0
  0
LINE
  8
0
  6
CONTINUOUS
 62
     7
  5
E4D
 10
1.266449
 20
-3.248463
 30
0.0
 11
1.264432
 21
-3.245773
 31
0.0
  0
LINE
  8
0
  6
CONTINUOUS
 62
     7
  5
E4E
 10
1.264432
 20
-3.245773
 30
0.0
 11
1.262474
 21
-3.242955
 31
0.0
  0
LINE
  8
0
  6
CONTINUOUS
 62
     7
  5
E4F
 10
1.262474
 20
-3.242955
 30
0.0
 11
1.260578
 21
-3.240012
 31
0.0
  0
LINE
  8
0
  6
CONTINUOUS
 62
     7
  5
E50
 10
1.260578
 20
-3.240012
 30
0.0
 11
1.258747
 21
-3.236949
 31
0.0
  0
LINE
  8
0
  6
CONTINUOUS
 62
     7
  5
E51
 10
1.258747
 20
-3.236949
 30
0.0
 11
1.256983
 21
-3.233769
 31
0.0
  0
LINE
  8
0
  6
CONTINUOUS
 62
     7
  5
E52
 10
1.256983
 20
-3.233769
 30
0.0
 11
1.255289
 21
-3.230477
 31
0.0
  0
LINE
  8
0
  6
CONTINUOUS
 62
     7
  5
E53
 10
1.255289
 20
-3.230477
 30
0.0
 11
1.253667
 21
-3.227078
 31
0.0
  0
LINE
  8
0
  6
CONTINUOUS
 62
     7
  5
E54
 10
1.253667
 20
-3.227078
 30
0.0
 11
1.25212
 21
-3.223577
 31
0.0
  0
LINE
  8
0
  6
CONTINUOUS
 62
     7
  5
E55
 10
1.25212
 20
-3.223577
 30
0.0
 11
1.250648
 21
-3.219978
 31
0.0
  0
LINE
  8
0
  6
CONTINUOUS
 62
     7
  5
E56
 10
1.250648
 20
-3.219978
 30
0.0
 11
1.249256
 21
-3.216287
 31
0.0
  0
LINE
  8
0
  6
CONTINUOUS
 62
     7
  5
E57
 10
1.249256
 20
-3.216287
 30
0.0
 11
1.247944
 21
-3.212508
 31
0.0
  0
LINE
  8
0
  6
CONTINUOUS
 62
     7
  5
E58
 10
1.247944
 20
-3.212508
 30
0.0
 11
1.246715
 21
-3.208646
 31
0.0
  0
LINE
  8
0
  6
CONTINUOUS
 62
     7
  5
E59
 10
1.246715
 20
-3.208646
 30
0.0
 11
1.245569
 21
-3.204708
 31
0.0
  0
LINE
  8
0
  6
CONTINUOUS
 62
     7
  5
E5A
 10
1.245569
 20
-3.204708
 30
0.0
 11
1.244509
 21
-3.200699
 31
0.0
  0
LINE
  8
0
  6
CONTINUOUS
 62
     7
  5
E5B
 10
1.244509
 20
-3.200699
 30
0.0
 11
1.243536
 21
-3.196624
 31
0.0
  0
LINE
  8
0
  6
CONTINUOUS
 62
     7
  5
E5C
 10
1.243536
 20
-3.196624
 30
0.0
 11
1.242652
 21
-3.192489
 31
0.0
  0
LINE
  8
0
  6
CONTINUOUS
 62
     7
  5
E5D
 10
1.242652
 20
-3.192489
 30
0.0
 11
1.241858
 21
-3.1883
 31
0.0
  0
LINE
  8
0
  6
CONTINUOUS
 62
     7
  5
E5E
 10
1.241858
 20
-3.1883
 30
0.0
 11
1.241154
 21
-3.184062
 31
0.0
  0
LINE
  8
0
  6
CONTINUOUS
 62
     7
  5
E5F
 10
1.241154
 20
-3.184062
 30
0.0
 11
1.240542
 21
-3.179781
 31
0.0
  0
LINE
  8
0
  6
CONTINUOUS
 62
     7
  5
E60
 10
1.240542
 20
-3.179781
 30
0.0
 11
1.240023
 21
-3.175465
 31
0.0
  0
LINE
  8
0
  6
CONTINUOUS
 62
     7
  5
E61
 10
1.240023
 20
-3.175465
 30
0.0
 11
1.239598
 21
-3.171117
 31
0.0
  0
LINE
  8
0
  6
CONTINUOUS
 62
     7
  5
E62
 10
1.239598
 20
-3.171117
 30
0.0
 11
1.239266
 21
-3.166745
 31
0.0
  0
LINE
  8
0
  6
CONTINUOUS
 62
     7
  5
E63
 10
1.239266
 20
-3.166745
 30
0.0
 11
1.239029
 21
-3.162355
 31
0.0
  0
LINE
  8
0
  6
CONTINUOUS
 62
     7
  5
E64
 10
1.239029
 20
-3.162355
 30
0.0
 11
1.238886
 21
-3.157952
 31
0.0
  0
LINE
  8
0
  6
CONTINUOUS
 62
     7
  5
E65
 10
1.238886
 20
-3.157952
 30
0.0
 11
1.238838
 21
-3.153543
 31
0.0
  0
LINE
  8
0
  6
CONTINUOUS
 62
     7
  5
E66
 10
1.466142
 20
-3.350394
 30
0.0
 11
-1.466142
 21
-3.350394
 31
0.0
  0
CIRCLE
  8
0
  6
CONTINUOUS
 62
     7
  5
E67
 10
0.875984
 20
-4.336614
 30
0.0
 40
0.285433
  0
CIRCLE
  8
0
  6
CONTINUOUS
 62
     7
  5
E68
 10
-0.875984
 20
-4.336614
 30
0.0
 40
0.285433
  0
CIRCLE
  8
0
  6
CONTINUOUS
 62
     7
  5
E69
 10
0.875984
 20
-6.088583
 30
0.0
 40
0.285433
  0
CIRCLE
  8
0
  6
CONTINUOUS
 62
     7
  5
E6A
 10
-0.875984
 20
-6.088583
 30
0.0
 40
0.285433
  0
LINE
  8
0
  6
CONTINUOUS
 62
     7
  5
E6B
 10
-1.496063
 20
-2.956693
 30
0.0
 11
-1.496063
 21
-6.71063
 31
0.0
  0
LINE
  8
0
  6
CONTINUOUS
 62
     7
  5
E6C
 10
-1.496063
 20
-6.71063
 30
0.0
 11
1.496063
 21
-6.71063
 31
0.0
  0
LINE
  8
0
  6
CONTINUOUS
 62
     7
  5
E6D
 10
1.496063
 20
-6.71063
 30
0.0
 11
1.496063
 21
-2.956693
 31
0.0
  0
LINE
  8
0
  6
CONTINUOUS
 62
     7
  5
E6E
 10
-1.495063
 20
-11.566929
 30
0.0
 11
-1.495063
 21
-6.71063
 31
0.0
  0
LINE
  8
0
  6
CONTINUOUS
 62
     7
  5
E6F
 10
-0.19685
 20
-11.566929
 30
0.0
 11
-1.495063
 21
-11.566929
 31
0.0
  0
LINE
  8
0
  6
CONTINUOUS
 62
     7
  5
E70
 10
-1.072835
 20
-8.848425
 30
0.0
 11
-0.679134
 21
-8.848425
 31
0.0
  0
LINE
  8
0
  6
CONTINUOUS
 62
     7
  5
E71
 10
-0.679134
 20
-8.848425
 30
0.0
 11
-0.679134
 21
-9.242126
 31
0.0
  0
LINE
  8
0
  6
CONTINUOUS
 62
     7
  5
E72
 10
-0.679134
 20
-9.242126
 30
0.0
 11
-1.072835
 21
-9.242126
 31
0.0
  0
LINE
  8
0
  6
CONTINUOUS
 62
     7
  5
E73
 10
-1.072835
 20
-9.242126
 30
0.0
 11
-1.072835
 21
-8.848425
 31
0.0
  0
LINE
  8
0
  6
CONTINUOUS
 62
     7
  5
E74
 10
-1.072835
 20
-10.600394
 30
0.0
 11
-0.679134
 21
-10.600394
 31
0.0
  0
LINE
  8
0
  6
CONTINUOUS
 62
     7
  5
E75
 10
-0.679134
 20
-10.600394
 30
0.0
 11
-0.679134
 21
-10.994094
 31
0.0
  0
LINE
  8
0
  6
CONTINUOUS
 62
     7
  5
E76
 10
-0.679134
 20
-10.994094
 30
0.0
 11
-1.072835
 21
-10.994094
 31
0.0
  0
LINE
  8
0
  6
CONTINUOUS
 62
     7
  5
E77
 10
-1.072835
 20
-10.994094
 30
0.0
 11
-1.072835
 21
-10.600394
 31
0.0
  0
LINE
  8
0
  6
CONTINUOUS
 62
     7
  5
E78
 10
-1.495063
 20
-8.354331
 30
0.0
 11
-1.929134
 21
-8.354331
 31
0.0
  0
LINE
  8
0
  6
CONTINUOUS
 62
     7
  5
E79
 10
-1.929134
 20
-8.354331
 30
0.0
 11
-1.929134
 21
-9.929134
 31
0.0
  0
LINE
  8
0
  6
CONTINUOUS
 62
     7
  5
E7A
 10
-1.929134
 20
-9.929134
 30
0.0
 11
-1.495063
 21
-9.929134
 31
0.0
  0
LINE
  8
0
  6
CONTINUOUS
 62
     7
  5
E7B
 10
1.929134
 20
-8.354331
 30
0.0
 11
1.495063
 21
-8.354331
 31
0.0
  0
LINE
  8
0
  6
CONTINUOUS
 62
     7
  5
E7C
 10
1.929134
 20
-9.929134
 30
0.0
 11
1.929134
 21
-8.354331
 31
0.0
  0
LINE
  8
0
  6
CONTINUOUS
 62
     7
  5
E7D
 10
1.495063
 20
-9.929134
 30
0.0
 11
1.929134
 21
-9.929134
 31
0.0
  0
LINE
  8
0
  6
CONTINUOUS
 62
     7
  5
E7E
 10
2.809843
 20
-9.338583
 30
0.0
 11
2.809843
 21
-5.795276
 31
0.0
  0
LINE
  8
0
  6
CONTINUOUS
 62
     7
  5
E7F
 10
2.809843
 20
-5.795276
 30
0.0
 11
1.496063
 21
-5.795276
 31
0.0
  0
LINE
  8
0
  6
CONTINUOUS
 62
     7
  5
E80
 10
2.809843
 20
-9.338583
 30
0.0
 11
1.929134
 21
-9.338583
 31
0.0
  0
LINE
  8
0
  6
CONTINUOUS
 62
     7
  5
E81
 10
-2.809843
 20
-5.795276
 30
0.0
 11
-2.809843
 21
-9.338583
 31
0.0
  0
LINE
  8
0
  6
CONTINUOUS
 62
     7
  5
E82
 10
-2.809843
 20
-9.338583
 30
0.0
 11
-1.929134
 21
-9.338583
 31
0.0
  0
LINE
  8
0
  6
CONTINUOUS
 62
     7
  5
E83
 10
-2.809843
 20
-5.795276
 30
0.0
 11
-1.496063
 21
-5.795276
 31
0.0
  0
LINE
  8
0
  6
CONTINUOUS
 62
     7
  5
E84
 10
0.679134
 20
-10.600394
 30
0.0
 11
1.072835
 21
-10.600394
 31
0.0
  0
LINE
  8
0
  6
CONTINUOUS
 62
     7
  5
E85
 10
0.679134
 20
-10.994094
 30
0.0
 11
0.679134
 21
-10.600394
 31
0.0
  0
LINE
  8
0
  6
CONTINUOUS
 62
     7
  5
E86
 10
1.072835
 20
-10.994094
 30
0.0
 11
0.679134
 21
-10.994094
 31
0.0
  0
LINE
  8
0
  6
CONTINUOUS
 62
     7
  5
E87
 10
1.072835
 20
-10.600394
 30
0.0
 11
1.072835
 21
-10.994094
 31
0.0
  0
LINE
  8
0
  6
CONTINUOUS
 62
     7
  5
E88
 10
0.679134
 20
-8.848425
 30
0.0
 11
1.072835
 21
-8.848425
 31
0.0
  0
LINE
  8
0
  6
CONTINUOUS
 62
     7
  5
E89
 10
0.679134
 20
-9.242126
 30
0.0
 11
0.679134
 21
-8.848425
 31
0.0
  0
LINE
  8
0
  6
CONTINUOUS
 62
     7
  5
E8A
 10
1.072835
 20
-9.242126
 30
0.0
 11
0.679134
 21
-9.242126
 31
0.0
  0
LINE
  8
0
  6
CONTINUOUS
 62
     7
  5
E8B
 10
1.072835
 20
-8.848425
 30
0.0
 11
1.072835
 21
-9.242126
 31
0.0
  0
LINE
  8
0
  6
CONTINUOUS
 62
     7
  5
E8C
 10
0.0
 20
-11.565929
 30
0.0
 11
0.19685
 21
-11.565929
 31
0.0
  0
LINE
  8
0
  6
CONTINUOUS
 62
     7
  5
E8D
 10
0.0
 20
-11.565929
 30
0.0
 11
0.0
 21
-6.71063
 31
0.0
  0
LINE
  8
0
  6
CONTINUOUS
 62
     7
  5
E8E
 10
0.19685
 20
-11.565929
 30
0.0
 11
1.495063
 21
-11.565929
 31
0.0
  0
LINE
  8
0
  6
CONTINUOUS
 62
     7
  5
E8F
 10
1.495063
 20
-6.71063
 30
0.0
 11
1.495063
 21
-11.565929
 31
0.0
  0
LINE
  8
0
  6
CONTINUOUS
 62
     7
  5
E90
 10
0.0
 20
-11.566929
 30
0.0
 11
-0.19685
 21
-11.566929
 31
0.0
  0
LINE
  8
0
  6
CONTINUOUS
 62
     7
  5
E91
 10
-0.492126
 20
0.492126
 30
0.0
 11
-0.492126
 21
0.374016
 31
0.0
  0
LINE
  8
0
  6
CONTINUOUS
 62
     7
  5
E92
 10
-0.492126
 20
-0.374016
 30
0.0
 11
-0.492126
 21
-0.492126
 31
0.0
  0
ARC
  8
0
  6
CONTINUOUS
 62
     7
  5
E93
 10
5.826772
 20
0.0
 30
0.0
 40
0.590551
 50
203.578178
 51
156.421822
  0
ARC
  8
0
  6
CONTINUOUS
 62
     7
  5
E94
 10
5.826772
 20
0.0
 30
0.0
 40
0.590551
 50
168.463041
 51
191.536959
  0
LINE
  8
0
  6
CONTINUOUS
 62
     3
  5
E95
 10
-12.464567
 20
-1.53937
 30
0.0
 11
-11.944882
 21
-1.53937
 31
0.0
  0
LINE
  8
0
  6
CONTINUOUS
 62
     3
  5
E96
 10
-12.204724
 20
-1.799213
 30
0.0
 11
-12.204724
 21
-1.279528
 31
0.0
  0
LINE
  8
0
  6
CONTINUOUS
 62
     3
  5
E97
 10
7.417323
 20
-1.53937
 30
0.0
 11
7.937008
 21
-1.53937
 31
0.0
  0
LINE
  8
0
  6
CONTINUOUS
 62
     3
  5
E98
 10
7.677165
 20
-1.799213
 30
0.0
 11
7.677165
 21
-1.279528
 31
0.0
  0
LINE
  8
0
  6
CONTINUOUS
 62
     3
  5
E99
 10
7.417323
 20
4.366142
 30
0.0
 11
7.937008
 21
4.366142
 31
0.0
  0
LINE
  8
0
  6
CONTINUOUS
 62
     3
  5
E9A
 10
7.677165
 20
4.106299
 30
0.0
 11
7.677165
 21
4.625984
 31
0.0
  0
LINE
  8
0
  6
CONTINUOUS
 62
     3
  5
E9B
 10
-12.464567
 20
4.366142
 30
0.0
 11
-11.944882
 21
4.366142
 31
0.0
  0
LINE
  8
0
  6
CONTINUOUS
 62
     3
  5
E9C
 10
-12.204724
 20
4.106299
 30
0.0
 11
-12.204724
 21
4.625984
 31
0.0
  0
LINE
  8
0
  6
CONTINUOUS
 62
     3
  5
E9D
 10
3.309055
 20
-6.088583
 30
0.0
 11
3.994094
 21
-6.088583
 31
0.0
  0
LINE
  8
0
  6
CONTINUOUS
 62
     3
  5
E9E
 10
3.651575
 20
-6.431102
 30
0.0
 11
3.651575
 21
-5.746063
 31
0.0
  0
LINE
  8
0
  6
CONTINUOUS
 62
     3
  5
E9F
 10
5.061024
 20
-6.088583
 30
0.0
 11
5.746063
 21
-6.088583
 31
0.0
  0
LINE
  8
0
  6
CONTINUOUS
 62
     3
  5
EA0
 10
5.403543
 20
-6.431102
 30
0.0
 11
5.403543
 21
-5.746063
 31
0.0
  0
LINE
  8
0
  6
CONTINUOUS
 62
     3
  5
EA1
 10
3.309055
 20
-4.336614
 30
0.0
 11
3.994094
 21
-4.336614
 31
0.0
  0
LINE
  8
0
  6
CONTINUOUS
 62
     3
  5
EA2
 10
3.651575
 20
-4.679134
 30
0.0
 11
3.651575
 21
-3.994094
 31
0.0
  0
LINE
  8
0
  6
CONTINUOUS
 62
     3
  5
EA3
 10
5.061024
 20
-4.336614
 30
0.0
 11
5.746063
 21
-4.336614
 31
0.0
  0
LINE
  8
0
  6
CONTINUOUS
 62
     3
  5
EA4
 10
5.403543
 20
-4.679134
 30
0.0
 11
5.403543
 21
-3.994094
 31
0.0
  0
LINE
  8
0
  6
CONTINUOUS
 62
     3
  5
EA5
 10
-1.218504
 20
-6.088583
 30
0.0
 11
-0.533465
 21
-6.088583
 31
0.0
  0
LINE
  8
0
  6
CONTINUOUS
 62
     3
  5
EA6
 10
-0.875984
 20
-6.431102
 30
0.0
 11
-0.875984
 21
-5.746063
 31
0.0
  0
LINE
  8
0
  6
CONTINUOUS
 62
     3
  5
EA7
 10
0.533465
 20
-6.088583
 30
0.0
 11
1.218504
 21
-6.088583
 31
0.0
  0
LINE
  8
0
  6
CONTINUOUS
 62
     3
  5
EA8
 10
0.875984
 20
-6.431102
 30
0.0
 11
0.875984
 21
-5.746063
 31
0.0
  0
LINE
  8
0
  6
CONTINUOUS
 62
     3
  5
EA9
 10
-1.218504
 20
-4.336614
 30
0.0
 11
-0.533465
 21
-4.336614
 31
0.0
  0
LINE
  8
0
  6
CONTINUOUS
 62
     3
  5
EAA
 10
-0.875984
 20
-4.679134
 30
0.0
 11
-0.875984
 21
-3.994094
 31
0.0
  0
LINE
  8
0
  6
CONTINUOUS
 62
     3
  5
EAB
 10
0.533465
 20
-4.336614
 30
0.0
 11
1.218504
 21
-4.336614
 31
0.0
  0
LINE
  8
0
  6
CONTINUOUS
 62
     3
  5
EAC
 10
0.875984
 20
-4.679134
 30
0.0
 11
0.875984
 21
-3.994094
 31
0.0
  0
LINE
  8
0
  6
CONTINUOUS
 62
     3
  5
EAD
 10
-5.746063
 20
-6.088583
 30
0.0
 11
-5.061024
 21
-6.088583
 31
0.0
  0
LINE
  8
0
  6
CONTINUOUS
 62
     3
  5
EAE
 10
-5.403543
 20
-6.431102
 30
0.0
 11
-5.403543
 21
-5.746063
 31
0.0
  0
LINE
  8
0
  6
CONTINUOUS
 62
     3
  5
EAF
 10
-3.994094
 20
-6.088583
 30
0.0
 11
-3.309055
 21
-6.088583
 31
0.0
  0
LINE
  8
0
  6
CONTINUOUS
 62
     3
  5
EB0
 10
-3.651575
 20
-6.431102
 30
0.0
 11
-3.651575
 21
-5.746063
 31
0.0
  0
LINE
  8
0
  6
CONTINUOUS
 62
     3
  5
EB1
 10
-5.746063
 20
-4.336614
 30
0.0
 11
-5.061024
 21
-4.336614
 31
0.0
  0
LINE
  8
0
  6
CONTINUOUS
 62
     3
  5
EB2
 10
-5.403543
 20
-4.679134
 30
0.0
 11
-5.403543
 21
-3.994094
 31
0.0
  0
LINE
  8
0
  6
CONTINUOUS
 62
     3
  5
EB3
 10
-3.994094
 20
-4.336614
 30
0.0
 11
-3.309055
 21
-4.336614
 31
0.0
  0
LINE
  8
0
  6
CONTINUOUS
 62
     3
  5
EB4
 10
-3.651575
 20
-4.679134
 30
0.0
 11
-3.651575
 21
-3.994094
 31
0.0
  0
LINE
  8
0
  6
CONTINUOUS
 62
     3
  5
EB5
 10
-10.273622
 20
-6.088583
 30
0.0
 11
-9.588583
 21
-6.088583
 31
0.0
  0
LINE
  8
0
  6
CONTINUOUS
 62
     3
  5
EB6
 10
-9.931102
 20
-6.431102
 30
0.0
 11
-9.931102
 21
-5.746063
 31
0.0
  0
LINE
  8
0
  6
CONTINUOUS
 62
     3
  5
EB7
 10
-8.521654
 20
-6.088583
 30
0.0
 11
-7.836614
 21
-6.088583
 31
0.0
  0
LINE
  8
0
  6
CONTINUOUS
 62
     3
  5
EB8
 10
-8.179134
 20
-6.431102
 30
0.0
 11
-8.179134
 21
-5.746063
 31
0.0
  0
LINE
  8
0
  6
CONTINUOUS
 62
     3
  5
EB9
 10
-10.273622
 20
-4.336614
 30
0.0
 11
-9.588583
 21
-4.336614
 31
0.0
  0
LINE
  8
0
  6
CONTINUOUS
 62
     3
  5
EBA
 10
-9.931102
 20
-4.679134
 30
0.0
 11
-9.931102
 21
-3.994094
 31
0.0
  0
LINE
  8
0
  6
CONTINUOUS
 62
     3
  5
EBB
 10
-8.521654
 20
-4.336614
 30
0.0
 11
-7.836614
 21
-4.336614
 31
0.0
  0
LINE
  8
0
  6
CONTINUOUS
 62
     3
  5
EBC
 10
-8.179134
 20
-4.679134
 30
0.0
 11
-8.179134
 21
-3.994094
 31
0.0
  0
LINE
  8
0
  6
CONTINUOUS
 62
     3
  5
EBD
 10
5.061024
 20
8.915354
 30
0.0
 11
5.746063
 21
8.915354
 31
0.0
  0
LINE
  8
0
  6
CONTINUOUS
 62
     3
  5
EBE
 10
5.403543
 20
8.572835
 30
0.0
 11
5.403543
 21
9.257874
 31
0.0
  0
LINE
  8
0
  6
CONTINUOUS
 62
     3
  5
EBF
 10
3.309055
 20
8.915354
 30
0.0
 11
3.994094
 21
8.915354
 31
0.0
  0
LINE
  8
0
  6
CONTINUOUS
 62
     3
  5
EC0
 10
3.651575
 20
8.572835
 30
0.0
 11
3.651575
 21
9.257874
 31
0.0
  0
LINE
  8
0
  6
CONTINUOUS
 62
     3
  5
EC1
 10
5.061024
 20
7.163386
 30
0.0
 11
5.746063
 21
7.163386
 31
0.0
  0
LINE
  8
0
  6
CONTINUOUS
 62
     3
  5
EC2
 10
5.403543
 20
6.820866
 30
0.0
 11
5.403543
 21
7.505906
 31
0.0
  0
LINE
  8
0
  6
CONTINUOUS
 62
     3
  5
EC3
 10
3.309055
 20
7.163386
 30
0.0
 11
3.994094
 21
7.163386
 31
0.0
  0
LINE
  8
0
  6
CONTINUOUS
 62
     3
  5
EC4
 10
3.651575
 20
6.820866
 30
0.0
 11
3.651575
 21
7.505906
 31
0.0
  0
LINE
  8
0
  6
CONTINUOUS
 62
     3
  5
EC5
 10
0.533465
 20
8.915354
 30
0.0
 11
1.218504
 21
8.915354
 31
0.0
  0
LINE
  8
0
  6
CONTINUOUS
 62
     3
  5
EC6
 10
0.875984
 20
8.572835
 30
0.0
 11
0.875984
 21
9.257874
 31
0.0
  0
LINE
  8
0
  6
CONTINUOUS
 62
     3
  5
EC7
 10
-1.218504
 20
8.915354
 30
0.0
 11
-0.533465
 21
8.915354
 31
0.0
  0
LINE
  8
0
  6
CONTINUOUS
 62
     3
  5
EC8
 10
-0.875984
 20
8.572835
 30
0.0
 11
-0.875984
 21
9.257874
 31
0.0
  0
LINE
  8
0
  6
CONTINUOUS
 62
     3
  5
EC9
 10
0.533465
 20
7.163386
 30
0.0
 11
1.218504
 21
7.163386
 31
0.0
  0
LINE
  8
0
  6
CONTINUOUS
 62
     3
  5
ECA
 10
0.875984
 20
6.820866
 30
0.0
 11
0.875984
 21
7.505906
 31
0.0
  0
LINE
  8
0
  6
CONTINUOUS
 62
     3
  5
ECB
 10
-1.218504
 20
7.163386
 30
0.0
 11
-0.533465
 21
7.163386
 31
0.0
  0
LINE
  8
0
  6
CONTINUOUS
 62
     3
  5
ECC
 10
-0.875984
 20
6.820866
 30
0.0
 11
-0.875984
 21
7.505906
 31
0.0
  0
LINE
  8
0
  6
CONTINUOUS
 62
     3
  5
ECD
 10
-3.994094
 20
8.915354
 30
0.0
 11
-3.309055
 21
8.915354
 31
0.0
  0
LINE
  8
0
  6
CONTINUOUS
 62
     3
  5
ECE
 10
-3.651575
 20
8.572835
 30
0.0
 11
-3.651575
 21
9.257874
 31
0.0
  0
LINE
  8
0
  6
CONTINUOUS
 62
     3
  5
ECF
 10
-5.746063
 20
8.915354
 30
0.0
 11
-5.061024
 21
8.915354
 31
0.0
  0
LINE
  8
0
  6
CONTINUOUS
 62
     3
  5
ED0
 10
-5.403543
 20
8.572835
 30
0.0
 11
-5.403543
 21
9.257874
 31
0.0
  0
LINE
  8
0
  6
CONTINUOUS
 62
     3
  5
ED1
 10
-3.994094
 20
7.163386
 30
0.0
 11
-3.309055
 21
7.163386
 31
0.0
  0
LINE
  8
0
  6
CONTINUOUS
 62
     3
  5
ED2
 10
-3.651575
 20
6.820866
 30
0.0
 11
-3.651575
 21
7.505906
 31
0.0
  0
LINE
  8
0
  6
CONTINUOUS
 62
     3
  5
ED3
 10
-5.746063
 20
7.163386
 30
0.0
 11
-5.061024
 21
7.163386
 31
0.0
  0
LINE
  8
0
  6
CONTINUOUS
 62
     3
  5
ED4
 10
-5.403543
 20
6.820866
 30
0.0
 11
-5.403543
 21
7.505906
 31
0.0
  0
LINE
  8
0
  6
CONTINUOUS
 62
     3
  5
ED5
 10
-8.521654
 20
8.915354
 30
0.0
 11
-7.836614
 21
8.915354
 31
0.0
  0
LINE
  8
0
  6
CONTINUOUS
 62
     3
  5
ED6
 10
-8.179134
 20
8.572835
 30
0.0
 11
-8.179134
 21
9.257874
 31
0.0
  0
LINE
  8
0
  6
CONTINUOUS
 62
     3
  5
ED7
 10
-10.273622
 20
8.915354
 30
0.0
 11
-9.588583
 21
8.915354
 31
0.0
  0
LINE
  8
0
  6
CONTINUOUS
 62
     3
  5
ED8
 10
-9.931102
 20
8.572835
 30
0.0
 11
-9.931102
 21
9.257874
 31
0.0
  0
LINE
  8
0
  6
CONTINUOUS
 62
     3
  5
ED9
 10
-8.521654
 20
7.163386
 30
0.0
 11
-7.836614
 21
7.163386
 31
0.0
  0
LINE
  8
0
  6
CONTINUOUS
 62
     3
  5
EDA
 10
-8.179134
 20
6.820866
 30
0.0
 11
-8.179134
 21
7.505906
 31
0.0
  0
LINE
  8
0
  6
CONTINUOUS
 62
     3
  5
EDB
 10
-10.273622
 20
7.163386
 30
0.0
 11
-9.588583
 21
7.163386
 31
0.0
  0
LINE
  8
0
  6
CONTINUOUS
 62
     3
  5
EDC
 10
-9.931102
 20
6.820866
 30
0.0
 11
-9.931102
 21
7.505906
 31
0.0
  0
ENDSEC
  0
EOF
