  0
SECTION
  2
HEADER
  9
$ACADVER
  1
AC1009
  9
$DWGCODEPAGE
  3
ansi_1250
  9
$INSBASE
 10
0.0
 20
0.0
 30
0.0
  9
$EXTMIN
 10
-1.5
 20
0.0
 30
0.0
  9
$EXTMAX
 10
1.5
 20
5.38189
 30
0.0
  9
$LIMMIN
 10
0.0
 20
0.0
  9
$LIMMAX
 10
0.0
 20
0.0
  9
$ORTHOMODE
 70
     0
  9
$REGENMODE
 70
     1
  9
$FILLMODE
 70
     1
  9
$QTEXTMODE
 70
     0
  9
$MIRRTEXT
 70
     1
  9
$DRAGMODE
 70
     2
  9
$LTSCALE
 40
1.0
  9
$OSMODE
 70
     0
  9
$ATTMODE
 70
     1
  9
$TEXTSIZE
 40
0.2
  9
$TRACEWID
 40
0.05
  9
$TEXTSTYLE
  7
STANDARD
  9
$CLAYER
  8
0
  9
$CELTYPE
  6
CONTINUOUS
  9
$CECOLOR
 62
   256
  9
$DIMSCALE
 40
1.0
  9
$DIMASZ
 40
0.18
  9
$DIMEXO
 40
0.0625
  9
$DIMDLI
 40
0.38
  9
$DIMRND
 40
0.0
  9
$DIMDLE
 40
0.0
  9
$DIMEXE
 40
0.18
  9
$DIMTP
 40
0.0
  9
$DIMTM
 40
0.0
  9
$DIMTXT
 40
0.18
  9
$DIMCEN
 40
0.09
  9
$DIMTSZ
 40
0.0
  9
$DIMTOL
 70
     0
  9
$DIMLIM
 70
     0
  9
$DIMTIH
 70
     1
  9
$DIMTOH
 70
     1
  9
$DIMSE1
 70
     0
  9
$DIMSE2
 70
     0
  9
$DIMTAD
 70
     0
  9
$DIMZIN
 70
     0
  9
$DIMBLK
  1

  9
$DIMASO
 70
     1
  9
$DIMSHO
 70
     1
  9
$DIMPOST
  1

  9
$DIMAPOST
  1

  9
$DIMALT
 70
     0
  9
$DIMALTD
 70
     2
  9
$DIMALTF
 40
25.4
  9
$DIMLFAC
 40
1.0
  9
$DIMTOFL
 70
     0
  9
$DIMTVP
 40
0.0
  9
$DIMTIX
 70
     0
  9
$DIMSOXD
 70
     0
  9
$DIMSAH
 70
     0
  9
$DIMBLK1
  1

  9
$DIMBLK2
  1

  9
$DIMSTYLE
  2
STANDARD
  9
$DIMCLRD
 70
     0
  9
$DIMCLRE
 70
     0
  9
$DIMCLRT
 70
     0
  9
$DIMTFAC
 40
1.0
  9
$DIMGAP
 40
0.09
  9
$LUNITS
 70
     2
  9
$LUPREC
 70
     4
  9
$AXISMODE
 70
     0
  9
$AXISUNIT
 10
0.0
 20
0.0
  9
$SKETCHINC
 40
0.1
  9
$FILLETRAD
 40
0.0
  9
$AUNITS
 70
     0
  9
$AUPREC
 70
     0
  9
$MENU
  1
acad
  9
$ELEVATION
 40
0.0
  9
$PELEVATION
 40
0.0
  9
$THICKNESS
 40
0.0
  9
$LIMCHECK
 70
     0
  9
$BLIPMODE
 70
     1
  9
$CHAMFERA
 40
0.0
  9
$CHAMFERB
 40
0.0
  9
$SKPOLY
 70
     0
  9
$TDCREATE
 40
0.000000000
  9
$TDUPDATE
 40
0.000000000
  9
$TDINDWG
 40
0.0000000000
  9
$TDUSRTIMER
 40
0.0000000000
  9
$USRTIMER
 70
     1
  9
$ANGBASE
 50
0.0
  9
$ANGDIR
 70
     0
  9
$PDMODE
 70
     0
  9
$PDSIZE
 40
0.0
  9
$PLINEWID
 40
0.0
  9
$COORDS
 70
     0
  9
$SPLFRAME
 70
     0
  9
$SPLINETYPE
 70
     6
  9
$SPLINESEGS
 70
     8
  9
$ATTDIA
 70
     0
  9
$ATTREQ
 70
     1
  9
$HANDLING
 70
     1
  9
$HANDSEED
  5
83A
  9
$SURFTAB1
 70
     6
  9
$SURFTAB2
 70
     6
  9
$SURFTYPE
 70
     6
  9
$SURFU
 70
     6
  9
$SURFV
 70
     6
  9
$UCSNAME
  2

  9
$UCSORG
 10
0.0
 20
0.0
 30
0.0
  9
$UCSXDIR
 10
1.0
 20
0.0
 30
0.0
  9
$UCSYDIR
 10
0.0
 20
1.0
 30
0.0
  9
$PUCSNAME
  2

  9
$PUCSORG
 10
0.0
 20
0.0
 30
0.0
  9
$PUCSXDIR
 10
1.0
 20
0.0
 30
0.0
  9
$PUCSYDIR
 10
0.0
 20
1.0
 30
0.0
  9
$USERI1
 70
     0
  9
$USERI2
 70
     0
  9
$USERI3
 70
     0
  9
$USERI4
 70
     0
  9
$USERI5
 70
     0
  9
$USERR1
 40
0.0
  9
$USERR2
 40
0.0
  9
$USERR3
 40
0.0
  9
$USERR4
 40
0.0
  9
$USERR5
 40
0.0
  9
$WORLDVIEW
 70
     1
  9
$SHADEDGE
 70
     3
  9
$SHADEDIF
 70
    70
  9
$TILEMODE
 70
     1
  9
$MAXACTVP
 70
    16
  9
$PINSBASE
 10
0.0
 20
0.0
 30
0.0
  9
$PLIMCHECK
 70
     0
  9
$PEXTMIN
 10
1.000000E+20
 20
1.000000E+20
 30
1.000000E+20
  9
$PEXTMAX
 10
-1.000000E+20
 20
-1.000000E+20
 30
-1.000000E+20
  9
$PLIMMIN
 10
0.0
 20
0.0
  9
$PLIMMAX
 10
12.0
 20
9.0
  9
$UNITMODE
 70
     0
  9
$VISRETAIN
 70
     0
  9
$PLINEGEN
 70
     1
  9
$PSLTSCALE
 70
     0
  9
$TREEDEPTH
 70
  3020
  0
ENDSEC
  0
SECTION
  2
TABLES
  0
TABLE
  2
VPORT
 70
     1
  0
VPORT
  2
*ACTIVE
 70
     0
 10
0.0
 20
0.0
 11
1.0
 21
1.0
 12
6.591288
 22
4.579184
 13
0.0
 23
0.0
 14
1.0
 24
1.0
 15
0.0
 25
0.0
 16
0.0
 26
0.0
 36
1.0
 17
0.0
 27
0.0
 37
0.0
 40
9.158369
 41
0.688564
 42
50.0
 43
0.0
 44
0.0
 50
0.0
 51
0.0
 71
     0
 72
   100
 73
     1
 74
     1
 75
     0
 76
     0
 77
     0
 78
     0
  0
ENDTAB
  0
TABLE
  2
LTYPE
 70
     5
  0
LTYPE
  2
CONTINUOUS
 70
    64
  3
Solid line
 72
    65
 73
     0
 40
0.0
  0
LTYPE
  2
CENTER
 70
    64
  3
Center ____ _ ____ _ ____ _ ____ _ ____ _ ____
 72
    65
 73
     4
 40
50.8
 49
31.75
 49
-6.35
 49
6.35
 49
-6.35
  0
LTYPE
  2
HIDDEN
 70
    64
  3
Hidden __ __ __ __ __ __ __ __ __ __ __ __ __ __
 72
    65
 73
     2
 40
9.525
 49
6.35
 49
-3.175
  0
LTYPE
  2
CENTER2
 70
    64
  3
Center (.5x) ___ _ ___ _ ___ _ ___ _ ___ _ ___
 72
    65
 73
     4
 40
28.575
 49
19.05
 49
-3.175
 49
3.175
 49
-3.175
  0
LTYPE
  2
HIDDEN2
 70
    64
  3
Hidden (.5x) _ _ _ _ _ _ _ _ _ _ _ _ _ _ _ _ _
 72
    65
 73
     2
 40
4.7625
 49
3.175
 49
-1.5875
  0
ENDTAB
  0
TABLE
  2
LAYER
 70
     1
  0
LAYER
  2
0
 70
     0
 62
     7
  6
CONTINUOUS
  0
ENDTAB
  0
TABLE
  2
STYLE
 70
     1
  0
STYLE
  2
STANDARD
 70
     0
 40
0.0
 41
1.0
 50
0.0
 71
     0
 42
0.0
  3
txt
  4

  0
ENDTAB
  0
TABLE
  2
VIEW
 70
     0
  0
ENDTAB
  0
TABLE
  2
UCS
 70
     0
  0
ENDTAB
  0
TABLE
  2
APPID
 70
     1
  0
APPID
  2
ACAD
 70
     0
  0
ENDTAB
  0
TABLE
  2
DIMSTYLE
 70
     1
  0
DIMSTYLE
  2
STANDARD
 70
     0
  3

  4

  5

  6

  7

 40
1.0
 41
0.18
 42
0.0625
 43
0.38
 44
0.18
 45
0.0
 46
0.0
 47
0.0
 48
0.0
 71
     0
 72
     0
 73
     1
 74
     1
 75
     0
 76
     0
 77
     0
 78
     0
140
0.18
141
0.09
142
0.0
143
25.4
144
1.0
145
0.0
146
1.0
147
0.09
170
     0
171
     2
172
     0
173
     0
174
     0
175
     0
176
     0
177
     0
178
     0
  0
ENDTAB
  0
ENDSEC
  0
SECTION
  2
BLOCKS
  0
ENDSEC
  0
SECTION
  2
ENTITIES
  0
LINE
  8
0
  6
CONTINUOUS
 62
     7
  5
490
 10
0.15748
 20
2.26208
 30
0.0
 11
0.15748
 21
2.244094
 31
0.0
  0
LINE
  8
0
  6
CONTINUOUS
 62
     7
  5
491
 10
0.15748
 20
2.244094
 30
0.0
 11
-0.15748
 21
2.244094
 31
0.0
  0
LINE
  8
0
  6
CONTINUOUS
 62
     7
  5
492
 10
-0.15748
 20
2.244094
 30
0.0
 11
-0.15748
 21
2.26208
 31
0.0
  0
ARC
  8
0
  6
CONTINUOUS
 62
     7
  5
493
 10
0.0
 20
1.692913
 30
0.0
 40
0.590551
 50
99.594068
 51
80.405932
  0
ARC
  8
0
  6
CONTINUOUS
 62
     7
  5
494
 10
-0.787402
 20
5.26378
 30
0.0
 40
0.11811
 50
90.0
 51
180.0
  0
LINE
  8
0
  6
CONTINUOUS
 62
     7
  5
495
 10
-0.393701
 20
5.38189
 30
0.0
 11
-0.787402
 21
5.38189
 31
0.0
  0
ARC
  8
0
  6
CONTINUOUS
 62
     7
  5
496
 10
-0.393701
 20
5.26378
 30
0.0
 40
0.11811
 50
0.0
 51
90.0
  0
LINE
  8
0
  6
CONTINUOUS
 62
     7
  5
497
 10
-0.275591
 20
5.26378
 30
0.0
 11
-0.275591
 21
4.673228
 31
0.0
  0
LINE
  8
0
  6
CONTINUOUS
 62
     7
  5
498
 10
-0.905512
 20
4.673228
 30
0.0
 11
-0.905512
 21
5.26378
 31
0.0
  0
LINE
  8
0
  6
CONTINUOUS
 62
     7
  5
499
 10
-0.767717
 20
4.673228
 30
0.0
 11
-0.767717
 21
4.988189
 31
0.0
  0
LINE
  8
0
  6
CONTINUOUS
 62
     7
  5
49A
 10
-0.413386
 20
4.988189
 30
0.0
 11
-0.767717
 21
4.988189
 31
0.0
  0
LINE
  8
0
  6
CONTINUOUS
 62
     7
  5
49B
 10
-0.413386
 20
4.673228
 30
0.0
 11
-0.413386
 21
4.988189
 31
0.0
  0
ARC
  8
0
  6
CONTINUOUS
 62
     7
  5
49C
 10
0.393701
 20
4.917323
 30
0.0
 40
0.11811
 50
90.0
 51
180.0
  0
LINE
  8
0
  6
CONTINUOUS
 62
     7
  5
49D
 10
0.787402
 20
5.035433
 30
0.0
 11
0.393701
 21
5.035433
 31
0.0
  0
ARC
  8
0
  6
CONTINUOUS
 62
     7
  5
49E
 10
0.787402
 20
4.917323
 30
0.0
 40
0.11811
 50
0.0
 51
90.0
  0
LINE
  8
0
  6
CONTINUOUS
 62
     7
  5
49F
 10
0.905512
 20
4.917323
 30
0.0
 11
0.905512
 21
4.502619
 31
0.0
  0
LINE
  8
0
  6
CONTINUOUS
 62
     7
  5
4A0
 10
0.275591
 20
4.502619
 30
0.0
 11
0.275591
 21
4.917323
 31
0.0
  0
LINE
  8
0
  6
CONTINUOUS
 62
     7
  5
4A1
 10
0.413386
 20
4.502501
 30
0.0
 11
0.413386
 21
4.641732
 31
0.0
  0
LINE
  8
0
  6
CONTINUOUS
 62
     7
  5
4A2
 10
0.767717
 20
4.641732
 30
0.0
 11
0.413386
 21
4.641732
 31
0.0
  0
LINE
  8
0
  6
CONTINUOUS
 62
     7
  5
4A3
 10
0.767717
 20
4.502501
 30
0.0
 11
0.767717
 21
4.641732
 31
0.0
  0
LINE
  8
0
  6
CONTINUOUS
 62
     7
  5
4A4
 10
0.911341
 20
4.502658
 30
0.0
 11
0.913778
 21
4.502676
 31
0.0
  0
LINE
  8
0
  6
CONTINUOUS
 62
     7
  5
4A5
 10
0.913778
 20
4.502676
 30
0.0
 11
0.916191
 21
4.502696
 31
0.0
  0
LINE
  8
0
  6
CONTINUOUS
 62
     7
  5
4A6
 10
0.916191
 20
4.502696
 30
0.0
 11
0.918579
 21
4.502716
 31
0.0
  0
LINE
  8
0
  6
CONTINUOUS
 62
     7
  5
4A7
 10
0.918579
 20
4.502716
 30
0.0
 11
0.92094
 21
4.502737
 31
0.0
  0
LINE
  8
0
  6
CONTINUOUS
 62
     7
  5
4A8
 10
0.92094
 20
4.502737
 30
0.0
 11
0.923274
 21
4.502759
 31
0.0
  0
LINE
  8
0
  6
CONTINUOUS
 62
     7
  5
4A9
 10
0.923274
 20
4.502759
 30
0.0
 11
0.925579
 21
4.502781
 31
0.0
  0
LINE
  8
0
  6
CONTINUOUS
 62
     7
  5
4AA
 10
0.925579
 20
4.502781
 30
0.0
 11
0.927854
 21
4.502805
 31
0.0
  0
LINE
  8
0
  6
CONTINUOUS
 62
     7
  5
4AB
 10
0.927854
 20
4.502805
 30
0.0
 11
0.930098
 21
4.50283
 31
0.0
  0
LINE
  8
0
  6
CONTINUOUS
 62
     7
  5
4AC
 10
0.930098
 20
4.50283
 30
0.0
 11
0.93231
 21
4.502855
 31
0.0
  0
LINE
  8
0
  6
CONTINUOUS
 62
     7
  5
4AD
 10
0.93231
 20
4.502855
 30
0.0
 11
0.934489
 21
4.502882
 31
0.0
  0
LINE
  8
0
  6
CONTINUOUS
 62
     7
  5
4AE
 10
0.934489
 20
4.502882
 30
0.0
 11
0.936633
 21
4.502909
 31
0.0
  0
LINE
  8
0
  6
CONTINUOUS
 62
     7
  5
4AF
 10
0.936633
 20
4.502909
 30
0.0
 11
0.938742
 21
4.502937
 31
0.0
  0
LINE
  8
0
  6
CONTINUOUS
 62
     7
  5
4B0
 10
0.938742
 20
4.502937
 30
0.0
 11
0.940814
 21
4.502966
 31
0.0
  0
LINE
  8
0
  6
CONTINUOUS
 62
     7
  5
4B1
 10
0.940814
 20
4.502966
 30
0.0
 11
0.942848
 21
4.502995
 31
0.0
  0
LINE
  8
0
  6
CONTINUOUS
 62
     7
  5
4B2
 10
0.942848
 20
4.502995
 30
0.0
 11
0.944844
 21
4.503026
 31
0.0
  0
LINE
  8
0
  6
CONTINUOUS
 62
     7
  5
4B3
 10
0.944844
 20
4.503026
 30
0.0
 11
0.9468
 21
4.503057
 31
0.0
  0
LINE
  8
0
  6
CONTINUOUS
 62
     7
  5
4B4
 10
0.9468
 20
4.503057
 30
0.0
 11
0.948716
 21
4.503089
 31
0.0
  0
LINE
  8
0
  6
CONTINUOUS
 62
     7
  5
4B5
 10
0.948716
 20
4.503089
 30
0.0
 11
0.95059
 21
4.503122
 31
0.0
  0
LINE
  8
0
  6
CONTINUOUS
 62
     7
  5
4B6
 10
0.95059
 20
4.503122
 30
0.0
 11
0.952422
 21
4.503155
 31
0.0
  0
LINE
  8
0
  6
CONTINUOUS
 62
     7
  5
4B7
 10
0.952422
 20
4.503155
 30
0.0
 11
0.95421
 21
4.503189
 31
0.0
  0
LINE
  8
0
  6
CONTINUOUS
 62
     7
  5
4B8
 10
0.95421
 20
4.503189
 30
0.0
 11
0.955953
 21
4.503224
 31
0.0
  0
LINE
  8
0
  6
CONTINUOUS
 62
     7
  5
4B9
 10
0.955953
 20
4.503224
 30
0.0
 11
0.957652
 21
4.50326
 31
0.0
  0
LINE
  8
0
  6
CONTINUOUS
 62
     7
  5
4BA
 10
0.957652
 20
4.50326
 30
0.0
 11
0.959304
 21
4.503296
 31
0.0
  0
LINE
  8
0
  6
CONTINUOUS
 62
     7
  5
4BB
 10
0.959304
 20
4.503296
 30
0.0
 11
0.96091
 21
4.503333
 31
0.0
  0
LINE
  8
0
  6
CONTINUOUS
 62
     7
  5
4BC
 10
0.96091
 20
4.503333
 30
0.0
 11
0.962468
 21
4.50337
 31
0.0
  0
LINE
  8
0
  6
CONTINUOUS
 62
     7
  5
4BD
 10
0.962468
 20
4.50337
 30
0.0
 11
0.963977
 21
4.503408
 31
0.0
  0
LINE
  8
0
  6
CONTINUOUS
 62
     7
  5
4BE
 10
0.963977
 20
4.503408
 30
0.0
 11
0.965437
 21
4.503447
 31
0.0
  0
LINE
  8
0
  6
CONTINUOUS
 62
     7
  5
4BF
 10
0.965437
 20
4.503447
 30
0.0
 11
0.966847
 21
4.503486
 31
0.0
  0
LINE
  8
0
  6
CONTINUOUS
 62
     7
  5
4C0
 10
0.966847
 20
4.503486
 30
0.0
 11
0.968207
 21
4.503525
 31
0.0
  0
LINE
  8
0
  6
CONTINUOUS
 62
     7
  5
4C1
 10
0.968207
 20
4.503525
 30
0.0
 11
0.969515
 21
4.503566
 31
0.0
  0
LINE
  8
0
  6
CONTINUOUS
 62
     7
  5
4C2
 10
0.969515
 20
4.503566
 30
0.0
 11
0.97077
 21
4.503606
 31
0.0
  0
LINE
  8
0
  6
CONTINUOUS
 62
     7
  5
4C3
 10
0.97077
 20
4.503606
 30
0.0
 11
0.971974
 21
4.503648
 31
0.0
  0
LINE
  8
0
  6
CONTINUOUS
 62
     7
  5
4C4
 10
0.971974
 20
4.503648
 30
0.0
 11
0.973124
 21
4.503689
 31
0.0
  0
LINE
  8
0
  6
CONTINUOUS
 62
     7
  5
4C5
 10
0.973124
 20
4.503689
 30
0.0
 11
0.97422
 21
4.503731
 31
0.0
  0
LINE
  8
0
  6
CONTINUOUS
 62
     7
  5
4C6
 10
0.97422
 20
4.503731
 30
0.0
 11
0.975261
 21
4.503774
 31
0.0
  0
LINE
  8
0
  6
CONTINUOUS
 62
     7
  5
4C7
 10
0.984252
 20
4.518307
 30
0.0
 11
0.984252
 21
4.504563
 31
0.0
  0
LINE
  8
0
  6
CONTINUOUS
 62
     7
  5
4C8
 10
0.984252
 20
4.530677
 30
0.0
 11
0.984252
 21
4.518307
 31
0.0
  0
LINE
  8
0
  6
CONTINUOUS
 62
     7
  5
4C9
 10
0.984252
 20
4.504563
 30
0.0
 11
0.984133
 21
4.50447
 31
0.0
  0
LINE
  8
0
  6
CONTINUOUS
 62
     7
  5
4CA
 10
0.984133
 20
4.50447
 30
0.0
 11
0.983776
 21
4.504378
 31
0.0
  0
LINE
  8
0
  6
CONTINUOUS
 62
     7
  5
4CB
 10
0.983776
 20
4.504378
 30
0.0
 11
0.983183
 21
4.504286
 31
0.0
  0
LINE
  8
0
  6
CONTINUOUS
 62
     7
  5
4CC
 10
0.983183
 20
4.504286
 30
0.0
 11
0.982354
 21
4.504195
 31
0.0
  0
LINE
  8
0
  6
CONTINUOUS
 62
     7
  5
4CD
 10
0.982354
 20
4.504195
 30
0.0
 11
0.981291
 21
4.504104
 31
0.0
  0
LINE
  8
0
  6
CONTINUOUS
 62
     7
  5
4CE
 10
0.981291
 20
4.504104
 30
0.0
 11
0.979996
 21
4.504014
 31
0.0
  0
LINE
  8
0
  6
CONTINUOUS
 62
     7
  5
4CF
 10
0.979996
 20
4.504014
 30
0.0
 11
0.978471
 21
4.503926
 31
0.0
  0
LINE
  8
0
  6
CONTINUOUS
 62
     7
  5
4D0
 10
0.978471
 20
4.503926
 30
0.0
 11
0.976721
 21
4.503839
 31
0.0
  0
LINE
  8
0
  6
CONTINUOUS
 62
     7
  5
4D1
 10
0.976721
 20
4.503839
 30
0.0
 11
0.974747
 21
4.503753
 31
0.0
  0
LINE
  8
0
  6
CONTINUOUS
 62
     7
  5
4D2
 10
0.974747
 20
4.503753
 30
0.0
 11
0.972555
 21
4.503668
 31
0.0
  0
LINE
  8
0
  6
CONTINUOUS
 62
     7
  5
4D3
 10
0.972555
 20
4.503668
 30
0.0
 11
0.970149
 21
4.503586
 31
0.0
  0
LINE
  8
0
  6
CONTINUOUS
 62
     7
  5
4D4
 10
0.970149
 20
4.503586
 30
0.0
 11
0.967533
 21
4.503506
 31
0.0
  0
LINE
  8
0
  6
CONTINUOUS
 62
     7
  5
4D5
 10
0.967533
 20
4.503506
 30
0.0
 11
0.964713
 21
4.503427
 31
0.0
  0
LINE
  8
0
  6
CONTINUOUS
 62
     7
  5
4D6
 10
0.964713
 20
4.503427
 30
0.0
 11
0.961695
 21
4.503351
 31
0.0
  0
LINE
  8
0
  6
CONTINUOUS
 62
     7
  5
4D7
 10
0.961695
 20
4.503351
 30
0.0
 11
0.958484
 21
4.503278
 31
0.0
  0
LINE
  8
0
  6
CONTINUOUS
 62
     7
  5
4D8
 10
0.958484
 20
4.503278
 30
0.0
 11
0.955087
 21
4.503207
 31
0.0
  0
LINE
  8
0
  6
CONTINUOUS
 62
     7
  5
4D9
 10
0.955087
 20
4.503207
 30
0.0
 11
0.951511
 21
4.503138
 31
0.0
  0
LINE
  8
0
  6
CONTINUOUS
 62
     7
  5
4DA
 10
0.951511
 20
4.503138
 30
0.0
 11
0.947763
 21
4.503073
 31
0.0
  0
LINE
  8
0
  6
CONTINUOUS
 62
     7
  5
4DB
 10
0.947763
 20
4.503073
 30
0.0
 11
0.943851
 21
4.50301
 31
0.0
  0
LINE
  8
0
  6
CONTINUOUS
 62
     7
  5
4DC
 10
0.943851
 20
4.50301
 30
0.0
 11
0.939782
 21
4.502951
 31
0.0
  0
LINE
  8
0
  6
CONTINUOUS
 62
     7
  5
4DD
 10
0.939782
 20
4.502951
 30
0.0
 11
0.935565
 21
4.502895
 31
0.0
  0
LINE
  8
0
  6
CONTINUOUS
 62
     7
  5
4DE
 10
0.935565
 20
4.502895
 30
0.0
 11
0.931208
 21
4.502842
 31
0.0
  0
LINE
  8
0
  6
CONTINUOUS
 62
     7
  5
4DF
 10
0.931208
 20
4.502842
 30
0.0
 11
0.92672
 21
4.502793
 31
0.0
  0
LINE
  8
0
  6
CONTINUOUS
 62
     7
  5
4E0
 10
0.92672
 20
4.502793
 30
0.0
 11
0.92211
 21
4.502747
 31
0.0
  0
LINE
  8
0
  6
CONTINUOUS
 62
     7
  5
4E1
 10
0.92211
 20
4.502747
 30
0.0
 11
0.917388
 21
4.502705
 31
0.0
  0
LINE
  8
0
  6
CONTINUOUS
 62
     7
  5
4E2
 10
0.917388
 20
4.502705
 30
0.0
 11
0.912562
 21
4.502667
 31
0.0
  0
LINE
  8
0
  6
CONTINUOUS
 62
     7
  5
4E3
 10
0.912562
 20
4.502667
 30
0.0
 11
0.907643
 21
4.502633
 31
0.0
  0
LINE
  8
0
  6
CONTINUOUS
 62
     7
  5
4E4
 10
0.907643
 20
4.502633
 30
0.0
 11
0.90264
 21
4.502602
 31
0.0
  0
LINE
  8
0
  6
CONTINUOUS
 62
     7
  5
4E5
 10
0.90264
 20
4.502602
 30
0.0
 11
0.897563
 21
4.502576
 31
0.0
  0
LINE
  8
0
  6
CONTINUOUS
 62
     7
  5
4E6
 10
0.897563
 20
4.502576
 30
0.0
 11
0.892424
 21
4.502553
 31
0.0
  0
LINE
  8
0
  6
CONTINUOUS
 62
     7
  5
4E7
 10
0.892424
 20
4.502553
 30
0.0
 11
0.887231
 21
4.502534
 31
0.0
  0
LINE
  8
0
  6
CONTINUOUS
 62
     7
  5
4E8
 10
0.887231
 20
4.502534
 30
0.0
 11
0.881996
 21
4.50252
 31
0.0
  0
LINE
  8
0
  6
CONTINUOUS
 62
     7
  5
4E9
 10
0.881996
 20
4.50252
 30
0.0
 11
0.876729
 21
4.50251
 31
0.0
  0
LINE
  8
0
  6
CONTINUOUS
 62
     7
  5
4EA
 10
0.876729
 20
4.50251
 30
0.0
 11
0.871441
 21
4.502503
 31
0.0
  0
LINE
  8
0
  6
CONTINUOUS
 62
     7
  5
4EB
 10
0.871441
 20
4.502503
 30
0.0
 11
0.866142
 21
4.502501
 31
0.0
  0
LINE
  8
0
  6
CONTINUOUS
 62
     7
  5
4EC
 10
0.866142
 20
4.502501
 30
0.0
 11
0.314961
 21
4.502501
 31
0.0
  0
LINE
  8
0
  6
CONTINUOUS
 62
     7
  5
4ED
 10
0.314961
 20
4.502501
 30
0.0
 11
0.309662
 21
4.502503
 31
0.0
  0
LINE
  8
0
  6
CONTINUOUS
 62
     7
  5
4EE
 10
0.309662
 20
4.502503
 30
0.0
 11
0.304373
 21
4.50251
 31
0.0
  0
LINE
  8
0
  6
CONTINUOUS
 62
     7
  5
4EF
 10
0.304373
 20
4.50251
 30
0.0
 11
0.299106
 21
4.50252
 31
0.0
  0
LINE
  8
0
  6
CONTINUOUS
 62
     7
  5
4F0
 10
0.299106
 20
4.50252
 30
0.0
 11
0.293871
 21
4.502534
 31
0.0
  0
LINE
  8
0
  6
CONTINUOUS
 62
     7
  5
4F1
 10
0.293871
 20
4.502534
 30
0.0
 11
0.288679
 21
4.502553
 31
0.0
  0
LINE
  8
0
  6
CONTINUOUS
 62
     7
  5
4F2
 10
0.288679
 20
4.502553
 30
0.0
 11
0.283539
 21
4.502576
 31
0.0
  0
LINE
  8
0
  6
CONTINUOUS
 62
     7
  5
4F3
 10
0.283539
 20
4.502576
 30
0.0
 11
0.278463
 21
4.502602
 31
0.0
  0
LINE
  8
0
  6
CONTINUOUS
 62
     7
  5
4F4
 10
0.278463
 20
4.502602
 30
0.0
 11
0.27346
 21
4.502633
 31
0.0
  0
LINE
  8
0
  6
CONTINUOUS
 62
     7
  5
4F5
 10
0.27346
 20
4.502633
 30
0.0
 11
0.26854
 21
4.502667
 31
0.0
  0
LINE
  8
0
  6
CONTINUOUS
 62
     7
  5
4F6
 10
0.26854
 20
4.502667
 30
0.0
 11
0.263715
 21
4.502705
 31
0.0
  0
LINE
  8
0
  6
CONTINUOUS
 62
     7
  5
4F7
 10
0.263715
 20
4.502705
 30
0.0
 11
0.258992
 21
4.502747
 31
0.0
  0
LINE
  8
0
  6
CONTINUOUS
 62
     7
  5
4F8
 10
0.258992
 20
4.502747
 30
0.0
 11
0.254382
 21
4.502793
 31
0.0
  0
LINE
  8
0
  6
CONTINUOUS
 62
     7
  5
4F9
 10
0.254382
 20
4.502793
 30
0.0
 11
0.249894
 21
4.502842
 31
0.0
  0
LINE
  8
0
  6
CONTINUOUS
 62
     7
  5
4FA
 10
0.249894
 20
4.502842
 30
0.0
 11
0.245537
 21
4.502895
 31
0.0
  0
LINE
  8
0
  6
CONTINUOUS
 62
     7
  5
4FB
 10
0.245537
 20
4.502895
 30
0.0
 11
0.24132
 21
4.502951
 31
0.0
  0
LINE
  8
0
  6
CONTINUOUS
 62
     7
  5
4FC
 10
0.24132
 20
4.502951
 30
0.0
 11
0.237251
 21
4.50301
 31
0.0
  0
LINE
  8
0
  6
CONTINUOUS
 62
     7
  5
4FD
 10
0.237251
 20
4.50301
 30
0.0
 11
0.233339
 21
4.503073
 31
0.0
  0
LINE
  8
0
  6
CONTINUOUS
 62
     7
  5
4FE
 10
0.233339
 20
4.503073
 30
0.0
 11
0.229591
 21
4.503138
 31
0.0
  0
LINE
  8
0
  6
CONTINUOUS
 62
     7
  5
4FF
 10
0.229591
 20
4.503138
 30
0.0
 11
0.226015
 21
4.503207
 31
0.0
  0
LINE
  8
0
  6
CONTINUOUS
 62
     7
  5
500
 10
0.226015
 20
4.503207
 30
0.0
 11
0.222618
 21
4.503278
 31
0.0
  0
LINE
  8
0
  6
CONTINUOUS
 62
     7
  5
501
 10
0.222618
 20
4.503278
 30
0.0
 11
0.219407
 21
4.503351
 31
0.0
  0
LINE
  8
0
  6
CONTINUOUS
 62
     7
  5
502
 10
0.219407
 20
4.503351
 30
0.0
 11
0.216389
 21
4.503427
 31
0.0
  0
LINE
  8
0
  6
CONTINUOUS
 62
     7
  5
503
 10
0.216389
 20
4.503427
 30
0.0
 11
0.213569
 21
4.503506
 31
0.0
  0
LINE
  8
0
  6
CONTINUOUS
 62
     7
  5
504
 10
0.213569
 20
4.503506
 30
0.0
 11
0.210953
 21
4.503586
 31
0.0
  0
LINE
  8
0
  6
CONTINUOUS
 62
     7
  5
505
 10
0.210953
 20
4.503586
 30
0.0
 11
0.208547
 21
4.503668
 31
0.0
  0
LINE
  8
0
  6
CONTINUOUS
 62
     7
  5
506
 10
0.208547
 20
4.503668
 30
0.0
 11
0.206355
 21
4.503753
 31
0.0
  0
LINE
  8
0
  6
CONTINUOUS
 62
     7
  5
507
 10
0.206355
 20
4.503753
 30
0.0
 11
0.204382
 21
4.503839
 31
0.0
  0
LINE
  8
0
  6
CONTINUOUS
 62
     7
  5
508
 10
0.204382
 20
4.503839
 30
0.0
 11
0.202631
 21
4.503926
 31
0.0
  0
LINE
  8
0
  6
CONTINUOUS
 62
     7
  5
509
 10
0.202631
 20
4.503926
 30
0.0
 11
0.201107
 21
4.504014
 31
0.0
  0
LINE
  8
0
  6
CONTINUOUS
 62
     7
  5
50A
 10
0.201107
 20
4.504014
 30
0.0
 11
0.199812
 21
4.504104
 31
0.0
  0
LINE
  8
0
  6
CONTINUOUS
 62
     7
  5
50B
 10
0.199812
 20
4.504104
 30
0.0
 11
0.198748
 21
4.504195
 31
0.0
  0
LINE
  8
0
  6
CONTINUOUS
 62
     7
  5
50C
 10
0.198748
 20
4.504195
 30
0.0
 11
0.197919
 21
4.504286
 31
0.0
  0
LINE
  8
0
  6
CONTINUOUS
 62
     7
  5
50D
 10
0.197919
 20
4.504286
 30
0.0
 11
0.197326
 21
4.504378
 31
0.0
  0
LINE
  8
0
  6
CONTINUOUS
 62
     7
  5
50E
 10
0.197326
 20
4.504378
 30
0.0
 11
0.196969
 21
4.50447
 31
0.0
  0
LINE
  8
0
  6
CONTINUOUS
 62
     7
  5
50F
 10
0.196969
 20
4.50447
 30
0.0
 11
0.19685
 21
4.504563
 31
0.0
  0
LINE
  8
0
  6
CONTINUOUS
 62
     7
  5
510
 10
0.19685
 20
4.518307
 30
0.0
 11
0.19685
 21
4.530677
 31
0.0
  0
LINE
  8
0
  6
CONTINUOUS
 62
     7
  5
511
 10
0.19685
 20
4.504563
 30
0.0
 11
0.19685
 21
4.518307
 31
0.0
  0
LINE
  8
0
  6
CONTINUOUS
 62
     7
  5
512
 10
-0.19685
 20
4.530677
 30
0.0
 11
0.0
 21
4.530677
 31
0.0
  0
LINE
  8
0
  6
CONTINUOUS
 62
     7
  5
513
 10
-0.19685
 20
4.504563
 30
0.0
 11
-0.196969
 21
4.50447
 31
0.0
  0
LINE
  8
0
  6
CONTINUOUS
 62
     7
  5
514
 10
-0.196969
 20
4.50447
 30
0.0
 11
-0.197326
 21
4.504378
 31
0.0
  0
LINE
  8
0
  6
CONTINUOUS
 62
     7
  5
515
 10
-0.197326
 20
4.504378
 30
0.0
 11
-0.197919
 21
4.504286
 31
0.0
  0
LINE
  8
0
  6
CONTINUOUS
 62
     7
  5
516
 10
-0.197919
 20
4.504286
 30
0.0
 11
-0.198748
 21
4.504195
 31
0.0
  0
LINE
  8
0
  6
CONTINUOUS
 62
     7
  5
517
 10
-0.198748
 20
4.504195
 30
0.0
 11
-0.199812
 21
4.504104
 31
0.0
  0
LINE
  8
0
  6
CONTINUOUS
 62
     7
  5
518
 10
-0.199812
 20
4.504104
 30
0.0
 11
-0.201107
 21
4.504014
 31
0.0
  0
LINE
  8
0
  6
CONTINUOUS
 62
     7
  5
519
 10
-0.201107
 20
4.504014
 30
0.0
 11
-0.202631
 21
4.503926
 31
0.0
  0
LINE
  8
0
  6
CONTINUOUS
 62
     7
  5
51A
 10
-0.202631
 20
4.503926
 30
0.0
 11
-0.204382
 21
4.503839
 31
0.0
  0
LINE
  8
0
  6
CONTINUOUS
 62
     7
  5
51B
 10
-0.204382
 20
4.503839
 30
0.0
 11
-0.206355
 21
4.503753
 31
0.0
  0
LINE
  8
0
  6
CONTINUOUS
 62
     7
  5
51C
 10
-0.206355
 20
4.503753
 30
0.0
 11
-0.208547
 21
4.503668
 31
0.0
  0
LINE
  8
0
  6
CONTINUOUS
 62
     7
  5
51D
 10
-0.208547
 20
4.503668
 30
0.0
 11
-0.210953
 21
4.503586
 31
0.0
  0
LINE
  8
0
  6
CONTINUOUS
 62
     7
  5
51E
 10
-0.210953
 20
4.503586
 30
0.0
 11
-0.213569
 21
4.503506
 31
0.0
  0
LINE
  8
0
  6
CONTINUOUS
 62
     7
  5
51F
 10
-0.213569
 20
4.503506
 30
0.0
 11
-0.216389
 21
4.503427
 31
0.0
  0
LINE
  8
0
  6
CONTINUOUS
 62
     7
  5
520
 10
-0.216389
 20
4.503427
 30
0.0
 11
-0.219407
 21
4.503351
 31
0.0
  0
LINE
  8
0
  6
CONTINUOUS
 62
     7
  5
521
 10
-0.219407
 20
4.503351
 30
0.0
 11
-0.222618
 21
4.503278
 31
0.0
  0
LINE
  8
0
  6
CONTINUOUS
 62
     7
  5
522
 10
-0.222618
 20
4.503278
 30
0.0
 11
-0.226015
 21
4.503207
 31
0.0
  0
LINE
  8
0
  6
CONTINUOUS
 62
     7
  5
523
 10
-0.226015
 20
4.503207
 30
0.0
 11
-0.229591
 21
4.503138
 31
0.0
  0
LINE
  8
0
  6
CONTINUOUS
 62
     7
  5
524
 10
-0.229591
 20
4.503138
 30
0.0
 11
-0.233339
 21
4.503073
 31
0.0
  0
LINE
  8
0
  6
CONTINUOUS
 62
     7
  5
525
 10
-0.233339
 20
4.503073
 30
0.0
 11
-0.237251
 21
4.50301
 31
0.0
  0
LINE
  8
0
  6
CONTINUOUS
 62
     7
  5
526
 10
-0.237251
 20
4.50301
 30
0.0
 11
-0.24132
 21
4.502951
 31
0.0
  0
LINE
  8
0
  6
CONTINUOUS
 62
     7
  5
527
 10
-0.24132
 20
4.502951
 30
0.0
 11
-0.245537
 21
4.502895
 31
0.0
  0
LINE
  8
0
  6
CONTINUOUS
 62
     7
  5
528
 10
-0.245537
 20
4.502895
 30
0.0
 11
-0.249894
 21
4.502842
 31
0.0
  0
LINE
  8
0
  6
CONTINUOUS
 62
     7
  5
529
 10
-0.249894
 20
4.502842
 30
0.0
 11
-0.254382
 21
4.502793
 31
0.0
  0
LINE
  8
0
  6
CONTINUOUS
 62
     7
  5
52A
 10
-0.254382
 20
4.502793
 30
0.0
 11
-0.258992
 21
4.502747
 31
0.0
  0
LINE
  8
0
  6
CONTINUOUS
 62
     7
  5
52B
 10
-0.258992
 20
4.502747
 30
0.0
 11
-0.263715
 21
4.502705
 31
0.0
  0
LINE
  8
0
  6
CONTINUOUS
 62
     7
  5
52C
 10
-0.263715
 20
4.502705
 30
0.0
 11
-0.26854
 21
4.502667
 31
0.0
  0
LINE
  8
0
  6
CONTINUOUS
 62
     7
  5
52D
 10
-0.26854
 20
4.502667
 30
0.0
 11
-0.27346
 21
4.502633
 31
0.0
  0
LINE
  8
0
  6
CONTINUOUS
 62
     7
  5
52E
 10
-0.27346
 20
4.502633
 30
0.0
 11
-0.278463
 21
4.502602
 31
0.0
  0
LINE
  8
0
  6
CONTINUOUS
 62
     7
  5
52F
 10
-0.278463
 20
4.502602
 30
0.0
 11
-0.283539
 21
4.502576
 31
0.0
  0
LINE
  8
0
  6
CONTINUOUS
 62
     7
  5
530
 10
-0.283539
 20
4.502576
 30
0.0
 11
-0.288679
 21
4.502553
 31
0.0
  0
LINE
  8
0
  6
CONTINUOUS
 62
     7
  5
531
 10
-0.288679
 20
4.502553
 30
0.0
 11
-0.293871
 21
4.502534
 31
0.0
  0
LINE
  8
0
  6
CONTINUOUS
 62
     7
  5
532
 10
-0.293871
 20
4.502534
 30
0.0
 11
-0.299106
 21
4.50252
 31
0.0
  0
LINE
  8
0
  6
CONTINUOUS
 62
     7
  5
533
 10
-0.299106
 20
4.50252
 30
0.0
 11
-0.304373
 21
4.50251
 31
0.0
  0
LINE
  8
0
  6
CONTINUOUS
 62
     7
  5
534
 10
-0.304373
 20
4.50251
 30
0.0
 11
-0.309662
 21
4.502503
 31
0.0
  0
LINE
  8
0
  6
CONTINUOUS
 62
     7
  5
535
 10
-0.309662
 20
4.502503
 30
0.0
 11
-0.314961
 21
4.502501
 31
0.0
  0
LINE
  8
0
  6
CONTINUOUS
 62
     7
  5
536
 10
-0.314961
 20
4.502501
 30
0.0
 11
-0.866142
 21
4.502501
 31
0.0
  0
LINE
  8
0
  6
CONTINUOUS
 62
     7
  5
537
 10
-0.866142
 20
4.502501
 30
0.0
 11
-0.871441
 21
4.502503
 31
0.0
  0
LINE
  8
0
  6
CONTINUOUS
 62
     7
  5
538
 10
-0.871441
 20
4.502503
 30
0.0
 11
-0.876729
 21
4.50251
 31
0.0
  0
LINE
  8
0
  6
CONTINUOUS
 62
     7
  5
539
 10
-0.876729
 20
4.50251
 30
0.0
 11
-0.881996
 21
4.50252
 31
0.0
  0
LINE
  8
0
  6
CONTINUOUS
 62
     7
  5
53A
 10
-0.881996
 20
4.50252
 30
0.0
 11
-0.887231
 21
4.502534
 31
0.0
  0
LINE
  8
0
  6
CONTINUOUS
 62
     7
  5
53B
 10
-0.887231
 20
4.502534
 30
0.0
 11
-0.892424
 21
4.502553
 31
0.0
  0
LINE
  8
0
  6
CONTINUOUS
 62
     7
  5
53C
 10
-0.892424
 20
4.502553
 30
0.0
 11
-0.897563
 21
4.502576
 31
0.0
  0
LINE
  8
0
  6
CONTINUOUS
 62
     7
  5
53D
 10
-0.897563
 20
4.502576
 30
0.0
 11
-0.90264
 21
4.502602
 31
0.0
  0
LINE
  8
0
  6
CONTINUOUS
 62
     7
  5
53E
 10
-0.90264
 20
4.502602
 30
0.0
 11
-0.907643
 21
4.502633
 31
0.0
  0
LINE
  8
0
  6
CONTINUOUS
 62
     7
  5
53F
 10
-0.907643
 20
4.502633
 30
0.0
 11
-0.912562
 21
4.502667
 31
0.0
  0
LINE
  8
0
  6
CONTINUOUS
 62
     7
  5
540
 10
-0.912562
 20
4.502667
 30
0.0
 11
-0.917388
 21
4.502705
 31
0.0
  0
LINE
  8
0
  6
CONTINUOUS
 62
     7
  5
541
 10
-0.917388
 20
4.502705
 30
0.0
 11
-0.92211
 21
4.502747
 31
0.0
  0
LINE
  8
0
  6
CONTINUOUS
 62
     7
  5
542
 10
-0.92211
 20
4.502747
 30
0.0
 11
-0.92672
 21
4.502793
 31
0.0
  0
LINE
  8
0
  6
CONTINUOUS
 62
     7
  5
543
 10
-0.92672
 20
4.502793
 30
0.0
 11
-0.931208
 21
4.502842
 31
0.0
  0
LINE
  8
0
  6
CONTINUOUS
 62
     7
  5
544
 10
-0.931208
 20
4.502842
 30
0.0
 11
-0.935565
 21
4.502895
 31
0.0
  0
LINE
  8
0
  6
CONTINUOUS
 62
     7
  5
545
 10
-0.935565
 20
4.502895
 30
0.0
 11
-0.939782
 21
4.502951
 31
0.0
  0
LINE
  8
0
  6
CONTINUOUS
 62
     7
  5
546
 10
-0.939782
 20
4.502951
 30
0.0
 11
-0.943851
 21
4.50301
 31
0.0
  0
LINE
  8
0
  6
CONTINUOUS
 62
     7
  5
547
 10
-0.943851
 20
4.50301
 30
0.0
 11
-0.947763
 21
4.503073
 31
0.0
  0
LINE
  8
0
  6
CONTINUOUS
 62
     7
  5
548
 10
-0.947763
 20
4.503073
 30
0.0
 11
-0.951511
 21
4.503138
 31
0.0
  0
LINE
  8
0
  6
CONTINUOUS
 62
     7
  5
549
 10
-0.951511
 20
4.503138
 30
0.0
 11
-0.955087
 21
4.503207
 31
0.0
  0
LINE
  8
0
  6
CONTINUOUS
 62
     7
  5
54A
 10
-0.955087
 20
4.503207
 30
0.0
 11
-0.958484
 21
4.503278
 31
0.0
  0
LINE
  8
0
  6
CONTINUOUS
 62
     7
  5
54B
 10
-0.958484
 20
4.503278
 30
0.0
 11
-0.961695
 21
4.503351
 31
0.0
  0
LINE
  8
0
  6
CONTINUOUS
 62
     7
  5
54C
 10
-0.961695
 20
4.503351
 30
0.0
 11
-0.964713
 21
4.503427
 31
0.0
  0
LINE
  8
0
  6
CONTINUOUS
 62
     7
  5
54D
 10
-0.964713
 20
4.503427
 30
0.0
 11
-0.967533
 21
4.503506
 31
0.0
  0
LINE
  8
0
  6
CONTINUOUS
 62
     7
  5
54E
 10
-0.967533
 20
4.503506
 30
0.0
 11
-0.970149
 21
4.503586
 31
0.0
  0
LINE
  8
0
  6
CONTINUOUS
 62
     7
  5
54F
 10
-0.970149
 20
4.503586
 30
0.0
 11
-0.972555
 21
4.503668
 31
0.0
  0
LINE
  8
0
  6
CONTINUOUS
 62
     7
  5
550
 10
-0.972555
 20
4.503668
 30
0.0
 11
-0.974747
 21
4.503753
 31
0.0
  0
LINE
  8
0
  6
CONTINUOUS
 62
     7
  5
551
 10
-0.974747
 20
4.503753
 30
0.0
 11
-0.976721
 21
4.503839
 31
0.0
  0
LINE
  8
0
  6
CONTINUOUS
 62
     7
  5
552
 10
-0.976721
 20
4.503839
 30
0.0
 11
-0.978471
 21
4.503926
 31
0.0
  0
LINE
  8
0
  6
CONTINUOUS
 62
     7
  5
553
 10
-0.978471
 20
4.503926
 30
0.0
 11
-0.979996
 21
4.504014
 31
0.0
  0
LINE
  8
0
  6
CONTINUOUS
 62
     7
  5
554
 10
-0.979996
 20
4.504014
 30
0.0
 11
-0.981291
 21
4.504104
 31
0.0
  0
LINE
  8
0
  6
CONTINUOUS
 62
     7
  5
555
 10
-0.981291
 20
4.504104
 30
0.0
 11
-0.982354
 21
4.504195
 31
0.0
  0
LINE
  8
0
  6
CONTINUOUS
 62
     7
  5
556
 10
-0.982354
 20
4.504195
 30
0.0
 11
-0.983183
 21
4.504286
 31
0.0
  0
LINE
  8
0
  6
CONTINUOUS
 62
     7
  5
557
 10
-0.983183
 20
4.504286
 30
0.0
 11
-0.983776
 21
4.504378
 31
0.0
  0
LINE
  8
0
  6
CONTINUOUS
 62
     7
  5
558
 10
-0.983776
 20
4.504378
 30
0.0
 11
-0.984133
 21
4.50447
 31
0.0
  0
LINE
  8
0
  6
CONTINUOUS
 62
     7
  5
559
 10
-0.984133
 20
4.50447
 30
0.0
 11
-0.984252
 21
4.504563
 31
0.0
  0
LINE
  8
0
  6
CONTINUOUS
 62
     7
  5
55A
 10
-1.366142
 20
4.530677
 30
0.0
 11
-0.984252
 21
4.530677
 31
0.0
  0
LINE
  8
0
  6
CONTINUOUS
 62
     7
  5
55B
 10
-1.188976
 20
4.518307
 30
0.0
 11
-1.366142
 21
4.518307
 31
0.0
  0
LINE
  8
0
  6
CONTINUOUS
 62
     7
  5
55C
 10
-1.188976
 20
4.499752
 30
0.0
 11
1.188976
 21
4.499752
 31
0.0
  0
LINE
  8
0
  6
CONTINUOUS
 62
     7
  5
55D
 10
0.0
 20
4.530677
 30
0.0
 11
0.19685
 21
4.530677
 31
0.0
  0
LINE
  8
0
  6
CONTINUOUS
 62
     7
  5
55E
 10
1.366142
 20
4.518307
 30
0.0
 11
1.188976
 21
4.518307
 31
0.0
  0
LINE
  8
0
  6
CONTINUOUS
 62
     7
  5
55F
 10
0.984252
 20
4.530677
 30
0.0
 11
1.366142
 21
4.530677
 31
0.0
  0
LINE
  8
0
  6
CONTINUOUS
 62
     7
  5
560
 10
-0.984252
 20
4.673228
 30
0.0
 11
-0.984252
 21
4.504563
 31
0.0
  0
LINE
  8
0
  6
CONTINUOUS
 62
     7
  5
561
 10
-0.984252
 20
4.673228
 30
0.0
 11
-0.866142
 21
4.673228
 31
0.0
  0
LINE
  8
0
  6
CONTINUOUS
 62
     7
  5
562
 10
-0.866142
 20
4.673228
 30
0.0
 11
-0.314961
 21
4.673228
 31
0.0
  0
LINE
  8
0
  6
CONTINUOUS
 62
     7
  5
563
 10
-0.19685
 20
4.673228
 30
0.0
 11
-0.19685
 21
4.504563
 31
0.0
  0
LINE
  8
0
  6
CONTINUOUS
 62
     7
  5
564
 10
-0.314961
 20
4.673228
 30
0.0
 11
-0.19685
 21
4.673228
 31
0.0
  0
LINE
  8
0
  6
CONTINUOUS
 62
     7
  5
565
 10
1.4052
 20
2.648299
 30
0.0
 11
1.4052
 21
2.864299
 31
0.0
  0
LINE
  8
0
  6
CONTINUOUS
 62
     7
  5
566
 10
1.43
 20
2.673099
 30
0.0
 11
1.43
 21
2.839499
 31
0.0
  0
LINE
  8
0
  6
CONTINUOUS
 62
     7
  5
567
 10
-1.31344
 20
3.009179
 30
0.0
 11
-1.314525
 21
3.007277
 31
0.0
  0
LINE
  8
0
  6
CONTINUOUS
 62
     7
  5
568
 10
-1.314525
 20
3.007277
 30
0.0
 11
-1.315579
 21
3.005387
 31
0.0
  0
LINE
  8
0
  6
CONTINUOUS
 62
     7
  5
569
 10
-1.315579
 20
3.005387
 30
0.0
 11
-1.3166
 21
3.003509
 31
0.0
  0
LINE
  8
0
  6
CONTINUOUS
 62
     7
  5
56A
 10
-1.3166
 20
3.003509
 30
0.0
 11
-1.31759
 21
3.001642
 31
0.0
  0
LINE
  8
0
  6
CONTINUOUS
 62
     7
  5
56B
 10
-1.31759
 20
3.001642
 30
0.0
 11
-1.318549
 21
2.999786
 31
0.0
  0
LINE
  8
0
  6
CONTINUOUS
 62
     7
  5
56C
 10
-1.318549
 20
2.999786
 30
0.0
 11
-1.319477
 21
2.997939
 31
0.0
  0
LINE
  8
0
  6
CONTINUOUS
 62
     7
  5
56D
 10
-1.319477
 20
2.997939
 30
0.0
 11
-1.320374
 21
2.996102
 31
0.0
  0
LINE
  8
0
  6
CONTINUOUS
 62
     7
  5
56E
 10
-1.320374
 20
2.996102
 30
0.0
 11
-1.321239
 21
2.994273
 31
0.0
  0
LINE
  8
0
  6
CONTINUOUS
 62
     7
  5
56F
 10
-1.321239
 20
2.994273
 30
0.0
 11
-1.322075
 21
2.992452
 31
0.0
  0
LINE
  8
0
  6
CONTINUOUS
 62
     7
  5
570
 10
-1.322075
 20
2.992452
 30
0.0
 11
-1.32288
 21
2.990638
 31
0.0
  0
LINE
  8
0
  6
CONTINUOUS
 62
     7
  5
571
 10
-1.32288
 20
2.990638
 30
0.0
 11
-1.323654
 21
2.988832
 31
0.0
  0
LINE
  8
0
  6
CONTINUOUS
 62
     7
  5
572
 10
-1.323654
 20
2.988832
 30
0.0
 11
-1.324398
 21
2.987032
 31
0.0
  0
LINE
  8
0
  6
CONTINUOUS
 62
     7
  5
573
 10
-1.324398
 20
2.987032
 30
0.0
 11
-1.325112
 21
2.985237
 31
0.0
  0
LINE
  8
0
  6
CONTINUOUS
 62
     7
  5
574
 10
-1.325112
 20
2.985237
 30
0.0
 11
-1.325795
 21
2.983448
 31
0.0
  0
LINE
  8
0
  6
CONTINUOUS
 62
     7
  5
575
 10
-1.325795
 20
2.983448
 30
0.0
 11
-1.326448
 21
2.981663
 31
0.0
  0
LINE
  8
0
  6
CONTINUOUS
 62
     7
  5
576
 10
-1.326448
 20
2.981663
 30
0.0
 11
-1.327071
 21
2.979882
 31
0.0
  0
LINE
  8
0
  6
CONTINUOUS
 62
     7
  5
577
 10
-1.327071
 20
2.979882
 30
0.0
 11
-1.327664
 21
2.978104
 31
0.0
  0
LINE
  8
0
  6
CONTINUOUS
 62
     7
  5
578
 10
-1.327664
 20
2.978104
 30
0.0
 11
-1.328227
 21
2.976329
 31
0.0
  0
LINE
  8
0
  6
CONTINUOUS
 62
     7
  5
579
 10
-1.328227
 20
2.976329
 30
0.0
 11
-1.328759
 21
2.974556
 31
0.0
  0
LINE
  8
0
  6
CONTINUOUS
 62
     7
  5
57A
 10
-1.328759
 20
2.974556
 30
0.0
 11
-1.329261
 21
2.972785
 31
0.0
  0
LINE
  8
0
  6
CONTINUOUS
 62
     7
  5
57B
 10
-1.329261
 20
2.972785
 30
0.0
 11
-1.329732
 21
2.971015
 31
0.0
  0
LINE
  8
0
  6
CONTINUOUS
 62
     7
  5
57C
 10
-1.329732
 20
2.971015
 30
0.0
 11
-1.330173
 21
2.969245
 31
0.0
  0
LINE
  8
0
  6
CONTINUOUS
 62
     7
  5
57D
 10
-1.330173
 20
2.969245
 30
0.0
 11
-1.330582
 21
2.967474
 31
0.0
  0
LINE
  8
0
  6
CONTINUOUS
 62
     7
  5
57E
 10
-1.330582
 20
2.967474
 30
0.0
 11
-1.330961
 21
2.965703
 31
0.0
  0
LINE
  8
0
  6
CONTINUOUS
 62
     7
  5
57F
 10
-1.330961
 20
2.965703
 30
0.0
 11
-1.331308
 21
2.96393
 31
0.0
  0
LINE
  8
0
  6
CONTINUOUS
 62
     7
  5
580
 10
-1.331308
 20
2.96393
 30
0.0
 11
-1.331624
 21
2.962155
 31
0.0
  0
LINE
  8
0
  6
CONTINUOUS
 62
     7
  5
581
 10
-1.331624
 20
2.962155
 30
0.0
 11
-1.331909
 21
2.960377
 31
0.0
  0
LINE
  8
0
  6
CONTINUOUS
 62
     7
  5
582
 10
-1.331909
 20
2.960377
 30
0.0
 11
-1.332161
 21
2.958595
 31
0.0
  0
LINE
  8
0
  6
CONTINUOUS
 62
     7
  5
583
 10
-1.332161
 20
2.958595
 30
0.0
 11
-1.332381
 21
2.956809
 31
0.0
  0
LINE
  8
0
  6
CONTINUOUS
 62
     7
  5
584
 10
-1.332381
 20
2.956809
 30
0.0
 11
-1.332568
 21
2.955017
 31
0.0
  0
LINE
  8
0
  6
CONTINUOUS
 62
     7
  5
585
 10
-1.332568
 20
2.955017
 30
0.0
 11
-1.332722
 21
2.95322
 31
0.0
  0
LINE
  8
0
  6
CONTINUOUS
 62
     7
  5
586
 10
-1.332722
 20
2.95322
 30
0.0
 11
-1.332843
 21
2.951417
 31
0.0
  0
LINE
  8
0
  6
CONTINUOUS
 62
     7
  5
587
 10
-1.332843
 20
2.951417
 30
0.0
 11
-1.33293
 21
2.949606
 31
0.0
  0
LINE
  8
0
  6
CONTINUOUS
 62
     7
  5
588
 10
-1.33293
 20
2.949606
 30
0.0
 11
-1.332982
 21
2.947787
 31
0.0
  0
LINE
  8
0
  6
CONTINUOUS
 62
     7
  5
589
 10
-1.332982
 20
2.947787
 30
0.0
 11
-1.333
 21
2.945959
 31
0.0
  0
LINE
  8
0
  6
CONTINUOUS
 62
     7
  5
58A
 10
-1.333
 20
2.945959
 30
0.0
 11
-1.333
 21
2.975299
 31
0.0
  0
LINE
  8
0
  6
CONTINUOUS
 62
     7
  5
58B
 10
-1.31344
 20
2.882739
 30
0.0
 11
-1.314525
 21
2.878935
 31
0.0
  0
LINE
  8
0
  6
CONTINUOUS
 62
     7
  5
58C
 10
-1.314525
 20
2.878935
 30
0.0
 11
-1.315579
 21
2.875156
 31
0.0
  0
LINE
  8
0
  6
CONTINUOUS
 62
     7
  5
58D
 10
-1.315579
 20
2.875156
 30
0.0
 11
-1.3166
 21
2.8714
 31
0.0
  0
LINE
  8
0
  6
CONTINUOUS
 62
     7
  5
58E
 10
-1.3166
 20
2.8714
 30
0.0
 11
-1.31759
 21
2.867666
 31
0.0
  0
LINE
  8
0
  6
CONTINUOUS
 62
     7
  5
58F
 10
-1.31759
 20
2.867666
 30
0.0
 11
-1.318549
 21
2.863953
 31
0.0
  0
LINE
  8
0
  6
CONTINUOUS
 62
     7
  5
590
 10
-1.318549
 20
2.863953
 30
0.0
 11
-1.319477
 21
2.86026
 31
0.0
  0
LINE
  8
0
  6
CONTINUOUS
 62
     7
  5
591
 10
-1.319477
 20
2.86026
 30
0.0
 11
-1.320374
 21
2.856585
 31
0.0
  0
LINE
  8
0
  6
CONTINUOUS
 62
     7
  5
592
 10
-1.320374
 20
2.856585
 30
0.0
 11
-1.321239
 21
2.852927
 31
0.0
  0
LINE
  8
0
  6
CONTINUOUS
 62
     7
  5
593
 10
-1.321239
 20
2.852927
 30
0.0
 11
-1.322075
 21
2.849285
 31
0.0
  0
LINE
  8
0
  6
CONTINUOUS
 62
     7
  5
594
 10
-1.322075
 20
2.849285
 30
0.0
 11
-1.32288
 21
2.845658
 31
0.0
  0
LINE
  8
0
  6
CONTINUOUS
 62
     7
  5
595
 10
-1.32288
 20
2.845658
 30
0.0
 11
-1.323654
 21
2.842045
 31
0.0
  0
LINE
  8
0
  6
CONTINUOUS
 62
     7
  5
596
 10
-1.323654
 20
2.842045
 30
0.0
 11
-1.324398
 21
2.838445
 31
0.0
  0
LINE
  8
0
  6
CONTINUOUS
 62
     7
  5
597
 10
-1.324398
 20
2.838445
 30
0.0
 11
-1.325112
 21
2.834856
 31
0.0
  0
LINE
  8
0
  6
CONTINUOUS
 62
     7
  5
598
 10
-1.325112
 20
2.834856
 30
0.0
 11
-1.325795
 21
2.831277
 31
0.0
  0
LINE
  8
0
  6
CONTINUOUS
 62
     7
  5
599
 10
-1.325795
 20
2.831277
 30
0.0
 11
-1.326448
 21
2.827707
 31
0.0
  0
LINE
  8
0
  6
CONTINUOUS
 62
     7
  5
59A
 10
-1.326448
 20
2.827707
 30
0.0
 11
-1.327071
 21
2.824145
 31
0.0
  0
LINE
  8
0
  6
CONTINUOUS
 62
     7
  5
59B
 10
-1.327071
 20
2.824145
 30
0.0
 11
-1.327664
 21
2.82059
 31
0.0
  0
LINE
  8
0
  6
CONTINUOUS
 62
     7
  5
59C
 10
-1.327664
 20
2.82059
 30
0.0
 11
-1.328227
 21
2.81704
 31
0.0
  0
LINE
  8
0
  6
CONTINUOUS
 62
     7
  5
59D
 10
-1.328227
 20
2.81704
 30
0.0
 11
-1.328759
 21
2.813494
 31
0.0
  0
LINE
  8
0
  6
CONTINUOUS
 62
     7
  5
59E
 10
-1.328759
 20
2.813494
 30
0.0
 11
-1.329261
 21
2.809952
 31
0.0
  0
LINE
  8
0
  6
CONTINUOUS
 62
     7
  5
59F
 10
-1.329261
 20
2.809952
 30
0.0
 11
-1.329732
 21
2.806411
 31
0.0
  0
LINE
  8
0
  6
CONTINUOUS
 62
     7
  5
5A0
 10
-1.329732
 20
2.806411
 30
0.0
 11
-1.330173
 21
2.802871
 31
0.0
  0
LINE
  8
0
  6
CONTINUOUS
 62
     7
  5
5A1
 10
-1.330173
 20
2.802871
 30
0.0
 11
-1.330582
 21
2.79933
 31
0.0
  0
LINE
  8
0
  6
CONTINUOUS
 62
     7
  5
5A2
 10
-1.330582
 20
2.79933
 30
0.0
 11
-1.330961
 21
2.795788
 31
0.0
  0
LINE
  8
0
  6
CONTINUOUS
 62
     7
  5
5A3
 10
-1.330961
 20
2.795788
 30
0.0
 11
-1.331308
 21
2.792242
 31
0.0
  0
LINE
  8
0
  6
CONTINUOUS
 62
     7
  5
5A4
 10
-1.331308
 20
2.792242
 30
0.0
 11
-1.331624
 21
2.788691
 31
0.0
  0
LINE
  8
0
  6
CONTINUOUS
 62
     7
  5
5A5
 10
-1.331624
 20
2.788691
 30
0.0
 11
-1.331909
 21
2.785135
 31
0.0
  0
LINE
  8
0
  6
CONTINUOUS
 62
     7
  5
5A6
 10
-1.331909
 20
2.785135
 30
0.0
 11
-1.332161
 21
2.781571
 31
0.0
  0
LINE
  8
0
  6
CONTINUOUS
 62
     7
  5
5A7
 10
-1.332161
 20
2.781571
 30
0.0
 11
-1.332381
 21
2.777999
 31
0.0
  0
LINE
  8
0
  6
CONTINUOUS
 62
     7
  5
5A8
 10
-1.332381
 20
2.777999
 30
0.0
 11
-1.332568
 21
2.774416
 31
0.0
  0
LINE
  8
0
  6
CONTINUOUS
 62
     7
  5
5A9
 10
-1.332568
 20
2.774416
 30
0.0
 11
-1.332722
 21
2.770822
 31
0.0
  0
LINE
  8
0
  6
CONTINUOUS
 62
     7
  5
5AA
 10
-1.332722
 20
2.770822
 30
0.0
 11
-1.332843
 21
2.767215
 31
0.0
  0
LINE
  8
0
  6
CONTINUOUS
 62
     7
  5
5AB
 10
-1.332843
 20
2.767215
 30
0.0
 11
-1.33293
 21
2.763593
 31
0.0
  0
LINE
  8
0
  6
CONTINUOUS
 62
     7
  5
5AC
 10
-1.33293
 20
2.763593
 30
0.0
 11
-1.332982
 21
2.759955
 31
0.0
  0
LINE
  8
0
  6
CONTINUOUS
 62
     7
  5
5AD
 10
-1.332982
 20
2.759955
 30
0.0
 11
-1.333
 21
2.756299
 31
0.0
  0
LINE
  8
0
  6
CONTINUOUS
 62
     7
  5
5AE
 10
-1.333
 20
2.945959
 30
0.0
 11
-1.332982
 21
2.944131
 31
0.0
  0
LINE
  8
0
  6
CONTINUOUS
 62
     7
  5
5AF
 10
-1.332982
 20
2.944131
 30
0.0
 11
-1.33293
 21
2.942312
 31
0.0
  0
LINE
  8
0
  6
CONTINUOUS
 62
     7
  5
5B0
 10
-1.33293
 20
2.942312
 30
0.0
 11
-1.332843
 21
2.940501
 31
0.0
  0
LINE
  8
0
  6
CONTINUOUS
 62
     7
  5
5B1
 10
-1.332843
 20
2.940501
 30
0.0
 11
-1.332722
 21
2.938697
 31
0.0
  0
LINE
  8
0
  6
CONTINUOUS
 62
     7
  5
5B2
 10
-1.332722
 20
2.938697
 30
0.0
 11
-1.332568
 21
2.9369
 31
0.0
  0
LINE
  8
0
  6
CONTINUOUS
 62
     7
  5
5B3
 10
-1.332568
 20
2.9369
 30
0.0
 11
-1.332381
 21
2.935109
 31
0.0
  0
LINE
  8
0
  6
CONTINUOUS
 62
     7
  5
5B4
 10
-1.332381
 20
2.935109
 30
0.0
 11
-1.332161
 21
2.933323
 31
0.0
  0
LINE
  8
0
  6
CONTINUOUS
 62
     7
  5
5B5
 10
-1.332161
 20
2.933323
 30
0.0
 11
-1.331909
 21
2.931541
 31
0.0
  0
LINE
  8
0
  6
CONTINUOUS
 62
     7
  5
5B6
 10
-1.331909
 20
2.931541
 30
0.0
 11
-1.331624
 21
2.929763
 31
0.0
  0
LINE
  8
0
  6
CONTINUOUS
 62
     7
  5
5B7
 10
-1.331624
 20
2.929763
 30
0.0
 11
-1.331308
 21
2.927987
 31
0.0
  0
LINE
  8
0
  6
CONTINUOUS
 62
     7
  5
5B8
 10
-1.331308
 20
2.927987
 30
0.0
 11
-1.330961
 21
2.926214
 31
0.0
  0
LINE
  8
0
  6
CONTINUOUS
 62
     7
  5
5B9
 10
-1.330961
 20
2.926214
 30
0.0
 11
-1.330582
 21
2.924443
 31
0.0
  0
LINE
  8
0
  6
CONTINUOUS
 62
     7
  5
5BA
 10
-1.330582
 20
2.924443
 30
0.0
 11
-1.330173
 21
2.922673
 31
0.0
  0
LINE
  8
0
  6
CONTINUOUS
 62
     7
  5
5BB
 10
-1.330173
 20
2.922673
 30
0.0
 11
-1.329732
 21
2.920903
 31
0.0
  0
LINE
  8
0
  6
CONTINUOUS
 62
     7
  5
5BC
 10
-1.329732
 20
2.920903
 30
0.0
 11
-1.329261
 21
2.919132
 31
0.0
  0
LINE
  8
0
  6
CONTINUOUS
 62
     7
  5
5BD
 10
-1.329261
 20
2.919132
 30
0.0
 11
-1.328759
 21
2.917361
 31
0.0
  0
LINE
  8
0
  6
CONTINUOUS
 62
     7
  5
5BE
 10
-1.328759
 20
2.917361
 30
0.0
 11
-1.328227
 21
2.915588
 31
0.0
  0
LINE
  8
0
  6
CONTINUOUS
 62
     7
  5
5BF
 10
-1.328227
 20
2.915588
 30
0.0
 11
-1.327664
 21
2.913814
 31
0.0
  0
LINE
  8
0
  6
CONTINUOUS
 62
     7
  5
5C0
 10
-1.327664
 20
2.913814
 30
0.0
 11
-1.327071
 21
2.912036
 31
0.0
  0
LINE
  8
0
  6
CONTINUOUS
 62
     7
  5
5C1
 10
-1.327071
 20
2.912036
 30
0.0
 11
-1.326448
 21
2.910255
 31
0.0
  0
LINE
  8
0
  6
CONTINUOUS
 62
     7
  5
5C2
 10
-1.326448
 20
2.910255
 30
0.0
 11
-1.325795
 21
2.90847
 31
0.0
  0
LINE
  8
0
  6
CONTINUOUS
 62
     7
  5
5C3
 10
-1.325795
 20
2.90847
 30
0.0
 11
-1.325112
 21
2.906681
 31
0.0
  0
LINE
  8
0
  6
CONTINUOUS
 62
     7
  5
5C4
 10
-1.325112
 20
2.906681
 30
0.0
 11
-1.324398
 21
2.904886
 31
0.0
  0
LINE
  8
0
  6
CONTINUOUS
 62
     7
  5
5C5
 10
-1.324398
 20
2.904886
 30
0.0
 11
-1.323654
 21
2.903086
 31
0.0
  0
LINE
  8
0
  6
CONTINUOUS
 62
     7
  5
5C6
 10
-1.323654
 20
2.903086
 30
0.0
 11
-1.32288
 21
2.901279
 31
0.0
  0
LINE
  8
0
  6
CONTINUOUS
 62
     7
  5
5C7
 10
-1.32288
 20
2.901279
 30
0.0
 11
-1.322075
 21
2.899466
 31
0.0
  0
LINE
  8
0
  6
CONTINUOUS
 62
     7
  5
5C8
 10
-1.322075
 20
2.899466
 30
0.0
 11
-1.321239
 21
2.897645
 31
0.0
  0
LINE
  8
0
  6
CONTINUOUS
 62
     7
  5
5C9
 10
-1.321239
 20
2.897645
 30
0.0
 11
-1.320374
 21
2.895816
 31
0.0
  0
LINE
  8
0
  6
CONTINUOUS
 62
     7
  5
5CA
 10
-1.320374
 20
2.895816
 30
0.0
 11
-1.319477
 21
2.893978
 31
0.0
  0
LINE
  8
0
  6
CONTINUOUS
 62
     7
  5
5CB
 10
-1.319477
 20
2.893978
 30
0.0
 11
-1.318549
 21
2.892132
 31
0.0
  0
LINE
  8
0
  6
CONTINUOUS
 62
     7
  5
5CC
 10
-1.318549
 20
2.892132
 30
0.0
 11
-1.31759
 21
2.890275
 31
0.0
  0
LINE
  8
0
  6
CONTINUOUS
 62
     7
  5
5CD
 10
-1.31759
 20
2.890275
 30
0.0
 11
-1.3166
 21
2.888408
 31
0.0
  0
LINE
  8
0
  6
CONTINUOUS
 62
     7
  5
5CE
 10
-1.3166
 20
2.888408
 30
0.0
 11
-1.315579
 21
2.88653
 31
0.0
  0
LINE
  8
0
  6
CONTINUOUS
 62
     7
  5
5CF
 10
-1.315579
 20
2.88653
 30
0.0
 11
-1.314525
 21
2.884641
 31
0.0
  0
LINE
  8
0
  6
CONTINUOUS
 62
     7
  5
5D0
 10
-1.314525
 20
2.884641
 30
0.0
 11
-1.31344
 21
2.882739
 31
0.0
  0
LINE
  8
0
  6
CONTINUOUS
 62
     7
  5
5D1
 10
-1.333
 20
2.756299
 30
0.0
 11
-1.333
 21
2.945959
 31
0.0
  0
LINE
  8
0
  6
CONTINUOUS
 62
     7
  5
5D2
 10
-1.333
 20
2.756299
 30
0.0
 11
-1.332982
 21
2.752643
 31
0.0
  0
LINE
  8
0
  6
CONTINUOUS
 62
     7
  5
5D3
 10
-1.332982
 20
2.752643
 30
0.0
 11
-1.33293
 21
2.749005
 31
0.0
  0
LINE
  8
0
  6
CONTINUOUS
 62
     7
  5
5D4
 10
-1.33293
 20
2.749005
 30
0.0
 11
-1.332843
 21
2.745383
 31
0.0
  0
LINE
  8
0
  6
CONTINUOUS
 62
     7
  5
5D5
 10
-1.332843
 20
2.745383
 30
0.0
 11
-1.332722
 21
2.741776
 31
0.0
  0
LINE
  8
0
  6
CONTINUOUS
 62
     7
  5
5D6
 10
-1.332722
 20
2.741776
 30
0.0
 11
-1.332568
 21
2.738182
 31
0.0
  0
LINE
  8
0
  6
CONTINUOUS
 62
     7
  5
5D7
 10
-1.332568
 20
2.738182
 30
0.0
 11
-1.332381
 21
2.7346
 31
0.0
  0
LINE
  8
0
  6
CONTINUOUS
 62
     7
  5
5D8
 10
-1.332381
 20
2.7346
 30
0.0
 11
-1.332161
 21
2.731027
 31
0.0
  0
LINE
  8
0
  6
CONTINUOUS
 62
     7
  5
5D9
 10
-1.332161
 20
2.731027
 30
0.0
 11
-1.331909
 21
2.727463
 31
0.0
  0
LINE
  8
0
  6
CONTINUOUS
 62
     7
  5
5DA
 10
-1.331909
 20
2.727463
 30
0.0
 11
-1.331624
 21
2.723907
 31
0.0
  0
LINE
  8
0
  6
CONTINUOUS
 62
     7
  5
5DB
 10
-1.331624
 20
2.723907
 30
0.0
 11
-1.331308
 21
2.720357
 31
0.0
  0
LINE
  8
0
  6
CONTINUOUS
 62
     7
  5
5DC
 10
-1.331308
 20
2.720357
 30
0.0
 11
-1.330961
 21
2.716811
 31
0.0
  0
LINE
  8
0
  6
CONTINUOUS
 62
     7
  5
5DD
 10
-1.330961
 20
2.716811
 30
0.0
 11
-1.330582
 21
2.713268
 31
0.0
  0
LINE
  8
0
  6
CONTINUOUS
 62
     7
  5
5DE
 10
-1.330582
 20
2.713268
 30
0.0
 11
-1.330173
 21
2.709727
 31
0.0
  0
LINE
  8
0
  6
CONTINUOUS
 62
     7
  5
5DF
 10
-1.330173
 20
2.709727
 30
0.0
 11
-1.329732
 21
2.706187
 31
0.0
  0
LINE
  8
0
  6
CONTINUOUS
 62
     7
  5
5E0
 10
-1.329732
 20
2.706187
 30
0.0
 11
-1.329261
 21
2.702647
 31
0.0
  0
LINE
  8
0
  6
CONTINUOUS
 62
     7
  5
5E1
 10
-1.329261
 20
2.702647
 30
0.0
 11
-1.328759
 21
2.699104
 31
0.0
  0
LINE
  8
0
  6
CONTINUOUS
 62
     7
  5
5E2
 10
-1.328759
 20
2.699104
 30
0.0
 11
-1.328227
 21
2.695559
 31
0.0
  0
LINE
  8
0
  6
CONTINUOUS
 62
     7
  5
5E3
 10
-1.328227
 20
2.695559
 30
0.0
 11
-1.327664
 21
2.692009
 31
0.0
  0
LINE
  8
0
  6
CONTINUOUS
 62
     7
  5
5E4
 10
-1.327664
 20
2.692009
 30
0.0
 11
-1.327071
 21
2.688454
 31
0.0
  0
LINE
  8
0
  6
CONTINUOUS
 62
     7
  5
5E5
 10
-1.327071
 20
2.688454
 30
0.0
 11
-1.326448
 21
2.684892
 31
0.0
  0
LINE
  8
0
  6
CONTINUOUS
 62
     7
  5
5E6
 10
-1.326448
 20
2.684892
 30
0.0
 11
-1.325795
 21
2.681322
 31
0.0
  0
LINE
  8
0
  6
CONTINUOUS
 62
     7
  5
5E7
 10
-1.325795
 20
2.681322
 30
0.0
 11
-1.325112
 21
2.677743
 31
0.0
  0
LINE
  8
0
  6
CONTINUOUS
 62
     7
  5
5E8
 10
-1.325112
 20
2.677743
 30
0.0
 11
-1.324398
 21
2.674154
 31
0.0
  0
LINE
  8
0
  6
CONTINUOUS
 62
     7
  5
5E9
 10
-1.324398
 20
2.674154
 30
0.0
 11
-1.323654
 21
2.670553
 31
0.0
  0
LINE
  8
0
  6
CONTINUOUS
 62
     7
  5
5EA
 10
-1.323654
 20
2.670553
 30
0.0
 11
-1.32288
 21
2.66694
 31
0.0
  0
LINE
  8
0
  6
CONTINUOUS
 62
     7
  5
5EB
 10
-1.32288
 20
2.66694
 30
0.0
 11
-1.322075
 21
2.663313
 31
0.0
  0
LINE
  8
0
  6
CONTINUOUS
 62
     7
  5
5EC
 10
-1.322075
 20
2.663313
 30
0.0
 11
-1.321239
 21
2.659672
 31
0.0
  0
LINE
  8
0
  6
CONTINUOUS
 62
     7
  5
5ED
 10
-1.321239
 20
2.659672
 30
0.0
 11
-1.320374
 21
2.656014
 31
0.0
  0
LINE
  8
0
  6
CONTINUOUS
 62
     7
  5
5EE
 10
-1.320374
 20
2.656014
 30
0.0
 11
-1.319477
 21
2.652339
 31
0.0
  0
LINE
  8
0
  6
CONTINUOUS
 62
     7
  5
5EF
 10
-1.319477
 20
2.652339
 30
0.0
 11
-1.318549
 21
2.648645
 31
0.0
  0
LINE
  8
0
  6
CONTINUOUS
 62
     7
  5
5F0
 10
-1.318549
 20
2.648645
 30
0.0
 11
-1.31759
 21
2.644932
 31
0.0
  0
LINE
  8
0
  6
CONTINUOUS
 62
     7
  5
5F1
 10
-1.31759
 20
2.644932
 30
0.0
 11
-1.3166
 21
2.641198
 31
0.0
  0
LINE
  8
0
  6
CONTINUOUS
 62
     7
  5
5F2
 10
-1.3166
 20
2.641198
 30
0.0
 11
-1.315579
 21
2.637442
 31
0.0
  0
LINE
  8
0
  6
CONTINUOUS
 62
     7
  5
5F3
 10
-1.315579
 20
2.637442
 30
0.0
 11
-1.314525
 21
2.633663
 31
0.0
  0
LINE
  8
0
  6
CONTINUOUS
 62
     7
  5
5F4
 10
-1.314525
 20
2.633663
 30
0.0
 11
-1.31344
 21
2.62986
 31
0.0
  0
LINE
  8
0
  6
CONTINUOUS
 62
     7
  5
5F5
 10
-1.333
 20
2.56664
 30
0.0
 11
-1.333
 21
2.756299
 31
0.0
  0
LINE
  8
0
  6
CONTINUOUS
 62
     7
  5
5F6
 10
-1.31344
 20
2.62986
 30
0.0
 11
-1.314525
 21
2.627958
 31
0.0
  0
LINE
  8
0
  6
CONTINUOUS
 62
     7
  5
5F7
 10
-1.314525
 20
2.627958
 30
0.0
 11
-1.315579
 21
2.626068
 31
0.0
  0
LINE
  8
0
  6
CONTINUOUS
 62
     7
  5
5F8
 10
-1.315579
 20
2.626068
 30
0.0
 11
-1.3166
 21
2.62419
 31
0.0
  0
LINE
  8
0
  6
CONTINUOUS
 62
     7
  5
5F9
 10
-1.3166
 20
2.62419
 30
0.0
 11
-1.31759
 21
2.622323
 31
0.0
  0
LINE
  8
0
  6
CONTINUOUS
 62
     7
  5
5FA
 10
-1.31759
 20
2.622323
 30
0.0
 11
-1.318549
 21
2.620467
 31
0.0
  0
LINE
  8
0
  6
CONTINUOUS
 62
     7
  5
5FB
 10
-1.318549
 20
2.620467
 30
0.0
 11
-1.319477
 21
2.61862
 31
0.0
  0
LINE
  8
0
  6
CONTINUOUS
 62
     7
  5
5FC
 10
-1.319477
 20
2.61862
 30
0.0
 11
-1.320374
 21
2.616782
 31
0.0
  0
LINE
  8
0
  6
CONTINUOUS
 62
     7
  5
5FD
 10
-1.320374
 20
2.616782
 30
0.0
 11
-1.321239
 21
2.614953
 31
0.0
  0
LINE
  8
0
  6
CONTINUOUS
 62
     7
  5
5FE
 10
-1.321239
 20
2.614953
 30
0.0
 11
-1.322075
 21
2.613133
 31
0.0
  0
LINE
  8
0
  6
CONTINUOUS
 62
     7
  5
5FF
 10
-1.322075
 20
2.613133
 30
0.0
 11
-1.32288
 21
2.611319
 31
0.0
  0
LINE
  8
0
  6
CONTINUOUS
 62
     7
  5
600
 10
-1.32288
 20
2.611319
 30
0.0
 11
-1.323654
 21
2.609513
 31
0.0
  0
LINE
  8
0
  6
CONTINUOUS
 62
     7
  5
601
 10
-1.323654
 20
2.609513
 30
0.0
 11
-1.324398
 21
2.607712
 31
0.0
  0
LINE
  8
0
  6
CONTINUOUS
 62
     7
  5
602
 10
-1.324398
 20
2.607712
 30
0.0
 11
-1.325112
 21
2.605918
 31
0.0
  0
LINE
  8
0
  6
CONTINUOUS
 62
     7
  5
603
 10
-1.325112
 20
2.605918
 30
0.0
 11
-1.325795
 21
2.604128
 31
0.0
  0
LINE
  8
0
  6
CONTINUOUS
 62
     7
  5
604
 10
-1.325795
 20
2.604128
 30
0.0
 11
-1.326448
 21
2.602343
 31
0.0
  0
LINE
  8
0
  6
CONTINUOUS
 62
     7
  5
605
 10
-1.326448
 20
2.602343
 30
0.0
 11
-1.327071
 21
2.600562
 31
0.0
  0
LINE
  8
0
  6
CONTINUOUS
 62
     7
  5
606
 10
-1.327071
 20
2.600562
 30
0.0
 11
-1.327664
 21
2.598785
 31
0.0
  0
LINE
  8
0
  6
CONTINUOUS
 62
     7
  5
607
 10
-1.327664
 20
2.598785
 30
0.0
 11
-1.328227
 21
2.59701
 31
0.0
  0
LINE
  8
0
  6
CONTINUOUS
 62
     7
  5
608
 10
-1.328227
 20
2.59701
 30
0.0
 11
-1.328759
 21
2.595237
 31
0.0
  0
LINE
  8
0
  6
CONTINUOUS
 62
     7
  5
609
 10
-1.328759
 20
2.595237
 30
0.0
 11
-1.329261
 21
2.593466
 31
0.0
  0
LINE
  8
0
  6
CONTINUOUS
 62
     7
  5
60A
 10
-1.329261
 20
2.593466
 30
0.0
 11
-1.329732
 21
2.591696
 31
0.0
  0
LINE
  8
0
  6
CONTINUOUS
 62
     7
  5
60B
 10
-1.329732
 20
2.591696
 30
0.0
 11
-1.330173
 21
2.589926
 31
0.0
  0
LINE
  8
0
  6
CONTINUOUS
 62
     7
  5
60C
 10
-1.330173
 20
2.589926
 30
0.0
 11
-1.330582
 21
2.588155
 31
0.0
  0
LINE
  8
0
  6
CONTINUOUS
 62
     7
  5
60D
 10
-1.330582
 20
2.588155
 30
0.0
 11
-1.330961
 21
2.586384
 31
0.0
  0
LINE
  8
0
  6
CONTINUOUS
 62
     7
  5
60E
 10
-1.330961
 20
2.586384
 30
0.0
 11
-1.331308
 21
2.584611
 31
0.0
  0
LINE
  8
0
  6
CONTINUOUS
 62
     7
  5
60F
 10
-1.331308
 20
2.584611
 30
0.0
 11
-1.331624
 21
2.582836
 31
0.0
  0
LINE
  8
0
  6
CONTINUOUS
 62
     7
  5
610
 10
-1.331624
 20
2.582836
 30
0.0
 11
-1.331909
 21
2.581058
 31
0.0
  0
LINE
  8
0
  6
CONTINUOUS
 62
     7
  5
611
 10
-1.331909
 20
2.581058
 30
0.0
 11
-1.332161
 21
2.579276
 31
0.0
  0
LINE
  8
0
  6
CONTINUOUS
 62
     7
  5
612
 10
-1.332161
 20
2.579276
 30
0.0
 11
-1.332381
 21
2.577489
 31
0.0
  0
LINE
  8
0
  6
CONTINUOUS
 62
     7
  5
613
 10
-1.332381
 20
2.577489
 30
0.0
 11
-1.332568
 21
2.575698
 31
0.0
  0
LINE
  8
0
  6
CONTINUOUS
 62
     7
  5
614
 10
-1.332568
 20
2.575698
 30
0.0
 11
-1.332722
 21
2.573901
 31
0.0
  0
LINE
  8
0
  6
CONTINUOUS
 62
     7
  5
615
 10
-1.332722
 20
2.573901
 30
0.0
 11
-1.332843
 21
2.572098
 31
0.0
  0
LINE
  8
0
  6
CONTINUOUS
 62
     7
  5
616
 10
-1.332843
 20
2.572098
 30
0.0
 11
-1.33293
 21
2.570287
 31
0.0
  0
LINE
  8
0
  6
CONTINUOUS
 62
     7
  5
617
 10
-1.33293
 20
2.570287
 30
0.0
 11
-1.332982
 21
2.568468
 31
0.0
  0
LINE
  8
0
  6
CONTINUOUS
 62
     7
  5
618
 10
-1.332982
 20
2.568468
 30
0.0
 11
-1.333
 21
2.56664
 31
0.0
  0
LINE
  8
0
  6
CONTINUOUS
 62
     7
  5
619
 10
-1.333
 20
2.56664
 30
0.0
 11
-1.332982
 21
2.564812
 31
0.0
  0
LINE
  8
0
  6
CONTINUOUS
 62
     7
  5
61A
 10
-1.332982
 20
2.564812
 30
0.0
 11
-1.33293
 21
2.562993
 31
0.0
  0
LINE
  8
0
  6
CONTINUOUS
 62
     7
  5
61B
 10
-1.33293
 20
2.562993
 30
0.0
 11
-1.332843
 21
2.561182
 31
0.0
  0
LINE
  8
0
  6
CONTINUOUS
 62
     7
  5
61C
 10
-1.332843
 20
2.561182
 30
0.0
 11
-1.332722
 21
2.559378
 31
0.0
  0
LINE
  8
0
  6
CONTINUOUS
 62
     7
  5
61D
 10
-1.332722
 20
2.559378
 30
0.0
 11
-1.332568
 21
2.557581
 31
0.0
  0
LINE
  8
0
  6
CONTINUOUS
 62
     7
  5
61E
 10
-1.332568
 20
2.557581
 30
0.0
 11
-1.332381
 21
2.55579
 31
0.0
  0
LINE
  8
0
  6
CONTINUOUS
 62
     7
  5
61F
 10
-1.332381
 20
2.55579
 30
0.0
 11
-1.332161
 21
2.554004
 31
0.0
  0
LINE
  8
0
  6
CONTINUOUS
 62
     7
  5
620
 10
-1.332161
 20
2.554004
 30
0.0
 11
-1.331909
 21
2.552222
 31
0.0
  0
LINE
  8
0
  6
CONTINUOUS
 62
     7
  5
621
 10
-1.331909
 20
2.552222
 30
0.0
 11
-1.331624
 21
2.550444
 31
0.0
  0
LINE
  8
0
  6
CONTINUOUS
 62
     7
  5
622
 10
-1.331624
 20
2.550444
 30
0.0
 11
-1.331308
 21
2.548668
 31
0.0
  0
LINE
  8
0
  6
CONTINUOUS
 62
     7
  5
623
 10
-1.331308
 20
2.548668
 30
0.0
 11
-1.330961
 21
2.546895
 31
0.0
  0
LINE
  8
0
  6
CONTINUOUS
 62
     7
  5
624
 10
-1.330961
 20
2.546895
 30
0.0
 11
-1.330582
 21
2.545124
 31
0.0
  0
LINE
  8
0
  6
CONTINUOUS
 62
     7
  5
625
 10
-1.330582
 20
2.545124
 30
0.0
 11
-1.330173
 21
2.543354
 31
0.0
  0
LINE
  8
0
  6
CONTINUOUS
 62
     7
  5
626
 10
-1.330173
 20
2.543354
 30
0.0
 11
-1.329732
 21
2.541584
 31
0.0
  0
LINE
  8
0
  6
CONTINUOUS
 62
     7
  5
627
 10
-1.329732
 20
2.541584
 30
0.0
 11
-1.329261
 21
2.539813
 31
0.0
  0
LINE
  8
0
  6
CONTINUOUS
 62
     7
  5
628
 10
-1.329261
 20
2.539813
 30
0.0
 11
-1.328759
 21
2.538042
 31
0.0
  0
LINE
  8
0
  6
CONTINUOUS
 62
     7
  5
629
 10
-1.328759
 20
2.538042
 30
0.0
 11
-1.328227
 21
2.536269
 31
0.0
  0
LINE
  8
0
  6
CONTINUOUS
 62
     7
  5
62A
 10
-1.328227
 20
2.536269
 30
0.0
 11
-1.327664
 21
2.534494
 31
0.0
  0
LINE
  8
0
  6
CONTINUOUS
 62
     7
  5
62B
 10
-1.327664
 20
2.534494
 30
0.0
 11
-1.327071
 21
2.532717
 31
0.0
  0
LINE
  8
0
  6
CONTINUOUS
 62
     7
  5
62C
 10
-1.327071
 20
2.532717
 30
0.0
 11
-1.326448
 21
2.530936
 31
0.0
  0
LINE
  8
0
  6
CONTINUOUS
 62
     7
  5
62D
 10
-1.326448
 20
2.530936
 30
0.0
 11
-1.325795
 21
2.529151
 31
0.0
  0
LINE
  8
0
  6
CONTINUOUS
 62
     7
  5
62E
 10
-1.325795
 20
2.529151
 30
0.0
 11
-1.325112
 21
2.527361
 31
0.0
  0
LINE
  8
0
  6
CONTINUOUS
 62
     7
  5
62F
 10
-1.325112
 20
2.527361
 30
0.0
 11
-1.324398
 21
2.525567
 31
0.0
  0
LINE
  8
0
  6
CONTINUOUS
 62
     7
  5
630
 10
-1.324398
 20
2.525567
 30
0.0
 11
-1.323654
 21
2.523767
 31
0.0
  0
LINE
  8
0
  6
CONTINUOUS
 62
     7
  5
631
 10
-1.323654
 20
2.523767
 30
0.0
 11
-1.32288
 21
2.52196
 31
0.0
  0
LINE
  8
0
  6
CONTINUOUS
 62
     7
  5
632
 10
-1.32288
 20
2.52196
 30
0.0
 11
-1.322075
 21
2.520147
 31
0.0
  0
LINE
  8
0
  6
CONTINUOUS
 62
     7
  5
633
 10
-1.322075
 20
2.520147
 30
0.0
 11
-1.321239
 21
2.518326
 31
0.0
  0
LINE
  8
0
  6
CONTINUOUS
 62
     7
  5
634
 10
-1.321239
 20
2.518326
 30
0.0
 11
-1.320374
 21
2.516497
 31
0.0
  0
LINE
  8
0
  6
CONTINUOUS
 62
     7
  5
635
 10
-1.320374
 20
2.516497
 30
0.0
 11
-1.319477
 21
2.514659
 31
0.0
  0
LINE
  8
0
  6
CONTINUOUS
 62
     7
  5
636
 10
-1.319477
 20
2.514659
 30
0.0
 11
-1.318549
 21
2.512813
 31
0.0
  0
LINE
  8
0
  6
CONTINUOUS
 62
     7
  5
637
 10
-1.318549
 20
2.512813
 30
0.0
 11
-1.31759
 21
2.510956
 31
0.0
  0
LINE
  8
0
  6
CONTINUOUS
 62
     7
  5
638
 10
-1.31759
 20
2.510956
 30
0.0
 11
-1.3166
 21
2.509089
 31
0.0
  0
LINE
  8
0
  6
CONTINUOUS
 62
     7
  5
639
 10
-1.3166
 20
2.509089
 30
0.0
 11
-1.315579
 21
2.507211
 31
0.0
  0
LINE
  8
0
  6
CONTINUOUS
 62
     7
  5
63A
 10
-1.315579
 20
2.507211
 30
0.0
 11
-1.314525
 21
2.505322
 31
0.0
  0
LINE
  8
0
  6
CONTINUOUS
 62
     7
  5
63B
 10
-1.314525
 20
2.505322
 30
0.0
 11
-1.31344
 21
2.50342
 31
0.0
  0
LINE
  8
0
  6
CONTINUOUS
 62
     7
  5
63C
 10
-1.333
 20
2.537299
 30
0.0
 11
-1.333
 21
2.56664
 31
0.0
  0
LINE
  8
0
  6
CONTINUOUS
 62
     7
  5
63D
 10
-1.145
 20
2.62986
 30
0.0
 11
-1.31344
 21
2.62986
 31
0.0
  0
LINE
  8
0
  6
CONTINUOUS
 62
     7
  5
63E
 10
-1.145
 20
2.882739
 30
0.0
 11
-1.31344
 21
2.882739
 31
0.0
  0
LINE
  8
0
  6
CONTINUOUS
 62
     7
  5
63F
 10
-1.145
 20
2.50342
 30
0.0
 11
-1.31344
 21
2.50342
 31
0.0
  0
LINE
  8
0
  6
CONTINUOUS
 62
     7
  5
640
 10
-1.145
 20
3.009179
 30
0.0
 11
-1.31344
 21
3.009179
 31
0.0
  0
LINE
  8
0
  6
CONTINUOUS
 62
     7
  5
641
 10
1.355
 20
2.945742
 30
0.0
 11
1.354984
 21
2.947479
 31
0.0
  0
LINE
  8
0
  6
CONTINUOUS
 62
     7
  5
642
 10
1.354984
 20
2.947479
 30
0.0
 11
1.354936
 21
2.949212
 31
0.0
  0
LINE
  8
0
  6
CONTINUOUS
 62
     7
  5
643
 10
1.354936
 20
2.949212
 30
0.0
 11
1.354857
 21
2.950943
 31
0.0
  0
LINE
  8
0
  6
CONTINUOUS
 62
     7
  5
644
 10
1.354857
 20
2.950943
 30
0.0
 11
1.354747
 21
2.952672
 31
0.0
  0
LINE
  8
0
  6
CONTINUOUS
 62
     7
  5
645
 10
1.354747
 20
2.952672
 30
0.0
 11
1.354605
 21
2.9544
 31
0.0
  0
LINE
  8
0
  6
CONTINUOUS
 62
     7
  5
646
 10
1.354605
 20
2.9544
 30
0.0
 11
1.354432
 21
2.956128
 31
0.0
  0
LINE
  8
0
  6
CONTINUOUS
 62
     7
  5
647
 10
1.354432
 20
2.956128
 30
0.0
 11
1.354228
 21
2.957855
 31
0.0
  0
LINE
  8
0
  6
CONTINUOUS
 62
     7
  5
648
 10
1.354228
 20
2.957855
 30
0.0
 11
1.353993
 21
2.959584
 31
0.0
  0
LINE
  8
0
  6
CONTINUOUS
 62
     7
  5
649
 10
1.353993
 20
2.959584
 30
0.0
 11
1.353727
 21
2.961313
 31
0.0
  0
LINE
  8
0
  6
CONTINUOUS
 62
     7
  5
64A
 10
1.353727
 20
2.961313
 30
0.0
 11
1.353429
 21
2.963045
 31
0.0
  0
LINE
  8
0
  6
CONTINUOUS
 62
     7
  5
64B
 10
1.353429
 20
2.963045
 30
0.0
 11
1.353101
 21
2.96478
 31
0.0
  0
LINE
  8
0
  6
CONTINUOUS
 62
     7
  5
64C
 10
1.353101
 20
2.96478
 30
0.0
 11
1.352742
 21
2.966517
 31
0.0
  0
LINE
  8
0
  6
CONTINUOUS
 62
     7
  5
64D
 10
1.352742
 20
2.966517
 30
0.0
 11
1.352351
 21
2.968259
 31
0.0
  0
LINE
  8
0
  6
CONTINUOUS
 62
     7
  5
64E
 10
1.352351
 20
2.968259
 30
0.0
 11
1.35193
 21
2.970005
 31
0.0
  0
LINE
  8
0
  6
CONTINUOUS
 62
     7
  5
64F
 10
1.35193
 20
2.970005
 30
0.0
 11
1.351477
 21
2.971756
 31
0.0
  0
LINE
  8
0
  6
CONTINUOUS
 62
     7
  5
650
 10
1.351477
 20
2.971756
 30
0.0
 11
1.350992
 21
2.973514
 31
0.0
  0
LINE
  8
0
  6
CONTINUOUS
 62
     7
  5
651
 10
1.350992
 20
2.973514
 30
0.0
 11
1.350476
 21
2.975277
 31
0.0
  0
LINE
  8
0
  6
CONTINUOUS
 62
     7
  5
652
 10
1.350476
 20
2.975277
 30
0.0
 11
1.349929
 21
2.977048
 31
0.0
  0
LINE
  8
0
  6
CONTINUOUS
 62
     7
  5
653
 10
1.349929
 20
2.977048
 30
0.0
 11
1.349349
 21
2.978826
 31
0.0
  0
LINE
  8
0
  6
CONTINUOUS
 62
     7
  5
654
 10
1.349349
 20
2.978826
 30
0.0
 11
1.348737
 21
2.980613
 31
0.0
  0
LINE
  8
0
  6
CONTINUOUS
 62
     7
  5
655
 10
1.348737
 20
2.980613
 30
0.0
 11
1.348092
 21
2.982409
 31
0.0
  0
LINE
  8
0
  6
CONTINUOUS
 62
     7
  5
656
 10
1.348092
 20
2.982409
 30
0.0
 11
1.347415
 21
2.984214
 31
0.0
  0
LINE
  8
0
  6
CONTINUOUS
 62
     7
  5
657
 10
1.347415
 20
2.984214
 30
0.0
 11
1.346705
 21
2.98603
 31
0.0
  0
LINE
  8
0
  6
CONTINUOUS
 62
     7
  5
658
 10
1.346705
 20
2.98603
 30
0.0
 11
1.345961
 21
2.987857
 31
0.0
  0
LINE
  8
0
  6
CONTINUOUS
 62
     7
  5
659
 10
1.345961
 20
2.987857
 30
0.0
 11
1.345184
 21
2.989696
 31
0.0
  0
LINE
  8
0
  6
CONTINUOUS
 62
     7
  5
65A
 10
1.345184
 20
2.989696
 30
0.0
 11
1.344372
 21
2.991547
 31
0.0
  0
LINE
  8
0
  6
CONTINUOUS
 62
     7
  5
65B
 10
1.344372
 20
2.991547
 30
0.0
 11
1.343526
 21
2.993411
 31
0.0
  0
LINE
  8
0
  6
CONTINUOUS
 62
     7
  5
65C
 10
1.343526
 20
2.993411
 30
0.0
 11
1.342646
 21
2.995289
 31
0.0
  0
LINE
  8
0
  6
CONTINUOUS
 62
     7
  5
65D
 10
1.342646
 20
2.995289
 30
0.0
 11
1.34173
 21
2.997182
 31
0.0
  0
LINE
  8
0
  6
CONTINUOUS
 62
     7
  5
65E
 10
1.34173
 20
2.997182
 30
0.0
 11
1.340778
 21
2.99909
 31
0.0
  0
LINE
  8
0
  6
CONTINUOUS
 62
     7
  5
65F
 10
1.340778
 20
2.99909
 30
0.0
 11
1.33979
 21
3.001015
 31
0.0
  0
LINE
  8
0
  6
CONTINUOUS
 62
     7
  5
660
 10
1.33979
 20
3.001015
 30
0.0
 11
1.338764
 21
3.002956
 31
0.0
  0
LINE
  8
0
  6
CONTINUOUS
 62
     7
  5
661
 10
1.338764
 20
3.002956
 30
0.0
 11
1.337702
 21
3.004915
 31
0.0
  0
LINE
  8
0
  6
CONTINUOUS
 62
     7
  5
662
 10
1.337702
 20
3.004915
 30
0.0
 11
1.336601
 21
3.006893
 31
0.0
  0
LINE
  8
0
  6
CONTINUOUS
 62
     7
  5
663
 10
1.336601
 20
3.006893
 30
0.0
 11
1.335462
 21
3.00889
 31
0.0
  0
LINE
  8
0
  6
CONTINUOUS
 62
     7
  5
664
 10
1.355
 20
2.975049
 30
0.0
 11
1.355
 21
2.945742
 31
0.0
  0
LINE
  8
0
  6
CONTINUOUS
 62
     7
  5
665
 10
1.335462
 20
2.503708
 30
0.0
 11
1.336601
 21
2.505706
 31
0.0
  0
LINE
  8
0
  6
CONTINUOUS
 62
     7
  5
666
 10
1.336601
 20
2.505706
 30
0.0
 11
1.337702
 21
2.507683
 31
0.0
  0
LINE
  8
0
  6
CONTINUOUS
 62
     7
  5
667
 10
1.337702
 20
2.507683
 30
0.0
 11
1.338764
 21
2.509642
 31
0.0
  0
LINE
  8
0
  6
CONTINUOUS
 62
     7
  5
668
 10
1.338764
 20
2.509642
 30
0.0
 11
1.33979
 21
2.511584
 31
0.0
  0
LINE
  8
0
  6
CONTINUOUS
 62
     7
  5
669
 10
1.33979
 20
2.511584
 30
0.0
 11
1.340778
 21
2.513508
 31
0.0
  0
LINE
  8
0
  6
CONTINUOUS
 62
     7
  5
66A
 10
1.340778
 20
2.513508
 30
0.0
 11
1.34173
 21
2.515416
 31
0.0
  0
LINE
  8
0
  6
CONTINUOUS
 62
     7
  5
66B
 10
1.34173
 20
2.515416
 30
0.0
 11
1.342646
 21
2.517309
 31
0.0
  0
LINE
  8
0
  6
CONTINUOUS
 62
     7
  5
66C
 10
1.342646
 20
2.517309
 30
0.0
 11
1.343526
 21
2.519187
 31
0.0
  0
LINE
  8
0
  6
CONTINUOUS
 62
     7
  5
66D
 10
1.343526
 20
2.519187
 30
0.0
 11
1.344372
 21
2.521052
 31
0.0
  0
LINE
  8
0
  6
CONTINUOUS
 62
     7
  5
66E
 10
1.344372
 20
2.521052
 30
0.0
 11
1.345184
 21
2.522903
 31
0.0
  0
LINE
  8
0
  6
CONTINUOUS
 62
     7
  5
66F
 10
1.345184
 20
2.522903
 30
0.0
 11
1.345961
 21
2.524741
 31
0.0
  0
LINE
  8
0
  6
CONTINUOUS
 62
     7
  5
670
 10
1.345961
 20
2.524741
 30
0.0
 11
1.346705
 21
2.526568
 31
0.0
  0
LINE
  8
0
  6
CONTINUOUS
 62
     7
  5
671
 10
1.346705
 20
2.526568
 30
0.0
 11
1.347415
 21
2.528384
 31
0.0
  0
LINE
  8
0
  6
CONTINUOUS
 62
     7
  5
672
 10
1.347415
 20
2.528384
 30
0.0
 11
1.348092
 21
2.53019
 31
0.0
  0
LINE
  8
0
  6
CONTINUOUS
 62
     7
  5
673
 10
1.348092
 20
2.53019
 30
0.0
 11
1.348737
 21
2.531986
 31
0.0
  0
LINE
  8
0
  6
CONTINUOUS
 62
     7
  5
674
 10
1.348737
 20
2.531986
 30
0.0
 11
1.349349
 21
2.533772
 31
0.0
  0
LINE
  8
0
  6
CONTINUOUS
 62
     7
  5
675
 10
1.349349
 20
2.533772
 30
0.0
 11
1.349929
 21
2.535551
 31
0.0
  0
LINE
  8
0
  6
CONTINUOUS
 62
     7
  5
676
 10
1.349929
 20
2.535551
 30
0.0
 11
1.350476
 21
2.537321
 31
0.0
  0
LINE
  8
0
  6
CONTINUOUS
 62
     7
  5
677
 10
1.350476
 20
2.537321
 30
0.0
 11
1.350992
 21
2.539085
 31
0.0
  0
LINE
  8
0
  6
CONTINUOUS
 62
     7
  5
678
 10
1.350992
 20
2.539085
 30
0.0
 11
1.351477
 21
2.540842
 31
0.0
  0
LINE
  8
0
  6
CONTINUOUS
 62
     7
  5
679
 10
1.351477
 20
2.540842
 30
0.0
 11
1.35193
 21
2.542593
 31
0.0
  0
LINE
  8
0
  6
CONTINUOUS
 62
     7
  5
67A
 10
1.35193
 20
2.542593
 30
0.0
 11
1.352351
 21
2.544339
 31
0.0
  0
LINE
  8
0
  6
CONTINUOUS
 62
     7
  5
67B
 10
1.352351
 20
2.544339
 30
0.0
 11
1.352742
 21
2.546081
 31
0.0
  0
LINE
  8
0
  6
CONTINUOUS
 62
     7
  5
67C
 10
1.352742
 20
2.546081
 30
0.0
 11
1.353101
 21
2.547819
 31
0.0
  0
LINE
  8
0
  6
CONTINUOUS
 62
     7
  5
67D
 10
1.353101
 20
2.547819
 30
0.0
 11
1.353429
 21
2.549553
 31
0.0
  0
LINE
  8
0
  6
CONTINUOUS
 62
     7
  5
67E
 10
1.353429
 20
2.549553
 30
0.0
 11
1.353727
 21
2.551285
 31
0.0
  0
LINE
  8
0
  6
CONTINUOUS
 62
     7
  5
67F
 10
1.353727
 20
2.551285
 30
0.0
 11
1.353993
 21
2.553015
 31
0.0
  0
LINE
  8
0
  6
CONTINUOUS
 62
     7
  5
680
 10
1.353993
 20
2.553015
 30
0.0
 11
1.354228
 21
2.554743
 31
0.0
  0
LINE
  8
0
  6
CONTINUOUS
 62
     7
  5
681
 10
1.354228
 20
2.554743
 30
0.0
 11
1.354432
 21
2.556471
 31
0.0
  0
LINE
  8
0
  6
CONTINUOUS
 62
     7
  5
682
 10
1.354432
 20
2.556471
 30
0.0
 11
1.354605
 21
2.558198
 31
0.0
  0
LINE
  8
0
  6
CONTINUOUS
 62
     7
  5
683
 10
1.354605
 20
2.558198
 30
0.0
 11
1.354747
 21
2.559926
 31
0.0
  0
LINE
  8
0
  6
CONTINUOUS
 62
     7
  5
684
 10
1.354747
 20
2.559926
 30
0.0
 11
1.354857
 21
2.561655
 31
0.0
  0
LINE
  8
0
  6
CONTINUOUS
 62
     7
  5
685
 10
1.354857
 20
2.561655
 30
0.0
 11
1.354936
 21
2.563386
 31
0.0
  0
LINE
  8
0
  6
CONTINUOUS
 62
     7
  5
686
 10
1.354936
 20
2.563386
 30
0.0
 11
1.354984
 21
2.56512
 31
0.0
  0
LINE
  8
0
  6
CONTINUOUS
 62
     7
  5
687
 10
1.354984
 20
2.56512
 30
0.0
 11
1.355
 21
2.566856
 31
0.0
  0
LINE
  8
0
  6
CONTINUOUS
 62
     7
  5
688
 10
1.355
 20
2.566856
 30
0.0
 11
1.355
 21
2.537549
 31
0.0
  0
LINE
  8
0
  6
CONTINUOUS
 62
     7
  5
689
 10
1.355
 20
2.756299
 30
0.0
 11
1.354984
 21
2.759772
 31
0.0
  0
LINE
  8
0
  6
CONTINUOUS
 62
     7
  5
68A
 10
1.354984
 20
2.759772
 30
0.0
 11
1.354936
 21
2.763239
 31
0.0
  0
LINE
  8
0
  6
CONTINUOUS
 62
     7
  5
68B
 10
1.354936
 20
2.763239
 30
0.0
 11
1.354857
 21
2.766701
 31
0.0
  0
LINE
  8
0
  6
CONTINUOUS
 62
     7
  5
68C
 10
1.354857
 20
2.766701
 30
0.0
 11
1.354747
 21
2.770159
 31
0.0
  0
LINE
  8
0
  6
CONTINUOUS
 62
     7
  5
68D
 10
1.354747
 20
2.770159
 30
0.0
 11
1.354605
 21
2.773615
 31
0.0
  0
LINE
  8
0
  6
CONTINUOUS
 62
     7
  5
68E
 10
1.354605
 20
2.773615
 30
0.0
 11
1.354432
 21
2.77707
 31
0.0
  0
LINE
  8
0
  6
CONTINUOUS
 62
     7
  5
68F
 10
1.354432
 20
2.77707
 30
0.0
 11
1.354228
 21
2.780525
 31
0.0
  0
LINE
  8
0
  6
CONTINUOUS
 62
     7
  5
690
 10
1.354228
 20
2.780525
 30
0.0
 11
1.353993
 21
2.783982
 31
0.0
  0
LINE
  8
0
  6
CONTINUOUS
 62
     7
  5
691
 10
1.353993
 20
2.783982
 30
0.0
 11
1.353727
 21
2.787441
 31
0.0
  0
LINE
  8
0
  6
CONTINUOUS
 62
     7
  5
692
 10
1.353727
 20
2.787441
 30
0.0
 11
1.353429
 21
2.790905
 31
0.0
  0
LINE
  8
0
  6
CONTINUOUS
 62
     7
  5
693
 10
1.353429
 20
2.790905
 30
0.0
 11
1.353101
 21
2.794374
 31
0.0
  0
LINE
  8
0
  6
CONTINUOUS
 62
     7
  5
694
 10
1.353101
 20
2.794374
 30
0.0
 11
1.352742
 21
2.797849
 31
0.0
  0
LINE
  8
0
  6
CONTINUOUS
 62
     7
  5
695
 10
1.352742
 20
2.797849
 30
0.0
 11
1.352351
 21
2.801333
 31
0.0
  0
LINE
  8
0
  6
CONTINUOUS
 62
     7
  5
696
 10
1.352351
 20
2.801333
 30
0.0
 11
1.35193
 21
2.804825
 31
0.0
  0
LINE
  8
0
  6
CONTINUOUS
 62
     7
  5
697
 10
1.35193
 20
2.804825
 30
0.0
 11
1.351477
 21
2.808328
 31
0.0
  0
LINE
  8
0
  6
CONTINUOUS
 62
     7
  5
698
 10
1.351477
 20
2.808328
 30
0.0
 11
1.350992
 21
2.811842
 31
0.0
  0
LINE
  8
0
  6
CONTINUOUS
 62
     7
  5
699
 10
1.350992
 20
2.811842
 30
0.0
 11
1.350476
 21
2.815369
 31
0.0
  0
LINE
  8
0
  6
CONTINUOUS
 62
     7
  5
69A
 10
1.350476
 20
2.815369
 30
0.0
 11
1.349929
 21
2.81891
 31
0.0
  0
LINE
  8
0
  6
CONTINUOUS
 62
     7
  5
69B
 10
1.349929
 20
2.81891
 30
0.0
 11
1.349349
 21
2.822467
 31
0.0
  0
LINE
  8
0
  6
CONTINUOUS
 62
     7
  5
69C
 10
1.349349
 20
2.822467
 30
0.0
 11
1.348737
 21
2.82604
 31
0.0
  0
LINE
  8
0
  6
CONTINUOUS
 62
     7
  5
69D
 10
1.348737
 20
2.82604
 30
0.0
 11
1.348092
 21
2.829632
 31
0.0
  0
LINE
  8
0
  6
CONTINUOUS
 62
     7
  5
69E
 10
1.348092
 20
2.829632
 30
0.0
 11
1.347415
 21
2.833243
 31
0.0
  0
LINE
  8
0
  6
CONTINUOUS
 62
     7
  5
69F
 10
1.347415
 20
2.833243
 30
0.0
 11
1.346705
 21
2.836875
 31
0.0
  0
LINE
  8
0
  6
CONTINUOUS
 62
     7
  5
6A0
 10
1.346705
 20
2.836875
 30
0.0
 11
1.345961
 21
2.840529
 31
0.0
  0
LINE
  8
0
  6
CONTINUOUS
 62
     7
  5
6A1
 10
1.345961
 20
2.840529
 30
0.0
 11
1.345184
 21
2.844206
 31
0.0
  0
LINE
  8
0
  6
CONTINUOUS
 62
     7
  5
6A2
 10
1.345184
 20
2.844206
 30
0.0
 11
1.344372
 21
2.847908
 31
0.0
  0
LINE
  8
0
  6
CONTINUOUS
 62
     7
  5
6A3
 10
1.344372
 20
2.847908
 30
0.0
 11
1.343526
 21
2.851637
 31
0.0
  0
LINE
  8
0
  6
CONTINUOUS
 62
     7
  5
6A4
 10
1.343526
 20
2.851637
 30
0.0
 11
1.342646
 21
2.855393
 31
0.0
  0
LINE
  8
0
  6
CONTINUOUS
 62
     7
  5
6A5
 10
1.342646
 20
2.855393
 30
0.0
 11
1.34173
 21
2.859179
 31
0.0
  0
LINE
  8
0
  6
CONTINUOUS
 62
     7
  5
6A6
 10
1.34173
 20
2.859179
 30
0.0
 11
1.340778
 21
2.862995
 31
0.0
  0
LINE
  8
0
  6
CONTINUOUS
 62
     7
  5
6A7
 10
1.340778
 20
2.862995
 30
0.0
 11
1.33979
 21
2.866844
 31
0.0
  0
LINE
  8
0
  6
CONTINUOUS
 62
     7
  5
6A8
 10
1.33979
 20
2.866844
 30
0.0
 11
1.338764
 21
2.870727
 31
0.0
  0
LINE
  8
0
  6
CONTINUOUS
 62
     7
  5
6A9
 10
1.338764
 20
2.870727
 30
0.0
 11
1.337702
 21
2.874645
 31
0.0
  0
LINE
  8
0
  6
CONTINUOUS
 62
     7
  5
6AA
 10
1.337702
 20
2.874645
 30
0.0
 11
1.336601
 21
2.8786
 31
0.0
  0
LINE
  8
0
  6
CONTINUOUS
 62
     7
  5
6AB
 10
1.336601
 20
2.8786
 30
0.0
 11
1.335462
 21
2.882595
 31
0.0
  0
LINE
  8
0
  6
CONTINUOUS
 62
     7
  5
6AC
 10
1.355
 20
2.945742
 30
0.0
 11
1.355
 21
2.756299
 31
0.0
  0
LINE
  8
0
  6
CONTINUOUS
 62
     7
  5
6AD
 10
1.335462
 20
2.882595
 30
0.0
 11
1.336601
 21
2.884592
 31
0.0
  0
LINE
  8
0
  6
CONTINUOUS
 62
     7
  5
6AE
 10
1.336601
 20
2.884592
 30
0.0
 11
1.337702
 21
2.886569
 31
0.0
  0
LINE
  8
0
  6
CONTINUOUS
 62
     7
  5
6AF
 10
1.337702
 20
2.886569
 30
0.0
 11
1.338764
 21
2.888529
 31
0.0
  0
LINE
  8
0
  6
CONTINUOUS
 62
     7
  5
6B0
 10
1.338764
 20
2.888529
 30
0.0
 11
1.33979
 21
2.89047
 31
0.0
  0
LINE
  8
0
  6
CONTINUOUS
 62
     7
  5
6B1
 10
1.33979
 20
2.89047
 30
0.0
 11
1.340778
 21
2.892394
 31
0.0
  0
LINE
  8
0
  6
CONTINUOUS
 62
     7
  5
6B2
 10
1.340778
 20
2.892394
 30
0.0
 11
1.34173
 21
2.894303
 31
0.0
  0
LINE
  8
0
  6
CONTINUOUS
 62
     7
  5
6B3
 10
1.34173
 20
2.894303
 30
0.0
 11
1.342646
 21
2.896195
 31
0.0
  0
LINE
  8
0
  6
CONTINUOUS
 62
     7
  5
6B4
 10
1.342646
 20
2.896195
 30
0.0
 11
1.343526
 21
2.898074
 31
0.0
  0
LINE
  8
0
  6
CONTINUOUS
 62
     7
  5
6B5
 10
1.343526
 20
2.898074
 30
0.0
 11
1.344372
 21
2.899938
 31
0.0
  0
LINE
  8
0
  6
CONTINUOUS
 62
     7
  5
6B6
 10
1.344372
 20
2.899938
 30
0.0
 11
1.345184
 21
2.901789
 31
0.0
  0
LINE
  8
0
  6
CONTINUOUS
 62
     7
  5
6B7
 10
1.345184
 20
2.901789
 30
0.0
 11
1.345961
 21
2.903628
 31
0.0
  0
LINE
  8
0
  6
CONTINUOUS
 62
     7
  5
6B8
 10
1.345961
 20
2.903628
 30
0.0
 11
1.346705
 21
2.905455
 31
0.0
  0
LINE
  8
0
  6
CONTINUOUS
 62
     7
  5
6B9
 10
1.346705
 20
2.905455
 30
0.0
 11
1.347415
 21
2.90727
 31
0.0
  0
LINE
  8
0
  6
CONTINUOUS
 62
     7
  5
6BA
 10
1.347415
 20
2.90727
 30
0.0
 11
1.348092
 21
2.909076
 31
0.0
  0
LINE
  8
0
  6
CONTINUOUS
 62
     7
  5
6BB
 10
1.348092
 20
2.909076
 30
0.0
 11
1.348737
 21
2.910872
 31
0.0
  0
LINE
  8
0
  6
CONTINUOUS
 62
     7
  5
6BC
 10
1.348737
 20
2.910872
 30
0.0
 11
1.349349
 21
2.912658
 31
0.0
  0
LINE
  8
0
  6
CONTINUOUS
 62
     7
  5
6BD
 10
1.349349
 20
2.912658
 30
0.0
 11
1.349929
 21
2.914437
 31
0.0
  0
LINE
  8
0
  6
CONTINUOUS
 62
     7
  5
6BE
 10
1.349929
 20
2.914437
 30
0.0
 11
1.350476
 21
2.916207
 31
0.0
  0
LINE
  8
0
  6
CONTINUOUS
 62
     7
  5
6BF
 10
1.350476
 20
2.916207
 30
0.0
 11
1.350992
 21
2.917971
 31
0.0
  0
LINE
  8
0
  6
CONTINUOUS
 62
     7
  5
6C0
 10
1.350992
 20
2.917971
 30
0.0
 11
1.351477
 21
2.919728
 31
0.0
  0
LINE
  8
0
  6
CONTINUOUS
 62
     7
  5
6C1
 10
1.351477
 20
2.919728
 30
0.0
 11
1.35193
 21
2.921479
 31
0.0
  0
LINE
  8
0
  6
CONTINUOUS
 62
     7
  5
6C2
 10
1.35193
 20
2.921479
 30
0.0
 11
1.352351
 21
2.923226
 31
0.0
  0
LINE
  8
0
  6
CONTINUOUS
 62
     7
  5
6C3
 10
1.352351
 20
2.923226
 30
0.0
 11
1.352742
 21
2.924967
 31
0.0
  0
LINE
  8
0
  6
CONTINUOUS
 62
     7
  5
6C4
 10
1.352742
 20
2.924967
 30
0.0
 11
1.353101
 21
2.926705
 31
0.0
  0
LINE
  8
0
  6
CONTINUOUS
 62
     7
  5
6C5
 10
1.353101
 20
2.926705
 30
0.0
 11
1.353429
 21
2.928439
 31
0.0
  0
LINE
  8
0
  6
CONTINUOUS
 62
     7
  5
6C6
 10
1.353429
 20
2.928439
 30
0.0
 11
1.353727
 21
2.930171
 31
0.0
  0
LINE
  8
0
  6
CONTINUOUS
 62
     7
  5
6C7
 10
1.353727
 20
2.930171
 30
0.0
 11
1.353993
 21
2.931901
 31
0.0
  0
LINE
  8
0
  6
CONTINUOUS
 62
     7
  5
6C8
 10
1.353993
 20
2.931901
 30
0.0
 11
1.354228
 21
2.933629
 31
0.0
  0
LINE
  8
0
  6
CONTINUOUS
 62
     7
  5
6C9
 10
1.354228
 20
2.933629
 30
0.0
 11
1.354432
 21
2.935357
 31
0.0
  0
LINE
  8
0
  6
CONTINUOUS
 62
     7
  5
6CA
 10
1.354432
 20
2.935357
 30
0.0
 11
1.354605
 21
2.937084
 31
0.0
  0
LINE
  8
0
  6
CONTINUOUS
 62
     7
  5
6CB
 10
1.354605
 20
2.937084
 30
0.0
 11
1.354747
 21
2.938812
 31
0.0
  0
LINE
  8
0
  6
CONTINUOUS
 62
     7
  5
6CC
 10
1.354747
 20
2.938812
 30
0.0
 11
1.354857
 21
2.940542
 31
0.0
  0
LINE
  8
0
  6
CONTINUOUS
 62
     7
  5
6CD
 10
1.354857
 20
2.940542
 30
0.0
 11
1.354936
 21
2.942272
 31
0.0
  0
LINE
  8
0
  6
CONTINUOUS
 62
     7
  5
6CE
 10
1.354936
 20
2.942272
 30
0.0
 11
1.354984
 21
2.944006
 31
0.0
  0
LINE
  8
0
  6
CONTINUOUS
 62
     7
  5
6CF
 10
1.354984
 20
2.944006
 30
0.0
 11
1.355
 21
2.945742
 31
0.0
  0
LINE
  8
0
  6
CONTINUOUS
 62
     7
  5
6D0
 10
1.335462
 20
2.630004
 30
0.0
 11
1.336601
 21
2.633998
 31
0.0
  0
LINE
  8
0
  6
CONTINUOUS
 62
     7
  5
6D1
 10
1.336601
 20
2.633998
 30
0.0
 11
1.337702
 21
2.637954
 31
0.0
  0
LINE
  8
0
  6
CONTINUOUS
 62
     7
  5
6D2
 10
1.337702
 20
2.637954
 30
0.0
 11
1.338764
 21
2.641872
 31
0.0
  0
LINE
  8
0
  6
CONTINUOUS
 62
     7
  5
6D3
 10
1.338764
 20
2.641872
 30
0.0
 11
1.33979
 21
2.645754
 31
0.0
  0
LINE
  8
0
  6
CONTINUOUS
 62
     7
  5
6D4
 10
1.33979
 20
2.645754
 30
0.0
 11
1.340778
 21
2.649603
 31
0.0
  0
LINE
  8
0
  6
CONTINUOUS
 62
     7
  5
6D5
 10
1.340778
 20
2.649603
 30
0.0
 11
1.34173
 21
2.65342
 31
0.0
  0
LINE
  8
0
  6
CONTINUOUS
 62
     7
  5
6D6
 10
1.34173
 20
2.65342
 30
0.0
 11
1.342646
 21
2.657205
 31
0.0
  0
LINE
  8
0
  6
CONTINUOUS
 62
     7
  5
6D7
 10
1.342646
 20
2.657205
 30
0.0
 11
1.343526
 21
2.660962
 31
0.0
  0
LINE
  8
0
  6
CONTINUOUS
 62
     7
  5
6D8
 10
1.343526
 20
2.660962
 30
0.0
 11
1.344372
 21
2.66469
 31
0.0
  0
LINE
  8
0
  6
CONTINUOUS
 62
     7
  5
6D9
 10
1.344372
 20
2.66469
 30
0.0
 11
1.345184
 21
2.668393
 31
0.0
  0
LINE
  8
0
  6
CONTINUOUS
 62
     7
  5
6DA
 10
1.345184
 20
2.668393
 30
0.0
 11
1.345961
 21
2.67207
 31
0.0
  0
LINE
  8
0
  6
CONTINUOUS
 62
     7
  5
6DB
 10
1.345961
 20
2.67207
 30
0.0
 11
1.346705
 21
2.675724
 31
0.0
  0
LINE
  8
0
  6
CONTINUOUS
 62
     7
  5
6DC
 10
1.346705
 20
2.675724
 30
0.0
 11
1.347415
 21
2.679355
 31
0.0
  0
LINE
  8
0
  6
CONTINUOUS
 62
     7
  5
6DD
 10
1.347415
 20
2.679355
 30
0.0
 11
1.348092
 21
2.682966
 31
0.0
  0
LINE
  8
0
  6
CONTINUOUS
 62
     7
  5
6DE
 10
1.348092
 20
2.682966
 30
0.0
 11
1.348737
 21
2.686558
 31
0.0
  0
LINE
  8
0
  6
CONTINUOUS
 62
     7
  5
6DF
 10
1.348737
 20
2.686558
 30
0.0
 11
1.349349
 21
2.690131
 31
0.0
  0
LINE
  8
0
  6
CONTINUOUS
 62
     7
  5
6E0
 10
1.349349
 20
2.690131
 30
0.0
 11
1.349929
 21
2.693688
 31
0.0
  0
LINE
  8
0
  6
CONTINUOUS
 62
     7
  5
6E1
 10
1.349929
 20
2.693688
 30
0.0
 11
1.350476
 21
2.697229
 31
0.0
  0
LINE
  8
0
  6
CONTINUOUS
 62
     7
  5
6E2
 10
1.350476
 20
2.697229
 30
0.0
 11
1.350992
 21
2.700757
 31
0.0
  0
LINE
  8
0
  6
CONTINUOUS
 62
     7
  5
6E3
 10
1.350992
 20
2.700757
 30
0.0
 11
1.351477
 21
2.704271
 31
0.0
  0
LINE
  8
0
  6
CONTINUOUS
 62
     7
  5
6E4
 10
1.351477
 20
2.704271
 30
0.0
 11
1.35193
 21
2.707773
 31
0.0
  0
LINE
  8
0
  6
CONTINUOUS
 62
     7
  5
6E5
 10
1.35193
 20
2.707773
 30
0.0
 11
1.352351
 21
2.711266
 31
0.0
  0
LINE
  8
0
  6
CONTINUOUS
 62
     7
  5
6E6
 10
1.352351
 20
2.711266
 30
0.0
 11
1.352742
 21
2.714749
 31
0.0
  0
LINE
  8
0
  6
CONTINUOUS
 62
     7
  5
6E7
 10
1.352742
 20
2.714749
 30
0.0
 11
1.353101
 21
2.718225
 31
0.0
  0
LINE
  8
0
  6
CONTINUOUS
 62
     7
  5
6E8
 10
1.353101
 20
2.718225
 30
0.0
 11
1.353429
 21
2.721693
 31
0.0
  0
LINE
  8
0
  6
CONTINUOUS
 62
     7
  5
6E9
 10
1.353429
 20
2.721693
 30
0.0
 11
1.353727
 21
2.725157
 31
0.0
  0
LINE
  8
0
  6
CONTINUOUS
 62
     7
  5
6EA
 10
1.353727
 20
2.725157
 30
0.0
 11
1.353993
 21
2.728617
 31
0.0
  0
LINE
  8
0
  6
CONTINUOUS
 62
     7
  5
6EB
 10
1.353993
 20
2.728617
 30
0.0
 11
1.354228
 21
2.732073
 31
0.0
  0
LINE
  8
0
  6
CONTINUOUS
 62
     7
  5
6EC
 10
1.354228
 20
2.732073
 30
0.0
 11
1.354432
 21
2.735529
 31
0.0
  0
LINE
  8
0
  6
CONTINUOUS
 62
     7
  5
6ED
 10
1.354432
 20
2.735529
 30
0.0
 11
1.354605
 21
2.738983
 31
0.0
  0
LINE
  8
0
  6
CONTINUOUS
 62
     7
  5
6EE
 10
1.354605
 20
2.738983
 30
0.0
 11
1.354747
 21
2.742439
 31
0.0
  0
LINE
  8
0
  6
CONTINUOUS
 62
     7
  5
6EF
 10
1.354747
 20
2.742439
 30
0.0
 11
1.354857
 21
2.745898
 31
0.0
  0
LINE
  8
0
  6
CONTINUOUS
 62
     7
  5
6F0
 10
1.354857
 20
2.745898
 30
0.0
 11
1.354936
 21
2.74936
 31
0.0
  0
LINE
  8
0
  6
CONTINUOUS
 62
     7
  5
6F1
 10
1.354936
 20
2.74936
 30
0.0
 11
1.354984
 21
2.752826
 31
0.0
  0
LINE
  8
0
  6
CONTINUOUS
 62
     7
  5
6F2
 10
1.354984
 20
2.752826
 30
0.0
 11
1.355
 21
2.756299
 31
0.0
  0
LINE
  8
0
  6
CONTINUOUS
 62
     7
  5
6F3
 10
1.355
 20
2.566856
 30
0.0
 11
1.354984
 21
2.568593
 31
0.0
  0
LINE
  8
0
  6
CONTINUOUS
 62
     7
  5
6F4
 10
1.354984
 20
2.568593
 30
0.0
 11
1.354936
 21
2.570326
 31
0.0
  0
LINE
  8
0
  6
CONTINUOUS
 62
     7
  5
6F5
 10
1.354936
 20
2.570326
 30
0.0
 11
1.354857
 21
2.572057
 31
0.0
  0
LINE
  8
0
  6
CONTINUOUS
 62
     7
  5
6F6
 10
1.354857
 20
2.572057
 30
0.0
 11
1.354747
 21
2.573786
 31
0.0
  0
LINE
  8
0
  6
CONTINUOUS
 62
     7
  5
6F7
 10
1.354747
 20
2.573786
 30
0.0
 11
1.354605
 21
2.575514
 31
0.0
  0
LINE
  8
0
  6
CONTINUOUS
 62
     7
  5
6F8
 10
1.354605
 20
2.575514
 30
0.0
 11
1.354432
 21
2.577242
 31
0.0
  0
LINE
  8
0
  6
CONTINUOUS
 62
     7
  5
6F9
 10
1.354432
 20
2.577242
 30
0.0
 11
1.354228
 21
2.578969
 31
0.0
  0
LINE
  8
0
  6
CONTINUOUS
 62
     7
  5
6FA
 10
1.354228
 20
2.578969
 30
0.0
 11
1.353993
 21
2.580697
 31
0.0
  0
LINE
  8
0
  6
CONTINUOUS
 62
     7
  5
6FB
 10
1.353993
 20
2.580697
 30
0.0
 11
1.353727
 21
2.582427
 31
0.0
  0
LINE
  8
0
  6
CONTINUOUS
 62
     7
  5
6FC
 10
1.353727
 20
2.582427
 30
0.0
 11
1.353429
 21
2.584159
 31
0.0
  0
LINE
  8
0
  6
CONTINUOUS
 62
     7
  5
6FD
 10
1.353429
 20
2.584159
 30
0.0
 11
1.353101
 21
2.585893
 31
0.0
  0
LINE
  8
0
  6
CONTINUOUS
 62
     7
  5
6FE
 10
1.353101
 20
2.585893
 30
0.0
 11
1.352742
 21
2.587631
 31
0.0
  0
LINE
  8
0
  6
CONTINUOUS
 62
     7
  5
6FF
 10
1.352742
 20
2.587631
 30
0.0
 11
1.352351
 21
2.589373
 31
0.0
  0
LINE
  8
0
  6
CONTINUOUS
 62
     7
  5
700
 10
1.352351
 20
2.589373
 30
0.0
 11
1.35193
 21
2.591119
 31
0.0
  0
LINE
  8
0
  6
CONTINUOUS
 62
     7
  5
701
 10
1.35193
 20
2.591119
 30
0.0
 11
1.351477
 21
2.59287
 31
0.0
  0
LINE
  8
0
  6
CONTINUOUS
 62
     7
  5
702
 10
1.351477
 20
2.59287
 30
0.0
 11
1.350992
 21
2.594627
 31
0.0
  0
LINE
  8
0
  6
CONTINUOUS
 62
     7
  5
703
 10
1.350992
 20
2.594627
 30
0.0
 11
1.350476
 21
2.596391
 31
0.0
  0
LINE
  8
0
  6
CONTINUOUS
 62
     7
  5
704
 10
1.350476
 20
2.596391
 30
0.0
 11
1.349929
 21
2.598162
 31
0.0
  0
LINE
  8
0
  6
CONTINUOUS
 62
     7
  5
705
 10
1.349929
 20
2.598162
 30
0.0
 11
1.349349
 21
2.59994
 31
0.0
  0
LINE
  8
0
  6
CONTINUOUS
 62
     7
  5
706
 10
1.349349
 20
2.59994
 30
0.0
 11
1.348737
 21
2.601727
 31
0.0
  0
LINE
  8
0
  6
CONTINUOUS
 62
     7
  5
707
 10
1.348737
 20
2.601727
 30
0.0
 11
1.348092
 21
2.603523
 31
0.0
  0
LINE
  8
0
  6
CONTINUOUS
 62
     7
  5
708
 10
1.348092
 20
2.603523
 30
0.0
 11
1.347415
 21
2.605328
 31
0.0
  0
LINE
  8
0
  6
CONTINUOUS
 62
     7
  5
709
 10
1.347415
 20
2.605328
 30
0.0
 11
1.346705
 21
2.607144
 31
0.0
  0
LINE
  8
0
  6
CONTINUOUS
 62
     7
  5
70A
 10
1.346705
 20
2.607144
 30
0.0
 11
1.345961
 21
2.608971
 31
0.0
  0
LINE
  8
0
  6
CONTINUOUS
 62
     7
  5
70B
 10
1.345961
 20
2.608971
 30
0.0
 11
1.345184
 21
2.610809
 31
0.0
  0
LINE
  8
0
  6
CONTINUOUS
 62
     7
  5
70C
 10
1.345184
 20
2.610809
 30
0.0
 11
1.344372
 21
2.612661
 31
0.0
  0
LINE
  8
0
  6
CONTINUOUS
 62
     7
  5
70D
 10
1.344372
 20
2.612661
 30
0.0
 11
1.343526
 21
2.614525
 31
0.0
  0
LINE
  8
0
  6
CONTINUOUS
 62
     7
  5
70E
 10
1.343526
 20
2.614525
 30
0.0
 11
1.342646
 21
2.616403
 31
0.0
  0
LINE
  8
0
  6
CONTINUOUS
 62
     7
  5
70F
 10
1.342646
 20
2.616403
 30
0.0
 11
1.34173
 21
2.618296
 31
0.0
  0
LINE
  8
0
  6
CONTINUOUS
 62
     7
  5
710
 10
1.34173
 20
2.618296
 30
0.0
 11
1.340778
 21
2.620204
 31
0.0
  0
LINE
  8
0
  6
CONTINUOUS
 62
     7
  5
711
 10
1.340778
 20
2.620204
 30
0.0
 11
1.33979
 21
2.622129
 31
0.0
  0
LINE
  8
0
  6
CONTINUOUS
 62
     7
  5
712
 10
1.33979
 20
2.622129
 30
0.0
 11
1.338764
 21
2.62407
 31
0.0
  0
LINE
  8
0
  6
CONTINUOUS
 62
     7
  5
713
 10
1.338764
 20
2.62407
 30
0.0
 11
1.337702
 21
2.626029
 31
0.0
  0
LINE
  8
0
  6
CONTINUOUS
 62
     7
  5
714
 10
1.337702
 20
2.626029
 30
0.0
 11
1.336601
 21
2.628007
 31
0.0
  0
LINE
  8
0
  6
CONTINUOUS
 62
     7
  5
715
 10
1.336601
 20
2.628007
 30
0.0
 11
1.335462
 21
2.630004
 31
0.0
  0
LINE
  8
0
  6
CONTINUOUS
 62
     7
  5
716
 10
1.355
 20
2.756299
 30
0.0
 11
1.355
 21
2.566856
 31
0.0
  0
LINE
  8
0
  6
CONTINUOUS
 62
     7
  5
717
 10
1.335462
 20
2.882595
 30
0.0
 11
1.164538
 21
2.882595
 31
0.0
  0
LINE
  8
0
  6
CONTINUOUS
 62
     7
  5
718
 10
1.164538
 20
2.882595
 30
0.0
 11
1.163399
 21
2.8786
 31
0.0
  0
LINE
  8
0
  6
CONTINUOUS
 62
     7
  5
719
 10
1.163399
 20
2.8786
 30
0.0
 11
1.162298
 21
2.874645
 31
0.0
  0
LINE
  8
0
  6
CONTINUOUS
 62
     7
  5
71A
 10
1.162298
 20
2.874645
 30
0.0
 11
1.161236
 21
2.870727
 31
0.0
  0
LINE
  8
0
  6
CONTINUOUS
 62
     7
  5
71B
 10
1.161236
 20
2.870727
 30
0.0
 11
1.16021
 21
2.866844
 31
0.0
  0
LINE
  8
0
  6
CONTINUOUS
 62
     7
  5
71C
 10
1.16021
 20
2.866844
 30
0.0
 11
1.159222
 21
2.862995
 31
0.0
  0
LINE
  8
0
  6
CONTINUOUS
 62
     7
  5
71D
 10
1.159222
 20
2.862995
 30
0.0
 11
1.15827
 21
2.859179
 31
0.0
  0
LINE
  8
0
  6
CONTINUOUS
 62
     7
  5
71E
 10
1.15827
 20
2.859179
 30
0.0
 11
1.157354
 21
2.855393
 31
0.0
  0
LINE
  8
0
  6
CONTINUOUS
 62
     7
  5
71F
 10
1.157354
 20
2.855393
 30
0.0
 11
1.156474
 21
2.851637
 31
0.0
  0
LINE
  8
0
  6
CONTINUOUS
 62
     7
  5
720
 10
1.156474
 20
2.851637
 30
0.0
 11
1.155628
 21
2.847908
 31
0.0
  0
LINE
  8
0
  6
CONTINUOUS
 62
     7
  5
721
 10
1.155628
 20
2.847908
 30
0.0
 11
1.154816
 21
2.844206
 31
0.0
  0
LINE
  8
0
  6
CONTINUOUS
 62
     7
  5
722
 10
1.154816
 20
2.844206
 30
0.0
 11
1.154039
 21
2.840529
 31
0.0
  0
LINE
  8
0
  6
CONTINUOUS
 62
     7
  5
723
 10
1.154039
 20
2.840529
 30
0.0
 11
1.153295
 21
2.836875
 31
0.0
  0
LINE
  8
0
  6
CONTINUOUS
 62
     7
  5
724
 10
1.153295
 20
2.836875
 30
0.0
 11
1.152585
 21
2.833243
 31
0.0
  0
LINE
  8
0
  6
CONTINUOUS
 62
     7
  5
725
 10
1.152585
 20
2.833243
 30
0.0
 11
1.151908
 21
2.829632
 31
0.0
  0
LINE
  8
0
  6
CONTINUOUS
 62
     7
  5
726
 10
1.151908
 20
2.829632
 30
0.0
 11
1.151263
 21
2.82604
 31
0.0
  0
LINE
  8
0
  6
CONTINUOUS
 62
     7
  5
727
 10
1.151263
 20
2.82604
 30
0.0
 11
1.150651
 21
2.822467
 31
0.0
  0
LINE
  8
0
  6
CONTINUOUS
 62
     7
  5
728
 10
1.150651
 20
2.822467
 30
0.0
 11
1.150071
 21
2.81891
 31
0.0
  0
LINE
  8
0
  6
CONTINUOUS
 62
     7
  5
729
 10
1.150071
 20
2.81891
 30
0.0
 11
1.149524
 21
2.815369
 31
0.0
  0
LINE
  8
0
  6
CONTINUOUS
 62
     7
  5
72A
 10
1.149524
 20
2.815369
 30
0.0
 11
1.149008
 21
2.811842
 31
0.0
  0
LINE
  8
0
  6
CONTINUOUS
 62
     7
  5
72B
 10
1.149008
 20
2.811842
 30
0.0
 11
1.148523
 21
2.808328
 31
0.0
  0
LINE
  8
0
  6
CONTINUOUS
 62
     7
  5
72C
 10
1.148523
 20
2.808328
 30
0.0
 11
1.14807
 21
2.804825
 31
0.0
  0
LINE
  8
0
  6
CONTINUOUS
 62
     7
  5
72D
 10
1.14807
 20
2.804825
 30
0.0
 11
1.147649
 21
2.801333
 31
0.0
  0
LINE
  8
0
  6
CONTINUOUS
 62
     7
  5
72E
 10
1.147649
 20
2.801333
 30
0.0
 11
1.147258
 21
2.797849
 31
0.0
  0
LINE
  8
0
  6
CONTINUOUS
 62
     7
  5
72F
 10
1.147258
 20
2.797849
 30
0.0
 11
1.146899
 21
2.794374
 31
0.0
  0
LINE
  8
0
  6
CONTINUOUS
 62
     7
  5
730
 10
1.146899
 20
2.794374
 30
0.0
 11
1.146571
 21
2.790905
 31
0.0
  0
LINE
  8
0
  6
CONTINUOUS
 62
     7
  5
731
 10
1.146571
 20
2.790905
 30
0.0
 11
1.146273
 21
2.787441
 31
0.0
  0
LINE
  8
0
  6
CONTINUOUS
 62
     7
  5
732
 10
1.146273
 20
2.787441
 30
0.0
 11
1.146007
 21
2.783982
 31
0.0
  0
LINE
  8
0
  6
CONTINUOUS
 62
     7
  5
733
 10
1.146007
 20
2.783982
 30
0.0
 11
1.145772
 21
2.780525
 31
0.0
  0
LINE
  8
0
  6
CONTINUOUS
 62
     7
  5
734
 10
1.145772
 20
2.780525
 30
0.0
 11
1.145568
 21
2.77707
 31
0.0
  0
LINE
  8
0
  6
CONTINUOUS
 62
     7
  5
735
 10
1.145568
 20
2.77707
 30
0.0
 11
1.145395
 21
2.773615
 31
0.0
  0
LINE
  8
0
  6
CONTINUOUS
 62
     7
  5
736
 10
1.145395
 20
2.773615
 30
0.0
 11
1.145253
 21
2.770159
 31
0.0
  0
LINE
  8
0
  6
CONTINUOUS
 62
     7
  5
737
 10
1.145253
 20
2.770159
 30
0.0
 11
1.145143
 21
2.766701
 31
0.0
  0
LINE
  8
0
  6
CONTINUOUS
 62
     7
  5
738
 10
1.145143
 20
2.766701
 30
0.0
 11
1.145064
 21
2.763239
 31
0.0
  0
LINE
  8
0
  6
CONTINUOUS
 62
     7
  5
739
 10
1.145064
 20
2.763239
 30
0.0
 11
1.145016
 21
2.759772
 31
0.0
  0
LINE
  8
0
  6
CONTINUOUS
 62
     7
  5
73A
 10
1.145016
 20
2.759772
 30
0.0
 11
1.145
 21
2.756299
 31
0.0
  0
LINE
  8
0
  6
CONTINUOUS
 62
     7
  5
73B
 10
1.145
 20
2.756299
 30
0.0
 11
1.145016
 21
2.752826
 31
0.0
  0
LINE
  8
0
  6
CONTINUOUS
 62
     7
  5
73C
 10
1.145016
 20
2.752826
 30
0.0
 11
1.145064
 21
2.74936
 31
0.0
  0
LINE
  8
0
  6
CONTINUOUS
 62
     7
  5
73D
 10
1.145064
 20
2.74936
 30
0.0
 11
1.145143
 21
2.745898
 31
0.0
  0
LINE
  8
0
  6
CONTINUOUS
 62
     7
  5
73E
 10
1.145143
 20
2.745898
 30
0.0
 11
1.145253
 21
2.742439
 31
0.0
  0
LINE
  8
0
  6
CONTINUOUS
 62
     7
  5
73F
 10
1.145253
 20
2.742439
 30
0.0
 11
1.145395
 21
2.738983
 31
0.0
  0
LINE
  8
0
  6
CONTINUOUS
 62
     7
  5
740
 10
1.145395
 20
2.738983
 30
0.0
 11
1.145568
 21
2.735529
 31
0.0
  0
LINE
  8
0
  6
CONTINUOUS
 62
     7
  5
741
 10
1.145568
 20
2.735529
 30
0.0
 11
1.145772
 21
2.732073
 31
0.0
  0
LINE
  8
0
  6
CONTINUOUS
 62
     7
  5
742
 10
1.145772
 20
2.732073
 30
0.0
 11
1.146007
 21
2.728617
 31
0.0
  0
LINE
  8
0
  6
CONTINUOUS
 62
     7
  5
743
 10
1.146007
 20
2.728617
 30
0.0
 11
1.146273
 21
2.725157
 31
0.0
  0
LINE
  8
0
  6
CONTINUOUS
 62
     7
  5
744
 10
1.146273
 20
2.725157
 30
0.0
 11
1.146571
 21
2.721693
 31
0.0
  0
LINE
  8
0
  6
CONTINUOUS
 62
     7
  5
745
 10
1.146571
 20
2.721693
 30
0.0
 11
1.146899
 21
2.718225
 31
0.0
  0
LINE
  8
0
  6
CONTINUOUS
 62
     7
  5
746
 10
1.146899
 20
2.718225
 30
0.0
 11
1.147258
 21
2.714749
 31
0.0
  0
LINE
  8
0
  6
CONTINUOUS
 62
     7
  5
747
 10
1.147258
 20
2.714749
 30
0.0
 11
1.147649
 21
2.711266
 31
0.0
  0
LINE
  8
0
  6
CONTINUOUS
 62
     7
  5
748
 10
1.147649
 20
2.711266
 30
0.0
 11
1.14807
 21
2.707773
 31
0.0
  0
LINE
  8
0
  6
CONTINUOUS
 62
     7
  5
749
 10
1.14807
 20
2.707773
 30
0.0
 11
1.148523
 21
2.704271
 31
0.0
  0
LINE
  8
0
  6
CONTINUOUS
 62
     7
  5
74A
 10
1.148523
 20
2.704271
 30
0.0
 11
1.149008
 21
2.700757
 31
0.0
  0
LINE
  8
0
  6
CONTINUOUS
 62
     7
  5
74B
 10
1.149008
 20
2.700757
 30
0.0
 11
1.149524
 21
2.697229
 31
0.0
  0
LINE
  8
0
  6
CONTINUOUS
 62
     7
  5
74C
 10
1.149524
 20
2.697229
 30
0.0
 11
1.150071
 21
2.693688
 31
0.0
  0
LINE
  8
0
  6
CONTINUOUS
 62
     7
  5
74D
 10
1.150071
 20
2.693688
 30
0.0
 11
1.150651
 21
2.690131
 31
0.0
  0
LINE
  8
0
  6
CONTINUOUS
 62
     7
  5
74E
 10
1.150651
 20
2.690131
 30
0.0
 11
1.151263
 21
2.686558
 31
0.0
  0
LINE
  8
0
  6
CONTINUOUS
 62
     7
  5
74F
 10
1.151263
 20
2.686558
 30
0.0
 11
1.151908
 21
2.682966
 31
0.0
  0
LINE
  8
0
  6
CONTINUOUS
 62
     7
  5
750
 10
1.151908
 20
2.682966
 30
0.0
 11
1.152585
 21
2.679355
 31
0.0
  0
LINE
  8
0
  6
CONTINUOUS
 62
     7
  5
751
 10
1.152585
 20
2.679355
 30
0.0
 11
1.153295
 21
2.675724
 31
0.0
  0
LINE
  8
0
  6
CONTINUOUS
 62
     7
  5
752
 10
1.153295
 20
2.675724
 30
0.0
 11
1.154039
 21
2.67207
 31
0.0
  0
LINE
  8
0
  6
CONTINUOUS
 62
     7
  5
753
 10
1.154039
 20
2.67207
 30
0.0
 11
1.154816
 21
2.668393
 31
0.0
  0
LINE
  8
0
  6
CONTINUOUS
 62
     7
  5
754
 10
1.154816
 20
2.668393
 30
0.0
 11
1.155628
 21
2.66469
 31
0.0
  0
LINE
  8
0
  6
CONTINUOUS
 62
     7
  5
755
 10
1.155628
 20
2.66469
 30
0.0
 11
1.156474
 21
2.660962
 31
0.0
  0
LINE
  8
0
  6
CONTINUOUS
 62
     7
  5
756
 10
1.156474
 20
2.660962
 30
0.0
 11
1.157354
 21
2.657205
 31
0.0
  0
LINE
  8
0
  6
CONTINUOUS
 62
     7
  5
757
 10
1.157354
 20
2.657205
 30
0.0
 11
1.15827
 21
2.65342
 31
0.0
  0
LINE
  8
0
  6
CONTINUOUS
 62
     7
  5
758
 10
1.15827
 20
2.65342
 30
0.0
 11
1.159222
 21
2.649603
 31
0.0
  0
LINE
  8
0
  6
CONTINUOUS
 62
     7
  5
759
 10
1.159222
 20
2.649603
 30
0.0
 11
1.16021
 21
2.645754
 31
0.0
  0
LINE
  8
0
  6
CONTINUOUS
 62
     7
  5
75A
 10
1.16021
 20
2.645754
 30
0.0
 11
1.161236
 21
2.641872
 31
0.0
  0
LINE
  8
0
  6
CONTINUOUS
 62
     7
  5
75B
 10
1.161236
 20
2.641872
 30
0.0
 11
1.162298
 21
2.637954
 31
0.0
  0
LINE
  8
0
  6
CONTINUOUS
 62
     7
  5
75C
 10
1.162298
 20
2.637954
 30
0.0
 11
1.163399
 21
2.633998
 31
0.0
  0
LINE
  8
0
  6
CONTINUOUS
 62
     7
  5
75D
 10
1.163399
 20
2.633998
 30
0.0
 11
1.164538
 21
2.630004
 31
0.0
  0
LINE
  8
0
  6
CONTINUOUS
 62
     7
  5
75E
 10
1.335462
 20
2.630004
 30
0.0
 11
1.164538
 21
2.630004
 31
0.0
  0
LINE
  8
0
  6
CONTINUOUS
 62
     7
  5
75F
 10
1.335462
 20
3.00889
 30
0.0
 11
1.164538
 21
3.00889
 31
0.0
  0
LINE
  8
0
  6
CONTINUOUS
 62
     7
  5
760
 10
1.164538
 20
3.00889
 30
0.0
 11
1.163399
 21
3.006893
 31
0.0
  0
LINE
  8
0
  6
CONTINUOUS
 62
     7
  5
761
 10
1.163399
 20
3.006893
 30
0.0
 11
1.162298
 21
3.004915
 31
0.0
  0
LINE
  8
0
  6
CONTINUOUS
 62
     7
  5
762
 10
1.162298
 20
3.004915
 30
0.0
 11
1.161236
 21
3.002956
 31
0.0
  0
LINE
  8
0
  6
CONTINUOUS
 62
     7
  5
763
 10
1.161236
 20
3.002956
 30
0.0
 11
1.16021
 21
3.001015
 31
0.0
  0
LINE
  8
0
  6
CONTINUOUS
 62
     7
  5
764
 10
1.16021
 20
3.001015
 30
0.0
 11
1.159222
 21
2.99909
 31
0.0
  0
LINE
  8
0
  6
CONTINUOUS
 62
     7
  5
765
 10
1.159222
 20
2.99909
 30
0.0
 11
1.15827
 21
2.997182
 31
0.0
  0
LINE
  8
0
  6
CONTINUOUS
 62
     7
  5
766
 10
1.15827
 20
2.997182
 30
0.0
 11
1.157354
 21
2.995289
 31
0.0
  0
LINE
  8
0
  6
CONTINUOUS
 62
     7
  5
767
 10
1.157354
 20
2.995289
 30
0.0
 11
1.156474
 21
2.993411
 31
0.0
  0
LINE
  8
0
  6
CONTINUOUS
 62
     7
  5
768
 10
1.156474
 20
2.993411
 30
0.0
 11
1.155628
 21
2.991547
 31
0.0
  0
LINE
  8
0
  6
CONTINUOUS
 62
     7
  5
769
 10
1.155628
 20
2.991547
 30
0.0
 11
1.154816
 21
2.989696
 31
0.0
  0
LINE
  8
0
  6
CONTINUOUS
 62
     7
  5
76A
 10
1.154816
 20
2.989696
 30
0.0
 11
1.154039
 21
2.987857
 31
0.0
  0
LINE
  8
0
  6
CONTINUOUS
 62
     7
  5
76B
 10
1.154039
 20
2.987857
 30
0.0
 11
1.153295
 21
2.98603
 31
0.0
  0
LINE
  8
0
  6
CONTINUOUS
 62
     7
  5
76C
 10
1.153295
 20
2.98603
 30
0.0
 11
1.152585
 21
2.984214
 31
0.0
  0
LINE
  8
0
  6
CONTINUOUS
 62
     7
  5
76D
 10
1.152585
 20
2.984214
 30
0.0
 11
1.151908
 21
2.982409
 31
0.0
  0
LINE
  8
0
  6
CONTINUOUS
 62
     7
  5
76E
 10
1.151908
 20
2.982409
 30
0.0
 11
1.151263
 21
2.980613
 31
0.0
  0
LINE
  8
0
  6
CONTINUOUS
 62
     7
  5
76F
 10
1.151263
 20
2.980613
 30
0.0
 11
1.150651
 21
2.978826
 31
0.0
  0
LINE
  8
0
  6
CONTINUOUS
 62
     7
  5
770
 10
1.150651
 20
2.978826
 30
0.0
 11
1.150071
 21
2.977048
 31
0.0
  0
LINE
  8
0
  6
CONTINUOUS
 62
     7
  5
771
 10
1.150071
 20
2.977048
 30
0.0
 11
1.149524
 21
2.975277
 31
0.0
  0
LINE
  8
0
  6
CONTINUOUS
 62
     7
  5
772
 10
1.149524
 20
2.975277
 30
0.0
 11
1.149008
 21
2.973514
 31
0.0
  0
LINE
  8
0
  6
CONTINUOUS
 62
     7
  5
773
 10
1.149008
 20
2.973514
 30
0.0
 11
1.148523
 21
2.971756
 31
0.0
  0
LINE
  8
0
  6
CONTINUOUS
 62
     7
  5
774
 10
1.148523
 20
2.971756
 30
0.0
 11
1.14807
 21
2.970005
 31
0.0
  0
LINE
  8
0
  6
CONTINUOUS
 62
     7
  5
775
 10
1.14807
 20
2.970005
 30
0.0
 11
1.147649
 21
2.968259
 31
0.0
  0
LINE
  8
0
  6
CONTINUOUS
 62
     7
  5
776
 10
1.147649
 20
2.968259
 30
0.0
 11
1.147258
 21
2.966517
 31
0.0
  0
LINE
  8
0
  6
CONTINUOUS
 62
     7
  5
777
 10
1.147258
 20
2.966517
 30
0.0
 11
1.146899
 21
2.96478
 31
0.0
  0
LINE
  8
0
  6
CONTINUOUS
 62
     7
  5
778
 10
1.146899
 20
2.96478
 30
0.0
 11
1.146571
 21
2.963045
 31
0.0
  0
LINE
  8
0
  6
CONTINUOUS
 62
     7
  5
779
 10
1.146571
 20
2.963045
 30
0.0
 11
1.146273
 21
2.961313
 31
0.0
  0
LINE
  8
0
  6
CONTINUOUS
 62
     7
  5
77A
 10
1.146273
 20
2.961313
 30
0.0
 11
1.146007
 21
2.959584
 31
0.0
  0
LINE
  8
0
  6
CONTINUOUS
 62
     7
  5
77B
 10
1.146007
 20
2.959584
 30
0.0
 11
1.145772
 21
2.957855
 31
0.0
  0
LINE
  8
0
  6
CONTINUOUS
 62
     7
  5
77C
 10
1.145772
 20
2.957855
 30
0.0
 11
1.145568
 21
2.956128
 31
0.0
  0
LINE
  8
0
  6
CONTINUOUS
 62
     7
  5
77D
 10
1.145568
 20
2.956128
 30
0.0
 11
1.145395
 21
2.9544
 31
0.0
  0
LINE
  8
0
  6
CONTINUOUS
 62
     7
  5
77E
 10
1.145395
 20
2.9544
 30
0.0
 11
1.145253
 21
2.952672
 31
0.0
  0
LINE
  8
0
  6
CONTINUOUS
 62
     7
  5
77F
 10
1.145253
 20
2.952672
 30
0.0
 11
1.145143
 21
2.950943
 31
0.0
  0
LINE
  8
0
  6
CONTINUOUS
 62
     7
  5
780
 10
1.145143
 20
2.950943
 30
0.0
 11
1.145064
 21
2.949212
 31
0.0
  0
LINE
  8
0
  6
CONTINUOUS
 62
     7
  5
781
 10
1.145064
 20
2.949212
 30
0.0
 11
1.145016
 21
2.947479
 31
0.0
  0
LINE
  8
0
  6
CONTINUOUS
 62
     7
  5
782
 10
1.145016
 20
2.947479
 30
0.0
 11
1.145
 21
2.945742
 31
0.0
  0
LINE
  8
0
  6
CONTINUOUS
 62
     7
  5
783
 10
1.145
 20
2.945742
 30
0.0
 11
1.145016
 21
2.944006
 31
0.0
  0
LINE
  8
0
  6
CONTINUOUS
 62
     7
  5
784
 10
1.145016
 20
2.944006
 30
0.0
 11
1.145064
 21
2.942272
 31
0.0
  0
LINE
  8
0
  6
CONTINUOUS
 62
     7
  5
785
 10
1.145064
 20
2.942272
 30
0.0
 11
1.145143
 21
2.940542
 31
0.0
  0
LINE
  8
0
  6
CONTINUOUS
 62
     7
  5
786
 10
1.145143
 20
2.940542
 30
0.0
 11
1.145253
 21
2.938812
 31
0.0
  0
LINE
  8
0
  6
CONTINUOUS
 62
     7
  5
787
 10
1.145253
 20
2.938812
 30
0.0
 11
1.145395
 21
2.937084
 31
0.0
  0
LINE
  8
0
  6
CONTINUOUS
 62
     7
  5
788
 10
1.145395
 20
2.937084
 30
0.0
 11
1.145568
 21
2.935357
 31
0.0
  0
LINE
  8
0
  6
CONTINUOUS
 62
     7
  5
789
 10
1.145568
 20
2.935357
 30
0.0
 11
1.145772
 21
2.933629
 31
0.0
  0
LINE
  8
0
  6
CONTINUOUS
 62
     7
  5
78A
 10
1.145772
 20
2.933629
 30
0.0
 11
1.146007
 21
2.931901
 31
0.0
  0
LINE
  8
0
  6
CONTINUOUS
 62
     7
  5
78B
 10
1.146007
 20
2.931901
 30
0.0
 11
1.146273
 21
2.930171
 31
0.0
  0
LINE
  8
0
  6
CONTINUOUS
 62
     7
  5
78C
 10
1.146273
 20
2.930171
 30
0.0
 11
1.146571
 21
2.928439
 31
0.0
  0
LINE
  8
0
  6
CONTINUOUS
 62
     7
  5
78D
 10
1.146571
 20
2.928439
 30
0.0
 11
1.146899
 21
2.926705
 31
0.0
  0
LINE
  8
0
  6
CONTINUOUS
 62
     7
  5
78E
 10
1.146899
 20
2.926705
 30
0.0
 11
1.147258
 21
2.924967
 31
0.0
  0
LINE
  8
0
  6
CONTINUOUS
 62
     7
  5
78F
 10
1.147258
 20
2.924967
 30
0.0
 11
1.147649
 21
2.923226
 31
0.0
  0
LINE
  8
0
  6
CONTINUOUS
 62
     7
  5
790
 10
1.147649
 20
2.923226
 30
0.0
 11
1.14807
 21
2.921479
 31
0.0
  0
LINE
  8
0
  6
CONTINUOUS
 62
     7
  5
791
 10
1.14807
 20
2.921479
 30
0.0
 11
1.148523
 21
2.919728
 31
0.0
  0
LINE
  8
0
  6
CONTINUOUS
 62
     7
  5
792
 10
1.148523
 20
2.919728
 30
0.0
 11
1.149008
 21
2.917971
 31
0.0
  0
LINE
  8
0
  6
CONTINUOUS
 62
     7
  5
793
 10
1.149008
 20
2.917971
 30
0.0
 11
1.149524
 21
2.916207
 31
0.0
  0
LINE
  8
0
  6
CONTINUOUS
 62
     7
  5
794
 10
1.149524
 20
2.916207
 30
0.0
 11
1.150071
 21
2.914437
 31
0.0
  0
LINE
  8
0
  6
CONTINUOUS
 62
     7
  5
795
 10
1.150071
 20
2.914437
 30
0.0
 11
1.150651
 21
2.912658
 31
0.0
  0
LINE
  8
0
  6
CONTINUOUS
 62
     7
  5
796
 10
1.150651
 20
2.912658
 30
0.0
 11
1.151263
 21
2.910872
 31
0.0
  0
LINE
  8
0
  6
CONTINUOUS
 62
     7
  5
797
 10
1.151263
 20
2.910872
 30
0.0
 11
1.151908
 21
2.909076
 31
0.0
  0
LINE
  8
0
  6
CONTINUOUS
 62
     7
  5
798
 10
1.151908
 20
2.909076
 30
0.0
 11
1.152585
 21
2.90727
 31
0.0
  0
LINE
  8
0
  6
CONTINUOUS
 62
     7
  5
799
 10
1.152585
 20
2.90727
 30
0.0
 11
1.153295
 21
2.905455
 31
0.0
  0
LINE
  8
0
  6
CONTINUOUS
 62
     7
  5
79A
 10
1.153295
 20
2.905455
 30
0.0
 11
1.154039
 21
2.903628
 31
0.0
  0
LINE
  8
0
  6
CONTINUOUS
 62
     7
  5
79B
 10
1.154039
 20
2.903628
 30
0.0
 11
1.154816
 21
2.901789
 31
0.0
  0
LINE
  8
0
  6
CONTINUOUS
 62
     7
  5
79C
 10
1.154816
 20
2.901789
 30
0.0
 11
1.155628
 21
2.899938
 31
0.0
  0
LINE
  8
0
  6
CONTINUOUS
 62
     7
  5
79D
 10
1.155628
 20
2.899938
 30
0.0
 11
1.156474
 21
2.898074
 31
0.0
  0
LINE
  8
0
  6
CONTINUOUS
 62
     7
  5
79E
 10
1.156474
 20
2.898074
 30
0.0
 11
1.157354
 21
2.896195
 31
0.0
  0
LINE
  8
0
  6
CONTINUOUS
 62
     7
  5
79F
 10
1.157354
 20
2.896195
 30
0.0
 11
1.15827
 21
2.894303
 31
0.0
  0
LINE
  8
0
  6
CONTINUOUS
 62
     7
  5
7A0
 10
1.15827
 20
2.894303
 30
0.0
 11
1.159222
 21
2.892394
 31
0.0
  0
LINE
  8
0
  6
CONTINUOUS
 62
     7
  5
7A1
 10
1.159222
 20
2.892394
 30
0.0
 11
1.16021
 21
2.89047
 31
0.0
  0
LINE
  8
0
  6
CONTINUOUS
 62
     7
  5
7A2
 10
1.16021
 20
2.89047
 30
0.0
 11
1.161236
 21
2.888529
 31
0.0
  0
LINE
  8
0
  6
CONTINUOUS
 62
     7
  5
7A3
 10
1.161236
 20
2.888529
 30
0.0
 11
1.162298
 21
2.886569
 31
0.0
  0
LINE
  8
0
  6
CONTINUOUS
 62
     7
  5
7A4
 10
1.162298
 20
2.886569
 30
0.0
 11
1.163399
 21
2.884592
 31
0.0
  0
LINE
  8
0
  6
CONTINUOUS
 62
     7
  5
7A5
 10
1.163399
 20
2.884592
 30
0.0
 11
1.164538
 21
2.882595
 31
0.0
  0
LINE
  8
0
  6
CONTINUOUS
 62
     7
  5
7A6
 10
1.145
 20
2.566856
 30
0.0
 11
1.145016
 21
2.56512
 31
0.0
  0
LINE
  8
0
  6
CONTINUOUS
 62
     7
  5
7A7
 10
1.145016
 20
2.56512
 30
0.0
 11
1.145064
 21
2.563386
 31
0.0
  0
LINE
  8
0
  6
CONTINUOUS
 62
     7
  5
7A8
 10
1.145064
 20
2.563386
 30
0.0
 11
1.145143
 21
2.561655
 31
0.0
  0
LINE
  8
0
  6
CONTINUOUS
 62
     7
  5
7A9
 10
1.145143
 20
2.561655
 30
0.0
 11
1.145253
 21
2.559926
 31
0.0
  0
LINE
  8
0
  6
CONTINUOUS
 62
     7
  5
7AA
 10
1.145253
 20
2.559926
 30
0.0
 11
1.145395
 21
2.558198
 31
0.0
  0
LINE
  8
0
  6
CONTINUOUS
 62
     7
  5
7AB
 10
1.145395
 20
2.558198
 30
0.0
 11
1.145568
 21
2.556471
 31
0.0
  0
LINE
  8
0
  6
CONTINUOUS
 62
     7
  5
7AC
 10
1.145568
 20
2.556471
 30
0.0
 11
1.145772
 21
2.554743
 31
0.0
  0
LINE
  8
0
  6
CONTINUOUS
 62
     7
  5
7AD
 10
1.145772
 20
2.554743
 30
0.0
 11
1.146007
 21
2.553015
 31
0.0
  0
LINE
  8
0
  6
CONTINUOUS
 62
     7
  5
7AE
 10
1.146007
 20
2.553015
 30
0.0
 11
1.146273
 21
2.551285
 31
0.0
  0
LINE
  8
0
  6
CONTINUOUS
 62
     7
  5
7AF
 10
1.146273
 20
2.551285
 30
0.0
 11
1.146571
 21
2.549553
 31
0.0
  0
LINE
  8
0
  6
CONTINUOUS
 62
     7
  5
7B0
 10
1.146571
 20
2.549553
 30
0.0
 11
1.146899
 21
2.547819
 31
0.0
  0
LINE
  8
0
  6
CONTINUOUS
 62
     7
  5
7B1
 10
1.146899
 20
2.547819
 30
0.0
 11
1.147258
 21
2.546081
 31
0.0
  0
LINE
  8
0
  6
CONTINUOUS
 62
     7
  5
7B2
 10
1.147258
 20
2.546081
 30
0.0
 11
1.147649
 21
2.544339
 31
0.0
  0
LINE
  8
0
  6
CONTINUOUS
 62
     7
  5
7B3
 10
1.147649
 20
2.544339
 30
0.0
 11
1.14807
 21
2.542593
 31
0.0
  0
LINE
  8
0
  6
CONTINUOUS
 62
     7
  5
7B4
 10
1.14807
 20
2.542593
 30
0.0
 11
1.148523
 21
2.540842
 31
0.0
  0
LINE
  8
0
  6
CONTINUOUS
 62
     7
  5
7B5
 10
1.148523
 20
2.540842
 30
0.0
 11
1.149008
 21
2.539085
 31
0.0
  0
LINE
  8
0
  6
CONTINUOUS
 62
     7
  5
7B6
 10
1.149008
 20
2.539085
 30
0.0
 11
1.149524
 21
2.537321
 31
0.0
  0
LINE
  8
0
  6
CONTINUOUS
 62
     7
  5
7B7
 10
1.149524
 20
2.537321
 30
0.0
 11
1.150071
 21
2.535551
 31
0.0
  0
LINE
  8
0
  6
CONTINUOUS
 62
     7
  5
7B8
 10
1.150071
 20
2.535551
 30
0.0
 11
1.150651
 21
2.533772
 31
0.0
  0
LINE
  8
0
  6
CONTINUOUS
 62
     7
  5
7B9
 10
1.150651
 20
2.533772
 30
0.0
 11
1.151263
 21
2.531986
 31
0.0
  0
LINE
  8
0
  6
CONTINUOUS
 62
     7
  5
7BA
 10
1.151263
 20
2.531986
 30
0.0
 11
1.151908
 21
2.53019
 31
0.0
  0
LINE
  8
0
  6
CONTINUOUS
 62
     7
  5
7BB
 10
1.151908
 20
2.53019
 30
0.0
 11
1.152585
 21
2.528384
 31
0.0
  0
LINE
  8
0
  6
CONTINUOUS
 62
     7
  5
7BC
 10
1.152585
 20
2.528384
 30
0.0
 11
1.153295
 21
2.526568
 31
0.0
  0
LINE
  8
0
  6
CONTINUOUS
 62
     7
  5
7BD
 10
1.153295
 20
2.526568
 30
0.0
 11
1.154039
 21
2.524741
 31
0.0
  0
LINE
  8
0
  6
CONTINUOUS
 62
     7
  5
7BE
 10
1.154039
 20
2.524741
 30
0.0
 11
1.154816
 21
2.522903
 31
0.0
  0
LINE
  8
0
  6
CONTINUOUS
 62
     7
  5
7BF
 10
1.154816
 20
2.522903
 30
0.0
 11
1.155628
 21
2.521052
 31
0.0
  0
LINE
  8
0
  6
CONTINUOUS
 62
     7
  5
7C0
 10
1.155628
 20
2.521052
 30
0.0
 11
1.156474
 21
2.519187
 31
0.0
  0
LINE
  8
0
  6
CONTINUOUS
 62
     7
  5
7C1
 10
1.156474
 20
2.519187
 30
0.0
 11
1.157354
 21
2.517309
 31
0.0
  0
LINE
  8
0
  6
CONTINUOUS
 62
     7
  5
7C2
 10
1.157354
 20
2.517309
 30
0.0
 11
1.15827
 21
2.515416
 31
0.0
  0
LINE
  8
0
  6
CONTINUOUS
 62
     7
  5
7C3
 10
1.15827
 20
2.515416
 30
0.0
 11
1.159222
 21
2.513508
 31
0.0
  0
LINE
  8
0
  6
CONTINUOUS
 62
     7
  5
7C4
 10
1.159222
 20
2.513508
 30
0.0
 11
1.16021
 21
2.511584
 31
0.0
  0
LINE
  8
0
  6
CONTINUOUS
 62
     7
  5
7C5
 10
1.16021
 20
2.511584
 30
0.0
 11
1.161236
 21
2.509642
 31
0.0
  0
LINE
  8
0
  6
CONTINUOUS
 62
     7
  5
7C6
 10
1.161236
 20
2.509642
 30
0.0
 11
1.162298
 21
2.507683
 31
0.0
  0
LINE
  8
0
  6
CONTINUOUS
 62
     7
  5
7C7
 10
1.162298
 20
2.507683
 30
0.0
 11
1.163399
 21
2.505706
 31
0.0
  0
LINE
  8
0
  6
CONTINUOUS
 62
     7
  5
7C8
 10
1.163399
 20
2.505706
 30
0.0
 11
1.164538
 21
2.503708
 31
0.0
  0
LINE
  8
0
  6
CONTINUOUS
 62
     7
  5
7C9
 10
1.164538
 20
2.630004
 30
0.0
 11
1.163399
 21
2.628007
 31
0.0
  0
LINE
  8
0
  6
CONTINUOUS
 62
     7
  5
7CA
 10
1.163399
 20
2.628007
 30
0.0
 11
1.162298
 21
2.626029
 31
0.0
  0
LINE
  8
0
  6
CONTINUOUS
 62
     7
  5
7CB
 10
1.162298
 20
2.626029
 30
0.0
 11
1.161236
 21
2.62407
 31
0.0
  0
LINE
  8
0
  6
CONTINUOUS
 62
     7
  5
7CC
 10
1.161236
 20
2.62407
 30
0.0
 11
1.16021
 21
2.622129
 31
0.0
  0
LINE
  8
0
  6
CONTINUOUS
 62
     7
  5
7CD
 10
1.16021
 20
2.622129
 30
0.0
 11
1.159222
 21
2.620204
 31
0.0
  0
LINE
  8
0
  6
CONTINUOUS
 62
     7
  5
7CE
 10
1.159222
 20
2.620204
 30
0.0
 11
1.15827
 21
2.618296
 31
0.0
  0
LINE
  8
0
  6
CONTINUOUS
 62
     7
  5
7CF
 10
1.15827
 20
2.618296
 30
0.0
 11
1.157354
 21
2.616403
 31
0.0
  0
LINE
  8
0
  6
CONTINUOUS
 62
     7
  5
7D0
 10
1.157354
 20
2.616403
 30
0.0
 11
1.156474
 21
2.614525
 31
0.0
  0
LINE
  8
0
  6
CONTINUOUS
 62
     7
  5
7D1
 10
1.156474
 20
2.614525
 30
0.0
 11
1.155628
 21
2.612661
 31
0.0
  0
LINE
  8
0
  6
CONTINUOUS
 62
     7
  5
7D2
 10
1.155628
 20
2.612661
 30
0.0
 11
1.154816
 21
2.610809
 31
0.0
  0
LINE
  8
0
  6
CONTINUOUS
 62
     7
  5
7D3
 10
1.154816
 20
2.610809
 30
0.0
 11
1.154039
 21
2.608971
 31
0.0
  0
LINE
  8
0
  6
CONTINUOUS
 62
     7
  5
7D4
 10
1.154039
 20
2.608971
 30
0.0
 11
1.153295
 21
2.607144
 31
0.0
  0
LINE
  8
0
  6
CONTINUOUS
 62
     7
  5
7D5
 10
1.153295
 20
2.607144
 30
0.0
 11
1.152585
 21
2.605328
 31
0.0
  0
LINE
  8
0
  6
CONTINUOUS
 62
     7
  5
7D6
 10
1.152585
 20
2.605328
 30
0.0
 11
1.151908
 21
2.603523
 31
0.0
  0
LINE
  8
0
  6
CONTINUOUS
 62
     7
  5
7D7
 10
1.151908
 20
2.603523
 30
0.0
 11
1.151263
 21
2.601727
 31
0.0
  0
LINE
  8
0
  6
CONTINUOUS
 62
     7
  5
7D8
 10
1.151263
 20
2.601727
 30
0.0
 11
1.150651
 21
2.59994
 31
0.0
  0
LINE
  8
0
  6
CONTINUOUS
 62
     7
  5
7D9
 10
1.150651
 20
2.59994
 30
0.0
 11
1.150071
 21
2.598162
 31
0.0
  0
LINE
  8
0
  6
CONTINUOUS
 62
     7
  5
7DA
 10
1.150071
 20
2.598162
 30
0.0
 11
1.149524
 21
2.596391
 31
0.0
  0
LINE
  8
0
  6
CONTINUOUS
 62
     7
  5
7DB
 10
1.149524
 20
2.596391
 30
0.0
 11
1.149008
 21
2.594627
 31
0.0
  0
LINE
  8
0
  6
CONTINUOUS
 62
     7
  5
7DC
 10
1.149008
 20
2.594627
 30
0.0
 11
1.148523
 21
2.59287
 31
0.0
  0
LINE
  8
0
  6
CONTINUOUS
 62
     7
  5
7DD
 10
1.148523
 20
2.59287
 30
0.0
 11
1.14807
 21
2.591119
 31
0.0
  0
LINE
  8
0
  6
CONTINUOUS
 62
     7
  5
7DE
 10
1.14807
 20
2.591119
 30
0.0
 11
1.147649
 21
2.589373
 31
0.0
  0
LINE
  8
0
  6
CONTINUOUS
 62
     7
  5
7DF
 10
1.147649
 20
2.589373
 30
0.0
 11
1.147258
 21
2.587631
 31
0.0
  0
LINE
  8
0
  6
CONTINUOUS
 62
     7
  5
7E0
 10
1.147258
 20
2.587631
 30
0.0
 11
1.146899
 21
2.585893
 31
0.0
  0
LINE
  8
0
  6
CONTINUOUS
 62
     7
  5
7E1
 10
1.146899
 20
2.585893
 30
0.0
 11
1.146571
 21
2.584159
 31
0.0
  0
LINE
  8
0
  6
CONTINUOUS
 62
     7
  5
7E2
 10
1.146571
 20
2.584159
 30
0.0
 11
1.146273
 21
2.582427
 31
0.0
  0
LINE
  8
0
  6
CONTINUOUS
 62
     7
  5
7E3
 10
1.146273
 20
2.582427
 30
0.0
 11
1.146007
 21
2.580697
 31
0.0
  0
LINE
  8
0
  6
CONTINUOUS
 62
     7
  5
7E4
 10
1.146007
 20
2.580697
 30
0.0
 11
1.145772
 21
2.578969
 31
0.0
  0
LINE
  8
0
  6
CONTINUOUS
 62
     7
  5
7E5
 10
1.145772
 20
2.578969
 30
0.0
 11
1.145568
 21
2.577242
 31
0.0
  0
LINE
  8
0
  6
CONTINUOUS
 62
     7
  5
7E6
 10
1.145568
 20
2.577242
 30
0.0
 11
1.145395
 21
2.575514
 31
0.0
  0
LINE
  8
0
  6
CONTINUOUS
 62
     7
  5
7E7
 10
1.145395
 20
2.575514
 30
0.0
 11
1.145253
 21
2.573786
 31
0.0
  0
LINE
  8
0
  6
CONTINUOUS
 62
     7
  5
7E8
 10
1.145253
 20
2.573786
 30
0.0
 11
1.145143
 21
2.572057
 31
0.0
  0
LINE
  8
0
  6
CONTINUOUS
 62
     7
  5
7E9
 10
1.145143
 20
2.572057
 30
0.0
 11
1.145064
 21
2.570326
 31
0.0
  0
LINE
  8
0
  6
CONTINUOUS
 62
     7
  5
7EA
 10
1.145064
 20
2.570326
 30
0.0
 11
1.145016
 21
2.568593
 31
0.0
  0
LINE
  8
0
  6
CONTINUOUS
 62
     7
  5
7EB
 10
1.145016
 20
2.568593
 30
0.0
 11
1.145
 21
2.566856
 31
0.0
  0
LINE
  8
0
  6
CONTINUOUS
 62
     7
  5
7EC
 10
1.335462
 20
2.503708
 30
0.0
 11
1.164538
 21
2.503708
 31
0.0
  0
LINE
  8
0
  6
CONTINUOUS
 62
     7
  5
7ED
 10
-1.145
 20
3.037299
 30
0.0
 11
-1.145
 21
2.475299
 31
0.0
  0
LINE
  8
0
  6
CONTINUOUS
 62
     7
  5
7EE
 10
1.145
 20
2.475299
 30
0.0
 11
1.145
 21
3.037299
 31
0.0
  0
LINE
  8
0
  6
CONTINUOUS
 62
     7
  5
7EF
 10
1.288532
 20
3.996186
 30
0.0
 11
1.307087
 21
4.01474
 31
0.0
  0
LINE
  8
0
  6
CONTINUOUS
 62
     7
  5
7F0
 10
1.288532
 20
3.996186
 30
0.0
 11
1.444882
 21
3.996186
 31
0.0
  0
LINE
  8
0
  6
CONTINUOUS
 62
     7
  5
7F1
 10
1.307087
 20
4.01474
 30
0.0
 11
1.444882
 21
4.01474
 31
0.0
  0
LINE
  8
0
  6
CONTINUOUS
 62
     7
  5
7F2
 10
-1.307087
 20
4.01474
 30
0.0
 11
-1.288532
 21
3.996186
 31
0.0
  0
LINE
  8
0
  6
CONTINUOUS
 62
     7
  5
7F3
 10
-1.444882
 20
4.01474
 30
0.0
 11
-1.307087
 21
4.01474
 31
0.0
  0
LINE
  8
0
  6
CONTINUOUS
 62
     7
  5
7F4
 10
-1.444882
 20
3.996186
 30
0.0
 11
-1.288532
 21
3.996186
 31
0.0
  0
ARC
  8
0
  6
CONTINUOUS
 62
     7
  5
7F5
 10
1.444882
 20
3.97537
 30
0.0
 40
0.020815
 50
0.0
 51
90.0
  0
ARC
  8
0
  6
CONTINUOUS
 62
     7
  5
7F6
 10
1.444882
 20
3.97537
 30
0.0
 40
0.03937
 50
0.0
 51
90.0
  0
LINE
  8
0
  6
CONTINUOUS
 62
     7
  5
7F7
 10
1.465697
 20
3.97537
 30
0.0
 11
1.465697
 21
0.621677
 31
0.0
  0
ARC
  8
0
  6
CONTINUOUS
 62
     7
  5
7F8
 10
1.444882
 20
0.621677
 30
0.0
 40
0.020815
 50
350.133131
 51
360.0
  0
ARC
  8
0
  6
CONTINUOUS
 62
     7
  5
7F9
 10
1.444882
 20
0.621677
 30
0.0
 40
0.03937
 50
354.801874
 51
360.0
  0
ARC
  8
0
  6
CONTINUOUS
 62
     7
  5
7FA
 10
-1.444882
 20
0.621677
 30
0.0
 40
0.020815
 50
180.0
 51
189.866869
  0
ARC
  8
0
  6
CONTINUOUS
 62
     7
  5
7FB
 10
-1.444882
 20
0.621677
 30
0.0
 40
0.03937
 50
180.0
 51
185.198126
  0
LINE
  8
0
  6
CONTINUOUS
 62
     7
  5
7FC
 10
-1.465697
 20
0.621677
 30
0.0
 11
-1.465697
 21
3.97537
 31
0.0
  0
ARC
  8
0
  6
CONTINUOUS
 62
     7
  5
7FD
 10
-1.444882
 20
3.97537
 30
0.0
 40
0.020815
 50
90.0
 51
180.0
  0
ARC
  8
0
  6
CONTINUOUS
 62
     7
  5
7FE
 10
-1.444882
 20
3.97537
 30
0.0
 40
0.03937
 50
90.0
 51
180.0
  0
LINE
  8
0
  6
CONTINUOUS
 62
     7
  5
7FF
 10
-1.307087
 20
4.01474
 30
0.0
 11
-1.307087
 21
4.400197
 31
0.0
  0
ARC
  8
0
  6
CONTINUOUS
 62
     7
  5
800
 10
-1.188976
 20
4.400197
 30
0.0
 40
0.11811
 50
90.0
 51
180.0
  0
ARC
  8
0
  6
CONTINUOUS
 62
     7
  5
801
 10
-1.366142
 20
4.400197
 30
0.0
 40
0.11811
 50
90.0
 51
180.0
  0
LINE
  8
0
  6
CONTINUOUS
 62
     7
  5
802
 10
-1.484252
 20
4.400197
 30
0.0
 11
-1.484252
 21
3.97537
 31
0.0
  0
LINE
  8
0
  6
CONTINUOUS
 62
     7
  5
803
 10
-1.288532
 20
3.996186
 30
0.0
 11
-1.288532
 21
4.400197
 31
0.0
  0
LINE
  8
0
  6
CONTINUOUS
 62
     7
  5
804
 10
1.484252
 20
0.61811
 30
0.0
 11
1.484252
 21
0.621677
 31
0.0
  0
LINE
  8
0
  6
CONTINUOUS
 62
     7
  5
805
 10
1.288532
 20
4.400197
 30
0.0
 11
1.288532
 21
3.996186
 31
0.0
  0
ARC
  8
0
  6
CONTINUOUS
 62
     7
  5
806
 10
1.188976
 20
4.400197
 30
0.0
 40
0.099556
 50
0.0
 51
90.0
  0
ARC
  8
0
  6
CONTINUOUS
 62
     7
  5
807
 10
-1.188976
 20
4.400197
 30
0.0
 40
0.099556
 50
90.0
 51
180.0
  0
ARC
  8
0
  6
CONTINUOUS
 62
     7
  5
808
 10
1.188976
 20
4.400197
 30
0.0
 40
0.11811
 50
0.0
 51
90.0
  0
LINE
  8
0
  6
CONTINUOUS
 62
     7
  5
809
 10
1.307087
 20
4.400197
 30
0.0
 11
1.307087
 21
4.01474
 31
0.0
  0
LINE
  8
0
  6
CONTINUOUS
 62
     7
  5
80A
 10
-0.098425
 20
2.275205
 30
0.0
 11
-0.098425
 21
3.229134
 31
0.0
  0
LINE
  8
0
  6
CONTINUOUS
 62
     7
  5
80B
 10
0.098425
 20
3.229134
 30
0.0
 11
0.098425
 21
2.275205
 31
0.0
  0
LINE
  8
0
  6
CONTINUOUS
 62
     7
  5
80C
 10
-0.96189
 20
3.229134
 30
0.0
 11
-0.098425
 21
3.229134
 31
0.0
  0
ARC
  8
0
  6
CONTINUOUS
 62
     7
  5
80D
 10
-0.96189
 20
3.111024
 30
0.0
 40
0.11811
 50
90.0
 51
180.0
  0
LINE
  8
0
  6
CONTINUOUS
 62
     7
  5
80E
 10
-1.08
 20
0.61811
 30
0.0
 11
-1.08
 21
3.111024
 31
0.0
  0
LINE
  8
0
  6
CONTINUOUS
 62
     7
  5
80F
 10
1.08
 20
3.111024
 30
0.0
 11
1.08
 21
0.61811
 31
0.0
  0
ARC
  8
0
  6
CONTINUOUS
 62
     7
  5
810
 10
0.96189
 20
3.111024
 30
0.0
 40
0.11811
 50
0.0
 51
90.0
  0
LINE
  8
0
  6
CONTINUOUS
 62
     7
  5
811
 10
0.098425
 20
3.229134
 30
0.0
 11
0.96189
 21
3.229134
 31
0.0
  0
LINE
  8
0
  6
CONTINUOUS
 62
     7
  5
812
 10
1.30315
 20
0.0
 30
0.0
 11
1.5
 21
0.0
 31
0.0
  0
LINE
  8
0
  6
CONTINUOUS
 62
     7
  5
813
 10
-1.30315
 20
0.0
 30
0.0
 11
1.30315
 21
0.0
 31
0.0
  0
LINE
  8
0
  6
CONTINUOUS
 62
     7
  5
814
 10
-1.5
 20
0.0
 30
0.0
 11
-1.30315
 21
0.0
 31
0.0
  0
LINE
  8
0
  6
CONTINUOUS
 62
     7
  5
815
 10
1.5
 20
0.0
 30
0.0
 11
1.5
 21
0.61811
 31
0.0
  0
LINE
  8
0
  6
CONTINUOUS
 62
     7
  5
816
 10
-1.30315
 20
0.61811
 30
0.0
 11
-1.5
 21
0.61811
 31
0.0
  0
LINE
  8
0
  6
CONTINUOUS
 62
     7
  5
817
 10
1.30315
 20
0.61811
 30
0.0
 11
-1.30315
 21
0.61811
 31
0.0
  0
LINE
  8
0
  6
CONTINUOUS
 62
     7
  5
818
 10
1.5
 20
0.61811
 30
0.0
 11
1.30315
 21
0.61811
 31
0.0
  0
LINE
  8
0
  6
CONTINUOUS
 62
     7
  5
819
 10
-1.5
 20
0.0
 30
0.0
 11
-1.5
 21
0.61811
 31
0.0
  0
LINE
  8
0
  6
CONTINUOUS
 62
     7
  5
81A
 10
-1.484252
 20
0.621677
 30
0.0
 11
-1.484252
 21
0.61811
 31
0.0
  0
LINE
  8
0
  6
CONTINUOUS
 62
     7
  5
81B
 10
-1.5
 20
0.61811
 30
0.0
 11
-1.496622
 21
0.61811
 31
0.0
  0
LINE
  8
0
  6
CONTINUOUS
 62
     7
  5
81C
 10
1.5
 20
0.61811
 30
0.0
 11
1.5
 21
0.0
 31
0.0
  0
ARC
  8
0
  6
CONTINUOUS
 62
     7
  5
81D
 10
-1.366142
 20
4.400197
 30
0.0
 40
0.13048
 50
90.0
 51
180.0
  0
LINE
  8
0
  6
CONTINUOUS
 62
     7
  5
81E
 10
-1.496622
 20
0.61811
 30
0.0
 11
-1.496622
 21
4.400197
 31
0.0
  0
LINE
  8
0
  6
CONTINUOUS
 62
     7
  5
81F
 10
1.496622
 20
4.400197
 30
0.0
 11
1.496622
 21
0.61811
 31
0.0
  0
LINE
  8
0
  6
CONTINUOUS
 62
     7
  5
820
 10
1.484252
 20
3.97537
 30
0.0
 11
1.484252
 21
4.400197
 31
0.0
  0
ARC
  8
0
  6
CONTINUOUS
 62
     7
  5
821
 10
1.366142
 20
4.400197
 30
0.0
 40
0.13048
 50
0.0
 51
90.0
  0
ARC
  8
0
  6
CONTINUOUS
 62
     7
  5
822
 10
1.366142
 20
4.400197
 30
0.0
 40
0.11811
 50
0.0
 51
90.0
  0
LINE
  8
0
  6
CONTINUOUS
 62
     7
  5
823
 10
-0.098425
 20
2.648299
 30
0.0
 11
0.098425
 21
2.648299
 31
0.0
  0
LINE
  8
0
  6
CONTINUOUS
 62
     7
  5
824
 10
0.098425
 20
2.864299
 30
0.0
 11
-0.098425
 21
2.864299
 31
0.0
  0
LINE
  8
0
  6
CONTINUOUS
 62
     7
  5
825
 10
1.355
 20
2.648299
 30
0.0
 11
1.4052
 21
2.648299
 31
0.0
  0
LINE
  8
0
  6
CONTINUOUS
 62
     7
  5
826
 10
1.4052
 20
2.864299
 30
0.0
 11
1.355
 21
2.864299
 31
0.0
  0
LINE
  8
0
  6
CONTINUOUS
 62
     7
  5
827
 10
1.4052
 20
2.648299
 30
0.0
 11
1.43
 21
2.673099
 31
0.0
  0
LINE
  8
0
  6
CONTINUOUS
 62
     7
  5
828
 10
1.43
 20
2.839499
 30
0.0
 11
1.4052
 21
2.864299
 31
0.0
  0
LINE
  8
0
  6
CONTINUOUS
 62
     7
  5
829
 10
-1.31344
 20
3.009179
 30
0.0
 11
-1.333
 21
2.975299
 31
0.0
  0
LINE
  8
0
  6
CONTINUOUS
 62
     7
  5
82A
 10
-1.333
 20
2.537299
 30
0.0
 11
-1.31344
 21
2.50342
 31
0.0
  0
LINE
  8
0
  6
CONTINUOUS
 62
     7
  5
82B
 10
1.355
 20
2.975049
 30
0.0
 11
1.335462
 21
3.00889
 31
0.0
  0
LINE
  8
0
  6
CONTINUOUS
 62
     7
  5
82C
 10
1.335462
 20
2.503708
 30
0.0
 11
1.355
 21
2.537549
 31
0.0
  0
LINE
  8
0
  6
CONTINUOUS
 62
     7
  5
82D
 10
1.164538
 20
3.00889
 30
0.0
 11
1.145
 21
2.975049
 31
0.0
  0
LINE
  8
0
  6
CONTINUOUS
 62
     7
  5
82E
 10
1.14514
 20
2.537307
 30
0.0
 11
1.164538
 21
2.503708
 31
0.0
  0
LINE
  8
0
  6
CONTINUOUS
 62
     7
  5
82F
 10
-1.08
 20
3.037299
 30
0.0
 11
-1.145
 21
3.037299
 31
0.0
  0
LINE
  8
0
  6
CONTINUOUS
 62
     7
  5
830
 10
-1.145
 20
2.475299
 30
0.0
 11
-1.08
 21
2.475299
 31
0.0
  0
LINE
  8
0
  6
CONTINUOUS
 62
     7
  5
831
 10
1.08
 20
2.475299
 30
0.0
 11
1.145
 21
2.475299
 31
0.0
  0
LINE
  8
0
  6
CONTINUOUS
 62
     7
  5
832
 10
1.145
 20
3.037299
 30
0.0
 11
1.08
 21
3.037299
 31
0.0
  0
LINE
  8
0
  6
CONTINUOUS
 62
     3
  5
833
 10
0.0
 20
1.102362
 30
0.0
 11
0.0
 21
2.283465
 31
0.0
  0
LINE
  8
0
  6
CONTINUOUS
 62
     3
  5
834
 10
-0.590551
 20
1.692913
 30
0.0
 11
0.590551
 21
1.692913
 31
0.0
  0
LINE
  8
0
  6
CONTINUOUS
 62
     3
  5
835
 10
-0.687008
 20
0.0
 30
0.0
 11
-0.687008
 21
0.61811
 31
0.0
  0
LINE
  8
0
  6
CONTINUOUS
 62
     3
  5
836
 10
0.687008
 20
0.0
 30
0.0
 11
0.687008
 21
0.61811
 31
0.0
  0
LINE
  8
0
  6
CONTINUOUS
 62
     3
  5
837
 10
-1.333
 20
2.756299
 30
0.0
 11
1.43
 21
2.756299
 31
0.0
  0
ENDSEC
  0
EOF
