  0
SECTION
  2
HEADER
  9
$ACADVER
  1
AC1009
  9
$DWGCODEPAGE
  3
ansi_1250
  9
$INSBASE
 10
0.0
 20
0.0
 30
0.0
  9
$EXTMIN
 10
-1.968504
 20
0.0
 30
0.0
  9
$EXTMAX
 10
1.968504
 20
2.440945
 30
0.0
  9
$LIMMIN
 10
0.0
 20
0.0
  9
$LIMMAX
 10
0.0
 20
0.0
  9
$ORTHOMODE
 70
     0
  9
$REGENMODE
 70
     1
  9
$FILLMODE
 70
     1
  9
$QTEXTMODE
 70
     0
  9
$MIRRTEXT
 70
     1
  9
$DRAGMODE
 70
     2
  9
$LTSCALE
 40
1.0
  9
$OSMODE
 70
     0
  9
$ATTMODE
 70
     1
  9
$TEXTSIZE
 40
0.2
  9
$TRACEWID
 40
0.05
  9
$TEXTSTYLE
  7
STANDARD
  9
$CLAYER
  8
0
  9
$CELTYPE
  6
CONTINUOUS
  9
$CECOLOR
 62
   256
  9
$DIMSCALE
 40
1.0
  9
$DIMASZ
 40
0.18
  9
$DIMEXO
 40
0.0625
  9
$DIMDLI
 40
0.38
  9
$DIMRND
 40
0.0
  9
$DIMDLE
 40
0.0
  9
$DIMEXE
 40
0.18
  9
$DIMTP
 40
0.0
  9
$DIMTM
 40
0.0
  9
$DIMTXT
 40
0.18
  9
$DIMCEN
 40
0.09
  9
$DIMTSZ
 40
0.0
  9
$DIMTOL
 70
     0
  9
$DIMLIM
 70
     0
  9
$DIMTIH
 70
     1
  9
$DIMTOH
 70
     1
  9
$DIMSE1
 70
     0
  9
$DIMSE2
 70
     0
  9
$DIMTAD
 70
     0
  9
$DIMZIN
 70
     0
  9
$DIMBLK
  1

  9
$DIMASO
 70
     1
  9
$DIMSHO
 70
     1
  9
$DIMPOST
  1

  9
$DIMAPOST
  1

  9
$DIMALT
 70
     0
  9
$DIMALTD
 70
     2
  9
$DIMALTF
 40
25.4
  9
$DIMLFAC
 40
1.0
  9
$DIMTOFL
 70
     0
  9
$DIMTVP
 40
0.0
  9
$DIMTIX
 70
     0
  9
$DIMSOXD
 70
     0
  9
$DIMSAH
 70
     0
  9
$DIMBLK1
  1

  9
$DIMBLK2
  1

  9
$DIMSTYLE
  2
STANDARD
  9
$DIMCLRD
 70
     0
  9
$DIMCLRE
 70
     0
  9
$DIMCLRT
 70
     0
  9
$DIMTFAC
 40
1.0
  9
$DIMGAP
 40
0.09
  9
$LUNITS
 70
     2
  9
$LUPREC
 70
     4
  9
$AXISMODE
 70
     0
  9
$AXISUNIT
 10
0.0
 20
0.0
  9
$SKETCHINC
 40
0.1
  9
$FILLETRAD
 40
0.0
  9
$AUNITS
 70
     0
  9
$AUPREC
 70
     0
  9
$MENU
  1
acad
  9
$ELEVATION
 40
0.0
  9
$PELEVATION
 40
0.0
  9
$THICKNESS
 40
0.0
  9
$LIMCHECK
 70
     0
  9
$BLIPMODE
 70
     1
  9
$CHAMFERA
 40
0.0
  9
$CHAMFERB
 40
0.0
  9
$SKPOLY
 70
     0
  9
$TDCREATE
 40
0.000000000
  9
$TDUPDATE
 40
0.000000000
  9
$TDINDWG
 40
0.0000000000
  9
$TDUSRTIMER
 40
0.0000000000
  9
$USRTIMER
 70
     1
  9
$ANGBASE
 50
0.0
  9
$ANGDIR
 70
     0
  9
$PDMODE
 70
     0
  9
$PDSIZE
 40
0.0
  9
$PLINEWID
 40
0.0
  9
$COORDS
 70
     0
  9
$SPLFRAME
 70
     0
  9
$SPLINETYPE
 70
     6
  9
$SPLINESEGS
 70
     8
  9
$ATTDIA
 70
     0
  9
$ATTREQ
 70
     1
  9
$HANDLING
 70
     1
  9
$HANDSEED
  5
32F
  9
$SURFTAB1
 70
     6
  9
$SURFTAB2
 70
     6
  9
$SURFTYPE
 70
     6
  9
$SURFU
 70
     6
  9
$SURFV
 70
     6
  9
$UCSNAME
  2

  9
$UCSORG
 10
0.0
 20
0.0
 30
0.0
  9
$UCSXDIR
 10
1.0
 20
0.0
 30
0.0
  9
$UCSYDIR
 10
0.0
 20
1.0
 30
0.0
  9
$PUCSNAME
  2

  9
$PUCSORG
 10
0.0
 20
0.0
 30
0.0
  9
$PUCSXDIR
 10
1.0
 20
0.0
 30
0.0
  9
$PUCSYDIR
 10
0.0
 20
1.0
 30
0.0
  9
$USERI1
 70
     0
  9
$USERI2
 70
     0
  9
$USERI3
 70
     0
  9
$USERI4
 70
     0
  9
$USERI5
 70
     0
  9
$USERR1
 40
0.0
  9
$USERR2
 40
0.0
  9
$USERR3
 40
0.0
  9
$USERR4
 40
0.0
  9
$USERR5
 40
0.0
  9
$WORLDVIEW
 70
     1
  9
$SHADEDGE
 70
     3
  9
$SHADEDIF
 70
    70
  9
$TILEMODE
 70
     1
  9
$MAXACTVP
 70
    16
  9
$PINSBASE
 10
0.0
 20
0.0
 30
0.0
  9
$PLIMCHECK
 70
     0
  9
$PEXTMIN
 10
1.000000E+20
 20
1.000000E+20
 30
1.000000E+20
  9
$PEXTMAX
 10
-1.000000E+20
 20
-1.000000E+20
 30
-1.000000E+20
  9
$PLIMMIN
 10
0.0
 20
0.0
  9
$PLIMMAX
 10
12.0
 20
9.0
  9
$UNITMODE
 70
     0
  9
$VISRETAIN
 70
     0
  9
$PLINEGEN
 70
     1
  9
$PSLTSCALE
 70
     0
  9
$TREEDEPTH
 70
  3020
  0
ENDSEC
  0
SECTION
  2
TABLES
  0
TABLE
  2
VPORT
 70
     1
  0
VPORT
  2
*ACTIVE
 70
     0
 10
0.0
 20
0.0
 11
1.0
 21
1.0
 12
6.591288
 22
4.579184
 13
0.0
 23
0.0
 14
1.0
 24
1.0
 15
0.0
 25
0.0
 16
0.0
 26
0.0
 36
1.0
 17
0.0
 27
0.0
 37
0.0
 40
9.158369
 41
0.688564
 42
50.0
 43
0.0
 44
0.0
 50
0.0
 51
0.0
 71
     0
 72
   100
 73
     1
 74
     1
 75
     0
 76
     0
 77
     0
 78
     0
  0
ENDTAB
  0
TABLE
  2
LTYPE
 70
     5
  0
LTYPE
  2
CONTINUOUS
 70
    64
  3
Solid line
 72
    65
 73
     0
 40
0.0
  0
LTYPE
  2
CENTER
 70
    64
  3
Center ____ _ ____ _ ____ _ ____ _ ____ _ ____
 72
    65
 73
     4
 40
50.8
 49
31.75
 49
-6.35
 49
6.35
 49
-6.35
  0
LTYPE
  2
HIDDEN
 70
    64
  3
Hidden __ __ __ __ __ __ __ __ __ __ __ __ __ __
 72
    65
 73
     2
 40
9.525
 49
6.35
 49
-3.175
  0
LTYPE
  2
CENTER2
 70
    64
  3
Center (.5x) ___ _ ___ _ ___ _ ___ _ ___ _ ___
 72
    65
 73
     4
 40
28.575
 49
19.05
 49
-3.175
 49
3.175
 49
-3.175
  0
LTYPE
  2
HIDDEN2
 70
    64
  3
Hidden (.5x) _ _ _ _ _ _ _ _ _ _ _ _ _ _ _ _ _
 72
    65
 73
     2
 40
4.7625
 49
3.175
 49
-1.5875
  0
ENDTAB
  0
TABLE
  2
LAYER
 70
     1
  0
LAYER
  2
0
 70
     0
 62
     7
  6
CONTINUOUS
  0
ENDTAB
  0
TABLE
  2
STYLE
 70
     1
  0
STYLE
  2
STANDARD
 70
     0
 40
0.0
 41
1.0
 50
0.0
 71
     0
 42
0.0
  3
txt
  4

  0
ENDTAB
  0
TABLE
  2
VIEW
 70
     0
  0
ENDTAB
  0
TABLE
  2
UCS
 70
     0
  0
ENDTAB
  0
TABLE
  2
APPID
 70
     1
  0
APPID
  2
ACAD
 70
     0
  0
ENDTAB
  0
TABLE
  2
DIMSTYLE
 70
     1
  0
DIMSTYLE
  2
STANDARD
 70
     0
  3

  4

  5

  6

  7

 40
1.0
 41
0.18
 42
0.0625
 43
0.38
 44
0.18
 45
0.0
 46
0.0
 47
0.0
 48
0.0
 71
     0
 72
     0
 73
     1
 74
     1
 75
     0
 76
     0
 77
     0
 78
     0
140
0.18
141
0.09
142
0.0
143
25.4
144
1.0
145
0.0
146
1.0
147
0.09
170
     0
171
     2
172
     0
173
     0
174
     0
175
     0
176
     0
177
     0
178
     0
  0
ENDTAB
  0
ENDSEC
  0
SECTION
  2
BLOCKS
  0
ENDSEC
  0
SECTION
  2
ENTITIES
  0
LINE
  8
0
  6
CONTINUOUS
 62
     7
  5
1BE
 10
-0.585335
 20
1.338583
 30
0.0
 11
-0.587045
 21
1.33862
 31
0.0
  0
LINE
  8
0
  6
CONTINUOUS
 62
     7
  5
1BF
 10
-0.587045
 20
1.33862
 30
0.0
 11
-0.588764
 21
1.338733
 31
0.0
  0
LINE
  8
0
  6
CONTINUOUS
 62
     7
  5
1C0
 10
-0.588764
 20
1.338733
 30
0.0
 11
-0.590486
 21
1.338925
 31
0.0
  0
LINE
  8
0
  6
CONTINUOUS
 62
     7
  5
1C1
 10
-0.590486
 20
1.338925
 30
0.0
 11
-0.592209
 21
1.339195
 31
0.0
  0
LINE
  8
0
  6
CONTINUOUS
 62
     7
  5
1C2
 10
-0.592209
 20
1.339195
 30
0.0
 11
-0.59393
 21
1.339546
 31
0.0
  0
LINE
  8
0
  6
CONTINUOUS
 62
     7
  5
1C3
 10
-0.59393
 20
1.339546
 30
0.0
 11
-0.595644
 21
1.339979
 31
0.0
  0
LINE
  8
0
  6
CONTINUOUS
 62
     7
  5
1C4
 10
-0.595644
 20
1.339979
 30
0.0
 11
-0.597348
 21
1.340493
 31
0.0
  0
LINE
  8
0
  6
CONTINUOUS
 62
     7
  5
1C5
 10
-0.597348
 20
1.340493
 30
0.0
 11
-0.599039
 21
1.341089
 31
0.0
  0
LINE
  8
0
  6
CONTINUOUS
 62
     7
  5
1C6
 10
-0.599039
 20
1.341089
 30
0.0
 11
-0.600713
 21
1.341766
 31
0.0
  0
LINE
  8
0
  6
CONTINUOUS
 62
     7
  5
1C7
 10
-0.600713
 20
1.341766
 30
0.0
 11
-0.602368
 21
1.342524
 31
0.0
  0
LINE
  8
0
  6
CONTINUOUS
 62
     7
  5
1C8
 10
-0.602368
 20
1.342524
 30
0.0
 11
-0.604
 21
1.343361
 31
0.0
  0
LINE
  8
0
  6
CONTINUOUS
 62
     7
  5
1C9
 10
-0.604
 20
1.343361
 30
0.0
 11
-0.605606
 21
1.344277
 31
0.0
  0
LINE
  8
0
  6
CONTINUOUS
 62
     7
  5
1CA
 10
-0.605606
 20
1.344277
 30
0.0
 11
-0.607185
 21
1.34527
 31
0.0
  0
LINE
  8
0
  6
CONTINUOUS
 62
     7
  5
1CB
 10
-0.607185
 20
1.34527
 30
0.0
 11
-0.608733
 21
1.346338
 31
0.0
  0
LINE
  8
0
  6
CONTINUOUS
 62
     7
  5
1CC
 10
-0.608733
 20
1.346338
 30
0.0
 11
-0.610249
 21
1.34748
 31
0.0
  0
LINE
  8
0
  6
CONTINUOUS
 62
     7
  5
1CD
 10
-0.610249
 20
1.34748
 30
0.0
 11
-0.611731
 21
1.348693
 31
0.0
  0
LINE
  8
0
  6
CONTINUOUS
 62
     7
  5
1CE
 10
-0.611731
 20
1.348693
 30
0.0
 11
-0.613175
 21
1.349975
 31
0.0
  0
LINE
  8
0
  6
CONTINUOUS
 62
     7
  5
1CF
 10
-0.613175
 20
1.349975
 30
0.0
 11
-0.614581
 21
1.351322
 31
0.0
  0
LINE
  8
0
  6
CONTINUOUS
 62
     7
  5
1D0
 10
-0.614581
 20
1.351322
 30
0.0
 11
-0.615945
 21
1.352732
 31
0.0
  0
LINE
  8
0
  6
CONTINUOUS
 62
     7
  5
1D1
 10
-0.615945
 20
1.352732
 30
0.0
 11
-0.617266
 21
1.3542
 31
0.0
  0
LINE
  8
0
  6
CONTINUOUS
 62
     7
  5
1D2
 10
-0.617266
 20
1.3542
 30
0.0
 11
-0.618542
 21
1.355723
 31
0.0
  0
LINE
  8
0
  6
CONTINUOUS
 62
     7
  5
1D3
 10
-0.618542
 20
1.355723
 30
0.0
 11
-0.619772
 21
1.357296
 31
0.0
  0
LINE
  8
0
  6
CONTINUOUS
 62
     7
  5
1D4
 10
-0.619772
 20
1.357296
 30
0.0
 11
-0.620955
 21
1.358915
 31
0.0
  0
LINE
  8
0
  6
CONTINUOUS
 62
     7
  5
1D5
 10
-0.620955
 20
1.358915
 30
0.0
 11
-0.622089
 21
1.360575
 31
0.0
  0
LINE
  8
0
  6
CONTINUOUS
 62
     7
  5
1D6
 10
-0.622089
 20
1.360575
 30
0.0
 11
-0.623174
 21
1.362274
 31
0.0
  0
LINE
  8
0
  6
CONTINUOUS
 62
     7
  5
1D7
 10
-0.623174
 20
1.362274
 30
0.0
 11
-0.624227
 21
1.364034
 31
0.0
  0
LINE
  8
0
  6
CONTINUOUS
 62
     7
  5
1D8
 10
-0.624227
 20
1.364034
 30
0.0
 11
-0.625249
 21
1.365862
 31
0.0
  0
LINE
  8
0
  6
CONTINUOUS
 62
     7
  5
1D9
 10
-0.625249
 20
1.365862
 30
0.0
 11
-0.626238
 21
1.367756
 31
0.0
  0
LINE
  8
0
  6
CONTINUOUS
 62
     7
  5
1DA
 10
-0.626238
 20
1.367756
 30
0.0
 11
-0.627191
 21
1.369713
 31
0.0
  0
LINE
  8
0
  6
CONTINUOUS
 62
     7
  5
1DB
 10
-0.627191
 20
1.369713
 30
0.0
 11
-0.628106
 21
1.371731
 31
0.0
  0
LINE
  8
0
  6
CONTINUOUS
 62
     7
  5
1DC
 10
-0.628106
 20
1.371731
 30
0.0
 11
-0.628979
 21
1.373806
 31
0.0
  0
LINE
  8
0
  6
CONTINUOUS
 62
     7
  5
1DD
 10
-0.628979
 20
1.373806
 30
0.0
 11
-0.62981
 21
1.375934
 31
0.0
  0
LINE
  8
0
  6
CONTINUOUS
 62
     7
  5
1DE
 10
-0.62981
 20
1.375934
 30
0.0
 11
-0.630596
 21
1.378114
 31
0.0
  0
LINE
  8
0
  6
CONTINUOUS
 62
     7
  5
1DF
 10
-0.630596
 20
1.378114
 30
0.0
 11
-0.631336
 21
1.38034
 31
0.0
  0
LINE
  8
0
  6
CONTINUOUS
 62
     7
  5
1E0
 10
-0.631336
 20
1.38034
 30
0.0
 11
-0.632028
 21
1.382609
 31
0.0
  0
LINE
  8
0
  6
CONTINUOUS
 62
     7
  5
1E1
 10
-0.532078
 20
1.382609
 30
0.0
 11
-0.533028
 21
1.38034
 31
0.0
  0
LINE
  8
0
  6
CONTINUOUS
 62
     7
  5
1E2
 10
-0.533028
 20
1.38034
 30
0.0
 11
-0.534029
 21
1.378114
 31
0.0
  0
LINE
  8
0
  6
CONTINUOUS
 62
     7
  5
1E3
 10
-0.534029
 20
1.378114
 30
0.0
 11
-0.535079
 21
1.375934
 31
0.0
  0
LINE
  8
0
  6
CONTINUOUS
 62
     7
  5
1E4
 10
-0.535079
 20
1.375934
 30
0.0
 11
-0.536176
 21
1.373806
 31
0.0
  0
LINE
  8
0
  6
CONTINUOUS
 62
     7
  5
1E5
 10
-0.536176
 20
1.373806
 30
0.0
 11
-0.537316
 21
1.371731
 31
0.0
  0
LINE
  8
0
  6
CONTINUOUS
 62
     7
  5
1E6
 10
-0.537316
 20
1.371731
 30
0.0
 11
-0.538497
 21
1.369713
 31
0.0
  0
LINE
  8
0
  6
CONTINUOUS
 62
     7
  5
1E7
 10
-0.538497
 20
1.369713
 30
0.0
 11
-0.539715
 21
1.367756
 31
0.0
  0
LINE
  8
0
  6
CONTINUOUS
 62
     7
  5
1E8
 10
-0.539715
 20
1.367756
 30
0.0
 11
-0.540966
 21
1.365862
 31
0.0
  0
LINE
  8
0
  6
CONTINUOUS
 62
     7
  5
1E9
 10
-0.540966
 20
1.365862
 30
0.0
 11
-0.542247
 21
1.364034
 31
0.0
  0
LINE
  8
0
  6
CONTINUOUS
 62
     7
  5
1EA
 10
-0.542247
 20
1.364034
 30
0.0
 11
-0.543555
 21
1.362274
 31
0.0
  0
LINE
  8
0
  6
CONTINUOUS
 62
     7
  5
1EB
 10
-0.543555
 20
1.362274
 30
0.0
 11
-0.544891
 21
1.360575
 31
0.0
  0
LINE
  8
0
  6
CONTINUOUS
 62
     7
  5
1EC
 10
-0.544891
 20
1.360575
 30
0.0
 11
-0.546275
 21
1.358915
 31
0.0
  0
LINE
  8
0
  6
CONTINUOUS
 62
     7
  5
1ED
 10
-0.546275
 20
1.358915
 30
0.0
 11
-0.547706
 21
1.357296
 31
0.0
  0
LINE
  8
0
  6
CONTINUOUS
 62
     7
  5
1EE
 10
-0.547706
 20
1.357296
 30
0.0
 11
-0.549182
 21
1.355723
 31
0.0
  0
LINE
  8
0
  6
CONTINUOUS
 62
     7
  5
1EF
 10
-0.549182
 20
1.355723
 30
0.0
 11
-0.5507
 21
1.3542
 31
0.0
  0
LINE
  8
0
  6
CONTINUOUS
 62
     7
  5
1F0
 10
-0.5507
 20
1.3542
 30
0.0
 11
-0.552258
 21
1.352732
 31
0.0
  0
LINE
  8
0
  6
CONTINUOUS
 62
     7
  5
1F1
 10
-0.552258
 20
1.352732
 30
0.0
 11
-0.553852
 21
1.351322
 31
0.0
  0
LINE
  8
0
  6
CONTINUOUS
 62
     7
  5
1F2
 10
-0.553852
 20
1.351322
 30
0.0
 11
-0.555481
 21
1.349975
 31
0.0
  0
LINE
  8
0
  6
CONTINUOUS
 62
     7
  5
1F3
 10
-0.555481
 20
1.349975
 30
0.0
 11
-0.557141
 21
1.348693
 31
0.0
  0
LINE
  8
0
  6
CONTINUOUS
 62
     7
  5
1F4
 10
-0.557141
 20
1.348693
 30
0.0
 11
-0.558829
 21
1.34748
 31
0.0
  0
LINE
  8
0
  6
CONTINUOUS
 62
     7
  5
1F5
 10
-0.558829
 20
1.34748
 30
0.0
 11
-0.560542
 21
1.346338
 31
0.0
  0
LINE
  8
0
  6
CONTINUOUS
 62
     7
  5
1F6
 10
-0.560542
 20
1.346338
 30
0.0
 11
-0.562277
 21
1.34527
 31
0.0
  0
LINE
  8
0
  6
CONTINUOUS
 62
     7
  5
1F7
 10
-0.562277
 20
1.34527
 30
0.0
 11
-0.56403
 21
1.344277
 31
0.0
  0
LINE
  8
0
  6
CONTINUOUS
 62
     7
  5
1F8
 10
-0.56403
 20
1.344277
 30
0.0
 11
-0.565799
 21
1.343361
 31
0.0
  0
LINE
  8
0
  6
CONTINUOUS
 62
     7
  5
1F9
 10
-0.565799
 20
1.343361
 30
0.0
 11
-0.567581
 21
1.342524
 31
0.0
  0
LINE
  8
0
  6
CONTINUOUS
 62
     7
  5
1FA
 10
-0.567581
 20
1.342524
 30
0.0
 11
-0.569372
 21
1.341766
 31
0.0
  0
LINE
  8
0
  6
CONTINUOUS
 62
     7
  5
1FB
 10
-0.569372
 20
1.341766
 30
0.0
 11
-0.571169
 21
1.341089
 31
0.0
  0
LINE
  8
0
  6
CONTINUOUS
 62
     7
  5
1FC
 10
-0.571169
 20
1.341089
 30
0.0
 11
-0.572969
 21
1.340493
 31
0.0
  0
LINE
  8
0
  6
CONTINUOUS
 62
     7
  5
1FD
 10
-0.572969
 20
1.340493
 30
0.0
 11
-0.574767
 21
1.339979
 31
0.0
  0
LINE
  8
0
  6
CONTINUOUS
 62
     7
  5
1FE
 10
-0.574767
 20
1.339979
 30
0.0
 11
-0.576561
 21
1.339546
 31
0.0
  0
LINE
  8
0
  6
CONTINUOUS
 62
     7
  5
1FF
 10
-0.576561
 20
1.339546
 30
0.0
 11
-0.578347
 21
1.339195
 31
0.0
  0
LINE
  8
0
  6
CONTINUOUS
 62
     7
  5
200
 10
-0.578347
 20
1.339195
 30
0.0
 11
-0.58012
 21
1.338925
 31
0.0
  0
LINE
  8
0
  6
CONTINUOUS
 62
     7
  5
201
 10
-0.58012
 20
1.338925
 30
0.0
 11
-0.581879
 21
1.338733
 31
0.0
  0
LINE
  8
0
  6
CONTINUOUS
 62
     7
  5
202
 10
-0.581879
 20
1.338733
 30
0.0
 11
-0.583618
 21
1.33862
 31
0.0
  0
LINE
  8
0
  6
CONTINUOUS
 62
     7
  5
203
 10
-0.583618
 20
1.33862
 30
0.0
 11
-0.585335
 21
1.338583
 31
0.0
  0
LINE
  8
0
  6
CONTINUOUS
 62
     7
  5
204
 10
-0.524947
 20
1.417598
 30
0.0
 11
-0.524975
 21
1.416605
 31
0.0
  0
LINE
  8
0
  6
CONTINUOUS
 62
     7
  5
205
 10
-0.524975
 20
1.416605
 30
0.0
 11
-0.525013
 21
1.415607
 31
0.0
  0
LINE
  8
0
  6
CONTINUOUS
 62
     7
  5
206
 10
-0.525013
 20
1.415607
 30
0.0
 11
-0.525061
 21
1.414606
 31
0.0
  0
LINE
  8
0
  6
CONTINUOUS
 62
     7
  5
207
 10
-0.525061
 20
1.414606
 30
0.0
 11
-0.525119
 21
1.413601
 31
0.0
  0
LINE
  8
0
  6
CONTINUOUS
 62
     7
  5
208
 10
-0.525119
 20
1.413601
 30
0.0
 11
-0.525187
 21
1.412594
 31
0.0
  0
LINE
  8
0
  6
CONTINUOUS
 62
     7
  5
209
 10
-0.525187
 20
1.412594
 30
0.0
 11
-0.525266
 21
1.411583
 31
0.0
  0
LINE
  8
0
  6
CONTINUOUS
 62
     7
  5
20A
 10
-0.525266
 20
1.411583
 30
0.0
 11
-0.525355
 21
1.41057
 31
0.0
  0
LINE
  8
0
  6
CONTINUOUS
 62
     7
  5
20B
 10
-0.525355
 20
1.41057
 30
0.0
 11
-0.525454
 21
1.409555
 31
0.0
  0
LINE
  8
0
  6
CONTINUOUS
 62
     7
  5
20C
 10
-0.525454
 20
1.409555
 30
0.0
 11
-0.525563
 21
1.408538
 31
0.0
  0
LINE
  8
0
  6
CONTINUOUS
 62
     7
  5
20D
 10
-0.525563
 20
1.408538
 30
0.0
 11
-0.525684
 21
1.40752
 31
0.0
  0
LINE
  8
0
  6
CONTINUOUS
 62
     7
  5
20E
 10
-0.525684
 20
1.40752
 30
0.0
 11
-0.525814
 21
1.406501
 31
0.0
  0
LINE
  8
0
  6
CONTINUOUS
 62
     7
  5
20F
 10
-0.525814
 20
1.406501
 30
0.0
 11
-0.525956
 21
1.405481
 31
0.0
  0
LINE
  8
0
  6
CONTINUOUS
 62
     7
  5
210
 10
-0.525956
 20
1.405481
 30
0.0
 11
-0.526108
 21
1.404461
 31
0.0
  0
LINE
  8
0
  6
CONTINUOUS
 62
     7
  5
211
 10
-0.526108
 20
1.404461
 30
0.0
 11
-0.52627
 21
1.403441
 31
0.0
  0
LINE
  8
0
  6
CONTINUOUS
 62
     7
  5
212
 10
-0.52627
 20
1.403441
 30
0.0
 11
-0.526444
 21
1.402421
 31
0.0
  0
LINE
  8
0
  6
CONTINUOUS
 62
     7
  5
213
 10
-0.526444
 20
1.402421
 30
0.0
 11
-0.526627
 21
1.401402
 31
0.0
  0
LINE
  8
0
  6
CONTINUOUS
 62
     7
  5
214
 10
-0.526627
 20
1.401402
 30
0.0
 11
-0.526822
 21
1.400384
 31
0.0
  0
LINE
  8
0
  6
CONTINUOUS
 62
     7
  5
215
 10
-0.526822
 20
1.400384
 30
0.0
 11
-0.527027
 21
1.399367
 31
0.0
  0
LINE
  8
0
  6
CONTINUOUS
 62
     7
  5
216
 10
-0.527027
 20
1.399367
 30
0.0
 11
-0.527243
 21
1.398353
 31
0.0
  0
LINE
  8
0
  6
CONTINUOUS
 62
     7
  5
217
 10
-0.527243
 20
1.398353
 30
0.0
 11
-0.527469
 21
1.39734
 31
0.0
  0
LINE
  8
0
  6
CONTINUOUS
 62
     7
  5
218
 10
-0.527469
 20
1.39734
 30
0.0
 11
-0.527705
 21
1.396329
 31
0.0
  0
LINE
  8
0
  6
CONTINUOUS
 62
     7
  5
219
 10
-0.527705
 20
1.396329
 30
0.0
 11
-0.527952
 21
1.395322
 31
0.0
  0
LINE
  8
0
  6
CONTINUOUS
 62
     7
  5
21A
 10
-0.527952
 20
1.395322
 30
0.0
 11
-0.52821
 21
1.394317
 31
0.0
  0
LINE
  8
0
  6
CONTINUOUS
 62
     7
  5
21B
 10
-0.52821
 20
1.394317
 30
0.0
 11
-0.528478
 21
1.393316
 31
0.0
  0
LINE
  8
0
  6
CONTINUOUS
 62
     7
  5
21C
 10
-0.528478
 20
1.393316
 30
0.0
 11
-0.528755
 21
1.392319
 31
0.0
  0
LINE
  8
0
  6
CONTINUOUS
 62
     7
  5
21D
 10
-0.528755
 20
1.392319
 30
0.0
 11
-0.529044
 21
1.391325
 31
0.0
  0
LINE
  8
0
  6
CONTINUOUS
 62
     7
  5
21E
 10
-0.529044
 20
1.391325
 30
0.0
 11
-0.529342
 21
1.390336
 31
0.0
  0
LINE
  8
0
  6
CONTINUOUS
 62
     7
  5
21F
 10
-0.529342
 20
1.390336
 30
0.0
 11
-0.52965
 21
1.389351
 31
0.0
  0
LINE
  8
0
  6
CONTINUOUS
 62
     7
  5
220
 10
-0.52965
 20
1.389351
 30
0.0
 11
-0.529968
 21
1.388372
 31
0.0
  0
LINE
  8
0
  6
CONTINUOUS
 62
     7
  5
221
 10
-0.529968
 20
1.388372
 30
0.0
 11
-0.530296
 21
1.387397
 31
0.0
  0
LINE
  8
0
  6
CONTINUOUS
 62
     7
  5
222
 10
-0.530296
 20
1.387397
 30
0.0
 11
-0.530633
 21
1.386428
 31
0.0
  0
LINE
  8
0
  6
CONTINUOUS
 62
     7
  5
223
 10
-0.530633
 20
1.386428
 30
0.0
 11
-0.53098
 21
1.385464
 31
0.0
  0
LINE
  8
0
  6
CONTINUOUS
 62
     7
  5
224
 10
-0.53098
 20
1.385464
 30
0.0
 11
-0.531337
 21
1.384506
 31
0.0
  0
LINE
  8
0
  6
CONTINUOUS
 62
     7
  5
225
 10
-0.531337
 20
1.384506
 30
0.0
 11
-0.531703
 21
1.383554
 31
0.0
  0
LINE
  8
0
  6
CONTINUOUS
 62
     7
  5
226
 10
-0.531703
 20
1.383554
 30
0.0
 11
-0.532078
 21
1.382609
 31
0.0
  0
LINE
  8
0
  6
CONTINUOUS
 62
     7
  5
227
 10
-0.581255
 20
1.496063
 30
0.0
 11
-0.578844
 21
1.495989
 31
0.0
  0
LINE
  8
0
  6
CONTINUOUS
 62
     7
  5
228
 10
-0.578844
 20
1.495989
 30
0.0
 11
-0.576398
 21
1.495764
 31
0.0
  0
LINE
  8
0
  6
CONTINUOUS
 62
     7
  5
229
 10
-0.576398
 20
1.495764
 30
0.0
 11
-0.573929
 21
1.495384
 31
0.0
  0
LINE
  8
0
  6
CONTINUOUS
 62
     7
  5
22A
 10
-0.573929
 20
1.495384
 30
0.0
 11
-0.571445
 21
1.494844
 31
0.0
  0
LINE
  8
0
  6
CONTINUOUS
 62
     7
  5
22B
 10
-0.571445
 20
1.494844
 30
0.0
 11
-0.568956
 21
1.494143
 31
0.0
  0
LINE
  8
0
  6
CONTINUOUS
 62
     7
  5
22C
 10
-0.568956
 20
1.494143
 30
0.0
 11
-0.566474
 21
1.493281
 31
0.0
  0
LINE
  8
0
  6
CONTINUOUS
 62
     7
  5
22D
 10
-0.566474
 20
1.493281
 30
0.0
 11
-0.564007
 21
1.49226
 31
0.0
  0
LINE
  8
0
  6
CONTINUOUS
 62
     7
  5
22E
 10
-0.564007
 20
1.49226
 30
0.0
 11
-0.561566
 21
1.49108
 31
0.0
  0
LINE
  8
0
  6
CONTINUOUS
 62
     7
  5
22F
 10
-0.561566
 20
1.49108
 30
0.0
 11
-0.559159
 21
1.489747
 31
0.0
  0
LINE
  8
0
  6
CONTINUOUS
 62
     7
  5
230
 10
-0.559159
 20
1.489747
 30
0.0
 11
-0.556794
 21
1.488263
 31
0.0
  0
LINE
  8
0
  6
CONTINUOUS
 62
     7
  5
231
 10
-0.556794
 20
1.488263
 30
0.0
 11
-0.55448
 21
1.486634
 31
0.0
  0
LINE
  8
0
  6
CONTINUOUS
 62
     7
  5
232
 10
-0.55448
 20
1.486634
 30
0.0
 11
-0.552225
 21
1.484867
 31
0.0
  0
LINE
  8
0
  6
CONTINUOUS
 62
     7
  5
233
 10
-0.552225
 20
1.484867
 30
0.0
 11
-0.550036
 21
1.48297
 31
0.0
  0
LINE
  8
0
  6
CONTINUOUS
 62
     7
  5
234
 10
-0.550036
 20
1.48297
 30
0.0
 11
-0.547923
 21
1.480951
 31
0.0
  0
LINE
  8
0
  6
CONTINUOUS
 62
     7
  5
235
 10
-0.547923
 20
1.480951
 30
0.0
 11
-0.545893
 21
1.478822
 31
0.0
  0
LINE
  8
0
  6
CONTINUOUS
 62
     7
  5
236
 10
-0.545893
 20
1.478822
 30
0.0
 11
-0.543951
 21
1.476595
 31
0.0
  0
LINE
  8
0
  6
CONTINUOUS
 62
     7
  5
237
 10
-0.543951
 20
1.476595
 30
0.0
 11
-0.542105
 21
1.474281
 31
0.0
  0
LINE
  8
0
  6
CONTINUOUS
 62
     7
  5
238
 10
-0.542105
 20
1.474281
 30
0.0
 11
-0.540352
 21
1.471885
 31
0.0
  0
LINE
  8
0
  6
CONTINUOUS
 62
     7
  5
239
 10
-0.540352
 20
1.471885
 30
0.0
 11
-0.53866
 21
1.469361
 31
0.0
  0
LINE
  8
0
  6
CONTINUOUS
 62
     7
  5
23A
 10
-0.53866
 20
1.469361
 30
0.0
 11
-0.537031
 21
1.466706
 31
0.0
  0
LINE
  8
0
  6
CONTINUOUS
 62
     7
  5
23B
 10
-0.537031
 20
1.466706
 30
0.0
 11
-0.535476
 21
1.463925
 31
0.0
  0
LINE
  8
0
  6
CONTINUOUS
 62
     7
  5
23C
 10
-0.535476
 20
1.463925
 30
0.0
 11
-0.534004
 21
1.461028
 31
0.0
  0
LINE
  8
0
  6
CONTINUOUS
 62
     7
  5
23D
 10
-0.534004
 20
1.461028
 30
0.0
 11
-0.532624
 21
1.458024
 31
0.0
  0
LINE
  8
0
  6
CONTINUOUS
 62
     7
  5
23E
 10
-0.532624
 20
1.458024
 30
0.0
 11
-0.531343
 21
1.454922
 31
0.0
  0
LINE
  8
0
  6
CONTINUOUS
 62
     7
  5
23F
 10
-0.531343
 20
1.454922
 30
0.0
 11
-0.530167
 21
1.451734
 31
0.0
  0
LINE
  8
0
  6
CONTINUOUS
 62
     7
  5
240
 10
-0.530167
 20
1.451734
 30
0.0
 11
-0.529103
 21
1.44847
 31
0.0
  0
LINE
  8
0
  6
CONTINUOUS
 62
     7
  5
241
 10
-0.529103
 20
1.44847
 30
0.0
 11
-0.528154
 21
1.445139
 31
0.0
  0
LINE
  8
0
  6
CONTINUOUS
 62
     7
  5
242
 10
-0.528154
 20
1.445139
 30
0.0
 11
-0.527323
 21
1.441754
 31
0.0
  0
LINE
  8
0
  6
CONTINUOUS
 62
     7
  5
243
 10
-0.527323
 20
1.441754
 30
0.0
 11
-0.526615
 21
1.438326
 31
0.0
  0
LINE
  8
0
  6
CONTINUOUS
 62
     7
  5
244
 10
-0.526615
 20
1.438326
 30
0.0
 11
-0.52603
 21
1.434867
 31
0.0
  0
LINE
  8
0
  6
CONTINUOUS
 62
     7
  5
245
 10
-0.52603
 20
1.434867
 30
0.0
 11
-0.525569
 21
1.431391
 31
0.0
  0
LINE
  8
0
  6
CONTINUOUS
 62
     7
  5
246
 10
-0.525569
 20
1.431391
 30
0.0
 11
-0.525233
 21
1.427913
 31
0.0
  0
LINE
  8
0
  6
CONTINUOUS
 62
     7
  5
247
 10
-0.525233
 20
1.427913
 30
0.0
 11
-0.525019
 21
1.424445
 31
0.0
  0
LINE
  8
0
  6
CONTINUOUS
 62
     7
  5
248
 10
-0.525019
 20
1.424445
 30
0.0
 11
-0.524925
 21
1.421002
 31
0.0
  0
LINE
  8
0
  6
CONTINUOUS
 62
     7
  5
249
 10
-0.524925
 20
1.421002
 30
0.0
 11
-0.524947
 21
1.417598
 31
0.0
  0
LINE
  8
0
  6
CONTINUOUS
 62
     7
  5
24A
 10
-0.632028
 20
1.382609
 30
0.0
 11
-0.633157
 21
1.386824
 31
0.0
  0
LINE
  8
0
  6
CONTINUOUS
 62
     7
  5
24B
 10
-0.633157
 20
1.386824
 30
0.0
 11
-0.634119
 21
1.391147
 31
0.0
  0
LINE
  8
0
  6
CONTINUOUS
 62
     7
  5
24C
 10
-0.634119
 20
1.391147
 30
0.0
 11
-0.63491
 21
1.395553
 31
0.0
  0
LINE
  8
0
  6
CONTINUOUS
 62
     7
  5
24D
 10
-0.63491
 20
1.395553
 30
0.0
 11
-0.635527
 21
1.400018
 31
0.0
  0
LINE
  8
0
  6
CONTINUOUS
 62
     7
  5
24E
 10
-0.635527
 20
1.400018
 30
0.0
 11
-0.635972
 21
1.404512
 31
0.0
  0
LINE
  8
0
  6
CONTINUOUS
 62
     7
  5
24F
 10
-0.635972
 20
1.404512
 30
0.0
 11
-0.636244
 21
1.409006
 31
0.0
  0
LINE
  8
0
  6
CONTINUOUS
 62
     7
  5
250
 10
-0.636244
 20
1.409006
 30
0.0
 11
-0.636349
 21
1.41347
 31
0.0
  0
LINE
  8
0
  6
CONTINUOUS
 62
     7
  5
251
 10
-0.636349
 20
1.41347
 30
0.0
 11
-0.636294
 21
1.417876
 31
0.0
  0
LINE
  8
0
  6
CONTINUOUS
 62
     7
  5
252
 10
-0.636294
 20
1.417876
 30
0.0
 11
-0.63608
 21
1.42229
 31
0.0
  0
LINE
  8
0
  6
CONTINUOUS
 62
     7
  5
253
 10
-0.63608
 20
1.42229
 30
0.0
 11
-0.635701
 21
1.426761
 31
0.0
  0
LINE
  8
0
  6
CONTINUOUS
 62
     7
  5
254
 10
-0.635701
 20
1.426761
 30
0.0
 11
-0.635152
 21
1.431258
 31
0.0
  0
LINE
  8
0
  6
CONTINUOUS
 62
     7
  5
255
 10
-0.635152
 20
1.431258
 30
0.0
 11
-0.63443
 21
1.435752
 31
0.0
  0
LINE
  8
0
  6
CONTINUOUS
 62
     7
  5
256
 10
-0.63443
 20
1.435752
 30
0.0
 11
-0.633536
 21
1.44021
 31
0.0
  0
LINE
  8
0
  6
CONTINUOUS
 62
     7
  5
257
 10
-0.633536
 20
1.44021
 30
0.0
 11
-0.632471
 21
1.444606
 31
0.0
  0
LINE
  8
0
  6
CONTINUOUS
 62
     7
  5
258
 10
-0.632471
 20
1.444606
 30
0.0
 11
-0.63124
 21
1.448914
 31
0.0
  0
LINE
  8
0
  6
CONTINUOUS
 62
     7
  5
259
 10
-0.63124
 20
1.448914
 30
0.0
 11
-0.629848
 21
1.453109
 31
0.0
  0
LINE
  8
0
  6
CONTINUOUS
 62
     7
  5
25A
 10
-0.629848
 20
1.453109
 30
0.0
 11
-0.628302
 21
1.457169
 31
0.0
  0
LINE
  8
0
  6
CONTINUOUS
 62
     7
  5
25B
 10
-0.628302
 20
1.457169
 30
0.0
 11
-0.626611
 21
1.461071
 31
0.0
  0
LINE
  8
0
  6
CONTINUOUS
 62
     7
  5
25C
 10
-0.626611
 20
1.461071
 30
0.0
 11
-0.624789
 21
1.464794
 31
0.0
  0
LINE
  8
0
  6
CONTINUOUS
 62
     7
  5
25D
 10
-0.624789
 20
1.464794
 30
0.0
 11
-0.62285
 21
1.468317
 31
0.0
  0
LINE
  8
0
  6
CONTINUOUS
 62
     7
  5
25E
 10
-0.62285
 20
1.468317
 30
0.0
 11
-0.620809
 21
1.471625
 31
0.0
  0
LINE
  8
0
  6
CONTINUOUS
 62
     7
  5
25F
 10
-0.620809
 20
1.471625
 30
0.0
 11
-0.618673
 21
1.474721
 31
0.0
  0
LINE
  8
0
  6
CONTINUOUS
 62
     7
  5
260
 10
-0.618673
 20
1.474721
 30
0.0
 11
-0.61639
 21
1.477678
 31
0.0
  0
LINE
  8
0
  6
CONTINUOUS
 62
     7
  5
261
 10
-0.61639
 20
1.477678
 30
0.0
 11
-0.613959
 21
1.48048
 31
0.0
  0
LINE
  8
0
  6
CONTINUOUS
 62
     7
  5
262
 10
-0.613959
 20
1.48048
 30
0.0
 11
-0.611389
 21
1.483101
 31
0.0
  0
LINE
  8
0
  6
CONTINUOUS
 62
     7
  5
263
 10
-0.611389
 20
1.483101
 30
0.0
 11
-0.608693
 21
1.48552
 31
0.0
  0
LINE
  8
0
  6
CONTINUOUS
 62
     7
  5
264
 10
-0.608693
 20
1.48552
 30
0.0
 11
-0.605885
 21
1.487715
 31
0.0
  0
LINE
  8
0
  6
CONTINUOUS
 62
     7
  5
265
 10
-0.605885
 20
1.487715
 30
0.0
 11
-0.602978
 21
1.489672
 31
0.0
  0
LINE
  8
0
  6
CONTINUOUS
 62
     7
  5
266
 10
-0.602978
 20
1.489672
 30
0.0
 11
-0.599987
 21
1.491378
 31
0.0
  0
LINE
  8
0
  6
CONTINUOUS
 62
     7
  5
267
 10
-0.599987
 20
1.491378
 30
0.0
 11
-0.596927
 21
1.492825
 31
0.0
  0
LINE
  8
0
  6
CONTINUOUS
 62
     7
  5
268
 10
-0.596927
 20
1.492825
 30
0.0
 11
-0.593816
 21
1.494005
 31
0.0
  0
LINE
  8
0
  6
CONTINUOUS
 62
     7
  5
269
 10
-0.593816
 20
1.494005
 30
0.0
 11
-0.590672
 21
1.494917
 31
0.0
  0
LINE
  8
0
  6
CONTINUOUS
 62
     7
  5
26A
 10
-0.590672
 20
1.494917
 30
0.0
 11
-0.587517
 21
1.49556
 31
0.0
  0
LINE
  8
0
  6
CONTINUOUS
 62
     7
  5
26B
 10
-0.587517
 20
1.49556
 30
0.0
 11
-0.584371
 21
1.495939
 31
0.0
  0
LINE
  8
0
  6
CONTINUOUS
 62
     7
  5
26C
 10
-0.584371
 20
1.495939
 30
0.0
 11
-0.581255
 21
1.496063
 31
0.0
  0
LINE
  8
0
  6
CONTINUOUS
 62
     7
  5
26D
 10
0.585335
 20
1.338583
 30
0.0
 11
0.583618
 21
1.33862
 31
0.0
  0
LINE
  8
0
  6
CONTINUOUS
 62
     7
  5
26E
 10
0.583618
 20
1.33862
 30
0.0
 11
0.581879
 21
1.338733
 31
0.0
  0
LINE
  8
0
  6
CONTINUOUS
 62
     7
  5
26F
 10
0.581879
 20
1.338733
 30
0.0
 11
0.58012
 21
1.338925
 31
0.0
  0
LINE
  8
0
  6
CONTINUOUS
 62
     7
  5
270
 10
0.58012
 20
1.338925
 30
0.0
 11
0.578347
 21
1.339195
 31
0.0
  0
LINE
  8
0
  6
CONTINUOUS
 62
     7
  5
271
 10
0.578347
 20
1.339195
 30
0.0
 11
0.576561
 21
1.339546
 31
0.0
  0
LINE
  8
0
  6
CONTINUOUS
 62
     7
  5
272
 10
0.576561
 20
1.339546
 30
0.0
 11
0.574767
 21
1.339979
 31
0.0
  0
LINE
  8
0
  6
CONTINUOUS
 62
     7
  5
273
 10
0.574767
 20
1.339979
 30
0.0
 11
0.572969
 21
1.340493
 31
0.0
  0
LINE
  8
0
  6
CONTINUOUS
 62
     7
  5
274
 10
0.572969
 20
1.340493
 30
0.0
 11
0.571169
 21
1.341089
 31
0.0
  0
LINE
  8
0
  6
CONTINUOUS
 62
     7
  5
275
 10
0.571169
 20
1.341089
 30
0.0
 11
0.569372
 21
1.341766
 31
0.0
  0
LINE
  8
0
  6
CONTINUOUS
 62
     7
  5
276
 10
0.569372
 20
1.341766
 30
0.0
 11
0.567581
 21
1.342524
 31
0.0
  0
LINE
  8
0
  6
CONTINUOUS
 62
     7
  5
277
 10
0.567581
 20
1.342524
 30
0.0
 11
0.565799
 21
1.343361
 31
0.0
  0
LINE
  8
0
  6
CONTINUOUS
 62
     7
  5
278
 10
0.565799
 20
1.343361
 30
0.0
 11
0.56403
 21
1.344277
 31
0.0
  0
LINE
  8
0
  6
CONTINUOUS
 62
     7
  5
279
 10
0.56403
 20
1.344277
 30
0.0
 11
0.562277
 21
1.34527
 31
0.0
  0
LINE
  8
0
  6
CONTINUOUS
 62
     7
  5
27A
 10
0.562277
 20
1.34527
 30
0.0
 11
0.560542
 21
1.346338
 31
0.0
  0
LINE
  8
0
  6
CONTINUOUS
 62
     7
  5
27B
 10
0.560542
 20
1.346338
 30
0.0
 11
0.558829
 21
1.34748
 31
0.0
  0
LINE
  8
0
  6
CONTINUOUS
 62
     7
  5
27C
 10
0.558829
 20
1.34748
 30
0.0
 11
0.557141
 21
1.348693
 31
0.0
  0
LINE
  8
0
  6
CONTINUOUS
 62
     7
  5
27D
 10
0.557141
 20
1.348693
 30
0.0
 11
0.555481
 21
1.349975
 31
0.0
  0
LINE
  8
0
  6
CONTINUOUS
 62
     7
  5
27E
 10
0.555481
 20
1.349975
 30
0.0
 11
0.553852
 21
1.351322
 31
0.0
  0
LINE
  8
0
  6
CONTINUOUS
 62
     7
  5
27F
 10
0.553852
 20
1.351322
 30
0.0
 11
0.552258
 21
1.352732
 31
0.0
  0
LINE
  8
0
  6
CONTINUOUS
 62
     7
  5
280
 10
0.552258
 20
1.352732
 30
0.0
 11
0.5507
 21
1.3542
 31
0.0
  0
LINE
  8
0
  6
CONTINUOUS
 62
     7
  5
281
 10
0.5507
 20
1.3542
 30
0.0
 11
0.549182
 21
1.355723
 31
0.0
  0
LINE
  8
0
  6
CONTINUOUS
 62
     7
  5
282
 10
0.549182
 20
1.355723
 30
0.0
 11
0.547706
 21
1.357296
 31
0.0
  0
LINE
  8
0
  6
CONTINUOUS
 62
     7
  5
283
 10
0.547706
 20
1.357296
 30
0.0
 11
0.546275
 21
1.358915
 31
0.0
  0
LINE
  8
0
  6
CONTINUOUS
 62
     7
  5
284
 10
0.546275
 20
1.358915
 30
0.0
 11
0.544891
 21
1.360575
 31
0.0
  0
LINE
  8
0
  6
CONTINUOUS
 62
     7
  5
285
 10
0.544891
 20
1.360575
 30
0.0
 11
0.543555
 21
1.362274
 31
0.0
  0
LINE
  8
0
  6
CONTINUOUS
 62
     7
  5
286
 10
0.543555
 20
1.362274
 30
0.0
 11
0.542247
 21
1.364034
 31
0.0
  0
LINE
  8
0
  6
CONTINUOUS
 62
     7
  5
287
 10
0.542247
 20
1.364034
 30
0.0
 11
0.540966
 21
1.365862
 31
0.0
  0
LINE
  8
0
  6
CONTINUOUS
 62
     7
  5
288
 10
0.540966
 20
1.365862
 30
0.0
 11
0.539715
 21
1.367756
 31
0.0
  0
LINE
  8
0
  6
CONTINUOUS
 62
     7
  5
289
 10
0.539715
 20
1.367756
 30
0.0
 11
0.538497
 21
1.369713
 31
0.0
  0
LINE
  8
0
  6
CONTINUOUS
 62
     7
  5
28A
 10
0.538497
 20
1.369713
 30
0.0
 11
0.537316
 21
1.371731
 31
0.0
  0
LINE
  8
0
  6
CONTINUOUS
 62
     7
  5
28B
 10
0.537316
 20
1.371731
 30
0.0
 11
0.536176
 21
1.373806
 31
0.0
  0
LINE
  8
0
  6
CONTINUOUS
 62
     7
  5
28C
 10
0.536176
 20
1.373806
 30
0.0
 11
0.535079
 21
1.375934
 31
0.0
  0
LINE
  8
0
  6
CONTINUOUS
 62
     7
  5
28D
 10
0.535079
 20
1.375934
 30
0.0
 11
0.534029
 21
1.378114
 31
0.0
  0
LINE
  8
0
  6
CONTINUOUS
 62
     7
  5
28E
 10
0.534029
 20
1.378114
 30
0.0
 11
0.533028
 21
1.38034
 31
0.0
  0
LINE
  8
0
  6
CONTINUOUS
 62
     7
  5
28F
 10
0.533028
 20
1.38034
 30
0.0
 11
0.532078
 21
1.382609
 31
0.0
  0
LINE
  8
0
  6
CONTINUOUS
 62
     7
  5
290
 10
0.632028
 20
1.382609
 30
0.0
 11
0.631336
 21
1.38034
 31
0.0
  0
LINE
  8
0
  6
CONTINUOUS
 62
     7
  5
291
 10
0.631336
 20
1.38034
 30
0.0
 11
0.630596
 21
1.378114
 31
0.0
  0
LINE
  8
0
  6
CONTINUOUS
 62
     7
  5
292
 10
0.630596
 20
1.378114
 30
0.0
 11
0.62981
 21
1.375934
 31
0.0
  0
LINE
  8
0
  6
CONTINUOUS
 62
     7
  5
293
 10
0.62981
 20
1.375934
 30
0.0
 11
0.628979
 21
1.373806
 31
0.0
  0
LINE
  8
0
  6
CONTINUOUS
 62
     7
  5
294
 10
0.628979
 20
1.373806
 30
0.0
 11
0.628106
 21
1.371731
 31
0.0
  0
LINE
  8
0
  6
CONTINUOUS
 62
     7
  5
295
 10
0.628106
 20
1.371731
 30
0.0
 11
0.627191
 21
1.369713
 31
0.0
  0
LINE
  8
0
  6
CONTINUOUS
 62
     7
  5
296
 10
0.627191
 20
1.369713
 30
0.0
 11
0.626238
 21
1.367756
 31
0.0
  0
LINE
  8
0
  6
CONTINUOUS
 62
     7
  5
297
 10
0.626238
 20
1.367756
 30
0.0
 11
0.625249
 21
1.365862
 31
0.0
  0
LINE
  8
0
  6
CONTINUOUS
 62
     7
  5
298
 10
0.625249
 20
1.365862
 30
0.0
 11
0.624227
 21
1.364034
 31
0.0
  0
LINE
  8
0
  6
CONTINUOUS
 62
     7
  5
299
 10
0.624227
 20
1.364034
 30
0.0
 11
0.623174
 21
1.362274
 31
0.0
  0
LINE
  8
0
  6
CONTINUOUS
 62
     7
  5
29A
 10
0.623174
 20
1.362274
 30
0.0
 11
0.622089
 21
1.360575
 31
0.0
  0
LINE
  8
0
  6
CONTINUOUS
 62
     7
  5
29B
 10
0.622089
 20
1.360575
 30
0.0
 11
0.620955
 21
1.358915
 31
0.0
  0
LINE
  8
0
  6
CONTINUOUS
 62
     7
  5
29C
 10
0.620955
 20
1.358915
 30
0.0
 11
0.619772
 21
1.357296
 31
0.0
  0
LINE
  8
0
  6
CONTINUOUS
 62
     7
  5
29D
 10
0.619772
 20
1.357296
 30
0.0
 11
0.618542
 21
1.355723
 31
0.0
  0
LINE
  8
0
  6
CONTINUOUS
 62
     7
  5
29E
 10
0.618542
 20
1.355723
 30
0.0
 11
0.617266
 21
1.3542
 31
0.0
  0
LINE
  8
0
  6
CONTINUOUS
 62
     7
  5
29F
 10
0.617266
 20
1.3542
 30
0.0
 11
0.615945
 21
1.352732
 31
0.0
  0
LINE
  8
0
  6
CONTINUOUS
 62
     7
  5
2A0
 10
0.615945
 20
1.352732
 30
0.0
 11
0.614581
 21
1.351322
 31
0.0
  0
LINE
  8
0
  6
CONTINUOUS
 62
     7
  5
2A1
 10
0.614581
 20
1.351322
 30
0.0
 11
0.613175
 21
1.349975
 31
0.0
  0
LINE
  8
0
  6
CONTINUOUS
 62
     7
  5
2A2
 10
0.613175
 20
1.349975
 30
0.0
 11
0.611731
 21
1.348693
 31
0.0
  0
LINE
  8
0
  6
CONTINUOUS
 62
     7
  5
2A3
 10
0.611731
 20
1.348693
 30
0.0
 11
0.610249
 21
1.34748
 31
0.0
  0
LINE
  8
0
  6
CONTINUOUS
 62
     7
  5
2A4
 10
0.610249
 20
1.34748
 30
0.0
 11
0.608733
 21
1.346338
 31
0.0
  0
LINE
  8
0
  6
CONTINUOUS
 62
     7
  5
2A5
 10
0.608733
 20
1.346338
 30
0.0
 11
0.607185
 21
1.34527
 31
0.0
  0
LINE
  8
0
  6
CONTINUOUS
 62
     7
  5
2A6
 10
0.607185
 20
1.34527
 30
0.0
 11
0.605606
 21
1.344277
 31
0.0
  0
LINE
  8
0
  6
CONTINUOUS
 62
     7
  5
2A7
 10
0.605606
 20
1.344277
 30
0.0
 11
0.604
 21
1.343361
 31
0.0
  0
LINE
  8
0
  6
CONTINUOUS
 62
     7
  5
2A8
 10
0.604
 20
1.343361
 30
0.0
 11
0.602368
 21
1.342524
 31
0.0
  0
LINE
  8
0
  6
CONTINUOUS
 62
     7
  5
2A9
 10
0.602368
 20
1.342524
 30
0.0
 11
0.600713
 21
1.341766
 31
0.0
  0
LINE
  8
0
  6
CONTINUOUS
 62
     7
  5
2AA
 10
0.600713
 20
1.341766
 30
0.0
 11
0.599039
 21
1.341089
 31
0.0
  0
LINE
  8
0
  6
CONTINUOUS
 62
     7
  5
2AB
 10
0.599039
 20
1.341089
 30
0.0
 11
0.597348
 21
1.340493
 31
0.0
  0
LINE
  8
0
  6
CONTINUOUS
 62
     7
  5
2AC
 10
0.597348
 20
1.340493
 30
0.0
 11
0.595644
 21
1.339979
 31
0.0
  0
LINE
  8
0
  6
CONTINUOUS
 62
     7
  5
2AD
 10
0.595644
 20
1.339979
 30
0.0
 11
0.59393
 21
1.339546
 31
0.0
  0
LINE
  8
0
  6
CONTINUOUS
 62
     7
  5
2AE
 10
0.59393
 20
1.339546
 30
0.0
 11
0.592209
 21
1.339195
 31
0.0
  0
LINE
  8
0
  6
CONTINUOUS
 62
     7
  5
2AF
 10
0.592209
 20
1.339195
 30
0.0
 11
0.590486
 21
1.338925
 31
0.0
  0
LINE
  8
0
  6
CONTINUOUS
 62
     7
  5
2B0
 10
0.590486
 20
1.338925
 30
0.0
 11
0.588764
 21
1.338733
 31
0.0
  0
LINE
  8
0
  6
CONTINUOUS
 62
     7
  5
2B1
 10
0.588764
 20
1.338733
 30
0.0
 11
0.587045
 21
1.33862
 31
0.0
  0
LINE
  8
0
  6
CONTINUOUS
 62
     7
  5
2B2
 10
0.587045
 20
1.33862
 30
0.0
 11
0.585335
 21
1.338583
 31
0.0
  0
LINE
  8
0
  6
CONTINUOUS
 62
     7
  5
2B3
 10
0.636302
 20
1.417598
 30
0.0
 11
0.636326
 21
1.416605
 31
0.0
  0
LINE
  8
0
  6
CONTINUOUS
 62
     7
  5
2B4
 10
0.636326
 20
1.416605
 30
0.0
 11
0.636342
 21
1.415607
 31
0.0
  0
LINE
  8
0
  6
CONTINUOUS
 62
     7
  5
2B5
 10
0.636342
 20
1.415607
 30
0.0
 11
0.63635
 21
1.414606
 31
0.0
  0
LINE
  8
0
  6
CONTINUOUS
 62
     7
  5
2B6
 10
0.63635
 20
1.414606
 30
0.0
 11
0.63635
 21
1.413601
 31
0.0
  0
LINE
  8
0
  6
CONTINUOUS
 62
     7
  5
2B7
 10
0.63635
 20
1.413601
 30
0.0
 11
0.636342
 21
1.412594
 31
0.0
  0
LINE
  8
0
  6
CONTINUOUS
 62
     7
  5
2B8
 10
0.636342
 20
1.412594
 30
0.0
 11
0.636325
 21
1.411583
 31
0.0
  0
LINE
  8
0
  6
CONTINUOUS
 62
     7
  5
2B9
 10
0.636325
 20
1.411583
 30
0.0
 11
0.6363
 21
1.41057
 31
0.0
  0
LINE
  8
0
  6
CONTINUOUS
 62
     7
  5
2BA
 10
0.6363
 20
1.41057
 30
0.0
 11
0.636266
 21
1.409555
 31
0.0
  0
LINE
  8
0
  6
CONTINUOUS
 62
     7
  5
2BB
 10
0.636266
 20
1.409555
 30
0.0
 11
0.636224
 21
1.408538
 31
0.0
  0
LINE
  8
0
  6
CONTINUOUS
 62
     7
  5
2BC
 10
0.636224
 20
1.408538
 30
0.0
 11
0.636173
 21
1.40752
 31
0.0
  0
LINE
  8
0
  6
CONTINUOUS
 62
     7
  5
2BD
 10
0.636173
 20
1.40752
 30
0.0
 11
0.636113
 21
1.406501
 31
0.0
  0
LINE
  8
0
  6
CONTINUOUS
 62
     7
  5
2BE
 10
0.636113
 20
1.406501
 30
0.0
 11
0.636045
 21
1.405481
 31
0.0
  0
LINE
  8
0
  6
CONTINUOUS
 62
     7
  5
2BF
 10
0.636045
 20
1.405481
 30
0.0
 11
0.635968
 21
1.404461
 31
0.0
  0
LINE
  8
0
  6
CONTINUOUS
 62
     7
  5
2C0
 10
0.635968
 20
1.404461
 30
0.0
 11
0.635882
 21
1.403441
 31
0.0
  0
LINE
  8
0
  6
CONTINUOUS
 62
     7
  5
2C1
 10
0.635882
 20
1.403441
 30
0.0
 11
0.635787
 21
1.402421
 31
0.0
  0
LINE
  8
0
  6
CONTINUOUS
 62
     7
  5
2C2
 10
0.635787
 20
1.402421
 30
0.0
 11
0.635683
 21
1.401402
 31
0.0
  0
LINE
  8
0
  6
CONTINUOUS
 62
     7
  5
2C3
 10
0.635683
 20
1.401402
 30
0.0
 11
0.63557
 21
1.400384
 31
0.0
  0
LINE
  8
0
  6
CONTINUOUS
 62
     7
  5
2C4
 10
0.63557
 20
1.400384
 30
0.0
 11
0.635449
 21
1.399367
 31
0.0
  0
LINE
  8
0
  6
CONTINUOUS
 62
     7
  5
2C5
 10
0.635449
 20
1.399367
 30
0.0
 11
0.635318
 21
1.398353
 31
0.0
  0
LINE
  8
0
  6
CONTINUOUS
 62
     7
  5
2C6
 10
0.635318
 20
1.398353
 30
0.0
 11
0.635178
 21
1.39734
 31
0.0
  0
LINE
  8
0
  6
CONTINUOUS
 62
     7
  5
2C7
 10
0.635178
 20
1.39734
 30
0.0
 11
0.63503
 21
1.396329
 31
0.0
  0
LINE
  8
0
  6
CONTINUOUS
 62
     7
  5
2C8
 10
0.63503
 20
1.396329
 30
0.0
 11
0.634873
 21
1.395322
 31
0.0
  0
LINE
  8
0
  6
CONTINUOUS
 62
     7
  5
2C9
 10
0.634873
 20
1.395322
 30
0.0
 11
0.634706
 21
1.394317
 31
0.0
  0
LINE
  8
0
  6
CONTINUOUS
 62
     7
  5
2CA
 10
0.634706
 20
1.394317
 30
0.0
 11
0.634531
 21
1.393316
 31
0.0
  0
LINE
  8
0
  6
CONTINUOUS
 62
     7
  5
2CB
 10
0.634531
 20
1.393316
 30
0.0
 11
0.634347
 21
1.392319
 31
0.0
  0
LINE
  8
0
  6
CONTINUOUS
 62
     7
  5
2CC
 10
0.634347
 20
1.392319
 30
0.0
 11
0.634154
 21
1.391325
 31
0.0
  0
LINE
  8
0
  6
CONTINUOUS
 62
     7
  5
2CD
 10
0.634154
 20
1.391325
 30
0.0
 11
0.633953
 21
1.390336
 31
0.0
  0
LINE
  8
0
  6
CONTINUOUS
 62
     7
  5
2CE
 10
0.633953
 20
1.390336
 30
0.0
 11
0.633742
 21
1.389351
 31
0.0
  0
LINE
  8
0
  6
CONTINUOUS
 62
     7
  5
2CF
 10
0.633742
 20
1.389351
 30
0.0
 11
0.633523
 21
1.388372
 31
0.0
  0
LINE
  8
0
  6
CONTINUOUS
 62
     7
  5
2D0
 10
0.633523
 20
1.388372
 30
0.0
 11
0.633295
 21
1.387397
 31
0.0
  0
LINE
  8
0
  6
CONTINUOUS
 62
     7
  5
2D1
 10
0.633295
 20
1.387397
 30
0.0
 11
0.633059
 21
1.386428
 31
0.0
  0
LINE
  8
0
  6
CONTINUOUS
 62
     7
  5
2D2
 10
0.633059
 20
1.386428
 30
0.0
 11
0.632814
 21
1.385464
 31
0.0
  0
LINE
  8
0
  6
CONTINUOUS
 62
     7
  5
2D3
 10
0.632814
 20
1.385464
 30
0.0
 11
0.63256
 21
1.384506
 31
0.0
  0
LINE
  8
0
  6
CONTINUOUS
 62
     7
  5
2D4
 10
0.63256
 20
1.384506
 30
0.0
 11
0.632298
 21
1.383554
 31
0.0
  0
LINE
  8
0
  6
CONTINUOUS
 62
     7
  5
2D5
 10
0.632298
 20
1.383554
 30
0.0
 11
0.632028
 21
1.382609
 31
0.0
  0
LINE
  8
0
  6
CONTINUOUS
 62
     7
  5
2D6
 10
0.581255
 20
1.496063
 30
0.0
 11
0.583661
 21
1.495989
 31
0.0
  0
LINE
  8
0
  6
CONTINUOUS
 62
     7
  5
2D7
 10
0.583661
 20
1.495989
 30
0.0
 11
0.586088
 21
1.495764
 31
0.0
  0
LINE
  8
0
  6
CONTINUOUS
 62
     7
  5
2D8
 10
0.586088
 20
1.495764
 30
0.0
 11
0.588526
 21
1.495384
 31
0.0
  0
LINE
  8
0
  6
CONTINUOUS
 62
     7
  5
2D9
 10
0.588526
 20
1.495384
 30
0.0
 11
0.590965
 21
1.494844
 31
0.0
  0
LINE
  8
0
  6
CONTINUOUS
 62
     7
  5
2DA
 10
0.590965
 20
1.494844
 30
0.0
 11
0.593397
 21
1.494143
 31
0.0
  0
LINE
  8
0
  6
CONTINUOUS
 62
     7
  5
2DB
 10
0.593397
 20
1.494143
 30
0.0
 11
0.595811
 21
1.493281
 31
0.0
  0
LINE
  8
0
  6
CONTINUOUS
 62
     7
  5
2DC
 10
0.595811
 20
1.493281
 30
0.0
 11
0.598197
 21
1.49226
 31
0.0
  0
LINE
  8
0
  6
CONTINUOUS
 62
     7
  5
2DD
 10
0.598197
 20
1.49226
 30
0.0
 11
0.600549
 21
1.49108
 31
0.0
  0
LINE
  8
0
  6
CONTINUOUS
 62
     7
  5
2DE
 10
0.600549
 20
1.49108
 30
0.0
 11
0.602857
 21
1.489747
 31
0.0
  0
LINE
  8
0
  6
CONTINUOUS
 62
     7
  5
2DF
 10
0.602857
 20
1.489747
 30
0.0
 11
0.605116
 21
1.488263
 31
0.0
  0
LINE
  8
0
  6
CONTINUOUS
 62
     7
  5
2E0
 10
0.605116
 20
1.488263
 30
0.0
 11
0.607318
 21
1.486634
 31
0.0
  0
LINE
  8
0
  6
CONTINUOUS
 62
     7
  5
2E1
 10
0.607318
 20
1.486634
 30
0.0
 11
0.609457
 21
1.484867
 31
0.0
  0
LINE
  8
0
  6
CONTINUOUS
 62
     7
  5
2E2
 10
0.609457
 20
1.484867
 30
0.0
 11
0.611526
 21
1.48297
 31
0.0
  0
LINE
  8
0
  6
CONTINUOUS
 62
     7
  5
2E3
 10
0.611526
 20
1.48297
 30
0.0
 11
0.61352
 21
1.480951
 31
0.0
  0
LINE
  8
0
  6
CONTINUOUS
 62
     7
  5
2E4
 10
0.61352
 20
1.480951
 30
0.0
 11
0.615431
 21
1.478822
 31
0.0
  0
LINE
  8
0
  6
CONTINUOUS
 62
     7
  5
2E5
 10
0.615431
 20
1.478822
 30
0.0
 11
0.617257
 21
1.476595
 31
0.0
  0
LINE
  8
0
  6
CONTINUOUS
 62
     7
  5
2E6
 10
0.617257
 20
1.476595
 30
0.0
 11
0.618991
 21
1.474281
 31
0.0
  0
LINE
  8
0
  6
CONTINUOUS
 62
     7
  5
2E7
 10
0.618991
 20
1.474281
 30
0.0
 11
0.620638
 21
1.471885
 31
0.0
  0
LINE
  8
0
  6
CONTINUOUS
 62
     7
  5
2E8
 10
0.620638
 20
1.471885
 30
0.0
 11
0.62223
 21
1.469361
 31
0.0
  0
LINE
  8
0
  6
CONTINUOUS
 62
     7
  5
2E9
 10
0.62223
 20
1.469361
 30
0.0
 11
0.623765
 21
1.466706
 31
0.0
  0
LINE
  8
0
  6
CONTINUOUS
 62
     7
  5
2EA
 10
0.623765
 20
1.466706
 30
0.0
 11
0.625234
 21
1.463925
 31
0.0
  0
LINE
  8
0
  6
CONTINUOUS
 62
     7
  5
2EB
 10
0.625234
 20
1.463925
 30
0.0
 11
0.626631
 21
1.461028
 31
0.0
  0
LINE
  8
0
  6
CONTINUOUS
 62
     7
  5
2EC
 10
0.626631
 20
1.461028
 30
0.0
 11
0.627949
 21
1.458024
 31
0.0
  0
LINE
  8
0
  6
CONTINUOUS
 62
     7
  5
2ED
 10
0.627949
 20
1.458024
 30
0.0
 11
0.629182
 21
1.454922
 31
0.0
  0
LINE
  8
0
  6
CONTINUOUS
 62
     7
  5
2EE
 10
0.629182
 20
1.454922
 30
0.0
 11
0.630326
 21
1.451734
 31
0.0
  0
LINE
  8
0
  6
CONTINUOUS
 62
     7
  5
2EF
 10
0.630326
 20
1.451734
 30
0.0
 11
0.631376
 21
1.44847
 31
0.0
  0
LINE
  8
0
  6
CONTINUOUS
 62
     7
  5
2F0
 10
0.631376
 20
1.44847
 30
0.0
 11
0.632329
 21
1.445139
 31
0.0
  0
LINE
  8
0
  6
CONTINUOUS
 62
     7
  5
2F1
 10
0.632329
 20
1.445139
 30
0.0
 11
0.633183
 21
1.441754
 31
0.0
  0
LINE
  8
0
  6
CONTINUOUS
 62
     7
  5
2F2
 10
0.633183
 20
1.441754
 30
0.0
 11
0.633936
 21
1.438326
 31
0.0
  0
LINE
  8
0
  6
CONTINUOUS
 62
     7
  5
2F3
 10
0.633936
 20
1.438326
 30
0.0
 11
0.634586
 21
1.434867
 31
0.0
  0
LINE
  8
0
  6
CONTINUOUS
 62
     7
  5
2F4
 10
0.634586
 20
1.434867
 30
0.0
 11
0.635133
 21
1.431391
 31
0.0
  0
LINE
  8
0
  6
CONTINUOUS
 62
     7
  5
2F5
 10
0.635133
 20
1.431391
 30
0.0
 11
0.635576
 21
1.427913
 31
0.0
  0
LINE
  8
0
  6
CONTINUOUS
 62
     7
  5
2F6
 10
0.635576
 20
1.427913
 30
0.0
 11
0.635918
 21
1.424445
 31
0.0
  0
LINE
  8
0
  6
CONTINUOUS
 62
     7
  5
2F7
 10
0.635918
 20
1.424445
 30
0.0
 11
0.636159
 21
1.421002
 31
0.0
  0
LINE
  8
0
  6
CONTINUOUS
 62
     7
  5
2F8
 10
0.636159
 20
1.421002
 30
0.0
 11
0.636302
 21
1.417598
 31
0.0
  0
LINE
  8
0
  6
CONTINUOUS
 62
     7
  5
2F9
 10
0.532078
 20
1.382609
 30
0.0
 11
0.530494
 21
1.386824
 31
0.0
  0
LINE
  8
0
  6
CONTINUOUS
 62
     7
  5
2FA
 10
0.530494
 20
1.386824
 30
0.0
 11
0.529097
 21
1.391147
 31
0.0
  0
LINE
  8
0
  6
CONTINUOUS
 62
     7
  5
2FB
 10
0.529097
 20
1.391147
 30
0.0
 11
0.527895
 21
1.395553
 31
0.0
  0
LINE
  8
0
  6
CONTINUOUS
 62
     7
  5
2FC
 10
0.527895
 20
1.395553
 30
0.0
 11
0.526895
 21
1.400018
 31
0.0
  0
LINE
  8
0
  6
CONTINUOUS
 62
     7
  5
2FD
 10
0.526895
 20
1.400018
 30
0.0
 11
0.5261
 21
1.404512
 31
0.0
  0
LINE
  8
0
  6
CONTINUOUS
 62
     7
  5
2FE
 10
0.5261
 20
1.404512
 30
0.0
 11
0.525512
 21
1.409006
 31
0.0
  0
LINE
  8
0
  6
CONTINUOUS
 62
     7
  5
2FF
 10
0.525512
 20
1.409006
 30
0.0
 11
0.525127
 21
1.41347
 31
0.0
  0
LINE
  8
0
  6
CONTINUOUS
 62
     7
  5
300
 10
0.525127
 20
1.41347
 30
0.0
 11
0.524941
 21
1.417876
 31
0.0
  0
LINE
  8
0
  6
CONTINUOUS
 62
     7
  5
301
 10
0.524941
 20
1.417876
 30
0.0
 11
0.524946
 21
1.42229
 31
0.0
  0
LINE
  8
0
  6
CONTINUOUS
 62
     7
  5
302
 10
0.524946
 20
1.42229
 30
0.0
 11
0.525148
 21
1.426761
 31
0.0
  0
LINE
  8
0
  6
CONTINUOUS
 62
     7
  5
303
 10
0.525148
 20
1.426761
 30
0.0
 11
0.525554
 21
1.431258
 31
0.0
  0
LINE
  8
0
  6
CONTINUOUS
 62
     7
  5
304
 10
0.525554
 20
1.431258
 30
0.0
 11
0.526167
 21
1.435752
 31
0.0
  0
LINE
  8
0
  6
CONTINUOUS
 62
     7
  5
305
 10
0.526167
 20
1.435752
 30
0.0
 11
0.526988
 21
1.44021
 31
0.0
  0
LINE
  8
0
  6
CONTINUOUS
 62
     7
  5
306
 10
0.526988
 20
1.44021
 30
0.0
 11
0.528014
 21
1.444606
 31
0.0
  0
LINE
  8
0
  6
CONTINUOUS
 62
     7
  5
307
 10
0.528014
 20
1.444606
 30
0.0
 11
0.52924
 21
1.448914
 31
0.0
  0
LINE
  8
0
  6
CONTINUOUS
 62
     7
  5
308
 10
0.52924
 20
1.448914
 30
0.0
 11
0.530657
 21
1.453109
 31
0.0
  0
LINE
  8
0
  6
CONTINUOUS
 62
     7
  5
309
 10
0.530657
 20
1.453109
 30
0.0
 11
0.532257
 21
1.457169
 31
0.0
  0
LINE
  8
0
  6
CONTINUOUS
 62
     7
  5
30A
 10
0.532257
 20
1.457169
 30
0.0
 11
0.534025
 21
1.461071
 31
0.0
  0
LINE
  8
0
  6
CONTINUOUS
 62
     7
  5
30B
 10
0.534025
 20
1.461071
 30
0.0
 11
0.535947
 21
1.464794
 31
0.0
  0
LINE
  8
0
  6
CONTINUOUS
 62
     7
  5
30C
 10
0.535947
 20
1.464794
 30
0.0
 11
0.538002
 21
1.468317
 31
0.0
  0
LINE
  8
0
  6
CONTINUOUS
 62
     7
  5
30D
 10
0.538002
 20
1.468317
 30
0.0
 11
0.540171
 21
1.471625
 31
0.0
  0
LINE
  8
0
  6
CONTINUOUS
 62
     7
  5
30E
 10
0.540171
 20
1.471625
 30
0.0
 11
0.542444
 21
1.474721
 31
0.0
  0
LINE
  8
0
  6
CONTINUOUS
 62
     7
  5
30F
 10
0.542444
 20
1.474721
 30
0.0
 11
0.544873
 21
1.477678
 31
0.0
  0
LINE
  8
0
  6
CONTINUOUS
 62
     7
  5
310
 10
0.544873
 20
1.477678
 30
0.0
 11
0.547457
 21
1.48048
 31
0.0
  0
LINE
  8
0
  6
CONTINUOUS
 62
     7
  5
311
 10
0.547457
 20
1.48048
 30
0.0
 11
0.550181
 21
1.483101
 31
0.0
  0
LINE
  8
0
  6
CONTINUOUS
 62
     7
  5
312
 10
0.550181
 20
1.483101
 30
0.0
 11
0.553031
 21
1.48552
 31
0.0
  0
LINE
  8
0
  6
CONTINUOUS
 62
     7
  5
313
 10
0.553031
 20
1.48552
 30
0.0
 11
0.555987
 21
1.487715
 31
0.0
  0
LINE
  8
0
  6
CONTINUOUS
 62
     7
  5
314
 10
0.555987
 20
1.487715
 30
0.0
 11
0.559033
 21
1.489672
 31
0.0
  0
LINE
  8
0
  6
CONTINUOUS
 62
     7
  5
315
 10
0.559033
 20
1.489672
 30
0.0
 11
0.56215
 21
1.491378
 31
0.0
  0
LINE
  8
0
  6
CONTINUOUS
 62
     7
  5
316
 10
0.56215
 20
1.491378
 30
0.0
 11
0.565321
 21
1.492825
 31
0.0
  0
LINE
  8
0
  6
CONTINUOUS
 62
     7
  5
317
 10
0.565321
 20
1.492825
 30
0.0
 11
0.568526
 21
1.494005
 31
0.0
  0
LINE
  8
0
  6
CONTINUOUS
 62
     7
  5
318
 10
0.568526
 20
1.494005
 30
0.0
 11
0.571744
 21
1.494917
 31
0.0
  0
LINE
  8
0
  6
CONTINUOUS
 62
     7
  5
319
 10
0.571744
 20
1.494917
 30
0.0
 11
0.574952
 21
1.49556
 31
0.0
  0
LINE
  8
0
  6
CONTINUOUS
 62
     7
  5
31A
 10
0.574952
 20
1.49556
 30
0.0
 11
0.57813
 21
1.495939
 31
0.0
  0
LINE
  8
0
  6
CONTINUOUS
 62
     7
  5
31B
 10
0.57813
 20
1.495939
 30
0.0
 11
0.581255
 21
1.496063
 31
0.0
  0
LINE
  8
0
  6
CONTINUOUS
 62
     7
  5
31C
 10
0.787402
 20
2.440945
 30
0.0
 11
-0.787402
 21
2.440945
 31
0.0
  0
LINE
  8
0
  6
CONTINUOUS
 62
     7
  5
31D
 10
1.889764
 20
0.488189
 30
0.0
 11
-1.889764
 21
0.488189
 31
0.0
  0
LINE
  8
0
  6
CONTINUOUS
 62
     7
  5
31E
 10
1.968504
 20
0.409449
 30
0.0
 11
-1.968504
 21
0.409449
 31
0.0
  0
LINE
  8
0
  6
CONTINUOUS
 62
     7
  5
31F
 10
1.968504
 20
0.0
 30
0.0
 11
-1.968504
 21
0.0
 31
0.0
  0
LINE
  8
0
  6
CONTINUOUS
 62
     7
  5
320
 10
0.854768
 20
0.602177
 30
0.0
 11
0.787402
 21
2.440945
 31
0.0
  0
LINE
  8
0
  6
CONTINUOUS
 62
     7
  5
321
 10
-0.787402
 20
2.440945
 30
0.0
 11
-0.854768
 21
0.602177
 31
0.0
  0
ARC
  8
0
  6
CONTINUOUS
 62
     7
  5
322
 10
-0.972807
 20
0.606299
 30
0.0
 40
0.11811
 50
270.0
 51
358.0
  0
ARC
  8
0
  6
CONTINUOUS
 62
     7
  5
323
 10
0.972807
 20
0.606299
 30
0.0
 40
0.11811
 50
182.0
 51
270.0
  0
LINE
  8
0
  6
CONTINUOUS
 62
     7
  5
324
 10
1.968504
 20
0.409449
 30
0.0
 11
1.889764
 21
0.488189
 31
0.0
  0
LINE
  8
0
  6
CONTINUOUS
 62
     7
  5
325
 10
-1.889764
 20
0.488189
 30
0.0
 11
-1.968504
 21
0.409449
 31
0.0
  0
LINE
  8
0
  6
CONTINUOUS
 62
     7
  5
326
 10
1.968504
 20
0.0
 30
0.0
 11
1.968504
 21
0.409449
 31
0.0
  0
LINE
  8
0
  6
CONTINUOUS
 62
     7
  5
327
 10
-1.968504
 20
0.409449
 30
0.0
 11
-1.968504
 21
0.0
 31
0.0
  0
LINE
  8
0
  6
CONTINUOUS
 62
     3
  5
328
 10
0.0
 20
0.0
 30
0.0
 11
0.0
 21
2.440945
 31
0.0
  0
LINE
  8
0
  6
CONTINUOUS
 62
     3
  5
329
 10
0.526375
 20
1.417323
 30
0.0
 11
0.637731
 21
1.417323
 31
0.0
  0
LINE
  8
0
  6
CONTINUOUS
 62
     3
  5
32A
 10
0.582053
 20
1.496063
 30
0.0
 11
0.582053
 21
1.338583
 31
0.0
  0
LINE
  8
0
  6
CONTINUOUS
 62
     3
  5
32B
 10
-0.637731
 20
1.417323
 30
0.0
 11
-0.526375
 21
1.417323
 31
0.0
  0
LINE
  8
0
  6
CONTINUOUS
 62
     3
  5
32C
 10
-0.582053
 20
1.496063
 30
0.0
 11
-0.582053
 21
1.338583
 31
0.0
  0
ENDSEC
  0
EOF
