999
DXF file: C:\Vinayak\New 2D genarating\updateCreo8 with 3dPdf\CAD\NSYCRN108250_3D-CAD\drw0001_5.dxf
999
Pro/ENGINEER 2021284 by Parametric Technology Corporation
  0
SECTION
  2
HEADER
  9
$ACADVER
  1
AC1024
  9
$DWGCODEPAGE
  3
ANSI_1252
  9
$EXTMAX
 10
844.8981636247
 20
1194.9274028406
 30
0.0
  9
$EXTMIN
 10
0.0
 20
0.0
 30
0.0
  9
$LIMMIN
 10
0.0
 20
0.0
  9
$LIMMAX
 10
844.8981636247
 20
1194.9274028406
  9
$VIEWCTR
 10
422.4490818123
 20
597.4637014203
  9
$VIEWSIZE
 40
1194.9274028406
  9
$CLAYER
  8
0
  9
$LTSCALE
 40
77.891564037
  9
$CELTYPE
  6
BYLAYER
  9
$DIMSCALE
 40
1.0
  9
$DIMASZ
 40
10.0583114717
  9
$DIMEXO
 40
1.0
  9
$DIMDLI
 40
53.8159896983
  9
$DIMEXE
 40
1.0
  9
$DIMCEN
 40
12.745892297
  9
$DIMLFAC
 40
1.0
  9
$DIMBLK
  1
_FILLED
  9
$DIMALT
 70
0
  9
$DIMALTF
 40
0.0393700787
  9
$DIMTXT
 40
14.0816360604
  9
$DIMTOL
 70
1
  9
$DIMLIM
 70
0
  9
$DIMTFAC
 40
1.0
  9
$DIMTP
 40
0.01
  9
$DIMTM
 40
0.01
  9
$DIMGAP
 40
0.625
  9
$DIMDSEP
 70
46
  9
$AUNITS
 70
0
  9
$PDMODE
 70
3
  9
$PDSIZE
 40
0.3125
  9
$HANDSEED
  5
36B
  9
$TILEMODE
 70
1
  9
$MEASUREMENT
 70
1
  9
$INSUNITS
 70
4
  0
ENDSEC
  0
SECTION
  2
CLASSES
  0
CLASS
  1
ACDBDICTIONARYWDFLT
  2
AcDbDictionaryWithDefault
  3
AutoCAD 2000
 90
0
 91
1
280
0
281
0
  0
CLASS
  1
ACDBPLACEHOLDER
  2
AcDbPlaceHolder
  3
AutoCAD 2000
 90
0
 91
1
280
0
281
0
  0
CLASS
  1
LAYOUT
  2
AcDbLayout
  3
AutoCAD 2000
 90
0
 91
0
280
0
281
0
  0
ENDSEC
  0
SECTION
  2
TABLES
  0
TABLE
  2
VPORT
  5
8
100
AcDbSymbolTable
 70
2
  0
VPORT
  5
1F4
100
AcDbSymbolTableRecord
100
AcDbViewportTableRecord
  2
*ACTIVE
 70
0
 10
0.0
 20
0.0
 11
1.0
 21
1.0
 12
422.4490818123
 22
597.4637014203
 13
0.0
 23
0.0
 14
1.0
 24
1.0
 15
0.0
 25
0.0
 16
0.0
 26
0.0
 36
1.0
 17
0.0
 27
0.0
 37
0.0
 40
1194.9274028406
 41
0.7070707071
 42
50.0
 43
0.0
 44
0.0
 50
0.0
 51
0.0
 71
0
 72
100
 73
1
 74
1
 75
0
 76
0
 77
0
 78
0
  0
ENDTAB
  0
TABLE
  2
LTYPE
  5
5
100
AcDbSymbolTable
 70
6
  0
LTYPE
  5
14
100
AcDbSymbolTableRecord
100
AcDbLinetypeTableRecord
  2
BYBLOCK
 70
0
  3

 72
65
 73
0
 40
0.0
  0
LTYPE
  5
15
100
AcDbSymbolTableRecord
100
AcDbLinetypeTableRecord
  2
BYLAYER
 70
0
  3

 72
65
 73
0
 40
0.0
  0
LTYPE
  5
16
100
AcDbSymbolTableRecord
100
AcDbLinetypeTableRecord
  2
CONTINUOUS
 70
64
  3
Solid line
 72
65
 73
0
 40
0.0
  0
LTYPE
  5
1F5
100
AcDbSymbolTableRecord
100
AcDbLinetypeTableRecord
  2
CENTER
 70
64
  3
____ _ ____ _ ____ _ ____ _ ____ _ ____ _ ____
 72
65
 73
4
 40
0.6
 49
0.375
 74
0
 49
-0.075
 74
0
 49
0.075
 74
0
 49
-0.075
 74
0
  0
LTYPE
  5
1F6
100
AcDbSymbolTableRecord
100
AcDbLinetypeTableRecord
  2
HIDDEN
 70
64
  3
- - - - - - - - - - - - - - - - - - - -
 72
65
 73
2
 40
0.2
 49
0.1
 74
0
 49
-0.1
 74
0
  0
LTYPE
  5
1F7
100
AcDbSymbolTableRecord
100
AcDbLinetypeTableRecord
  2
PHANTOM
 70
64
  3
_____ _ _ _____ _ _ _____ _ _ _____
 72
65
 73
6
 40
0.8
 49
0.45
 74
0
 49
-0.05
 74
0
 49
0.1
 74
0
 49
-0.05
 74
0
 49
0.1
 74
0
 49
-0.05
 74
0
  0
LTYPE
  5
1F8
100
AcDbSymbolTableRecord
100
AcDbLinetypeTableRecord
  2
DOT
 70
64
  3
. . . . . . . . . . . . . . . . . . . .
 72
65
 73
2
 40
0.2
 49
0.1
 74
0
 49
-0.1
 74
0
  0
LTYPE
  5
1F9
100
AcDbSymbolTableRecord
100
AcDbLinetypeTableRecord
  2
DASHED
 70
64
  3
- - - - - - - - - - - - - - - - - - - -
 72
65
 73
2
 40
0.2
 49
0.1
 74
0
 49
-0.1
 74
0
  0
ENDTAB
  0
TABLE
  2
LAYER
  5
2
100
AcDbSymbolTable
 70
36
  0
LAYER
  5
10
100
AcDbSymbolTableRecord
100
AcDbLayerTableRecord
  2
0
 70
0
 62
7
  6
CONTINUOUS
370
-3
390
F
  0
LAYER
  5
1FA
100
AcDbSymbolTableRecord
100
AcDbLayerTableRecord
  2
DEFAULT_1
 70
0
 62
7
  6
CENTER
370
-3
390
F
  0
LAYER
  5
1FB
100
AcDbSymbolTableRecord
100
AcDbLayerTableRecord
  2
DEFAULT_2
 70
0
 62
8
  6
HIDDEN
370
-3
390
F
  0
LAYER
  5
1FC
100
AcDbSymbolTableRecord
100
AcDbLayerTableRecord
  2
DEFAULT_3
 70
0
 62
7
  6
PHANTOM
370
-3
390
F
  0
LAYER
  5
1FD
100
AcDbSymbolTableRecord
100
AcDbLayerTableRecord
  2
00_COMPONENTS
 70
0
 62
7
  6
CONTINUOUS
370
-3
390
F
  0
LAYER
  5
1FE
100
AcDbSymbolTableRecord
100
AcDbLayerTableRecord
  2
00_COMPONENTS_11
 70
0
 62
7
  6
CONTINUOUS
370
-3
390
F
  0
LAYER
  5
1FF
100
AcDbSymbolTableRecord
100
AcDbLayerTableRecord
  2
01_1_DEFAULT_DATUMS
 70
0
 62
7
  6
CONTINUOUS
370
-3
390
F
  0
LAYER
  5
200
100
AcDbSymbolTableRecord
100
AcDbLayerTableRecord
  2
01_PLANES
 70
0
 62
7
  6
CONTINUOUS
370
-3
390
F
  0
LAYER
  5
201
100
AcDbSymbolTableRecord
100
AcDbLayerTableRecord
  2
02_COORD_SYS
 70
0
 62
7
  6
CONTINUOUS
370
-3
390
F
  0
LAYER
  5
202
100
AcDbSymbolTableRecord
100
AcDbLayerTableRecord
  2
03_AXES
 70
0
 62
7
  6
CONTINUOUS
370
-3
390
F
  0
LAYER
  5
203
100
AcDbSymbolTableRecord
100
AcDbLayerTableRecord
  2
04_POINTS
 70
0
 62
7
  6
CONTINUOUS
370
-3
390
F
  0
LAYER
  5
204
100
AcDbSymbolTableRecord
100
AcDbLayerTableRecord
  2
05_CURVES
 70
0
 62
7
  6
CONTINUOUS
370
-3
390
F
  0
LAYER
  5
205
100
AcDbSymbolTableRecord
100
AcDbLayerTableRecord
  2
06_SURFS
 70
0
 62
7
  6
CONTINUOUS
370
-3
390
F
  0
LAYER
  5
206
100
AcDbSymbolTableRecord
100
AcDbLayerTableRecord
  2
07_COSMETICS
 70
0
 62
7
  6
CONTINUOUS
370
-3
390
F
  0
LAYER
  5
207
100
AcDbSymbolTableRecord
100
AcDbLayerTableRecord
  2
10_NOTES
 70
0
 62
7
  6
CONTINUOUS
370
-3
390
F
  0
LAYER
  5
208
100
AcDbSymbolTableRecord
100
AcDbLayerTableRecord
  2
11_NOTES_PUB
 70
0
 62
7
  6
CONTINUOUS
370
-3
390
F
  0
LAYER
  5
209
100
AcDbSymbolTableRecord
100
AcDbLayerTableRecord
  2
13_REF_GTOL
 70
0
 62
7
  6
CONTINUOUS
370
-3
390
F
  0
LAYER
  5
20A
100
AcDbSymbolTableRecord
100
AcDbLayerTableRecord
  2
16_MISC
 70
0
 62
7
  6
CONTINUOUS
370
-3
390
F
  0
LAYER
  5
20B
100
AcDbSymbolTableRecord
100
AcDbLayerTableRecord
  2
17_NO_PRINT
 70
0
 62
7
  6
CONTINUOUS
370
-3
390
F
  0
LAYER
  5
20C
100
AcDbSymbolTableRecord
100
AcDbLayerTableRecord
  2
18_DATUM_CAMS_JOINTS
 70
0
 62
7
  6
CONTINUOUS
370
-3
390
F
  0
LAYER
  5
20D
100
AcDbSymbolTableRecord
100
AcDbLayerTableRecord
  2
19_DATUM_FUNCTIONAL
 70
0
 62
7
  6
CONTINUOUS
370
-3
390
F
  0
LAYER
  5
20E
100
AcDbSymbolTableRecord
100
AcDbLayerTableRecord
  2
20_DATUM_KINEMATIC_SCHEME
 70
0
 62
7
  6
CONTINUOUS
370
-3
390
F
  0
LAYER
  5
20F
100
AcDbSymbolTableRecord
100
AcDbLayerTableRecord
  2
PART
 70
0
 62
7
  6
CONTINUOUS
370
-3
390
F
  0
LAYER
  5
210
100
AcDbSymbolTableRecord
100
AcDbLayerTableRecord
  2
PART_1
 70
0
 62
7
  6
CONTINUOUS
370
-3
390
F
  0
ENDTAB
  0
TABLE
  2
STYLE
  5
3
100
AcDbSymbolTable
 70
1
  0
STYLE
  5
11
100
AcDbSymbolTableRecord
100
AcDbTextStyleTableRecord
  2
STANDARD
 70
0
 40
0.0
 41
0.8
 50
0.0
 71
0
 42
0.2
  3
txt
  4

  0
STYLE
  5
211
100
AcDbSymbolTableRecord
100
AcDbTextStyleTableRecord
  2
TEXTSTYLE_1
 70
0
 40
0.0
 41
0.8
 50
0.0
 71
0
 42
0.2
  3
gdt
  4

  0
ENDTAB
  0
TABLE
  2
VIEW
  5
6
100
AcDbSymbolTable
 70
0
  0
ENDTAB
  0
TABLE
  2
UCS
  5
7
100
AcDbSymbolTable
 70
0
  0
ENDTAB
  0
TABLE
  2
APPID
  5
9
100
AcDbSymbolTable
 70
1
  0
APPID
  5
212
100
AcDbSymbolTableRecord
100
AcDbRegAppTableRecord
  2
ACAD
 70
0
  0
ENDTAB
  0
TABLE
  2
BLOCK_RECORD
  5
1
100
AcDbSymbolTable
 70
0
  0
BLOCK_RECORD
  5
213
100
AcDbSymbolTableRecord
100
AcDbBlockTableRecord
  2
*Model_Space
  0
BLOCK_RECORD
  5
214
100
AcDbSymbolTableRecord
100
AcDbBlockTableRecord
  2
*Paper_Space
  0
BLOCK_RECORD
  5
215
100
AcDbSymbolTableRecord
100
AcDbBlockTableRecord
  2
_FILLED
  0
ENDTAB
  0
TABLE
  2
DIMSTYLE
  5
A
100
AcDbSymbolTable
 70
1
100
AcDbDimStyleTable
 71
0
  0
DIMSTYLE
105
216
100
AcDbSymbolTableRecord
100
AcDbDimStyleTableRecord
  2
STANDARD
 70
0
  3

  4

 40
1.0
 41
10.0583114717
 42
1.0
 43
0.38
 44
1.0
 45
0.0
 46
0.0
 47
0.01
 48
0.01
140
14.0816360604
141
0.09
142
0.0
143
25.4
144
1.0
145
0.0
146
1.0
147
0.625
 71
1
 72
0
 73
0
 74
0
 75
0
 76
0
 77
1
 78
8
 79
2
170
0
171
1
172
0
173
0
174
0
175
0
176
0
177
0
178
0
270
2
179
2
271
2
272
2
273
2
274
2
275
0
280
0
281
0
282
0
283
1
284
8
285
0
286
0
287
3
288
0
340
11
278
46
341
215
342
215
343
215
344
215
  0
ENDTAB
  0
ENDSEC
  0
SECTION
  2
BLOCKS
  0
BLOCK
  5
20
100
AcDbEntity
  8
0
100
AcDbBlockBegin
  2
*Model_Space
 70
0
 10
0.0
 20
0.0
 30
0.0
  3
*Model_Space
  1

  0
ENDBLK
  5
21
100
AcDbEntity
  8
0
100
AcDbBlockEnd
  0
BLOCK
  5
1C
100
AcDbEntity
  8
0
100
AcDbBlockBegin
  2
*Paper_Space
 70
0
 10
0.0
 20
0.0
 30
0.0
  3
*Paper_Space
  1

  0
ENDBLK
  5
1D
100
AcDbEntity
  8
0
100
AcDbBlockEnd
  0
BLOCK
  5
217
100
AcDbEntity
  8
0
100
AcDbBlockBegin
  2
_FILLED
 70
64
 10
0.0
 20
0.0
  3
_FILLED
  1

  0
SOLID
  5
218
100
AcDbEntity
  8
0
  6
BYBLOCK
 62
0
100
AcDbTrace
 10
0.0
 20
0.0
 11
-1.0
 21
0.25
 12
-1.0
 22
-0.25
 13
-1.0
 23
-0.25
  0
ENDBLK
  5
219
100
AcDbEntity
  8
0
  6
BYBLOCK
 62
0
100
AcDbBlockEnd
  0
ENDSEC
  0
SECTION
  2
ENTITIES
  0
LINE
  5
21A
100
AcDbEntity
  8
00_COMPONENTS_11
100
AcDbLine
 62
7
  6
CONTINUOUS
 10
460.5146690241
 20
97.2926638617
 11
460.5095989471
 21
97.2916205062
  0
LINE
  5
21B
100
AcDbEntity
  8
00_COMPONENTS_11
100
AcDbLine
 62
7
  6
CONTINUOUS
 10
395.5146690241
 20
97.2926638617
 11
395.5095989471
 21
97.2916205062
  0
LINE
  5
21C
100
AcDbEntity
  8
00_COMPONENTS_11
100
AcDbLine
 62
7
  6
CONTINUOUS
 10
460.5106185977
 20
97.2869444657
 11
460.514955481
 21
97.2878201666
  0
LINE
  5
21D
100
AcDbEntity
  8
00_COMPONENTS_11
100
AcDbLine
 62
7
  6
CONTINUOUS
 10
395.5106185977
 20
97.2869444657
 11
395.514955481
 21
97.2878201666
  0
LINE
  5
21E
100
AcDbEntity
  8
00_COMPONENTS_11
100
AcDbLine
 62
7
  6
CONTINUOUS
 10
460.5108286618
 20
97.2876572553
 11
460.5151583665
 21
97.2885103195
  0
LINE
  5
21F
100
AcDbEntity
  8
00_COMPONENTS_11
100
AcDbLine
 62
7
  6
CONTINUOUS
 10
460.5149975063
 20
97.293794163
 11
460.509942284
 21
97.2927984489
  0
LINE
  5
220
100
AcDbEntity
  8
00_COMPONENTS_11
100
AcDbLine
 62
7
  6
CONTINUOUS
 10
395.5149975063
 20
97.293794163
 11
395.509942284
 21
97.2927984489
  0
LINE
  5
221
100
AcDbEntity
  8
00_COMPONENTS_11
100
AcDbLine
 62
7
  6
CONTINUOUS
 10
395.5108286618
 20
97.2876572553
 11
395.5151583665
 21
97.2885103195
  0
LWPOLYLINE
  5
222
100
AcDbEntity
  8
00_COMPONENTS_11
100
AcDbPolyline
 62
7
  6
CONTINUOUS
 90
3
 70
0
 10
462.2390794959
 20
97.624988741
 10
462.2689565669
 20
97.6280748937
 10
462.2999208637
 20
97.6362538135
  0
LWPOLYLINE
  5
223
100
AcDbEntity
  8
00_COMPONENTS_11
100
AcDbPolyline
 62
7
  6
CONTINUOUS
 90
3
 70
0
 10
397.2390794959
 20
97.624988741
 10
397.2689565669
 20
97.6280748937
 10
397.2999208637
 20
97.6362538135
  0
LWPOLYLINE
  5
224
100
AcDbEntity
  8
00_COMPONENTS_11
100
AcDbPolyline
 62
7
  6
CONTINUOUS
 90
3
 70
0
 10
332.2390794959
 20
97.624988741
 10
332.2689565669
 20
97.6280748937
 10
332.2999208637
 20
97.6362538135
  0
LINE
  5
225
100
AcDbEntity
  8
00_COMPONENTS_11
100
AcDbLine
 62
7
  6
CONTINUOUS
 10
460.3549464823
 20
97.2622634589
 11
460.4036985205
 21
97.2665498369
  0
LINE
  5
226
100
AcDbEntity
  8
00_COMPONENTS_11
100
AcDbLine
 62
7
  6
CONTINUOUS
 10
395.3549464823
 20
97.2622634589
 11
395.4036985205
 21
97.2665498369
  0
LINE
  5
227
100
AcDbEntity
  8
00_COMPONENTS_11
100
AcDbLine
 62
7
  6
CONTINUOUS
 10
330.3549464823
 20
97.2622634589
 11
330.4036985205
 21
97.2665498369
  0
LINE
  5
228
100
AcDbEntity
  8
00_COMPONENTS_11
100
AcDbLine
 62
7
  6
CONTINUOUS
 10
460.3549459928
 20
97.2622692285
 11
460.3653268101
 21
97.2631504009
  0
LINE
  5
229
100
AcDbEntity
  8
00_COMPONENTS_11
100
AcDbLine
 62
7
  6
CONTINUOUS
 10
395.3549459928
 20
97.2622692285
 11
395.3653268101
 21
97.2631504009
  0
LINE
  5
22A
100
AcDbEntity
  8
00_COMPONENTS_11
100
AcDbLine
 62
7
  6
CONTINUOUS
 10
330.3549459928
 20
97.2622692285
 11
330.3653268101
 21
97.2631504009
  0
LINE
  5
22B
100
AcDbEntity
  8
00_COMPONENTS_11
100
AcDbLine
 62
7
  6
CONTINUOUS
 10
462.2060929097
 20
97.6240443306
 11
462.2390794959
 21
97.624988741
  0
LINE
  5
22C
100
AcDbEntity
  8
00_COMPONENTS_11
100
AcDbLine
 62
7
  6
CONTINUOUS
 10
462.2999168504
 20
97.6362518018
 11
462.2438743167
 21
97.6346487296
  0
LINE
  5
22D
100
AcDbEntity
  8
00_COMPONENTS_11
100
AcDbLine
 62
7
  6
CONTINUOUS
 10
397.2060931577
 20
97.6240444002
 11
397.2390794959
 21
97.624988741
  0
LINE
  5
22E
100
AcDbEntity
  8
00_COMPONENTS_11
100
AcDbLine
 62
7
  6
CONTINUOUS
 10
397.2999139748
 20
97.636251385
 11
397.2438743167
 21
97.6346487296
  0
LINE
  5
22F
100
AcDbEntity
  8
00_COMPONENTS_11
100
AcDbLine
 62
7
  6
CONTINUOUS
 10
332.2060931577
 20
97.6240444002
 11
332.2390794959
 21
97.624988741
  0
LINE
  5
230
100
AcDbEntity
  8
00_COMPONENTS_11
100
AcDbLine
 62
7
  6
CONTINUOUS
 10
332.2999139748
 20
97.636251385
 11
332.2438743167
 21
97.6346487296
  0
LINE
  5
231
100
AcDbEntity
  8
00_COMPONENTS_11
100
AcDbLine
 62
7
  6
CONTINUOUS
 10
459.1786781567
 20
97.6232605614
 11
459.515990535
 21
97.6247170818
  0
LINE
  5
232
100
AcDbEntity
  8
00_COMPONENTS_11
100
AcDbLine
 62
7
  6
CONTINUOUS
 10
394.1786781567
 20
97.6232605614
 11
394.515990535
 21
97.6247170818
  0
LINE
  5
233
100
AcDbEntity
  8
00_COMPONENTS_11
100
AcDbLine
 62
7
  6
CONTINUOUS
 10
329.1786781567
 20
97.6232605614
 11
329.515990535
 21
97.6247170818
  0
LINE
  5
234
100
AcDbEntity
  8
00_COMPONENTS_11
100
AcDbLine
 62
7
  6
CONTINUOUS
 10
399.3626202614
 20
98.7302536499
 11
390.0247360528
 21
98.7302536499
  0
LINE
  5
235
100
AcDbEntity
  8
00_COMPONENTS_11
100
AcDbLine
 62
7
  6
CONTINUOUS
 10
334.3626202614
 20
98.7302536499
 11
325.0247360528
 21
98.7302536499
  0
LINE
  5
236
100
AcDbEntity
  8
00_COMPONENTS_11
100
AcDbLine
 62
7
  6
CONTINUOUS
 10
455.0247360528
 20
98.7302536499
 11
464.3626202614
 21
98.7302536499
  0
LINE
  5
237
100
AcDbEntity
  8
00_COMPONENTS_11
100
AcDbLine
 62
7
  6
CONTINUOUS
 10
324.9436781567
 20
98.8910416333
 11
334.4436781567
 21
98.8910416333
  0
LINE
  5
238
100
AcDbEntity
  8
00_COMPONENTS_11
100
AcDbLine
 62
7
  6
CONTINUOUS
 10
389.9436781567
 20
98.8910416333
 11
399.4436781567
 21
98.8910416333
  0
LINE
  5
239
100
AcDbEntity
  8
00_COMPONENTS_11
100
AcDbLine
 62
7
  6
CONTINUOUS
 10
454.9436781567
 20
98.8910416333
 11
464.4436781567
 21
98.8910416333
  0
LINE
  5
23A
100
AcDbEntity
  8
00_COMPONENTS_11
100
AcDbLine
 62
7
  6
CONTINUOUS
 10
464.4436781567
 20
99.191028932
 11
464.2633773109
 21
99.191028932
  0
LINE
  5
23B
100
AcDbEntity
  8
00_COMPONENTS_11
100
AcDbLine
 62
7
  6
CONTINUOUS
 10
463.8415539227
 20
99.191028932
 11
462.0083329106
 21
99.191028932
  0
LINE
  5
23C
100
AcDbEntity
  8
00_COMPONENTS_11
100
AcDbLine
 62
7
  6
CONTINUOUS
 10
460.9899611657
 20
99.191028932
 11
458.3973951477
 21
99.191028932
  0
LINE
  5
23D
100
AcDbEntity
  8
00_COMPONENTS_11
100
AcDbLine
 62
7
  6
CONTINUOUS
 10
457.3790234027
 20
99.191028932
 11
455.5458023907
 21
99.191028932
  0
LINE
  5
23E
100
AcDbEntity
  8
00_COMPONENTS_11
100
AcDbLine
 62
7
  6
CONTINUOUS
 10
455.1239790024
 20
99.191028932
 11
454.9436781567
 21
99.191028932
  0
LINE
  5
23F
100
AcDbEntity
  8
00_COMPONENTS_11
100
AcDbLine
 62
7
  6
CONTINUOUS
 10
399.4436781567
 20
99.191028932
 11
399.2633773109
 21
99.191028932
  0
LINE
  5
240
100
AcDbEntity
  8
00_COMPONENTS_11
100
AcDbLine
 62
7
  6
CONTINUOUS
 10
398.8415539227
 20
99.191028932
 11
397.0083329106
 21
99.191028932
  0
LINE
  5
241
100
AcDbEntity
  8
00_COMPONENTS_11
100
AcDbLine
 62
7
  6
CONTINUOUS
 10
395.9899611657
 20
99.191028932
 11
393.3973951477
 21
99.191028932
  0
LINE
  5
242
100
AcDbEntity
  8
00_COMPONENTS_11
100
AcDbLine
 62
7
  6
CONTINUOUS
 10
392.3790234027
 20
99.191028932
 11
390.5458023907
 21
99.191028932
  0
LINE
  5
243
100
AcDbEntity
  8
00_COMPONENTS_11
100
AcDbLine
 62
7
  6
CONTINUOUS
 10
390.1239790024
 20
99.191028932
 11
389.9436781567
 21
99.191028932
  0
LINE
  5
244
100
AcDbEntity
  8
00_COMPONENTS_11
100
AcDbLine
 62
7
  6
CONTINUOUS
 10
334.4436781567
 20
99.191028932
 11
334.2633773109
 21
99.191028932
  0
LINE
  5
245
100
AcDbEntity
  8
00_COMPONENTS_11
100
AcDbLine
 62
7
  6
CONTINUOUS
 10
333.8415539227
 20
99.191028932
 11
332.0083329106
 21
99.191028932
  0
LINE
  5
246
100
AcDbEntity
  8
00_COMPONENTS_11
100
AcDbLine
 62
7
  6
CONTINUOUS
 10
330.9899611657
 20
99.191028932
 11
328.3973951477
 21
99.191028932
  0
LINE
  5
247
100
AcDbEntity
  8
00_COMPONENTS_11
100
AcDbLine
 62
7
  6
CONTINUOUS
 10
327.3790234027
 20
99.191028932
 11
325.5458023907
 21
99.191028932
  0
LINE
  5
248
100
AcDbEntity
  8
00_COMPONENTS_11
100
AcDbLine
 62
7
  6
CONTINUOUS
 10
325.1239790024
 20
99.191028932
 11
324.9436781567
 21
99.191028932
  0
LINE
  5
249
100
AcDbEntity
  8
00_COMPONENTS_11
100
AcDbLine
 62
7
  6
CONTINUOUS
 10
325.4961604257
 20
99.2736641142
 11
327.4703188915
 21
99.2736641142
  0
LINE
  5
24A
100
AcDbEntity
  8
00_COMPONENTS_11
100
AcDbLine
 62
7
  6
CONTINUOUS
 10
328.2977389357
 20
99.2736641142
 11
331.0896173776
 21
99.2736641142
  0
LINE
  5
24B
100
AcDbEntity
  8
00_COMPONENTS_11
100
AcDbLine
 62
7
  6
CONTINUOUS
 10
331.9170374396
 20
99.2736641142
 11
333.8911958876
 21
99.2736641142
  0
LINE
  5
24C
100
AcDbEntity
  8
00_COMPONENTS_11
100
AcDbLine
 62
7
  6
CONTINUOUS
 10
390.4961604257
 20
99.2736641142
 11
392.4703188915
 21
99.2736641142
  0
LINE
  5
24D
100
AcDbEntity
  8
00_COMPONENTS_11
100
AcDbLine
 62
7
  6
CONTINUOUS
 10
393.2977389357
 20
99.2736641142
 11
396.0896173776
 21
99.2736641142
  0
LINE
  5
24E
100
AcDbEntity
  8
00_COMPONENTS_11
100
AcDbLine
 62
7
  6
CONTINUOUS
 10
396.9170374395
 20
99.2736641142
 11
398.8911958876
 21
99.2736641142
  0
LINE
  5
24F
100
AcDbEntity
  8
00_COMPONENTS_11
100
AcDbLine
 62
7
  6
CONTINUOUS
 10
455.4961604257
 20
99.2736641142
 11
457.4703188915
 21
99.2736641142
  0
LINE
  5
250
100
AcDbEntity
  8
00_COMPONENTS_11
100
AcDbLine
 62
7
  6
CONTINUOUS
 10
458.2977389357
 20
99.2736641142
 11
461.0896173776
 21
99.2736641142
  0
LINE
  5
251
100
AcDbEntity
  8
00_COMPONENTS_11
100
AcDbLine
 62
7
  6
CONTINUOUS
 10
461.9170374396
 20
99.2736641142
 11
463.8911958876
 21
99.2736641142
  0
LINE
  5
252
100
AcDbEntity
  8
00_COMPONENTS_11
100
AcDbLine
 62
7
  6
CONTINUOUS
 10
324.5733173152
 20
99.591028932
 11
464.8140389982
 21
99.591028932
  0
LINE
  5
253
100
AcDbEntity
  8
PART
100
AcDbLine
 62
7
  6
CONTINUOUS
 10
533.5037173358
 20
100.591028932
 11
307.0457173358
 21
100.591028932
  0
LINE
  5
254
100
AcDbEntity
  8
PART
100
AcDbLine
 62
7
  6
CONTINUOUS
 10
305.7040765493
 20
101.7910289321
 11
533.5037173358
 21
101.7910289321
  0
LINE
  5
255
100
AcDbEntity
  8
PART_1
100
AcDbLine
 62
7
  6
CONTINUOUS
 10
555.7037173359
 20
102.7910289321
 11
541.7037173359
 21
102.7910289321
  0
LINE
  5
256
100
AcDbEntity
  8
PART_1
100
AcDbLine
 62
7
  6
CONTINUOUS
 10
541.7037173359
 20
108.7910289321
 11
558.2037173359
 21
108.7910289287
  0
LINE
  5
257
100
AcDbEntity
  8
00_COMPONENTS_11
100
AcDbLine
 62
7
  6
CONTINUOUS
 10
329.515990535
 20
97.6247170818
 11
329.8685374071
 21
97.6247232081
  0
LINE
  5
258
100
AcDbEntity
  8
00_COMPONENTS_11
100
AcDbLine
 62
7
  6
CONTINUOUS
 10
394.515990535
 20
97.6247170818
 11
394.8685374071
 21
97.6247232081
  0
LINE
  5
259
100
AcDbEntity
  8
00_COMPONENTS_11
100
AcDbLine
 62
7
  6
CONTINUOUS
 10
459.515990535
 20
97.6247170818
 11
459.8685374071
 21
97.6247232081
  0
LINE
  5
25A
100
AcDbEntity
  8
00_COMPONENTS_11
100
AcDbLine
 62
7
  6
CONTINUOUS
 10
329.8685374071
 20
97.6247232081
 11
330.2086781567
 21
97.6232605576
  0
LINE
  5
25B
100
AcDbEntity
  8
00_COMPONENTS_11
100
AcDbLine
 62
7
  6
CONTINUOUS
 10
394.8685374071
 20
97.6247232081
 11
395.2086781567
 21
97.6232605576
  0
LINE
  5
25C
100
AcDbEntity
  8
00_COMPONENTS_11
100
AcDbLine
 62
7
  6
CONTINUOUS
 10
459.8685374071
 20
97.6247232081
 11
460.2086781567
 21
97.6232605576
  0
LINE
  5
25D
100
AcDbEntity
  8
00_COMPONENTS_11
100
AcDbLine
 62
7
  6
CONTINUOUS
 10
327.148290105
 20
97.6249880675
 11
327.1779282964
 21
97.6241401092
  0
LINE
  5
25E
100
AcDbEntity
  8
00_COMPONENTS_11
100
AcDbLine
 62
7
  6
CONTINUOUS
 10
327.1434835406
 20
97.6346481981
 11
327.0874326447
 21
97.6362547965
  0
LINE
  5
25F
100
AcDbEntity
  8
00_COMPONENTS_11
100
AcDbLine
 62
7
  6
CONTINUOUS
 10
392.148290105
 20
97.6249880675
 11
392.1779282964
 21
97.6241401092
  0
LINE
  5
260
100
AcDbEntity
  8
00_COMPONENTS_11
100
AcDbLine
 62
7
  6
CONTINUOUS
 10
392.1434835406
 20
97.6346481981
 11
392.0874326447
 21
97.6362547965
  0
LINE
  5
261
100
AcDbEntity
  8
00_COMPONENTS_11
100
AcDbLine
 62
7
  6
CONTINUOUS
 10
457.148290105
 20
97.6249880675
 11
457.1779282964
 21
97.6241401092
  0
LINE
  5
262
100
AcDbEntity
  8
00_COMPONENTS_11
100
AcDbLine
 62
7
  6
CONTINUOUS
 10
457.1434835406
 20
97.6346481981
 11
457.0874311935
 21
97.6362542591
  0
LINE
  5
263
100
AcDbEntity
  8
00_COMPONENTS_11
100
AcDbLine
 62
7
  6
CONTINUOUS
 10
329.0324094246
 20
97.2622634937
 11
329.0410860812
 21
97.2615327894
  0
LINE
  5
264
100
AcDbEntity
  8
00_COMPONENTS_11
100
AcDbLine
 62
7
  6
CONTINUOUS
 10
394.0324094246
 20
97.2622634937
 11
394.0410860812
 21
97.2615327894
  0
LINE
  5
265
100
AcDbEntity
  8
00_COMPONENTS_11
100
AcDbLine
 62
7
  6
CONTINUOUS
 10
459.0324094246
 20
97.2622634937
 11
459.0410860812
 21
97.2615327894
  0
LINE
  5
266
100
AcDbEntity
  8
00_COMPONENTS_11
100
AcDbLine
 62
7
  6
CONTINUOUS
 10
327.1184098191
 20
97.6280735276
 11
327.148290105
 21
97.6249880675
  0
LINE
  5
267
100
AcDbEntity
  8
00_COMPONENTS_11
100
AcDbLine
 62
7
  6
CONTINUOUS
 10
392.1184098191
 20
97.6280735276
 11
392.148290105
 21
97.6249880675
  0
LINE
  5
268
100
AcDbEntity
  8
00_COMPONENTS_11
100
AcDbLine
 62
7
  6
CONTINUOUS
 10
457.1184098191
 20
97.6280735276
 11
457.148290105
 21
97.6249880675
  0
LINE
  5
269
100
AcDbEntity
  8
00_COMPONENTS_11
100
AcDbLine
 62
7
  6
CONTINUOUS
 10
328.8757240626
 20
97.2878820445
 11
328.8722153424
 21
97.288575514
  0
LINE
  5
26A
100
AcDbEntity
  8
00_COMPONENTS_11
100
AcDbLine
 62
7
  6
CONTINUOUS
 10
393.8757240626
 20
97.2878820445
 11
393.8722153424
 21
97.288575514
  0
LINE
  5
26B
100
AcDbEntity
  8
00_COMPONENTS_11
100
AcDbLine
 62
7
  6
CONTINUOUS
 10
458.8757240626
 20
97.2878820445
 11
458.8722153424
 21
97.288575514
  0
LINE
  5
26C
100
AcDbEntity
  8
00_COMPONENTS_11
100
AcDbLine
 62
7
  6
CONTINUOUS
 10
328.8759540875
 20
97.2871012038
 11
328.8724401157
 21
97.2878109539
  0
LINE
  5
26D
100
AcDbEntity
  8
00_COMPONENTS_11
100
AcDbLine
 62
7
  6
CONTINUOUS
 10
393.8759540875
 20
97.2871012038
 11
393.8724401157
 21
97.2878109539
  0
LINE
  5
26E
100
AcDbEntity
  8
00_COMPONENTS_11
100
AcDbLine
 62
7
  6
CONTINUOUS
 10
458.8759540875
 20
97.2871012038
 11
458.8724401157
 21
97.2878109539
  0
LINE
  5
26F
100
AcDbEntity
  8
00_COMPONENTS_11
100
AcDbLine
 62
7
  6
CONTINUOUS
 10
327.0874408387
 20
97.6362532485
 11
327.1184098191
 21
97.6280735276
  0
LINE
  5
270
100
AcDbEntity
  8
00_COMPONENTS_11
100
AcDbLine
 62
7
  6
CONTINUOUS
 10
392.0874408387
 20
97.6362532485
 11
392.1184098191
 21
97.6280735276
  0
LINE
  5
271
100
AcDbEntity
  8
00_COMPONENTS_11
100
AcDbLine
 62
7
  6
CONTINUOUS
 10
457.0874408387
 20
97.6362532485
 11
457.1184098191
 21
97.6280735276
  0
LINE
  5
272
100
AcDbEntity
  8
PART
100
AcDbLine
 62
7
  6
CONTINUOUS
 10
306.9272969134
 20
1099.1436350701
 11
306.0032053566
 21
1098.3995365816
  0
LINE
  5
273
100
AcDbEntity
  8
00_COMPONENTS_11
100
AcDbLine
 62
7
  6
CONTINUOUS
 10
330.5146690241
 20
97.2926638617
 11
330.5095989471
 21
97.2916205062
  0
LINE
  5
274
100
AcDbEntity
  8
00_COMPONENTS_11
100
AcDbLine
 62
7
  6
CONTINUOUS
 10
330.5106185977
 20
97.2869444657
 11
330.514955481
 21
97.2878201666
  0
LINE
  5
275
100
AcDbEntity
  8
00_COMPONENTS_11
100
AcDbLine
 62
7
  6
CONTINUOUS
 10
330.5149975063
 20
97.293794163
 11
330.509942284
 21
97.2927984489
  0
LINE
  5
276
100
AcDbEntity
  8
00_COMPONENTS_11
100
AcDbLine
 62
7
  6
CONTINUOUS
 10
330.5108286618
 20
97.2876572553
 11
330.5151583665
 21
97.2885103195
  0
LINE
  5
277
100
AcDbEntity
  8
PART
100
AcDbLine
 62
7
  6
CONTINUOUS
 10
541.7037173359
 20
120.891028932
 11
536.7037173358
 21
120.891028932
  0
LINE
  5
278
100
AcDbEntity
  8
PART
100
AcDbLine
 62
7
  6
CONTINUOUS
 10
541.7037173359
 20
122.0910289321
 11
536.7037173358
 21
122.0910289321
  0
LINE
  5
279
100
AcDbEntity
  8
0
100
AcDbLine
 62
7
  6
CONTINUOUS
 10
559.0737173359
 20
197.0910289321
 11
558.2037173359
 21
197.0910289321
  0
LINE
  5
27A
100
AcDbEntity
  8
0
100
AcDbLine
 62
7
  6
CONTINUOUS
 10
558.2037173359
 20
237.0910289321
 11
559.0737173359
 21
237.0910289321
  0
LINE
  5
27B
100
AcDbEntity
  8
PART
100
AcDbLine
 62
7
  6
CONTINUOUS
 10
305.7040765493
 20
101.7910289321
 11
305.6957174416
 21
101.9418090015
  0
LINE
  5
27C
100
AcDbEntity
  8
00_COMPONENTS_11
100
AcDbLine
 62
7
  6
CONTINUOUS
 10
334.2339253838
 20
99.2736713986
 11
334.2163745619
 21
99.591028932
  0
LINE
  5
27D
100
AcDbEntity
  8
00_COMPONENTS_11
100
AcDbLine
 62
7
  6
CONTINUOUS
 10
330.5149975063
 20
97.293794163
 11
330.5159575552
 21
97.2622590273
  0
LINE
  5
27E
100
AcDbEntity
  8
PART
100
AcDbLine
 62
7
  6
CONTINUOUS
 10
305.6957173358
 20
101.9412742277
 11
305.6957173358
 21
1098.3910289321
  0
LINE
  5
27F
100
AcDbEntity
  8
PART
100
AcDbLine
 62
7
  6
CONTINUOUS
 10
307.0457173358
 20
1100.5910289321
 11
307.0457173358
 21
101.7910289321
  0
LINE
  5
280
100
AcDbEntity
  8
00_COMPONENTS_11
100
AcDbLine
 62
7
  6
CONTINUOUS
 10
324.9436781567
 20
99.191028932
 11
324.9436781567
 21
98.8910416336
  0
LINE
  5
281
100
AcDbEntity
  8
00_COMPONENTS_11
100
AcDbLine
 62
7
  6
CONTINUOUS
 10
329.1786781567
 20
97.6346499341
 11
329.1786781567
 21
97.2669280425
  0
LINE
  5
282
100
AcDbEntity
  8
00_COMPONENTS_11
100
AcDbLine
 62
7
  6
CONTINUOUS
 10
329.6936781553
 20
97.6249117317
 11
329.6936781558
 21
97.6362544338
  0
LINE
  5
283
100
AcDbEntity
  8
00_COMPONENTS_11
100
AcDbLine
 62
7
  6
CONTINUOUS
 10
330.2086781567
 20
97.2669280425
 11
330.2086781567
 21
97.6346499463
  0
LINE
  5
284
100
AcDbEntity
  8
00_COMPONENTS_11
100
AcDbLine
 62
7
  6
CONTINUOUS
 10
334.4436781567
 20
99.191028932
 11
334.4436781567
 21
98.8910416336
  0
LINE
  5
285
100
AcDbEntity
  8
00_COMPONENTS_11
100
AcDbLine
 62
7
  6
CONTINUOUS
 10
364.6936781567
 20
100.591028932
 11
364.6936781567
 21
99.591028932
  0
LINE
  5
286
100
AcDbEntity
  8
00_COMPONENTS_11
100
AcDbLine
 62
7
  6
CONTINUOUS
 10
328.8713804537
 20
97.2615327894
 11
328.8715079285
 21
97.2665498369
  0
LINE
  5
287
100
AcDbEntity
  8
00_COMPONENTS_11
100
AcDbLine
 62
7
  6
CONTINUOUS
 10
328.872178694
 20
97.2885827572
 11
328.8715079285
 21
97.2665498369
  0
LINE
  5
288
100
AcDbEntity
  8
00_COMPONENTS_11
100
AcDbLine
 62
7
  6
CONTINUOUS
 10
325.1534309355
 20
99.2736715078
 11
325.1709503228
 21
99.5910257047
  0
LINE
  5
289
100
AcDbEntity
  8
00_COMPONENTS_11
100
AcDbLine
 62
7
  6
CONTINUOUS
 10
399.2339253838
 20
99.2736713986
 11
399.2163745619
 21
99.591028932
  0
LINE
  5
28A
100
AcDbEntity
  8
00_COMPONENTS_11
100
AcDbLine
 62
7
  6
CONTINUOUS
 10
395.5149975063
 20
97.293794163
 11
395.5159575552
 21
97.2622590273
  0
LINE
  5
28B
100
AcDbEntity
  8
00_COMPONENTS_11
100
AcDbLine
 62
7
  6
CONTINUOUS
 10
389.9436781567
 20
99.191028932
 11
389.9436781567
 21
98.8910416336
  0
LINE
  5
28C
100
AcDbEntity
  8
00_COMPONENTS_11
100
AcDbLine
 62
7
  6
CONTINUOUS
 10
394.1786781567
 20
97.6346499341
 11
394.1786781567
 21
97.2669280425
  0
LINE
  5
28D
100
AcDbEntity
  8
00_COMPONENTS_11
100
AcDbLine
 62
7
  6
CONTINUOUS
 10
394.6936781553
 20
97.6249117317
 11
394.6936781558
 21
97.6362544338
  0
LINE
  5
28E
100
AcDbEntity
  8
00_COMPONENTS_11
100
AcDbLine
 62
7
  6
CONTINUOUS
 10
395.2086781567
 20
97.2669280425
 11
395.2086781567
 21
97.6346499463
  0
LINE
  5
28F
100
AcDbEntity
  8
00_COMPONENTS_11
100
AcDbLine
 62
7
  6
CONTINUOUS
 10
399.4436781567
 20
99.191028932
 11
399.4436781567
 21
98.8910416336
  0
LINE
  5
290
100
AcDbEntity
  8
00_COMPONENTS_11
100
AcDbLine
 62
7
  6
CONTINUOUS
 10
464.2339253838
 20
99.2736713986
 11
464.2163745619
 21
99.591028932
  0
LINE
  5
291
100
AcDbEntity
  8
00_COMPONENTS_11
100
AcDbLine
 62
7
  6
CONTINUOUS
 10
424.6936781567
 20
99.591028932
 11
424.6936781567
 21
100.591028932
  0
LINE
  5
292
100
AcDbEntity
  8
00_COMPONENTS_11
100
AcDbLine
 62
7
  6
CONTINUOUS
 10
393.8713804537
 20
97.2615327894
 11
393.8715079285
 21
97.2665498369
  0
LINE
  5
293
100
AcDbEntity
  8
00_COMPONENTS_11
100
AcDbLine
 62
7
  6
CONTINUOUS
 10
393.872178694
 20
97.2885827572
 11
393.8715079285
 21
97.2665498369
  0
LINE
  5
294
100
AcDbEntity
  8
00_COMPONENTS_11
100
AcDbLine
 62
7
  6
CONTINUOUS
 10
390.1534309355
 20
99.2736715078
 11
390.1709503228
 21
99.5910257047
  0
LINE
  5
295
100
AcDbEntity
  8
00_COMPONENTS_11
100
AcDbLine
 62
7
  6
CONTINUOUS
 10
460.5149975063
 20
97.293794163
 11
460.5159575552
 21
97.2622590273
  0
LINE
  5
296
100
AcDbEntity
  8
00_COMPONENTS_11
100
AcDbLine
 62
7
  6
CONTINUOUS
 10
454.9436781567
 20
99.191028932
 11
454.9436781567
 21
98.8910416336
  0
LINE
  5
297
100
AcDbEntity
  8
00_COMPONENTS_11
100
AcDbLine
 62
7
  6
CONTINUOUS
 10
459.1786781567
 20
97.6346499341
 11
459.1786781567
 21
97.2669280425
  0
LINE
  5
298
100
AcDbEntity
  8
00_COMPONENTS_11
100
AcDbLine
 62
7
  6
CONTINUOUS
 10
459.6936781553
 20
97.6249117317
 11
459.6936781558
 21
97.6362544338
  0
LINE
  5
299
100
AcDbEntity
  8
00_COMPONENTS_11
100
AcDbLine
 62
7
  6
CONTINUOUS
 10
460.2086781567
 20
97.2669280425
 11
460.2086781567
 21
97.6346499463
  0
LINE
  5
29A
100
AcDbEntity
  8
00_COMPONENTS_11
100
AcDbLine
 62
7
  6
CONTINUOUS
 10
464.4436781567
 20
99.191028932
 11
464.4436781567
 21
98.8910416336
  0
LINE
  5
29B
100
AcDbEntity
  8
00_COMPONENTS_11
100
AcDbLine
 62
7
  6
CONTINUOUS
 10
458.8713804537
 20
97.2615327894
 11
458.8715079285
 21
97.2665498369
  0
LINE
  5
29C
100
AcDbEntity
  8
0
100
AcDbLine
 62
7
  6
CONTINUOUS
 10
560.5041873865
 20
965.1396361605
 11
562.6341873865
 21
971.8896361605
  0
LINE
  5
29D
100
AcDbEntity
  8
0
100
AcDbLine
 62
7
  6
CONTINUOUS
 10
562.6341873865
 20
229.2924217036
 11
560.5041873865
 21
236.0424217036
  0
LINE
  5
29E
100
AcDbEntity
  8
00_COMPONENTS_11
100
AcDbLine
 62
7
  6
CONTINUOUS
 10
458.872178694
 20
97.2885827572
 11
458.8715079285
 21
97.2665498369
  0
LINE
  5
29F
100
AcDbEntity
  8
00_COMPONENTS_11
100
AcDbLine
 62
7
  6
CONTINUOUS
 10
455.1534309355
 20
99.2736715078
 11
455.1709503228
 21
99.5910257047
  0
LINE
  5
2A0
100
AcDbEntity
  8
PART
100
AcDbLine
 62
7
  6
CONTINUOUS
 10
533.5037173358
 20
100.591028932
 11
533.5037173358
 21
1100.5910289321
  0
LINE
  5
2A1
100
AcDbEntity
  8
PART
100
AcDbLine
 62
7
  6
CONTINUOUS
 10
535.7037173358
 20
1098.3910289321
 11
535.7037173358
 21
102.7910289321
  0
LINE
  5
2A2
100
AcDbEntity
  8
PART
100
AcDbLine
 62
7
  6
CONTINUOUS
 10
536.7037173358
 20
1080.2910289321
 11
536.7037173358
 21
120.891028932
  0
LINE
  5
2A3
100
AcDbEntity
  8
PART_1
100
AcDbLine
 62
7
  6
CONTINUOUS
 10
541.7037173359
 20
102.7910289321
 11
541.7037173359
 21
1098.3910289321
  0
LINE
  5
2A4
100
AcDbEntity
  8
PART_1
100
AcDbLine
 62
7
  6
CONTINUOUS
 10
555.7037173359
 20
102.7910289321
 11
555.7037173359
 21
1098.3910289321
  0
LINE
  5
2A5
100
AcDbEntity
  8
PART_1
100
AcDbLine
 62
7
  6
CONTINUOUS
 10
558.2037173359
 20
105.2910289321
 11
558.2037173359
 21
1095.891028932
  0
LINE
  5
2A6
100
AcDbEntity
  8
0
100
AcDbLine
 62
7
  6
CONTINUOUS
 10
562.7037173359
 20
205.3410289252
 11
562.7037173359
 21
228.8410289321
  0
LINE
  5
2A7
100
AcDbEntity
  8
0
100
AcDbLine
 62
7
  6
CONTINUOUS
 10
562.7037173359
 20
972.3410289252
 11
562.7037173359
 21
995.8410289321
  0
LINE
  5
2A8
100
AcDbEntity
  8
0
100
AcDbLine
 62
7
  6
CONTINUOUS
 10
560.5041873865
 20
198.1396361605
 11
562.6341873865
 21
204.8896361605
  0
LINE
  5
2A9
100
AcDbEntity
  8
0
100
AcDbLine
 62
7
  6
CONTINUOUS
 10
562.6341873865
 20
996.2924217036
 11
560.5041873865
 21
1003.0424217036
  0
LINE
  5
2AA
100
AcDbEntity
  8
00_COMPONENTS_11
100
AcDbLine
 62
7
  6
CONTINUOUS
 10
330.4092901738
 20
97.2729732619
 11
330.4036985205
 21
97.2665498369
  0
LINE
  5
2AB
100
AcDbEntity
  8
00_COMPONENTS_11
100
AcDbLine
 62
7
  6
CONTINUOUS
 10
395.4092901738
 20
97.2729732619
 11
395.4036985205
 21
97.2665498369
  0
LINE
  5
2AC
100
AcDbEntity
  8
00_COMPONENTS_11
100
AcDbLine
 62
7
  6
CONTINUOUS
 10
460.4092901738
 20
97.2729732619
 11
460.4036985205
 21
97.2665498369
  0
LINE
  5
2AD
100
AcDbEntity
  8
0
100
AcDbLine
 62
7
  6
CONTINUOUS
 10
559.0737173359
 20
964.0910289321
 11
558.2037173359
 21
964.0910289321
  0
LINE
  5
2AE
100
AcDbEntity
  8
0
100
AcDbLine
 62
7
  6
CONTINUOUS
 10
558.2037173359
 20
1004.0910289321
 11
559.0737173359
 21
1004.0910289321
  0
LINE
  5
2AF
100
AcDbEntity
  8
PART
100
AcDbLine
 62
7
  6
CONTINUOUS
 10
541.7037173359
 20
1079.0910289321
 11
536.7037173358
 21
1079.0910289321
  0
LINE
  5
2B0
100
AcDbEntity
  8
PART
100
AcDbLine
 62
7
  6
CONTINUOUS
 10
541.7037173359
 20
1080.2910289321
 11
536.7037173358
 21
1080.2910289321
  0
LINE
  5
2B1
100
AcDbEntity
  8
PART_1
100
AcDbLine
 62
7
  6
CONTINUOUS
 10
558.2037173359
 20
1092.3910289321
 11
541.7037173359
 21
1092.391028932
  0
LINE
  5
2B2
100
AcDbEntity
  8
PART
100
AcDbLine
 62
7
  6
CONTINUOUS
 10
535.7037173358
 20
1098.3910289321
 11
305.695723448
 21
1098.3910289321
  0
LINE
  5
2B3
100
AcDbEntity
  8
PART_1
100
AcDbLine
 62
7
  6
CONTINUOUS
 10
541.7037173359
 20
1098.3910289321
 11
555.7037173359
 21
1098.3910289321
  0
LINE
  5
2B4
100
AcDbEntity
  8
PART
100
AcDbLine
 62
7
  6
CONTINUOUS
 10
307.0457173358
 20
1100.5910289321
 11
533.5037173358
 21
1100.5910289321
  0
ARC
  5
2B5
100
AcDbEntity
  8
00_COMPONENTS_11
100
AcDbCircle
 62
7
  6
CONTINUOUS
 10
209.2887918833
 20
110.0495896888
 40
125.0675019533
100
AcDbArc
 50
355.0572202911
 51
355.203132992
  0
ARC
  5
2B6
100
AcDbEntity
  8
00_COMPONENTS_11
100
AcDbCircle
 62
7
  6
CONTINUOUS
 10
274.2887919326
 20
110.0495896845
 40
125.0675019038
100
AcDbArc
 50
355.057220291
 51
355.2031329921
  0
ARC
  5
2B7
100
AcDbEntity
  8
00_COMPONENTS_11
100
AcDbCircle
 62
7
  6
CONTINUOUS
 10
329.694676701
 20
14.6405969677
 40
82.9956568533
100
AcDbArc
 50
90.0006893418
 51
90.3562201976
  0
ARC
  5
2B8
100
AcDbEntity
  8
00_COMPONENTS_11
100
AcDbCircle
 62
7
  6
CONTINUOUS
 10
329.6958046392
 20
15.6431481235
 40
81.9931057192
100
AcDbArc
 50
89.6416079212
 51
90.00148596
  0
ARC
  5
2B9
100
AcDbEntity
  8
00_COMPONENTS_11
100
AcDbCircle
 62
7
  6
CONTINUOUS
 10
329.9881076229
 20
102.7904634769
 40
5.6146147486
100
AcDbArc
 50
254.0861344428
 51
258.5385976064
  0
ARC
  5
2BA
100
AcDbEntity
  8
00_COMPONENTS_11
100
AcDbCircle
 62
7
  6
CONTINUOUS
 10
329.9109092167
 20
102.4185009281
 40
5.2347297207
100
AcDbArc
 50
258.5969587537
 51
259.7971010484
  0
ARC
  5
2BB
100
AcDbEntity
  8
00_COMPONENTS_11
100
AcDbCircle
 62
7
  6
CONTINUOUS
 10
329.456441443
 20
102.4184275362
 40
5.2338600527
100
AcDbArc
 50
279.8844416949
 51
281.6083124364
  0
ARC
  5
2BC
100
AcDbEntity
  8
00_COMPONENTS_11
100
AcDbCircle
 62
7
  6
CONTINUOUS
 10
329.4771589116
 20
102.4144546839
 40
5.2306213743
100
AcDbArc
 50
280.2030760859
 51
281.3954071109
  0
ARC
  5
2BD
100
AcDbEntity
  8
00_COMPONENTS_11
100
AcDbCircle
 62
7
  6
CONTINUOUS
 10
324.5733173152
 20
104.091028932
 40
4.5
100
AcDbArc
 50
232.7886697403
 51
270.0
  0
ARC
  5
2BE
100
AcDbEntity
  8
00_COMPONENTS_11
100
AcDbCircle
 62
7
  6
CONTINUOUS
 10
328.955474469
 20
101.2002031971
 40
3.9396031943
100
AcDbArc
 50
272.5861162529
 51
273.2479111092
  0
ARC
  5
2BF
100
AcDbEntity
  8
00_COMPONENTS_11
100
AcDbCircle
 62
7
  6
CONTINUOUS
 10
330.431879388
 20
101.2001411553
 40
3.939541113
100
AcDbArc
 50
266.752073436
 51
267.4190714766
  0
ARC
  5
2C0
100
AcDbEntity
  8
00_COMPONENTS_11
100
AcDbCircle
 62
7
  6
CONTINUOUS
 10
328.9557126537
 20
101.1950138384
 40
3.9344083736
100
AcDbArc
 50
272.2516087371
 51
272.5860610097
  0
ARC
  5
2C1
100
AcDbEntity
  8
00_COMPONENTS_11
100
AcDbCircle
 62
7
  6
CONTINUOUS
 10
330.431550813
 20
101.1928471806
 40
3.9322397413
100
AcDbArc
 50
267.4190684262
 51
268.0878842461
  0
ARC
  5
2C2
100
AcDbEntity
  8
00_COMPONENTS_11
100
AcDbCircle
 62
7
  6
CONTINUOUS
 10
328.9558806446
 20
101.1907445736
 40
3.930135805
100
AcDbArc
 50
271.9173540634
 51
272.2516068283
  0
ARC
  5
2C3
100
AcDbEntity
  8
00_COMPONENTS_11
100
AcDbCircle
 62
7
  6
CONTINUOUS
 10
330.4313273348
 20
101.1862168869
 40
3.9256056827
100
AcDbArc
 50
268.0879152444
 51
268.7584605291
  0
ARC
  5
2C4
100
AcDbEntity
  8
00_COMPONENTS_11
100
AcDbCircle
 62
7
  6
CONTINUOUS
 10
328.9560298884
 20
101.1862070717
 40
3.9255958501
100
AcDbArc
 50
271.2415292977
 51
271.9173928147
  0
ARC
  5
2C5
100
AcDbEntity
  8
00_COMPONENTS_11
100
AcDbCircle
 62
7
  6
CONTINUOUS
 10
328.9561131128
 20
101.1663296337
 40
3.9057160699
100
AcDbArc
 50
268.090037946
 51
268.7568976937
  0
ARC
  5
2C6
100
AcDbEntity
  8
00_COMPONENTS_11
100
AcDbCircle
 62
7
  6
CONTINUOUS
 10
330.4312463301
 20
101.1662520966
 40
3.9056384833
100
AcDbArc
 50
271.243081084
 51
271.9159098015
  0
ARC
  5
2C7
100
AcDbEntity
  8
00_COMPONENTS_11
100
AcDbCircle
 62
7
  6
CONTINUOUS
 10
328.9560693251
 20
101.1649929573
 40
3.9043786768
100
AcDbArc
 50
267.7539199674
 51
268.0900264014
  0
ARC
  5
2C8
100
AcDbEntity
  8
00_COMPONENTS_11
100
AcDbCircle
 62
7
  6
CONTINUOUS
 10
330.4313063143
 20
101.1643939821
 40
3.903779402
100
AcDbArc
 50
271.9159416664
 51
272.5880041571
  0
ARC
  5
2C9
100
AcDbEntity
  8
00_COMPONENTS_11
100
AcDbCircle
 62
7
  6
CONTINUOUS
 10
330.4313595788
 20
101.1632188856
 40
3.902603099
100
AcDbArc
 50
272.588001954
 51
273.2592020836
  0
ARC
  5
2CA
100
AcDbEntity
  8
00_COMPONENTS_11
100
AcDbCircle
 62
7
  6
CONTINUOUS
 10
328.9559959022
 20
101.1631784966
 40
3.902562728
100
AcDbArc
 50
266.7407764047
 51
267.7539180651
  0
ARC
  5
2CB
100
AcDbEntity
  8
00_COMPONENTS_11
100
AcDbCircle
 62
7
  6
CONTINUOUS
 10
329.8990913706
 20
100.2514769467
 40
3.0522037382
100
AcDbArc
 50
281.6600912678
 51
284.1946443631
  0
ARC
  5
2CC
100
AcDbEntity
  8
PART
100
AcDbCircle
 62
7
  6
CONTINUOUS
 10
307.0457173358
 20
101.9430681111
 40
1.3520391791
100
AcDbArc
 50
175.9754701304
 51
270.0
  0
ARC
  5
2CD
100
AcDbEntity
  8
00_COMPONENTS_11
100
AcDbCircle
 62
7
  6
CONTINUOUS
 10
334.2436781567
 20
98.8910416336
 40
0.2
100
AcDbArc
 50
306.4919987416
 51
360.0
  0
ARC
  5
2CE
100
AcDbEntity
  8
00_COMPONENTS_11
100
AcDbCircle
 62
7
  6
CONTINUOUS
 10
325.1436781567
 20
98.8910416336
 40
0.2
100
AcDbArc
 50
180.0
 51
233.5080012584
  0
ARC
  5
2CF
100
AcDbEntity
  8
00_COMPONENTS_11
100
AcDbCircle
 62
7
  6
CONTINUOUS
 10
332.0084071418
 20
99.2777871073
 40
0.0867582071
100
AcDbArc
 50
257.2508912725
 51
269.9509771393
  0
ARC
  5
2D0
100
AcDbEntity
  8
00_COMPONENTS_11
100
AcDbCircle
 62
7
  6
CONTINUOUS
 10
327.3789474206
 20
99.2777611734
 40
0.0867322747
100
AcDbArc
 50
270.050194176
 51
282.7297754111
  0
ARC
  5
2D1
100
AcDbEntity
  8
00_COMPONENTS_11
100
AcDbCircle
 62
7
  6
CONTINUOUS
 10
339.2887915886
 20
110.0495897138
 40
125.0675022491
100
AcDbArc
 50
355.0572202913
 51
355.2031329919
  0
ARC
  5
2D2
100
AcDbEntity
  8
00_COMPONENTS_11
100
AcDbCircle
 62
7
  6
CONTINUOUS
 10
329.6936781567
 20
105.041810182
 40
7.85078125
100
AcDbArc
 50
233.5080024173
 51
250.6115024233
  0
ARC
  5
2D3
100
AcDbEntity
  8
00_COMPONENTS_11
100
AcDbCircle
 62
7
  6
CONTINUOUS
 10
329.6936781567
 20
105.041810182
 40
7.85078125
100
AcDbArc
 50
289.3885360562
 51
306.4919975871
  0
ARC
  5
2D4
100
AcDbEntity
  8
00_COMPONENTS_11
100
AcDbCircle
 62
7
  6
CONTINUOUS
 10
329.6936781567
 20
105.041810182
 40
7.8338714079
100
AcDbArc
 50
277.035724314
 51
288.9980033473
  0
ARC
  5
2D5
100
AcDbEntity
  8
00_COMPONENTS_11
100
AcDbCircle
 62
7
  6
CONTINUOUS
 10
329.6936781567
 20
105.041810182
 40
7.8338714079
100
AcDbArc
 50
251.0020106811
 51
262.964275686
  0
ARC
  5
2D6
100
AcDbEntity
  8
00_COMPONENTS_11
100
AcDbCircle
 62
7
  6
CONTINUOUS
 10
329.6940679126
 20
105.0671630596
 40
7.8328953261
100
AcDbArc
 50
264.7963671122
 51
265.1543500502
  0
ARC
  5
2D7
100
AcDbEntity
  8
00_COMPONENTS_11
100
AcDbCircle
 62
7
  6
CONTINUOUS
 10
393.955474469
 20
101.200203197
 40
3.9396031941
100
AcDbArc
 50
272.5861162529
 51
273.2479111092
  0
ARC
  5
2D8
100
AcDbEntity
  8
00_COMPONENTS_11
100
AcDbCircle
 62
7
  6
CONTINUOUS
 10
393.9557126537
 20
101.1950138385
 40
3.9344083737
100
AcDbArc
 50
272.2516087371
 51
272.5860610097
  0
ARC
  5
2D9
100
AcDbEntity
  8
00_COMPONENTS_11
100
AcDbCircle
 62
7
  6
CONTINUOUS
 10
393.9558806446
 20
101.1907445739
 40
3.9301358053
100
AcDbArc
 50
271.9173540634
 51
272.2516068283
  0
ARC
  5
2DA
100
AcDbEntity
  8
00_COMPONENTS_11
100
AcDbCircle
 62
7
  6
CONTINUOUS
 10
393.9560298884
 20
101.1862070717
 40
3.9255958501
100
AcDbArc
 50
271.2415292977
 51
271.9173928147
  0
ARC
  5
2DB
100
AcDbEntity
  8
00_COMPONENTS_11
100
AcDbCircle
 62
7
  6
CONTINUOUS
 10
393.9561131128
 20
101.1663296337
 40
3.9057160699
100
AcDbArc
 50
268.090037946
 51
268.7568976937
  0
ARC
  5
2DC
100
AcDbEntity
  8
00_COMPONENTS_11
100
AcDbCircle
 62
7
  6
CONTINUOUS
 10
393.9560693251
 20
101.1649929573
 40
3.9043786768
100
AcDbArc
 50
267.7539199674
 51
268.0900264014
  0
ARC
  5
2DD
100
AcDbEntity
  8
00_COMPONENTS_11
100
AcDbCircle
 62
7
  6
CONTINUOUS
 10
393.9559959022
 20
101.1631784966
 40
3.902562728
100
AcDbArc
 50
266.7407764047
 51
267.7539180651
  0
ARC
  5
2DE
100
AcDbEntity
  8
00_COMPONENTS_11
100
AcDbCircle
 62
7
  6
CONTINUOUS
 10
390.1436781567
 20
98.8910416336
 40
0.2
100
AcDbArc
 50
180.0
 51
233.5080012584
  0
ARC
  5
2DF
100
AcDbEntity
  8
00_COMPONENTS_11
100
AcDbCircle
 62
7
  6
CONTINUOUS
 10
392.3789474206
 20
99.2777611734
 40
0.0867322747
100
AcDbArc
 50
270.0501941764
 51
282.7297754109
  0
ARC
  5
2E0
100
AcDbEntity
  8
PART
100
AcDbCircle
 62
7
  6
CONTINUOUS
 10
307.0457173358
 20
1099.238989753
 40
1.3520391791
100
AcDbArc
 50
90.0
 51
218.8417685855
  0
ARC
  5
2E1
100
AcDbEntity
  8
PART
100
AcDbCircle
 62
7
  6
CONTINUOUS
 10
307.0457173358
 20
1099.238989753
 40
0.1520391791
100
AcDbArc
 50
115.5791157074
 51
218.8417685978
  0
ARC
  5
2E2
100
AcDbEntity
  8
00_COMPONENTS_11
100
AcDbCircle
 62
7
  6
CONTINUOUS
 10
394.694676701
 20
14.6405969677
 40
82.9956568533
100
AcDbArc
 50
90.0006893418
 51
90.3562201976
  0
ARC
  5
2E3
100
AcDbEntity
  8
00_COMPONENTS_11
100
AcDbCircle
 62
7
  6
CONTINUOUS
 10
394.6958046392
 20
15.6431481236
 40
81.9931057191
100
AcDbArc
 50
89.6416079212
 51
90.00148596
  0
ARC
  5
2E4
100
AcDbEntity
  8
00_COMPONENTS_11
100
AcDbCircle
 62
7
  6
CONTINUOUS
 10
394.6936781567
 20
105.041810182
 40
7.85078125
100
AcDbArc
 50
233.5080024173
 51
250.6115024233
  0
ARC
  5
2E5
100
AcDbEntity
  8
00_COMPONENTS_11
100
AcDbCircle
 62
7
  6
CONTINUOUS
 10
394.6936781567
 20
105.041810182
 40
7.85078125
100
AcDbArc
 50
289.3885360562
 51
306.4919975871
  0
ARC
  5
2E6
100
AcDbEntity
  8
00_COMPONENTS_11
100
AcDbCircle
 62
7
  6
CONTINUOUS
 10
394.6936781567
 20
105.041810182
 40
7.8338714079
100
AcDbArc
 50
277.035724314
 51
288.9980033473
  0
ARC
  5
2E7
100
AcDbEntity
  8
00_COMPONENTS_11
100
AcDbCircle
 62
7
  6
CONTINUOUS
 10
394.6936781567
 20
105.041810182
 40
7.8338714079
100
AcDbArc
 50
251.0020106811
 51
262.964275686
  0
ARC
  5
2E8
100
AcDbEntity
  8
00_COMPONENTS_11
100
AcDbCircle
 62
7
  6
CONTINUOUS
 10
394.6940679125
 20
105.0671630577
 40
7.8328953241
100
AcDbArc
 50
264.7963671122
 51
265.1543500503
  0
ARC
  5
2E9
100
AcDbEntity
  8
00_COMPONENTS_11
100
AcDbCircle
 62
7
  6
CONTINUOUS
 10
394.9881076229
 20
102.7904634768
 40
5.6146147485
100
AcDbArc
 50
254.0861344428
 51
258.5385976064
  0
ARC
  5
2EA
100
AcDbEntity
  8
00_COMPONENTS_11
100
AcDbCircle
 62
7
  6
CONTINUOUS
 10
394.9109092166
 20
102.4185009279
 40
5.2347297205
100
AcDbArc
 50
258.5969587537
 51
259.7971010485
  0
ARC
  5
2EB
100
AcDbEntity
  8
00_COMPONENTS_11
100
AcDbCircle
 62
7
  6
CONTINUOUS
 10
394.456441443
 20
102.4184275363
 40
5.2338600528
100
AcDbArc
 50
279.8844416949
 51
281.6083124364
  0
ARC
  5
2EC
100
AcDbEntity
  8
00_COMPONENTS_11
100
AcDbCircle
 62
7
  6
CONTINUOUS
 10
394.4771589116
 20
102.4144546839
 40
5.2306213743
100
AcDbArc
 50
280.2030760859
 51
281.3954071109
  0
ARC
  5
2ED
100
AcDbEntity
  8
00_COMPONENTS_11
100
AcDbCircle
 62
7
  6
CONTINUOUS
 10
395.431879388
 20
101.2001411553
 40
3.939541113
100
AcDbArc
 50
266.752073436
 51
267.4190714766
  0
ARC
  5
2EE
100
AcDbEntity
  8
00_COMPONENTS_11
100
AcDbCircle
 62
7
  6
CONTINUOUS
 10
395.431550813
 20
101.1928471818
 40
3.9322397424
100
AcDbArc
 50
267.4190684263
 51
268.087884246
  0
ARC
  5
2EF
100
AcDbEntity
  8
00_COMPONENTS_11
100
AcDbCircle
 62
7
  6
CONTINUOUS
 10
395.4313273348
 20
101.1862168869
 40
3.9256056827
100
AcDbArc
 50
268.0879152444
 51
268.7584605291
  0
ARC
  5
2F0
100
AcDbEntity
  8
00_COMPONENTS_11
100
AcDbCircle
 62
7
  6
CONTINUOUS
 10
395.4312463301
 20
101.1662520966
 40
3.9056384833
100
AcDbArc
 50
271.243081084
 51
271.9159098015
  0
ARC
  5
2F1
100
AcDbEntity
  8
00_COMPONENTS_11
100
AcDbCircle
 62
7
  6
CONTINUOUS
 10
395.4313063143
 20
101.1643939821
 40
3.903779402
100
AcDbArc
 50
271.9159416664
 51
272.5880041571
  0
ARC
  5
2F2
100
AcDbEntity
  8
00_COMPONENTS_11
100
AcDbCircle
 62
7
  6
CONTINUOUS
 10
395.4313595788
 20
101.1632188856
 40
3.902603099
100
AcDbArc
 50
272.588001954
 51
273.2592020836
  0
ARC
  5
2F3
100
AcDbEntity
  8
00_COMPONENTS_11
100
AcDbCircle
 62
7
  6
CONTINUOUS
 10
394.8990913707
 20
100.2514769467
 40
3.0522037382
100
AcDbArc
 50
281.6600912678
 51
284.1946443631
  0
ARC
  5
2F4
100
AcDbEntity
  8
00_COMPONENTS_11
100
AcDbCircle
 62
7
  6
CONTINUOUS
 10
399.2436781567
 20
98.8910416336
 40
0.2
100
AcDbArc
 50
306.4919987416
 51
360.0
  0
ARC
  5
2F5
100
AcDbEntity
  8
00_COMPONENTS_11
100
AcDbCircle
 62
7
  6
CONTINUOUS
 10
397.0084071418
 20
99.2777871073
 40
0.0867582071
100
AcDbArc
 50
257.2508912725
 51
269.9509771392
  0
ARC
  5
2F6
100
AcDbEntity
  8
00_COMPONENTS_11
100
AcDbCircle
 62
7
  6
CONTINUOUS
 10
459.694676701
 20
14.6405969621
 40
82.9956568589
100
AcDbArc
 50
90.0006893418
 51
90.3562201976
  0
ARC
  5
2F7
100
AcDbEntity
  8
00_COMPONENTS_11
100
AcDbCircle
 62
7
  6
CONTINUOUS
 10
459.6958046392
 20
15.6431481236
 40
81.9931057191
100
AcDbArc
 50
89.6416079212
 51
90.00148596
  0
ARC
  5
2F8
100
AcDbEntity
  8
00_COMPONENTS_11
100
AcDbCircle
 62
7
  6
CONTINUOUS
 10
455.1436781567
 20
98.8910416336
 40
0.2
100
AcDbArc
 50
180.0
 51
233.5080012584
  0
ARC
  5
2F9
100
AcDbEntity
  8
00_COMPONENTS_11
100
AcDbCircle
 62
7
  6
CONTINUOUS
 10
449.5826077664
 20
110.0058398915
 40
124.5496944922
100
AcDbArc
 50
184.7966598129
 51
184.9431791266
  0
ARC
  5
2FA
100
AcDbEntity
  8
00_COMPONENTS_11
100
AcDbCircle
 62
7
  6
CONTINUOUS
 10
459.9881076229
 20
102.7904634768
 40
5.6146147485
100
AcDbArc
 50
254.0861344428
 51
258.5385976064
  0
ARC
  5
2FB
100
AcDbEntity
  8
00_COMPONENTS_11
100
AcDbCircle
 62
7
  6
CONTINUOUS
 10
459.9109092167
 20
102.4185009282
 40
5.2347297209
100
AcDbArc
 50
258.5969587537
 51
259.7971010484
  0
ARC
  5
2FC
100
AcDbEntity
  8
00_COMPONENTS_11
100
AcDbCircle
 62
7
  6
CONTINUOUS
 10
459.4564414431
 20
102.4184275359
 40
5.2338600524
100
AcDbArc
 50
279.8844416949
 51
281.6083124365
  0
ARC
  5
2FD
100
AcDbEntity
  8
00_COMPONENTS_11
100
AcDbCircle
 62
7
  6
CONTINUOUS
 10
459.4771589116
 20
102.4144546839
 40
5.2306213743
100
AcDbArc
 50
280.2030760859
 51
281.3954071109
  0
ARC
  5
2FE
100
AcDbEntity
  8
00_COMPONENTS_11
100
AcDbCircle
 62
7
  6
CONTINUOUS
 10
464.8140389982
 20
104.091028932
 40
4.5
100
AcDbArc
 50
270.0
 51
307.2113302597
  0
ARC
  5
2FF
100
AcDbEntity
  8
00_COMPONENTS_11
100
AcDbCircle
 62
7
  6
CONTINUOUS
 10
458.9554744689
 20
101.200203198
 40
3.9396031951
100
AcDbArc
 50
272.5861162529
 51
273.2479111091
  0
ARC
  5
300
100
AcDbEntity
  8
00_COMPONENTS_11
100
AcDbCircle
 62
7
  6
CONTINUOUS
 10
460.431879388
 20
101.2001411551
 40
3.9395411127
100
AcDbArc
 50
266.752073436
 51
267.4190714767
  0
ARC
  5
301
100
AcDbEntity
  8
00_COMPONENTS_11
100
AcDbCircle
 62
7
  6
CONTINUOUS
 10
458.9557126538
 20
101.1950138345
 40
3.9344083697
100
AcDbArc
 50
272.251608737
 51
272.5860610099
  0
ARC
  5
302
100
AcDbEntity
  8
00_COMPONENTS_11
100
AcDbCircle
 62
7
  6
CONTINUOUS
 10
460.4315508129
 20
101.1928471802
 40
3.9322397409
100
AcDbArc
 50
267.4190684261
 51
268.0878842461
  0
ARC
  5
303
100
AcDbEntity
  8
00_COMPONENTS_11
100
AcDbCircle
 62
7
  6
CONTINUOUS
 10
458.9558806446
 20
101.1907445736
 40
3.930135805
100
AcDbArc
 50
271.9173540634
 51
272.2516068283
  0
ARC
  5
304
100
AcDbEntity
  8
00_COMPONENTS_11
100
AcDbCircle
 62
7
  6
CONTINUOUS
 10
460.4313273348
 20
101.1862168869
 40
3.9256056827
100
AcDbArc
 50
268.0879152444
 51
268.7584605291
  0
ARC
  5
305
100
AcDbEntity
  8
00_COMPONENTS_11
100
AcDbCircle
 62
7
  6
CONTINUOUS
 10
458.9560298884
 20
101.1862070718
 40
3.9255958502
100
AcDbArc
 50
271.2415292977
 51
271.9173928147
  0
ARC
  5
306
100
AcDbEntity
  8
00_COMPONENTS_11
100
AcDbCircle
 62
7
  6
CONTINUOUS
 10
458.9561131128
 20
101.1663296337
 40
3.9057160699
100
AcDbArc
 50
268.090037946
 51
268.7568976937
  0
ARC
  5
307
100
AcDbEntity
  8
00_COMPONENTS_11
100
AcDbCircle
 62
7
  6
CONTINUOUS
 10
460.4312463301
 20
101.1662520969
 40
3.9056384836
100
AcDbArc
 50
271.2430810841
 51
271.9159098015
  0
ARC
  5
308
100
AcDbEntity
  8
00_COMPONENTS_11
100
AcDbCircle
 62
7
  6
CONTINUOUS
 10
458.9560693251
 20
101.1649929566
 40
3.9043786761
100
AcDbArc
 50
267.7539199673
 51
268.0900264015
  0
ARC
  5
309
100
AcDbEntity
  8
00_COMPONENTS_11
100
AcDbCircle
 62
7
  6
CONTINUOUS
 10
460.4313063143
 20
101.1643939825
 40
3.9037794025
100
AcDbArc
 50
271.9159416665
 51
272.588004157
  0
ARC
  5
30A
100
AcDbEntity
  8
00_COMPONENTS_11
100
AcDbCircle
 62
7
  6
CONTINUOUS
 10
460.4313595788
 20
101.1632188856
 40
3.902603099
100
AcDbArc
 50
272.588001954
 51
273.2592020836
  0
ARC
  5
30B
100
AcDbEntity
  8
00_COMPONENTS_11
100
AcDbCircle
 62
7
  6
CONTINUOUS
 10
458.9559959021
 20
101.1631784956
 40
3.9025627269
100
AcDbArc
 50
266.7407764047
 51
267.753918065
  0
ARC
  5
30C
100
AcDbEntity
  8
00_COMPONENTS_11
100
AcDbCircle
 62
7
  6
CONTINUOUS
 10
459.8990913707
 20
100.2514769466
 40
3.0522037381
100
AcDbArc
 50
281.6600912677
 51
284.1946443631
  0
ARC
  5
30D
100
AcDbEntity
  8
00_COMPONENTS_11
100
AcDbCircle
 62
7
  6
CONTINUOUS
 10
464.2436781567
 20
98.8910416336
 40
0.2
100
AcDbArc
 50
306.4919987416
 51
360.0
  0
ARC
  5
30E
100
AcDbEntity
  8
00_COMPONENTS_11
100
AcDbCircle
 62
7
  6
CONTINUOUS
 10
462.0084071418
 20
99.2777871073
 40
0.0867582071
100
AcDbArc
 50
257.2508912723
 51
269.9509771394
  0
ARC
  5
30F
100
AcDbEntity
  8
00_COMPONENTS_11
100
AcDbCircle
 62
7
  6
CONTINUOUS
 10
457.3789474206
 20
99.2777611734
 40
0.0867322747
100
AcDbArc
 50
270.0501941761
 51
282.729775411
  0
ARC
  5
310
100
AcDbEntity
  8
00_COMPONENTS_11
100
AcDbCircle
 62
7
  6
CONTINUOUS
 10
459.6936781567
 20
105.041810182
 40
7.85078125
100
AcDbArc
 50
233.5080024173
 51
250.6115024233
  0
ARC
  5
311
100
AcDbEntity
  8
00_COMPONENTS_11
100
AcDbCircle
 62
7
  6
CONTINUOUS
 10
459.6936781567
 20
105.041810182
 40
7.85078125
100
AcDbArc
 50
289.3885360562
 51
306.4919975871
  0
ARC
  5
312
100
AcDbEntity
  8
00_COMPONENTS_11
100
AcDbCircle
 62
7
  6
CONTINUOUS
 10
459.6936781567
 20
105.041810182
 40
7.8338714079
100
AcDbArc
 50
277.035724314
 51
288.9980033473
  0
ARC
  5
313
100
AcDbEntity
  8
00_COMPONENTS_11
100
AcDbCircle
 62
7
  6
CONTINUOUS
 10
459.6936781567
 20
105.041810182
 40
7.8338714079
100
AcDbArc
 50
251.0020106811
 51
262.964275686
  0
ARC
  5
314
100
AcDbEntity
  8
00_COMPONENTS_11
100
AcDbCircle
 62
7
  6
CONTINUOUS
 10
459.6940679124
 20
105.067163057
 40
7.8328953235
100
AcDbArc
 50
264.7963671122
 51
265.1543500503
  0
ARC
  5
315
100
AcDbEntity
  8
00_COMPONENTS_11
100
AcDbCircle
 62
7
  6
CONTINUOUS
 10
579.5826078631
 20
110.0058398998
 40
124.5496945893
100
AcDbArc
 50
184.796659813
 51
184.9431791265
  0
ARC
  5
316
100
AcDbEntity
  8
00_COMPONENTS_11
100
AcDbCircle
 62
7
  6
CONTINUOUS
 10
514.5826077185
 20
110.0058398874
 40
124.5496944442
100
AcDbArc
 50
184.7966598128
 51
184.9431791266
  0
ARC
  5
317
100
AcDbEntity
  8
PART_1
100
AcDbCircle
 62
7
  6
CONTINUOUS
 10
555.7037173359
 20
105.2910289321
 40
2.5
100
AcDbArc
 50
270.0
 51
360.0
  0
ARC
  5
318
100
AcDbEntity
  8
PART
100
AcDbCircle
 62
7
  6
CONTINUOUS
 10
533.5037173358
 20
102.791028932
 40
2.2
100
AcDbArc
 50
270.0
 51
360.0
  0
ARC
  5
319
100
AcDbEntity
  8
PART
100
AcDbCircle
 62
7
  6
CONTINUOUS
 10
536.7037173358
 20
119.891028932
 40
1.0
100
AcDbArc
 50
90.0
 51
119.9999793446
  0
ARC
  5
31A
100
AcDbEntity
  8
0
100
AcDbCircle
 62
7
  6
CONTINUOUS
 10
561.2037173359
 20
228.8410289321
 40
1.5
100
AcDbArc
 50
0.0
 51
17.5133803758
  0
ARC
  5
31B
100
AcDbEntity
  8
0
100
AcDbCircle
 62
7
  6
CONTINUOUS
 10
561.2037173359
 20
205.3410289321
 40
1.5
100
AcDbArc
 50
342.4866196242
 51
359.9999998695
  0
ARC
  5
31C
100
AcDbEntity
  8
0
100
AcDbCircle
 62
7
  6
CONTINUOUS
 10
559.0737173359
 20
198.5910289321
 40
1.5
100
AcDbArc
 50
270.0
 51
342.4866196243
  0
ARC
  5
31D
100
AcDbEntity
  8
0
100
AcDbCircle
 62
7
  6
CONTINUOUS
 10
559.0737173359
 20
235.5910289321
 40
1.5
100
AcDbArc
 50
17.5133803758
 51
90.0
  0
ARC
  5
31E
100
AcDbEntity
  8
PART_1
100
AcDbCircle
 62
7
  6
CONTINUOUS
 10
555.7037173359
 20
1095.8910289321
 40
2.5
100
AcDbArc
 50
0.0
 51
90.0
  0
ARC
  5
31F
100
AcDbEntity
  8
PART
100
AcDbCircle
 62
7
  6
CONTINUOUS
 10
533.5037173358
 20
1098.3910289321
 40
2.2
100
AcDbArc
 50
0.0
 51
90.0
  0
ARC
  5
320
100
AcDbEntity
  8
0
100
AcDbCircle
 62
7
  6
CONTINUOUS
 10
561.2037173359
 20
995.8410289321
 40
1.5
100
AcDbArc
 50
0.0
 51
17.5133803758
  0
ARC
  5
321
100
AcDbEntity
  8
0
100
AcDbCircle
 62
7
  6
CONTINUOUS
 10
561.2037173359
 20
972.3410289321
 40
1.5
100
AcDbArc
 50
342.4866196242
 51
359.9999998695
  0
ARC
  5
322
100
AcDbEntity
  8
0
100
AcDbCircle
 62
7
  6
CONTINUOUS
 10
559.0737173359
 20
965.5910289321
 40
1.5
100
AcDbArc
 50
270.0
 51
342.4866196243
  0
ARC
  5
323
100
AcDbEntity
  8
0
100
AcDbCircle
 62
7
  6
CONTINUOUS
 10
559.0737173359
 20
1002.5910289321
 40
1.5
100
AcDbArc
 50
17.5133803758
 51
90.0
  0
ARC
  5
324
100
AcDbEntity
  8
PART
100
AcDbCircle
 62
7
  6
CONTINUOUS
 10
533.5037173358
 20
1098.3910289321
 40
1.0
100
AcDbArc
 50
0.0
 51
90.0
  0
ARC
  5
325
100
AcDbEntity
  8
PART
100
AcDbCircle
 62
7
  6
CONTINUOUS
 10
536.7037173358
 20
1081.2910289321
 40
1.0
100
AcDbArc
 50
209.9999793426
 51
270.0
  0
SPLINE
  5
326
100
AcDbEntity
  8
00_COMPONENTS_11
100
AcDbSpline
 62
7
  6
CONTINUOUS
 70
0
 71
3
 72
9
 73
5
 74
0
 42
0.0000001
 43
0.0000001
 44
0.0000000001
 40
0.0
 40
0.0
 40
0.0
 40
0.0
 40
0.2550960217
 40
1.0
 40
1.0
 40
1.0
 40
1.0
 10
331.0834426376
 20
97.441028932
 30
0.0
 10
331.0357443054
 20
97.4260531634
 30
0.0
 10
330.8480767931
 20
97.3695660286
 30
0.0
 10
330.6576457681
 20
97.32215833
 30
0.0
 10
330.5146690241
 20
97.2926638617
 30
0.0
  0
LINE
  5
327
100
AcDbEntity
  8
00_COMPONENTS_11
100
AcDbLine
 62
7
  6
CONTINUOUS
 10
330.3548942012
 20
97.2622590273
 11
330.3505242078
 21
97.2619560383
  0
LINE
  5
328
100
AcDbEntity
  8
00_COMPONENTS_11
100
AcDbLine
 62
7
  6
CONTINUOUS
 10
330.3505242078
 20
97.2619560383
 11
330.3462699513
 21
97.2615347423
  0
SPLINE
  5
329
100
AcDbEntity
  8
00_COMPONENTS_11
100
AcDbSpline
 62
7
  6
CONTINUOUS
 70
0
 71
3
 72
9
 73
5
 74
0
 42
0.0000001
 43
0.0000001
 44
0.0000000001
 40
0.0
 40
0.0
 40
0.0
 40
0.0
 40
0.3688549702
 40
1.0
 40
1.0
 40
1.0
 40
1.0
 10
325.1239790024
 20
99.191028932
 30
0.0
 10
325.1279221885
 20
99.191028932
 30
0.0
 10
325.137342964
 20
99.1990024201
 30
0.0
 10
325.1410389585
 20
99.2088376102
 30
0.0
 10
325.1432749606
 20
99.2152034895
 30
0.0
  0
SPLINE
  5
32A
100
AcDbEntity
  8
00_COMPONENTS_11
100
AcDbSpline
 62
7
  6
CONTINUOUS
 70
0
 71
3
 72
9
 73
5
 74
0
 42
0.0000001
 43
0.0000001
 44
0.0000000001
 40
0.0
 40
0.0
 40
0.0
 40
0.0
 40
0.2119702899
 40
1.0
 40
1.0
 40
1.0
 40
1.0
 10
325.1432749606
 20
99.2152034895
 30
0.0
 10
325.1446670903
 20
99.2191668708
 30
0.0
 10
325.1501917289
 20
99.2382265005
 30
0.0
 10
325.1525840264
 20
99.2580775516
 30
0.0
 10
325.1534309355
 20
99.2736715078
 30
0.0
  0
SPLINE
  5
32B
100
AcDbEntity
  8
00_COMPONENTS_11
100
AcDbSpline
 62
7
  6
CONTINUOUS
 70
0
 71
3
 72
9
 73
5
 74
0
 42
0.0000001
 43
0.0000001
 44
0.0000000001
 40
0.0
 40
0.0
 40
0.0
 40
0.0
 40
0.4822216116
 40
1.0
 40
1.0
 40
1.0
 40
1.0
 10
327.3980591496
 20
99.1931607639
 30
0.0
 10
327.4157936755
 20
99.1971634727
 30
0.0
 10
327.4504709951
 20
99.2179132248
 30
0.0
 10
327.4671726177
 20
99.2544055422
 30
0.0
 10
327.4703188915
 20
99.2736715062
 30
0.0
  0
LINE
  5
32C
100
AcDbEntity
  8
00_COMPONENTS_11
100
AcDbLine
 62
7
  6
CONTINUOUS
 10
327.4703188915
 20
99.2736715062
 11
327.5221335336
 21
99.5910257047
  0
LINE
  5
32D
100
AcDbEntity
  8
00_COMPONENTS_11
100
AcDbLine
 62
7
  6
CONTINUOUS
 10
331.9170374396
 20
99.2736713971
 11
331.8652217874
 21
99.5910255276
  0
SPLINE
  5
32E
100
AcDbEntity
  8
00_COMPONENTS_11
100
AcDbSpline
 62
7
  6
CONTINUOUS
 70
0
 71
3
 72
9
 73
5
 74
0
 42
0.0000001
 43
0.0000001
 44
0.0000000001
 40
0.0
 40
0.0
 40
0.0
 40
0.0
 40
0.5178173237
 40
1.0
 40
1.0
 40
1.0
 40
1.0
 10
331.9170374396
 20
99.2736713971
 30
0.0
 10
331.920182976
 20
99.2544099483
 30
0.0
 10
331.9368780384
 20
99.217930613
 30
0.0
 10
331.9715349858
 20
99.1971754081
 30
0.0
 10
331.9892611444
 20
99.1931678584
 30
0.0
  0
SPLINE
  5
32F
100
AcDbEntity
  8
00_COMPONENTS_11
100
AcDbSpline
 62
7
  6
CONTINUOUS
 70
0
 71
3
 72
9
 73
5
 74
0
 42
0.0000001
 43
0.0000001
 44
0.0000000001
 40
0.0
 40
0.0
 40
0.0
 40
0.0
 40
0.2818350806
 40
1.0
 40
1.0
 40
1.0
 40
1.0
 10
334.2339253838
 20
99.2736713986
 30
0.0
 10
334.2342281821
 20
99.2680960381
 30
0.0
 10
334.2358676216
 20
99.2483729034
 30
0.0
 10
334.2393661489
 20
99.2286304588
 30
0.0
 10
334.2440804977
 20
99.2152062702
 30
0.0
  0
SPLINE
  5
330
100
AcDbEntity
  8
00_COMPONENTS_11
100
AcDbSpline
 62
7
  6
CONTINUOUS
 70
0
 71
3
 72
9
 73
5
 74
0
 42
0.0000001
 43
0.0000001
 44
0.0000000001
 40
0.0
 40
0.0
 40
0.0
 40
0.0
 40
0.6311743839
 40
1.0
 40
1.0
 40
1.0
 40
1.0
 10
334.2440804977
 20
99.2152062702
 30
0.0
 10
334.2463164665
 20
99.208839311
 30
0.0
 10
334.250011432
 20
99.1990019566
 30
0.0
 10
334.2594340331
 20
99.191028932
 30
0.0
 10
334.2633773109
 20
99.191028932
 30
0.0
  0
SPLINE
  5
331
100
AcDbEntity
  8
00_COMPONENTS_11
100
AcDbSpline
 62
7
  6
CONTINUOUS
 70
0
 71
3
 72
9
 73
5
 74
0
 42
0.0000001
 43
0.0000001
 44
0.0000000001
 40
0.0
 40
0.0
 40
0.0
 40
0.0
 40
0.5052624746
 40
1.0
 40
1.0
 40
1.0
 40
1.0
 10
328.2977357813
 20
99.2736713971
 30
0.0
 10
328.3017738606
 20
99.2508110749
 30
0.0
 10
328.3271457035
 20
99.2070198859
 30
0.0
 10
328.3746644866
 20
99.191028932
 30
0.0
 10
328.3973951477
 20
99.191028932
 30
0.0
  0
SPLINE
  5
332
100
AcDbEntity
  8
00_COMPONENTS_11
100
AcDbSpline
 62
7
  6
CONTINUOUS
 70
0
 71
3
 72
9
 73
5
 74
0
 42
0.0000001
 43
0.0000001
 44
0.0000000001
 40
0.0
 40
0.0
 40
0.0
 40
0.0
 40
0.2461012378
 40
1.0
 40
1.0
 40
1.0
 40
1.0
 10
328.448625447
 20
97.391028932
 30
0.0
 10
328.4824325213
 20
97.3781352919
 30
0.0
 10
328.6208421223
 20
97.3284939306
 30
0.0
 10
328.7631381464
 20
97.2898196352
 30
0.0
 10
328.8715079285
 20
97.2665498369
 30
0.0
  0
LINE
  5
333
100
AcDbEntity
  8
00_COMPONENTS_11
100
AcDbLine
 62
7
  6
CONTINUOUS
 10
328.2977357813
 20
99.2736713971
 11
328.2419771099
 21
99.5910255276
  0
SPLINE
  5
334
100
AcDbEntity
  8
00_COMPONENTS_11
100
AcDbSpline
 62
7
  6
CONTINUOUS
 70
0
 71
3
 72
9
 73
5
 74
0
 42
0.0000001
 43
0.0000001
 44
0.0000000001
 40
0.0
 40
0.0
 40
0.0
 40
0.0
 40
0.340552423
 40
1.0
 40
1.0
 40
1.0
 40
1.0
 10
325.496158234
 20
99.2736713986
 30
0.0
 10
325.4971336284
 20
99.2623953328
 30
0.0
 10
325.5015608562
 20
99.2315476324
 30
0.0
 10
325.5238858171
 20
99.191028932
 30
0.0
 10
325.5458023907
 20
99.191028932
 30
0.0
  0
SPLINE
  5
335
100
AcDbEntity
  8
00_COMPONENTS_11
100
AcDbSpline
 62
7
  6
CONTINUOUS
 70
0
 71
3
 72
9
 73
5
 74
0
 42
0.0000001
 43
0.0000001
 44
0.0000000001
 40
0.0
 40
0.0
 40
0.0
 40
0.0
 40
0.4947805499
 40
1.0
 40
1.0
 40
1.0
 40
1.0
 10
330.9899611657
 20
99.191028932
 30
0.0
 10
331.0126938392
 20
99.191028932
 30
0.0
 10
331.0602131582
 20
99.2070216169
 30
0.0
 10
331.0855828094
 20
99.2508130948
 30
0.0
 10
331.0896205512
 20
99.2736715062
 30
0.0
  0
LINE
  5
336
100
AcDbEntity
  8
00_COMPONENTS_11
100
AcDbLine
 62
7
  6
CONTINUOUS
 10
331.0896205512
 20
99.2736715062
 11
331.1453781333
 21
99.5910257047
  0
SPLINE
  5
337
100
AcDbEntity
  8
00_COMPONENTS_11
100
AcDbSpline
 62
7
  6
CONTINUOUS
 70
0
 71
3
 72
10
 73
6
 74
0
 42
0.0000001
 43
0.0000001
 44
0.0000000001
 40
0.0
 40
0.0
 40
0.0
 40
0.0
 40
0.1749719364
 40
0.5247656061
 40
1.0
 40
1.0
 40
1.0
 40
1.0
 10
333.8415539227
 20
99.191028932
 30
0.0
 10
333.847575652
 20
99.191028932
 30
0.0
 10
333.8656348658
 20
99.1980495471
 30
0.0
 10
333.8840397887
 20
99.2294825222
 30
0.0
 10
333.8897885904
 20
99.2573769737
 30
0.0
 10
333.8911980888
 20
99.2736715078
 30
0.0
  0
SPLINE
  5
338
100
AcDbEntity
  8
00_COMPONENTS_11
100
AcDbSpline
 62
7
  6
CONTINUOUS
 70
0
 71
3
 72
9
 73
5
 74
0
 42
0.0000001
 43
0.0000001
 44
0.0000000001
 40
0.0
 40
0.0
 40
0.0
 40
0.0
 40
0.2542252921
 40
1.0
 40
1.0
 40
1.0
 40
1.0
 10
330.6475429047
 20
97.2924622525
 30
0.0
 10
330.6853993583
 20
97.302043315
 30
0.0
 10
330.8335543837
 20
97.342626036
 30
0.0
 10
330.9785051066
 20
97.3950859252
 30
0.0
 10
331.0834426376
 20
97.441028932
 30
0.0
  0
SPLINE
  5
339
100
AcDbEntity
  8
00_COMPONENTS_11
100
AcDbSpline
 62
7
  6
CONTINUOUS
 70
0
 71
3
 72
9
 73
5
 74
0
 42
0.0000001
 43
0.0000001
 44
0.0000000001
 40
0.0
 40
0.0
 40
0.0
 40
0.0
 40
0.2550960217
 40
1.0
 40
1.0
 40
1.0
 40
1.0
 10
461.0834426376
 20
97.441028932
 30
0.0
 10
461.0357443054
 20
97.4260531634
 30
0.0
 10
460.8480767931
 20
97.3695660286
 30
0.0
 10
460.6576457681
 20
97.32215833
 30
0.0
 10
460.5146690241
 20
97.2926638617
 30
0.0
  0
LINE
  5
33A
100
AcDbEntity
  8
00_COMPONENTS_11
100
AcDbLine
 62
7
  6
CONTINUOUS
 10
460.3548942012
 20
97.2622590273
 11
460.3505242078
 21
97.2619560383
  0
LINE
  5
33B
100
AcDbEntity
  8
00_COMPONENTS_11
100
AcDbLine
 62
7
  6
CONTINUOUS
 10
460.3505242078
 20
97.2619560383
 11
460.3462699513
 21
97.2615347423
  0
SPLINE
  5
33C
100
AcDbEntity
  8
00_COMPONENTS_11
100
AcDbSpline
 62
7
  6
CONTINUOUS
 70
0
 71
3
 72
9
 73
5
 74
0
 42
0.0000001
 43
0.0000001
 44
0.0000000001
 40
0.0
 40
0.0
 40
0.0
 40
0.0
 40
0.3688549702
 40
1.0
 40
1.0
 40
1.0
 40
1.0
 10
455.1239790024
 20
99.191028932
 30
0.0
 10
455.1279221885
 20
99.191028932
 30
0.0
 10
455.137342964
 20
99.1990024201
 30
0.0
 10
455.1410389585
 20
99.2088376102
 30
0.0
 10
455.1432749606
 20
99.2152034895
 30
0.0
  0
SPLINE
  5
33D
100
AcDbEntity
  8
00_COMPONENTS_11
100
AcDbSpline
 62
7
  6
CONTINUOUS
 70
0
 71
3
 72
9
 73
5
 74
0
 42
0.0000001
 43
0.0000001
 44
0.0000000001
 40
0.0
 40
0.0
 40
0.0
 40
0.0
 40
0.2119702899
 40
1.0
 40
1.0
 40
1.0
 40
1.0
 10
455.1432749606
 20
99.2152034895
 30
0.0
 10
455.1446670903
 20
99.2191668708
 30
0.0
 10
455.1501917289
 20
99.2382265005
 30
0.0
 10
455.1525840264
 20
99.2580775516
 30
0.0
 10
455.1534309355
 20
99.2736715078
 30
0.0
  0
SPLINE
  5
33E
100
AcDbEntity
  8
00_COMPONENTS_11
100
AcDbSpline
 62
7
  6
CONTINUOUS
 70
0
 71
3
 72
9
 73
5
 74
0
 42
0.0000001
 43
0.0000001
 44
0.0000000001
 40
0.0
 40
0.0
 40
0.0
 40
0.0
 40
0.4822216116
 40
1.0
 40
1.0
 40
1.0
 40
1.0
 10
457.3980591496
 20
99.1931607639
 30
0.0
 10
457.4157936755
 20
99.1971634727
 30
0.0
 10
457.4504709951
 20
99.2179132248
 30
0.0
 10
457.4671726177
 20
99.2544055422
 30
0.0
 10
457.4703188915
 20
99.2736715062
 30
0.0
  0
LINE
  5
33F
100
AcDbEntity
  8
00_COMPONENTS_11
100
AcDbLine
 62
7
  6
CONTINUOUS
 10
457.4703188915
 20
99.2736715062
 11
457.5221335336
 21
99.5910257047
  0
LINE
  5
340
100
AcDbEntity
  8
00_COMPONENTS_11
100
AcDbLine
 62
7
  6
CONTINUOUS
 10
461.9170374396
 20
99.2736713971
 11
461.8652217874
 21
99.5910255276
  0
SPLINE
  5
341
100
AcDbEntity
  8
00_COMPONENTS_11
100
AcDbSpline
 62
7
  6
CONTINUOUS
 70
0
 71
3
 72
9
 73
5
 74
0
 42
0.0000001
 43
0.0000001
 44
0.0000000001
 40
0.0
 40
0.0
 40
0.0
 40
0.0
 40
0.5178173237
 40
1.0
 40
1.0
 40
1.0
 40
1.0
 10
461.9170374396
 20
99.2736713971
 30
0.0
 10
461.920182976
 20
99.2544099483
 30
0.0
 10
461.9368780384
 20
99.217930613
 30
0.0
 10
461.9715349858
 20
99.1971754081
 30
0.0
 10
461.9892611444
 20
99.1931678584
 30
0.0
  0
SPLINE
  5
342
100
AcDbEntity
  8
00_COMPONENTS_11
100
AcDbSpline
 62
7
  6
CONTINUOUS
 70
0
 71
3
 72
9
 73
5
 74
0
 42
0.0000001
 43
0.0000001
 44
0.0000000001
 40
0.0
 40
0.0
 40
0.0
 40
0.0
 40
0.2818350806
 40
1.0
 40
1.0
 40
1.0
 40
1.0
 10
464.2339253838
 20
99.2736713986
 30
0.0
 10
464.2342281821
 20
99.2680960381
 30
0.0
 10
464.2358676216
 20
99.2483729034
 30
0.0
 10
464.2393661489
 20
99.2286304588
 30
0.0
 10
464.2440804977
 20
99.2152062702
 30
0.0
  0
SPLINE
  5
343
100
AcDbEntity
  8
00_COMPONENTS_11
100
AcDbSpline
 62
7
  6
CONTINUOUS
 70
0
 71
3
 72
9
 73
5
 74
0
 42
0.0000001
 43
0.0000001
 44
0.0000000001
 40
0.0
 40
0.0
 40
0.0
 40
0.0
 40
0.6311743839
 40
1.0
 40
1.0
 40
1.0
 40
1.0
 10
464.2440804977
 20
99.2152062702
 30
0.0
 10
464.2463164665
 20
99.208839311
 30
0.0
 10
464.250011432
 20
99.1990019566
 30
0.0
 10
464.2594340331
 20
99.191028932
 30
0.0
 10
464.2633773109
 20
99.191028932
 30
0.0
  0
SPLINE
  5
344
100
AcDbEntity
  8
00_COMPONENTS_11
100
AcDbSpline
 62
7
  6
CONTINUOUS
 70
0
 71
3
 72
9
 73
5
 74
0
 42
0.0000001
 43
0.0000001
 44
0.0000000001
 40
0.0
 40
0.0
 40
0.0
 40
0.0
 40
0.5052624746
 40
1.0
 40
1.0
 40
1.0
 40
1.0
 10
458.2977357813
 20
99.2736713971
 30
0.0
 10
458.3017738606
 20
99.2508110749
 30
0.0
 10
458.3271457035
 20
99.2070198859
 30
0.0
 10
458.3746644866
 20
99.191028932
 30
0.0
 10
458.3973951477
 20
99.191028932
 30
0.0
  0
SPLINE
  5
345
100
AcDbEntity
  8
00_COMPONENTS_11
100
AcDbSpline
 62
7
  6
CONTINUOUS
 70
0
 71
3
 72
9
 73
5
 74
0
 42
0.0000001
 43
0.0000001
 44
0.0000000001
 40
0.0
 40
0.0
 40
0.0
 40
0.0
 40
0.2461012378
 40
1.0
 40
1.0
 40
1.0
 40
1.0
 10
458.448625447
 20
97.391028932
 30
0.0
 10
458.4824325213
 20
97.3781352919
 30
0.0
 10
458.6208421223
 20
97.3284939306
 30
0.0
 10
458.7631381464
 20
97.2898196352
 30
0.0
 10
458.8715079285
 20
97.2665498369
 30
0.0
  0
LINE
  5
346
100
AcDbEntity
  8
00_COMPONENTS_11
100
AcDbLine
 62
7
  6
CONTINUOUS
 10
458.2977357813
 20
99.2736713971
 11
458.2419771099
 21
99.5910255276
  0
SPLINE
  5
347
100
AcDbEntity
  8
00_COMPONENTS_11
100
AcDbSpline
 62
7
  6
CONTINUOUS
 70
0
 71
3
 72
9
 73
5
 74
0
 42
0.0000001
 43
0.0000001
 44
0.0000000001
 40
0.0
 40
0.0
 40
0.0
 40
0.0
 40
0.340552423
 40
1.0
 40
1.0
 40
1.0
 40
1.0
 10
455.496158234
 20
99.2736713986
 30
0.0
 10
455.4971336284
 20
99.2623953328
 30
0.0
 10
455.5015608562
 20
99.2315476324
 30
0.0
 10
455.5238858171
 20
99.191028932
 30
0.0
 10
455.5458023907
 20
99.191028932
 30
0.0
  0
SPLINE
  5
348
100
AcDbEntity
  8
00_COMPONENTS_11
100
AcDbSpline
 62
7
  6
CONTINUOUS
 70
0
 71
3
 72
9
 73
5
 74
0
 42
0.0000001
 43
0.0000001
 44
0.0000000001
 40
0.0
 40
0.0
 40
0.0
 40
0.0
 40
0.4947805499
 40
1.0
 40
1.0
 40
1.0
 40
1.0
 10
460.9899611657
 20
99.191028932
 30
0.0
 10
461.0126938392
 20
99.191028932
 30
0.0
 10
461.0602131582
 20
99.2070216169
 30
0.0
 10
461.0855828094
 20
99.2508130948
 30
0.0
 10
461.0896205512
 20
99.2736715062
 30
0.0
  0
LINE
  5
349
100
AcDbEntity
  8
00_COMPONENTS_11
100
AcDbLine
 62
7
  6
CONTINUOUS
 10
461.0896205512
 20
99.2736715062
 11
461.1453781333
 21
99.5910257047
  0
SPLINE
  5
34A
100
AcDbEntity
  8
00_COMPONENTS_11
100
AcDbSpline
 62
7
  6
CONTINUOUS
 70
0
 71
3
 72
10
 73
6
 74
0
 42
0.0000001
 43
0.0000001
 44
0.0000000001
 40
0.0
 40
0.0
 40
0.0
 40
0.0
 40
0.1749719364
 40
0.5247656061
 40
1.0
 40
1.0
 40
1.0
 40
1.0
 10
463.8415539227
 20
99.191028932
 30
0.0
 10
463.847575652
 20
99.191028932
 30
0.0
 10
463.8656348658
 20
99.1980495471
 30
0.0
 10
463.8840397887
 20
99.2294825222
 30
0.0
 10
463.8897885904
 20
99.2573769737
 30
0.0
 10
463.8911980888
 20
99.2736715078
 30
0.0
  0
SPLINE
  5
34B
100
AcDbEntity
  8
00_COMPONENTS_11
100
AcDbSpline
 62
7
  6
CONTINUOUS
 70
0
 71
3
 72
9
 73
5
 74
0
 42
0.0000001
 43
0.0000001
 44
0.0000000001
 40
0.0
 40
0.0
 40
0.0
 40
0.0
 40
0.2542252921
 40
1.0
 40
1.0
 40
1.0
 40
1.0
 10
460.6475429047
 20
97.2924622525
 30
0.0
 10
460.6853993583
 20
97.302043315
 30
0.0
 10
460.8335543837
 20
97.342626036
 30
0.0
 10
460.9785051066
 20
97.3950859252
 30
0.0
 10
461.0834426376
 20
97.441028932
 30
0.0
  0
SPLINE
  5
34C
100
AcDbEntity
  8
00_COMPONENTS_11
100
AcDbSpline
 62
7
  6
CONTINUOUS
 70
0
 71
3
 72
9
 73
5
 74
0
 42
0.0000001
 43
0.0000001
 44
0.0000000001
 40
0.0
 40
0.0
 40
0.0
 40
0.0
 40
0.2550960217
 40
1.0
 40
1.0
 40
1.0
 40
1.0
 10
396.0834426376
 20
97.441028932
 30
0.0
 10
396.0357443054
 20
97.4260531634
 30
0.0
 10
395.8480767931
 20
97.3695660286
 30
0.0
 10
395.6576457681
 20
97.32215833
 30
0.0
 10
395.5146690241
 20
97.2926638617
 30
0.0
  0
LINE
  5
34D
100
AcDbEntity
  8
00_COMPONENTS_11
100
AcDbLine
 62
7
  6
CONTINUOUS
 10
395.3548942012
 20
97.2622590273
 11
395.3505242078
 21
97.2619560383
  0
LINE
  5
34E
100
AcDbEntity
  8
00_COMPONENTS_11
100
AcDbLine
 62
7
  6
CONTINUOUS
 10
395.3505242078
 20
97.2619560383
 11
395.3462699513
 21
97.2615347423
  0
SPLINE
  5
34F
100
AcDbEntity
  8
00_COMPONENTS_11
100
AcDbSpline
 62
7
  6
CONTINUOUS
 70
0
 71
3
 72
9
 73
5
 74
0
 42
0.0000001
 43
0.0000001
 44
0.0000000001
 40
0.0
 40
0.0
 40
0.0
 40
0.0
 40
0.3688549702
 40
1.0
 40
1.0
 40
1.0
 40
1.0
 10
390.1239790024
 20
99.191028932
 30
0.0
 10
390.1279221885
 20
99.191028932
 30
0.0
 10
390.137342964
 20
99.1990024201
 30
0.0
 10
390.1410389585
 20
99.2088376102
 30
0.0
 10
390.1432749606
 20
99.2152034895
 30
0.0
  0
SPLINE
  5
350
100
AcDbEntity
  8
00_COMPONENTS_11
100
AcDbSpline
 62
7
  6
CONTINUOUS
 70
0
 71
3
 72
9
 73
5
 74
0
 42
0.0000001
 43
0.0000001
 44
0.0000000001
 40
0.0
 40
0.0
 40
0.0
 40
0.0
 40
0.2119702899
 40
1.0
 40
1.0
 40
1.0
 40
1.0
 10
390.1432749606
 20
99.2152034895
 30
0.0
 10
390.1446670903
 20
99.2191668708
 30
0.0
 10
390.1501917289
 20
99.2382265005
 30
0.0
 10
390.1525840264
 20
99.2580775516
 30
0.0
 10
390.1534309355
 20
99.2736715078
 30
0.0
  0
SPLINE
  5
351
100
AcDbEntity
  8
00_COMPONENTS_11
100
AcDbSpline
 62
7
  6
CONTINUOUS
 70
0
 71
3
 72
9
 73
5
 74
0
 42
0.0000001
 43
0.0000001
 44
0.0000000001
 40
0.0
 40
0.0
 40
0.0
 40
0.0
 40
0.4822216116
 40
1.0
 40
1.0
 40
1.0
 40
1.0
 10
392.3980591496
 20
99.1931607639
 30
0.0
 10
392.4157936755
 20
99.1971634727
 30
0.0
 10
392.4504709951
 20
99.2179132248
 30
0.0
 10
392.4671726177
 20
99.2544055422
 30
0.0
 10
392.4703188915
 20
99.2736715062
 30
0.0
  0
LINE
  5
352
100
AcDbEntity
  8
00_COMPONENTS_11
100
AcDbLine
 62
7
  6
CONTINUOUS
 10
392.4703188915
 20
99.2736715062
 11
392.5221335336
 21
99.5910257047
  0
LINE
  5
353
100
AcDbEntity
  8
00_COMPONENTS_11
100
AcDbLine
 62
7
  6
CONTINUOUS
 10
396.9170374396
 20
99.2736713971
 11
396.8652217874
 21
99.5910255276
  0
SPLINE
  5
354
100
AcDbEntity
  8
00_COMPONENTS_11
100
AcDbSpline
 62
7
  6
CONTINUOUS
 70
0
 71
3
 72
9
 73
5
 74
0
 42
0.0000001
 43
0.0000001
 44
0.0000000001
 40
0.0
 40
0.0
 40
0.0
 40
0.0
 40
0.5178173237
 40
1.0
 40
1.0
 40
1.0
 40
1.0
 10
396.9170374396
 20
99.2736713971
 30
0.0
 10
396.920182976
 20
99.2544099483
 30
0.0
 10
396.9368780384
 20
99.217930613
 30
0.0
 10
396.9715349858
 20
99.1971754081
 30
0.0
 10
396.9892611444
 20
99.1931678584
 30
0.0
  0
SPLINE
  5
355
100
AcDbEntity
  8
00_COMPONENTS_11
100
AcDbSpline
 62
7
  6
CONTINUOUS
 70
0
 71
3
 72
9
 73
5
 74
0
 42
0.0000001
 43
0.0000001
 44
0.0000000001
 40
0.0
 40
0.0
 40
0.0
 40
0.0
 40
0.2818350806
 40
1.0
 40
1.0
 40
1.0
 40
1.0
 10
399.2339253838
 20
99.2736713986
 30
0.0
 10
399.2342281821
 20
99.2680960381
 30
0.0
 10
399.2358676216
 20
99.2483729034
 30
0.0
 10
399.2393661489
 20
99.2286304588
 30
0.0
 10
399.2440804977
 20
99.2152062702
 30
0.0
  0
SPLINE
  5
356
100
AcDbEntity
  8
00_COMPONENTS_11
100
AcDbSpline
 62
7
  6
CONTINUOUS
 70
0
 71
3
 72
9
 73
5
 74
0
 42
0.0000001
 43
0.0000001
 44
0.0000000001
 40
0.0
 40
0.0
 40
0.0
 40
0.0
 40
0.6311743839
 40
1.0
 40
1.0
 40
1.0
 40
1.0
 10
399.2440804977
 20
99.2152062702
 30
0.0
 10
399.2463164665
 20
99.208839311
 30
0.0
 10
399.250011432
 20
99.1990019566
 30
0.0
 10
399.2594340331
 20
99.191028932
 30
0.0
 10
399.2633773109
 20
99.191028932
 30
0.0
  0
SPLINE
  5
357
100
AcDbEntity
  8
00_COMPONENTS_11
100
AcDbSpline
 62
7
  6
CONTINUOUS
 70
0
 71
3
 72
9
 73
5
 74
0
 42
0.0000001
 43
0.0000001
 44
0.0000000001
 40
0.0
 40
0.0
 40
0.0
 40
0.0
 40
0.5052624746
 40
1.0
 40
1.0
 40
1.0
 40
1.0
 10
393.2977357813
 20
99.2736713971
 30
0.0
 10
393.3017738606
 20
99.2508110749
 30
0.0
 10
393.3271457035
 20
99.2070198859
 30
0.0
 10
393.3746644866
 20
99.191028932
 30
0.0
 10
393.3973951477
 20
99.191028932
 30
0.0
  0
SPLINE
  5
358
100
AcDbEntity
  8
00_COMPONENTS_11
100
AcDbSpline
 62
7
  6
CONTINUOUS
 70
0
 71
3
 72
9
 73
5
 74
0
 42
0.0000001
 43
0.0000001
 44
0.0000000001
 40
0.0
 40
0.0
 40
0.0
 40
0.0
 40
0.2461012378
 40
1.0
 40
1.0
 40
1.0
 40
1.0
 10
393.448625447
 20
97.391028932
 30
0.0
 10
393.4824325213
 20
97.3781352919
 30
0.0
 10
393.6208421223
 20
97.3284939306
 30
0.0
 10
393.7631381464
 20
97.2898196352
 30
0.0
 10
393.8715079285
 20
97.2665498369
 30
0.0
  0
LINE
  5
359
100
AcDbEntity
  8
00_COMPONENTS_11
100
AcDbLine
 62
7
  6
CONTINUOUS
 10
393.2977357813
 20
99.2736713971
 11
393.2419771099
 21
99.5910255276
  0
SPLINE
  5
35A
100
AcDbEntity
  8
00_COMPONENTS_11
100
AcDbSpline
 62
7
  6
CONTINUOUS
 70
0
 71
3
 72
9
 73
5
 74
0
 42
0.0000001
 43
0.0000001
 44
0.0000000001
 40
0.0
 40
0.0
 40
0.0
 40
0.0
 40
0.340552423
 40
1.0
 40
1.0
 40
1.0
 40
1.0
 10
390.496158234
 20
99.2736713986
 30
0.0
 10
390.4971336284
 20
99.2623953328
 30
0.0
 10
390.5015608562
 20
99.2315476324
 30
0.0
 10
390.5238858171
 20
99.191028932
 30
0.0
 10
390.5458023907
 20
99.191028932
 30
0.0
  0
SPLINE
  5
35B
100
AcDbEntity
  8
00_COMPONENTS_11
100
AcDbSpline
 62
7
  6
CONTINUOUS
 70
0
 71
3
 72
9
 73
5
 74
0
 42
0.0000001
 43
0.0000001
 44
0.0000000001
 40
0.0
 40
0.0
 40
0.0
 40
0.0
 40
0.4947805499
 40
1.0
 40
1.0
 40
1.0
 40
1.0
 10
395.9899611657
 20
99.191028932
 30
0.0
 10
396.0126938392
 20
99.191028932
 30
0.0
 10
396.0602131582
 20
99.2070216169
 30
0.0
 10
396.0855828094
 20
99.2508130948
 30
0.0
 10
396.0896205512
 20
99.2736715062
 30
0.0
  0
LINE
  5
35C
100
AcDbEntity
  8
00_COMPONENTS_11
100
AcDbLine
 62
7
  6
CONTINUOUS
 10
396.0896205512
 20
99.2736715062
 11
396.1453781333
 21
99.5910257047
  0
SPLINE
  5
35D
100
AcDbEntity
  8
00_COMPONENTS_11
100
AcDbSpline
 62
7
  6
CONTINUOUS
 70
0
 71
3
 72
10
 73
6
 74
0
 42
0.0000001
 43
0.0000001
 44
0.0000000001
 40
0.0
 40
0.0
 40
0.0
 40
0.0
 40
0.1749719364
 40
0.5247656061
 40
1.0
 40
1.0
 40
1.0
 40
1.0
 10
398.8415539227
 20
99.191028932
 30
0.0
 10
398.847575652
 20
99.191028932
 30
0.0
 10
398.8656348658
 20
99.1980495471
 30
0.0
 10
398.8840397887
 20
99.2294825222
 30
0.0
 10
398.8897885904
 20
99.2573769737
 30
0.0
 10
398.8911980888
 20
99.2736715078
 30
0.0
  0
SPLINE
  5
35E
100
AcDbEntity
  8
00_COMPONENTS_11
100
AcDbSpline
 62
7
  6
CONTINUOUS
 70
0
 71
3
 72
9
 73
5
 74
0
 42
0.0000001
 43
0.0000001
 44
0.0000000001
 40
0.0
 40
0.0
 40
0.0
 40
0.0
 40
0.2542252921
 40
1.0
 40
1.0
 40
1.0
 40
1.0
 10
395.6475429047
 20
97.2924622525
 30
0.0
 10
395.6853993583
 20
97.302043315
 30
0.0
 10
395.8335543837
 20
97.342626036
 30
0.0
 10
395.9785051066
 20
97.3950859252
 30
0.0
 10
396.0834426376
 20
97.441028932
 30
0.0
  0
SPLINE
  5
35F
100
AcDbEntity
  8
PART
100
AcDbSpline
 62
7
  6
CONTINUOUS
 70
0
 71
3
 72
9
 73
5
 74
0
 42
0.0000001
 43
0.0000001
 44
0.0000000001
 40
0.0
 40
0.0
 40
0.0
 40
0.0
 40
0.3379896915
 40
1.0
 40
1.0
 40
1.0
 40
1.0
 10
535.7037173358
 20
102.7910289321
 30
0.0
 10
535.7037173358
 20
102.6427105119
 30
0.0
 10
535.2555412889
 20
102.3381056186
 30
0.0
 10
534.879265438
 20
102.2163813064
 30
0.0
 10
534.6037173832
 20
102.1243622665
 30
0.0
  0
SPLINE
  5
360
100
AcDbEntity
  8
PART
100
AcDbSpline
 62
7
  6
CONTINUOUS
 70
0
 71
3
 72
8
 73
4
 74
0
 42
0.0000001
 43
0.0000001
 44
0.0000000001
 40
0.0
 40
0.0
 40
0.0
 40
0.0
 40
1.0
 40
1.0
 40
1.0
 40
1.0
 10
534.6037173832
 20
102.1243622665
 30
0.0
 10
534.4193371389
 20
102.0627886399
 30
0.0
 10
534.2334789144
 20
102.0056475681
 30
0.0
 10
534.047221912
 20
101.9500084177
 30
0.0
  0
SPLINE
  5
361
100
AcDbEntity
  8
PART
100
AcDbSpline
 62
7
  6
CONTINUOUS
 70
0
 71
3
 72
8
 73
4
 74
0
 42
0.0000001
 43
0.0000001
 44
0.0000000001
 40
0.0
 40
0.0
 40
0.0
 40
0.0
 40
1.0
 40
1.0
 40
1.0
 40
1.0
 10
534.047221912
 20
101.9500084177
 30
0.0
 10
533.8663595295
 20
101.8959807616
 30
0.0
 10
533.6850379618
 20
101.8434981574
 30
0.0
 10
533.5037173358
 20
101.7910289321
 30
0.0
  0
SPLINE
  5
362
100
AcDbEntity
  8
PART
100
AcDbSpline
 62
7
  6
CONTINUOUS
 70
0
 71
3
 72
9
 73
5
 74
0
 42
0.0000001
 43
0.0000001
 44
0.0000000001
 40
0.0
 40
0.0
 40
0.0
 40
0.0
 40
0.2353834571
 40
1.0
 40
1.0
 40
1.0
 40
1.0
 10
535.7037173358
 20
1081.2910289321
 30
0.0
 10
535.7037173358
 20
1081.1684131328
 30
0.0
 10
535.7542606058
 20
1080.6463144687
 30
0.0
 10
535.9942647107
 20
1080.1631471404
 30
0.0
 10
536.2037176481
 20
1079.8243622654
 30
0.0
  0
SPLINE
  5
363
100
AcDbEntity
  8
PART
100
AcDbSpline
 62
7
  6
CONTINUOUS
 70
0
 71
3
 72
8
 73
4
 74
0
 42
0.0000001
 43
0.0000001
 44
0.0000000001
 40
0.0
 40
0.0
 40
0.0
 40
0.0
 40
1.0
 40
1.0
 40
1.0
 40
1.0
 10
536.2037176481
 20
1079.8243622654
 30
0.0
 10
536.3592972985
 20
1079.5727160815
 30
0.0
 10
536.5318002954
 20
1079.3318096637
 30
0.0
 10
536.7037173358
 20
1079.0910289321
 30
0.0
  0
SPLINE
  5
364
100
AcDbEntity
  8
PART
100
AcDbSpline
 62
7
  6
CONTINUOUS
 70
0
 71
3
 72
9
 73
5
 74
0
 42
0.0000001
 43
0.0000001
 44
0.0000000001
 40
0.0
 40
0.0
 40
0.0
 40
0.0
 40
0.2628758126
 40
1.0
 40
1.0
 40
1.0
 40
1.0
 10
536.7037173358
 20
122.0910289321
 30
0.0
 10
536.6168892148
 20
121.969420635
 30
0.0
 10
536.287816639
 20
121.5076344261
 30
0.0
 10
535.978359719
 20
121.0190417735
 30
0.0
 10
535.8376917518
 20
120.6243622654
 30
0.0
  0
ELLIPSE
  5
365
100
AcDbEntity
  8
0
100
AcDbEllipse
 62
7
  6
CONTINUOUS
 10
569.6337696386
 20
236.0910289321
 30
0.0
 11
11.4300523028
 21
-0.0
 31
0.0
 40
0.0874886635
 41
2.5512328805
 42
3.1415918858
  0
ELLIPSE
  5
366
100
AcDbEntity
  8
0
100
AcDbEllipse
 62
7
  6
CONTINUOUS
 10
569.6337696386
 20
198.0910289321
 30
0.0
 11
11.4300523028
 21
0.0
 31
0.0
 40
0.0874886635
 41
3.1415926106
 42
3.7319524267
  0
ELLIPSE
  5
367
100
AcDbEntity
  8
0
100
AcDbEllipse
 62
7
  6
CONTINUOUS
 10
569.6337696386
 20
1003.0910289321
 30
0.0
 11
11.4300523028
 21
0.0
 31
0.0
 40
0.0874886635
 41
2.5512328805
 42
3.1415918858
  0
ELLIPSE
  5
368
100
AcDbEntity
  8
0
100
AcDbEllipse
 62
7
  6
CONTINUOUS
 10
569.6337696386
 20
965.0910289321
 30
0.0
 11
11.4300523028
 21
0.0
 31
0.0
 40
0.0874886635
 41
3.1415926106
 42
3.7319524267
  0
ENDSEC
  0
SECTION
  2
OBJECTS
  0
DICTIONARY
  5
C
100
AcDbDictionary
280
0
281
1
  3
ACAD_GROUP
350
D
  3
ACAD_MLINESTYLE
350
17
  3
ACAD_LAYOUT
350
1A
  3
ACAD_PLOTSETTINGS
350
19
  3
ACAD_PLOTSTYLENAME
350
E
  0
DICTIONARY
  5
D
102
{ACAD_REACTORS
330
C
102
}
100
AcDbDictionary
280
0
281
1
  0
ACDBDICTIONARYWDFLT
  5
E
102
{ACAD_REACTORS
330
C
102
}
100
AcDbDictionary
281
1
  3
Normal
350
F
100
AcDbDictionaryWithDefault
340
F
  0
DICTIONARY
  5
17
102
{ACAD_REACTORS
330
C
102
}
100
AcDbDictionary
280
0
281
1
  3
Standard
350
18
  0
DICTIONARY
  5
19
102
{ACAD_REACTORS
330
C
102
}
100
AcDbDictionary
281
1
  0
DICTIONARY
  5
1A
102
{ACAD_REACTORS
330
C
102
}
100
AcDbDictionary
281
1
  3
Model
350
369
  3
Layout1
350
36A
  0
ACDBPLACEHOLDER
  5
F
102
{ACAD_REACTORS
330
E
102
}
  0
MLINESTYLE
  5
18
102
{ACAD_REACTORS
330
17
102
}
100
AcDbMlineStyle
  2
STANDARD
 70
0
  3

 62
256
 51
90.0
 52
90.0
 71
2
 49
0.5
 62
256
  6
BYLAYER
 49
-0.5
 62
256
  6
BYLAYER
  0
LAYOUT
  5
369
102
{ACAD_REACTORS
330
1A
102
}
100
AcDbPlotSettings
  1

  2
none_device
  4

  6

 40
0.0
 41
0.0
 42
0.0
 43
0.0
 44
210.0
 45
297.0
 46
0.0
 47
0.0
 48
0.0
 49
0.0
140
0.0
141
0.0
142
1.0
143
1.0
 70
1024
 72
1
 73
0
 74
0
  7

 75
0
147
1.0
148
0.0
149
0.0
100
AcDbLayout
  1
Model
 70
0
 71
0
 10
0.0
 20
0.0
 11
210.0
 21
297.0
 12
0.0
 22
0.0
 32
0.0
 14
0.0
 24
0.0
 34
0.0
 15
0.0
 25
0.0
 35
0.0
146
0.0
 13
0.0
 23
0.0
 33
0.0
 16
1.0
 26
0.0
 36
0.0
 17
0.0
 27
1.0
 37
0.0
 76
0
330
213
345
0
346
0
  0
LAYOUT
  5
36A
102
{ACAD_REACTORS
330
1A
102
}
100
AcDbPlotSettings
  1

  2
none_device
  4

  6

 40
0.0
 41
0.0
 42
0.0
 43
0.0
 44
210.0
 45
297.0
 46
0.0
 47
0.0
 48
0.0
 49
0.0
140
0.0
141
0.0
142
1.0
143
1.0
 70
0
 72
1
 73
0
 74
0
  7

 75
0
147
1.0
148
0.0
149
0.0
100
AcDbLayout
  1
Layout1
 70
0
 71
1
 10
0.0
 20
0.0
 11
210.0
 21
297.0
 12
0.0
 22
0.0
 32
0.0
 14
0.0
 24
0.0
 34
0.0
 15
0.0
 25
0.0
 35
0.0
146
0.0
 13
0.0
 23
0.0
 33
0.0
 16
1.0
 26
0.0
 36
0.0
 17
0.0
 27
1.0
 37
0.0
 76
0
330
214
345
0
346
0
  0
ENDSEC
  0
EOF
