  0
SECTION
  2
HEADER
  9
$ACADVER
  1
AC1012
  9
$DWGCODEPAGE
  3
ANSI_1252
  9
$INSBASE
 10
0.0
 20
0.0
 30
0.0
  9
$EXTMIN
 10
0.7559055118110237
 20
4.818897637795275
 30
0.0
  9
$EXTMAX
 10
4.257874015748031
 20
5.705708661417322
 30
0.0
  9
$LIMMIN
 10
0.0
 20
0.0
  9
$LIMMAX
 10
12.0
 20
9.0
  9
$ORTHOMODE
 70
     0
  9
$REGENMODE
 70
     1
  9
$FILLMODE
 70
     1
  9
$QTEXTMODE
 70
     0
  9
$MIRRTEXT
 70
     1
  9
$DRAGMODE
 70
     2
  9
$LTSCALE
 40
1.0
  9
$OSMODE
 70
   547
  9
$ATTMODE
 70
     1
  9
$TEXTSIZE
 40
0.2
  9
$TRACEWID
 40
0.05
  9
$TEXTSTYLE
  7
STANDARD
  9
$CLAYER
  8
0
  9
$CELTYPE
  6
BYLAYER
  9
$CECOLOR
 62
   256
  9
$CELTSCALE
 40
1.0
  9
$DELOBJ
 70
     1
  9
$DISPSILH
 70
     0
  9
$DIMSCALE
 40
1.0
  9
$DIMASZ
 40
0.18
  9
$DIMEXO
 40
0.0625
  9
$DIMDLI
 40
0.38
  9
$DIMRND
 40
0.0
  9
$DIMDLE
 40
0.0
  9
$DIMEXE
 40
0.18
  9
$DIMTP
 40
0.0
  9
$DIMTM
 40
0.0
  9
$DIMTXT
 40
0.18
  9
$DIMCEN
 40
0.09
  9
$DIMTSZ
 40
0.0
  9
$DIMTOL
 70
     0
  9
$DIMLIM
 70
     0
  9
$DIMTIH
 70
     1
  9
$DIMTOH
 70
     1
  9
$DIMSE1
 70
     0
  9
$DIMSE2
 70
     0
  9
$DIMTAD
 70
     0
  9
$DIMZIN
 70
     0
  9
$DIMBLK
  1

  9
$DIMASO
 70
     1
  9
$DIMSHO
 70
     1
  9
$DIMPOST
  1

  9
$DIMAPOST
  1

  9
$DIMALT
 70
     0
  9
$DIMALTD
 70
     2
  9
$DIMALTF
 40
25.4
  9
$DIMLFAC
 40
1.0
  9
$DIMTOFL
 70
     0
  9
$DIMTVP
 40
0.0
  9
$DIMTIX
 70
     0
  9
$DIMSOXD
 70
     0
  9
$DIMSAH
 70
     0
  9
$DIMBLK1
  1

  9
$DIMBLK2
  1

  9
$DIMSTYLE
  2
STANDARD
  9
$DIMCLRD
 70
     0
  9
$DIMCLRE
 70
     0
  9
$DIMCLRT
 70
     0
  9
$DIMTFAC
 40
1.0
  9
$DIMGAP
 40
0.09
  9
$DIMJUST
 70
     0
  9
$DIMSD1
 70
     0
  9
$DIMSD2
 70
     0
  9
$DIMTOLJ
 70
     1
  9
$DIMTZIN
 70
     0
  9
$DIMALTZ
 70
     0
  9
$DIMALTTZ
 70
     0
  9
$DIMFIT
 70
     5
  9
$DIMUPT
 70
     0
  9
$DIMUNIT
 70
     2
  9
$DIMDEC
 70
     4
  9
$DIMTDEC
 70
     4
  9
$DIMALTU
 70
     2
  9
$DIMALTTD
 70
     2
  9
$DIMTXSTY
  7
STANDARD
  9
$DIMAUNIT
 70
     0
  9
$LUNITS
 70
     2
  9
$LUPREC
 70
     4
  9
$SKETCHINC
 40
0.1
  9
$FILLETRAD
 40
0.0
  9
$AUNITS
 70
     0
  9
$AUPREC
 70
     0
  9
$MENU
  1
acad
  9
$ELEVATION
 40
0.0
  9
$PELEVATION
 40
0.0
  9
$THICKNESS
 40
0.0
  9
$LIMCHECK
 70
     0
  9
$BLIPMODE
 70
     0
  9
$CHAMFERA
 40
0.0
  9
$CHAMFERB
 40
0.0
  9
$CHAMFERC
 40
0.0
  9
$CHAMFERD
 40
0.0
  9
$SKPOLY
 70
     0
  9
$TDCREATE
 40
2452566.543483796
  9
$TDUPDATE
 40
2453776.651358495
  9
$TDINDWG
 40
0.0026288310
  9
$TDUSRTIMER
 40
0.0026288310
  9
$USRTIMER
 70
     1
  9
$ANGBASE
 50
0.0
  9
$ANGDIR
 70
     0
  9
$PDMODE
 70
     0
  9
$PDSIZE
 40
0.0
  9
$PLINEWID
 40
0.0
  9
$COORDS
 70
     1
  9
$SPLFRAME
 70
     0
  9
$SPLINETYPE
 70
     6
  9
$SPLINESEGS
 70
     8
  9
$ATTDIA
 70
     0
  9
$ATTREQ
 70
     1
  9
$HANDLING
 70
  4097
  9
$HANDSEED
  5
3EB9
  9
$SURFTAB1
 70
     6
  9
$SURFTAB2
 70
     6
  9
$SURFTYPE
 70
     6
  9
$SURFU
 70
     6
  9
$SURFV
 70
     6
  9
$UCSNAME
  2

  9
$UCSORG
 10
0.0
 20
0.0
 30
0.0
  9
$UCSXDIR
 10
1.0
 20
0.0
 30
0.0
  9
$UCSYDIR
 10
0.0
 20
1.0
 30
0.0
  9
$PUCSNAME
  2

  9
$PUCSORG
 10
0.0
 20
0.0
 30
0.0
  9
$PUCSXDIR
 10
1.0
 20
0.0
 30
0.0
  9
$PUCSYDIR
 10
0.0
 20
1.0
 30
0.0
  9
$USERI1
 70
     0
  9
$USERI2
 70
     0
  9
$USERI3
 70
     0
  9
$USERI4
 70
     0
  9
$USERI5
 70
     0
  9
$USERR1
 40
0.0
  9
$USERR2
 40
0.0
  9
$USERR3
 40
0.0
  9
$USERR4
 40
0.0
  9
$USERR5
 40
0.0
  9
$WORLDVIEW
 70
     1
  9
$SHADEDGE
 70
     3
  9
$SHADEDIF
 70
    70
  9
$TILEMODE
 70
     1
  9
$MAXACTVP
 70
    16
  9
$PINSBASE
 10
0.0
 20
0.0
 30
0.0
  9
$PLIMCHECK
 70
     0
  9
$PEXTMIN
 10
1.000000000000000E+20
 20
1.000000000000000E+20
 30
1.000000000000000E+20
  9
$PEXTMAX
 10
-1.000000000000000E+20
 20
-1.000000000000000E+20
 30
-1.000000000000000E+20
  9
$PLIMMIN
 10
0.0
 20
0.0
  9
$PLIMMAX
 10
12.0
 20
9.0
  9
$UNITMODE
 70
     0
  9
$VISRETAIN
 70
     0
  9
$PLINEGEN
 70
     0
  9
$PSLTSCALE
 70
     1
  9
$TREEDEPTH
 70
  3020
  9
$PICKSTYLE
 70
     1
  9
$CMLSTYLE
  2
STANDARD
  9
$CMLJUST
 70
     0
  9
$CMLSCALE
 40
1.0
  9
$SAVEIMAGES
 70
     1
  0
ENDSEC
  0
SECTION
  2
CLASSES
  0
CLASS
  1
ACDBDICTIONARYWDFLT
  2
AcDbDictionaryWithDefault
  3
AutoCAD 2000
 90
    32768
280
     0
281
     0
  0
CLASS
  1
ACDBPLACEHOLDER
  2
AcDbPlaceHolder
  3
AutoCAD 2000
 90
    32768
280
     0
281
     0
  0
CLASS
  1
LAYOUT
  2
AcDbLayout
  3
AutoCAD 2000
 90
    32768
280
     0
281
     0
  0
CLASS
  1
LONG_TRANSACTION
  2
AcDbLongTransaction
  3
AutoCAD 2000
 90
    32768
280
     0
281
     0
  0
CLASS
  1
LWPOLYLINE
  2
AcDbPolyline
  3
AutoCAD 2000
 90
    32768
280
     0
281
     1
  0
CLASS
  1
HATCH
  2
AcDbHatch
  3
AutoCAD 2000
 90
    32768
280
     0
281
     1
  0
CLASS
  1
XRECORD
  2
AcDbXrecord
  3
AutoCAD 2000
 90
    32768
280
     0
281
     0
  0
CLASS
  1
LONG_TRANSACTION
  2
AcDbLongTransaction
  3
AutoCAD 2000
 90
    32768
280
     0
281
     0
  0
CLASS
  1
LWPOLYLINE
  2
AcDbPolyline
  3
AutoCAD 2000
 90
    32768
280
     0
281
     1
  0
CLASS
  1
HATCH
  2
AcDbHatch
  3
AutoCAD 2000
 90
    32768
280
     0
281
     1
  0
CLASS
  1
XRECORD
  2
AcDbXrecord
  3
AutoCAD 2000
 90
    32768
280
     0
281
     0
  0
ENDSEC
  0
SECTION
  2
TABLES
  0
TABLE
  2
VPORT
  5
8
330
0
100
AcDbSymbolTable
 70
     2
  0
VPORT
  5
3EB6
330
8
100
AcDbSymbolTableRecord
100
AcDbViewportTableRecord
  2
*ACTIVE
 70
     0
 10
0.0
 20
0.0
 11
1.0
 21
1.0
 12
2.635637430695625
 22
5.262176535513923
 13
0.0
 23
0.0
 14
1.0
 24
1.0
 15
0.0
 25
0.0
 16
0.0
 26
0.0
 36
1.0
 17
0.0
 27
0.0
 37
0.0
 40
2.162317365813374
 41
1.748134328358208
 42
50.0
 43
0.0
 44
0.0
 50
0.0
 51
0.0
 71
     0
 72
   100
 73
     1
 74
     1
 75
     0
 76
     0
 77
     0
 78
     0
  0
ENDTAB
  0
TABLE
  2
LTYPE
  5
5
330
0
100
AcDbSymbolTable
 70
    25
  0
LTYPE
  5
13
330
5
100
AcDbSymbolTableRecord
100
AcDbLinetypeTableRecord
  2
BYBLOCK
 70
     0
  3

 72
    65
 73
     0
 40
0.0
  0
LTYPE
  5
14
330
5
100
AcDbSymbolTableRecord
100
AcDbLinetypeTableRecord
  2
BYLAYER
 70
     0
  3

 72
    65
 73
     0
 40
0.0
  0
LTYPE
  5
15
330
5
100
AcDbSymbolTableRecord
100
AcDbLinetypeTableRecord
  2
CONTINUOUS
 70
     0
  3
Solid line
 72
    65
 73
     0
 40
0.0
  0
LTYPE
  5
22
330
5
100
AcDbSymbolTableRecord
100
AcDbLinetypeTableRecord
  2
BORDER
 70
     0
  3
__ __ . __ __ . __ __ . __ __ . __ __ . __ __ .
 72
    65
 73
     6
 40
1.75
 49
0.5
 74
     0
 49
-0.25
 74
     0
 49
0.5
 74
     0
 49
-0.25
 74
     0
 49
0.5
 74
     0
 49
-0.25
 74
     0
  0
LTYPE
  5
23
330
5
100
AcDbSymbolTableRecord
100
AcDbLinetypeTableRecord
  2
BORDER2
 70
     0
  3
__.__.__.__.__.__.__.__.__.__.__.__.__.__.__.__
 72
    65
 73
     6
 40
0.875
 49
0.25
 74
     0
 49
-0.125
 74
     0
 49
0.25
 74
     0
 49
-0.125
 74
     0
 49
0.25
 74
     0
 49
-0.125
 74
     0
  0
LTYPE
  5
24
330
5
100
AcDbSymbolTableRecord
100
AcDbLinetypeTableRecord
  2
BORDERX2
 70
     0
  3
____  ____  .  ____  ____  .  
 72
    65
 73
     6
 40
3.5
 49
1.0
 74
     0
 49
-0.5
 74
     0
 49
1.0
 74
     0
 49
-0.5
 74
     0
 49
1.0
 74
     0
 49
-0.5
 74
     0
  0
LTYPE
  5
25
330
5
100
AcDbSymbolTableRecord
100
AcDbLinetypeTableRecord
  2
CENTER
 70
     0
  3
____ _ ____ _ ____ _ ____ _ ____ _ ____ _ ____
 72
    65
 73
     4
 40
2.0
 49
1.25
 74
     0
 49
-0.25
 74
     0
 49
0.25
 74
     0
 49
-0.25
 74
     0
  0
LTYPE
  5
26
330
5
100
AcDbSymbolTableRecord
100
AcDbLinetypeTableRecord
  2
CENTER2
 70
     0
  3
____ _ ____ _ ____ _ ____ _ ____ _ ____ _ ____
 72
    65
 73
     4
 40
1.125
 49
0.75
 74
     0
 49
-0.125
 74
     0
 49
0.125
 74
     0
 49
-0.125
 74
     0
  0
LTYPE
  5
27
330
5
100
AcDbSymbolTableRecord
100
AcDbLinetypeTableRecord
  2
CENTERX2
 70
     0
  3
________  __  ________  __  ________  __  
 72
    65
 73
     4
 40
4.0
 49
2.5
 74
     0
 49
-0.5
 74
     0
 49
0.5
 74
     0
 49
-0.5
 74
     0
  0
LTYPE
  5
28
330
5
100
AcDbSymbolTableRecord
100
AcDbLinetypeTableRecord
  2
DASHDOT
 70
     0
  3
__ . __ . __ . __ . __ . __ . __ . 
 72
    65
 73
     4
 40
1.0
 49
0.5
 74
     0
 49
-0.25
 74
     0
 49
0.0
 74
     0
 49
-0.25
 74
     0
  0
LTYPE
  5
29
330
5
100
AcDbSymbolTableRecord
100
AcDbLinetypeTableRecord
  2
DASHDOT2
 70
     0
  3
_._._._._._._._._._._._._._._._.
 72
    65
 73
     4
 40
0.5
 49
0.25
 74
     0
 49
-0.125
 74
     0
 49
0.0
 74
     0
 49
-0.125
 74
     0
  0
LTYPE
  5
2A
330
5
100
AcDbSymbolTableRecord
100
AcDbLinetypeTableRecord
  2
DASHDOTX2
 70
     0
  3
____  .  ____  .  ____  .  ____  .  
 72
    65
 73
     4
 40
2.0
 49
1.0
 74
     0
 49
-0.5
 74
     0
 49
0.0
 74
     0
 49
-0.5
 74
     0
  0
LTYPE
  5
2B
330
5
100
AcDbSymbolTableRecord
100
AcDbLinetypeTableRecord
  2
DASHED
 70
     0
  3
__ __ __ __ __ __ __ __ __ __ __ __ 
 72
    65
 73
     2
 40
0.75
 49
0.5
 74
     0
 49
-0.25
 74
     0
  0
LTYPE
  5
2C
330
5
100
AcDbSymbolTableRecord
100
AcDbLinetypeTableRecord
  2
DASHED2
 70
     0
  3
_ _ _ _ _ _ _ _ _ _ _ _ _ _ _ _ _ _ 
 72
    65
 73
     2
 40
0.375
 49
0.25
 74
     0
 49
-0.125
 74
     0
  0
LTYPE
  5
2D
330
5
100
AcDbSymbolTableRecord
100
AcDbLinetypeTableRecord
  2
DASHEDX2
 70
     0
  3
____  ____  ____  ____  ____  ____  
 72
    65
 73
     2
 40
1.5
 49
1.0
 74
     0
 49
-0.5
 74
     0
  0
LTYPE
  5
2E
330
5
100
AcDbSymbolTableRecord
100
AcDbLinetypeTableRecord
  2
DIVIDE
 70
     0
  3
____ . . ____ . . ____ . . ____ . . 
 72
    65
 73
     6
 40
1.25
 49
0.5
 74
     0
 49
-0.25
 74
     0
 49
0.0
 74
     0
 49
-0.25
 74
     0
 49
0.0
 74
     0
 49
-0.25
 74
     0
  0
LTYPE
  5
2F
330
5
100
AcDbSymbolTableRecord
100
AcDbLinetypeTableRecord
  2
DIVIDE2
 70
     0
  3
__..__..__..__..__..__..__..__..__..
 72
    65
 73
     6
 40
0.625
 49
0.25
 74
     0
 49
-0.125
 74
     0
 49
0.0
 74
     0
 49
-0.125
 74
     0
 49
0.0
 74
     0
 49
-0.125
 74
     0
  0
LTYPE
  5
30
330
5
100
AcDbSymbolTableRecord
100
AcDbLinetypeTableRecord
  2
DIVIDEX2
 70
     0
  3
________  .  .  ________  .  .  ________  .  . 
 72
    65
 73
     6
 40
2.5
 49
1.0
 74
     0
 49
-0.5
 74
     0
 49
0.0
 74
     0
 49
-0.5
 74
     0
 49
0.0
 74
     0
 49
-0.5
 74
     0
  0
LTYPE
  5
31
330
5
100
AcDbSymbolTableRecord
100
AcDbLinetypeTableRecord
  2
DOT
 70
     0
  3
. . . . . . . . . . . . . . . . . . 
 72
    65
 73
     2
 40
0.25
 49
0.0
 74
     0
 49
-0.25
 74
     0
  0
LTYPE
  5
32
330
5
100
AcDbSymbolTableRecord
100
AcDbLinetypeTableRecord
  2
DOT2
 70
     0
  3
....................................
 72
    65
 73
     2
 40
0.125
 49
0.0
 74
     0
 49
-0.125
 74
     0
  0
LTYPE
  5
33
330
5
100
AcDbSymbolTableRecord
100
AcDbLinetypeTableRecord
  2
DOTX2
 70
     0
  3
.  .  .  .  .  .  .  .  .  .  .  .  .  
 72
    65
 73
     2
 40
0.5
 49
0.0
 74
     0
 49
-0.5
 74
     0
  0
LTYPE
  5
34
330
5
100
AcDbSymbolTableRecord
100
AcDbLinetypeTableRecord
  2
HIDDEN
 70
     0
  3
__ __ __ __ __ __ __ __ __ __ __ __ 
 72
    65
 73
     2
 40
0.375
 49
0.25
 74
     0
 49
-0.125
 74
     0
  0
LTYPE
  5
35
330
5
100
AcDbSymbolTableRecord
100
AcDbLinetypeTableRecord
  2
HIDDEN2
 70
     0
  3
_ _ _ _ _ _ _ _ _ _ _ _ _ _ _ _ _ _ 
 72
    65
 73
     2
 40
0.1875
 49
0.125
 74
     0
 49
-0.0625
 74
     0
  0
LTYPE
  5
36
330
5
100
AcDbSymbolTableRecord
100
AcDbLinetypeTableRecord
  2
HIDDENX2
 70
     0
  3
____ ____ ____ ____ ____ ____ ____ 
 72
    65
 73
     2
 40
0.75
 49
0.5
 74
     0
 49
-0.25
 74
     0
  0
LTYPE
  5
37
330
5
100
AcDbSymbolTableRecord
100
AcDbLinetypeTableRecord
  2
PHANTOM
 70
     0
  3
______  __  __  ______  __  __  
 72
    65
 73
     6
 40
2.5
 49
1.25
 74
     0
 49
-0.25
 74
     0
 49
0.25
 74
     0
 49
-0.25
 74
     0
 49
0.25
 74
     0
 49
-0.25
 74
     0
  0
LTYPE
  5
38
330
5
100
AcDbSymbolTableRecord
100
AcDbLinetypeTableRecord
  2
PHANTOM2
 70
     0
  3
___ _ _ ___ _ _ ___ _ _ ___ _ _ 
 72
    65
 73
     6
 40
1.25
 49
0.625
 74
     0
 49
-0.125
 74
     0
 49
0.125
 74
     0
 49
-0.125
 74
     0
 49
0.125
 74
     0
 49
-0.125
 74
     0
  0
LTYPE
  5
39
330
5
100
AcDbSymbolTableRecord
100
AcDbLinetypeTableRecord
  2
PHANTOMX2
 70
     0
  3
___ _ _ ___ _ _ ___ _ _ ___ _ _ 
 72
    65
 73
     6
 40
5.0
 49
2.5
 74
     0
 49
-0.5
 74
     0
 49
0.5
 74
     0
 49
-0.5
 74
     0
 49
0.5
 74
     0
 49
-0.5
 74
     0
  0
ENDTAB
  0
TABLE
  2
LAYER
  5
2
330
0
100
AcDbSymbolTable
 70
   257
  0
LAYER
  5
10
330
2
100
AcDbSymbolTableRecord
100
AcDbLayerTableRecord
  2
0
 70
     0
 62
     7
  6
CONTINUOUS
  0
LAYER
  5
3A
330
2
100
AcDbSymbolTableRecord
100
AcDbLayerTableRecord
  2
1
 70
     0
 62
     1
  6
CONTINUOUS
  0
LAYER
  5
3B
330
2
100
AcDbSymbolTableRecord
100
AcDbLayerTableRecord
  2
2
 70
     0
 62
     2
  6
CONTINUOUS
  0
LAYER
  5
3C
330
2
100
AcDbSymbolTableRecord
100
AcDbLayerTableRecord
  2
3
 70
     0
 62
     3
  6
CONTINUOUS
  0
LAYER
  5
3D
330
2
100
AcDbSymbolTableRecord
100
AcDbLayerTableRecord
  2
4
 70
     0
 62
     4
  6
CONTINUOUS
  0
LAYER
  5
3E
330
2
100
AcDbSymbolTableRecord
100
AcDbLayerTableRecord
  2
5
 70
     0
 62
     5
  6
CONTINUOUS
  0
LAYER
  5
3F
330
2
100
AcDbSymbolTableRecord
100
AcDbLayerTableRecord
  2
6
 70
     0
 62
     6
  6
CONTINUOUS
  0
LAYER
  5
40
330
2
100
AcDbSymbolTableRecord
100
AcDbLayerTableRecord
  2
7
 70
     0
 62
     7
  6
CONTINUOUS
  0
LAYER
  5
41
330
2
100
AcDbSymbolTableRecord
100
AcDbLayerTableRecord
  2
8
 70
     0
 62
     8
  6
CONTINUOUS
  0
LAYER
  5
42
330
2
100
AcDbSymbolTableRecord
100
AcDbLayerTableRecord
  2
9
 70
     0
 62
     9
  6
CONTINUOUS
  0
LAYER
  5
43
330
2
100
AcDbSymbolTableRecord
100
AcDbLayerTableRecord
  2
10
 70
     0
 62
    10
  6
CONTINUOUS
  0
LAYER
  5
44
330
2
100
AcDbSymbolTableRecord
100
AcDbLayerTableRecord
  2
11
 70
     0
 62
    11
  6
CONTINUOUS
  0
LAYER
  5
45
330
2
100
AcDbSymbolTableRecord
100
AcDbLayerTableRecord
  2
12
 70
     0
 62
    12
  6
CONTINUOUS
  0
LAYER
  5
46
330
2
100
AcDbSymbolTableRecord
100
AcDbLayerTableRecord
  2
13
 70
     0
 62
    13
  6
CONTINUOUS
  0
LAYER
  5
47
330
2
100
AcDbSymbolTableRecord
100
AcDbLayerTableRecord
  2
14
 70
     0
 62
    14
  6
CONTINUOUS
  0
LAYER
  5
48
330
2
100
AcDbSymbolTableRecord
100
AcDbLayerTableRecord
  2
15
 70
     0
 62
    15
  6
CONTINUOUS
  0
LAYER
  5
49
330
2
100
AcDbSymbolTableRecord
100
AcDbLayerTableRecord
  2
16
 70
     0
 62
    16
  6
CONTINUOUS
  0
LAYER
  5
4A
330
2
100
AcDbSymbolTableRecord
100
AcDbLayerTableRecord
  2
17
 70
     0
 62
    17
  6
CONTINUOUS
  0
LAYER
  5
4B
330
2
100
AcDbSymbolTableRecord
100
AcDbLayerTableRecord
  2
18
 70
     0
 62
    18
  6
CONTINUOUS
  0
LAYER
  5
4C
330
2
100
AcDbSymbolTableRecord
100
AcDbLayerTableRecord
  2
19
 70
     0
 62
    19
  6
CONTINUOUS
  0
LAYER
  5
4D
330
2
100
AcDbSymbolTableRecord
100
AcDbLayerTableRecord
  2
20
 70
     0
 62
    20
  6
CONTINUOUS
  0
LAYER
  5
4E
330
2
100
AcDbSymbolTableRecord
100
AcDbLayerTableRecord
  2
21
 70
     0
 62
    21
  6
CONTINUOUS
  0
LAYER
  5
4F
330
2
100
AcDbSymbolTableRecord
100
AcDbLayerTableRecord
  2
22
 70
     0
 62
    22
  6
CONTINUOUS
  0
LAYER
  5
50
330
2
100
AcDbSymbolTableRecord
100
AcDbLayerTableRecord
  2
23
 70
     0
 62
    23
  6
CONTINUOUS
  0
LAYER
  5
51
330
2
100
AcDbSymbolTableRecord
100
AcDbLayerTableRecord
  2
24
 70
     0
 62
    24
  6
CONTINUOUS
  0
LAYER
  5
52
330
2
100
AcDbSymbolTableRecord
100
AcDbLayerTableRecord
  2
25
 70
     0
 62
    25
  6
CONTINUOUS
  0
LAYER
  5
53
330
2
100
AcDbSymbolTableRecord
100
AcDbLayerTableRecord
  2
26
 70
     0
 62
    26
  6
CONTINUOUS
  0
LAYER
  5
54
330
2
100
AcDbSymbolTableRecord
100
AcDbLayerTableRecord
  2
27
 70
     0
 62
    27
  6
CONTINUOUS
  0
LAYER
  5
55
330
2
100
AcDbSymbolTableRecord
100
AcDbLayerTableRecord
  2
28
 70
     0
 62
    28
  6
CONTINUOUS
  0
LAYER
  5
56
330
2
100
AcDbSymbolTableRecord
100
AcDbLayerTableRecord
  2
29
 70
     0
 62
    29
  6
CONTINUOUS
  0
LAYER
  5
57
330
2
100
AcDbSymbolTableRecord
100
AcDbLayerTableRecord
  2
30
 70
     0
 62
    30
  6
CONTINUOUS
  0
LAYER
  5
58
330
2
100
AcDbSymbolTableRecord
100
AcDbLayerTableRecord
  2
31
 70
     0
 62
    31
  6
CONTINUOUS
  0
LAYER
  5
59
330
2
100
AcDbSymbolTableRecord
100
AcDbLayerTableRecord
  2
32
 70
     0
 62
    32
  6
CONTINUOUS
  0
LAYER
  5
5A
330
2
100
AcDbSymbolTableRecord
100
AcDbLayerTableRecord
  2
33
 70
     0
 62
    33
  6
CONTINUOUS
  0
LAYER
  5
5B
330
2
100
AcDbSymbolTableRecord
100
AcDbLayerTableRecord
  2
34
 70
     0
 62
    34
  6
CONTINUOUS
  0
LAYER
  5
5C
330
2
100
AcDbSymbolTableRecord
100
AcDbLayerTableRecord
  2
35
 70
     0
 62
    35
  6
CONTINUOUS
  0
LAYER
  5
5D
330
2
100
AcDbSymbolTableRecord
100
AcDbLayerTableRecord
  2
36
 70
     0
 62
    36
  6
CONTINUOUS
  0
LAYER
  5
5E
330
2
100
AcDbSymbolTableRecord
100
AcDbLayerTableRecord
  2
37
 70
     0
 62
    37
  6
CONTINUOUS
  0
LAYER
  5
5F
330
2
100
AcDbSymbolTableRecord
100
AcDbLayerTableRecord
  2
38
 70
     0
 62
    38
  6
CONTINUOUS
  0
LAYER
  5
60
330
2
100
AcDbSymbolTableRecord
100
AcDbLayerTableRecord
  2
39
 70
     0
 62
    39
  6
CONTINUOUS
  0
LAYER
  5
61
330
2
100
AcDbSymbolTableRecord
100
AcDbLayerTableRecord
  2
40
 70
     0
 62
    40
  6
CONTINUOUS
  0
LAYER
  5
62
330
2
100
AcDbSymbolTableRecord
100
AcDbLayerTableRecord
  2
41
 70
     0
 62
    41
  6
CONTINUOUS
  0
LAYER
  5
63
330
2
100
AcDbSymbolTableRecord
100
AcDbLayerTableRecord
  2
42
 70
     0
 62
    42
  6
CONTINUOUS
  0
LAYER
  5
64
330
2
100
AcDbSymbolTableRecord
100
AcDbLayerTableRecord
  2
43
 70
     0
 62
    43
  6
CONTINUOUS
  0
LAYER
  5
65
330
2
100
AcDbSymbolTableRecord
100
AcDbLayerTableRecord
  2
44
 70
     0
 62
    44
  6
CONTINUOUS
  0
LAYER
  5
66
330
2
100
AcDbSymbolTableRecord
100
AcDbLayerTableRecord
  2
45
 70
     0
 62
    45
  6
CONTINUOUS
  0
LAYER
  5
67
330
2
100
AcDbSymbolTableRecord
100
AcDbLayerTableRecord
  2
46
 70
     0
 62
    46
  6
CONTINUOUS
  0
LAYER
  5
68
330
2
100
AcDbSymbolTableRecord
100
AcDbLayerTableRecord
  2
47
 70
     0
 62
    47
  6
CONTINUOUS
  0
LAYER
  5
69
330
2
100
AcDbSymbolTableRecord
100
AcDbLayerTableRecord
  2
48
 70
     0
 62
    48
  6
CONTINUOUS
  0
LAYER
  5
6A
330
2
100
AcDbSymbolTableRecord
100
AcDbLayerTableRecord
  2
49
 70
     0
 62
    49
  6
CONTINUOUS
  0
LAYER
  5
6B
330
2
100
AcDbSymbolTableRecord
100
AcDbLayerTableRecord
  2
50
 70
     0
 62
    50
  6
CONTINUOUS
  0
LAYER
  5
6C
330
2
100
AcDbSymbolTableRecord
100
AcDbLayerTableRecord
  2
51
 70
     0
 62
    51
  6
CONTINUOUS
  0
LAYER
  5
6D
330
2
100
AcDbSymbolTableRecord
100
AcDbLayerTableRecord
  2
52
 70
     0
 62
    52
  6
CONTINUOUS
  0
LAYER
  5
6E
330
2
100
AcDbSymbolTableRecord
100
AcDbLayerTableRecord
  2
53
 70
     0
 62
    53
  6
CONTINUOUS
  0
LAYER
  5
6F
330
2
100
AcDbSymbolTableRecord
100
AcDbLayerTableRecord
  2
54
 70
     0
 62
    54
  6
CONTINUOUS
  0
LAYER
  5
70
330
2
100
AcDbSymbolTableRecord
100
AcDbLayerTableRecord
  2
55
 70
     0
 62
    55
  6
CONTINUOUS
  0
LAYER
  5
71
330
2
100
AcDbSymbolTableRecord
100
AcDbLayerTableRecord
  2
56
 70
     0
 62
    56
  6
CONTINUOUS
  0
LAYER
  5
72
330
2
100
AcDbSymbolTableRecord
100
AcDbLayerTableRecord
  2
57
 70
     0
 62
    57
  6
CONTINUOUS
  0
LAYER
  5
73
330
2
100
AcDbSymbolTableRecord
100
AcDbLayerTableRecord
  2
58
 70
     0
 62
    58
  6
CONTINUOUS
  0
LAYER
  5
74
330
2
100
AcDbSymbolTableRecord
100
AcDbLayerTableRecord
  2
59
 70
     0
 62
    59
  6
CONTINUOUS
  0
LAYER
  5
75
330
2
100
AcDbSymbolTableRecord
100
AcDbLayerTableRecord
  2
60
 70
     0
 62
    60
  6
CONTINUOUS
  0
LAYER
  5
76
330
2
100
AcDbSymbolTableRecord
100
AcDbLayerTableRecord
  2
61
 70
     0
 62
    61
  6
CONTINUOUS
  0
LAYER
  5
77
330
2
100
AcDbSymbolTableRecord
100
AcDbLayerTableRecord
  2
62
 70
     0
 62
    62
  6
CONTINUOUS
  0
LAYER
  5
78
330
2
100
AcDbSymbolTableRecord
100
AcDbLayerTableRecord
  2
63
 70
     0
 62
    63
  6
CONTINUOUS
  0
LAYER
  5
79
330
2
100
AcDbSymbolTableRecord
100
AcDbLayerTableRecord
  2
64
 70
     0
 62
    64
  6
CONTINUOUS
  0
LAYER
  5
7A
330
2
100
AcDbSymbolTableRecord
100
AcDbLayerTableRecord
  2
65
 70
     0
 62
    65
  6
CONTINUOUS
  0
LAYER
  5
7B
330
2
100
AcDbSymbolTableRecord
100
AcDbLayerTableRecord
  2
66
 70
     0
 62
    66
  6
CONTINUOUS
  0
LAYER
  5
7C
330
2
100
AcDbSymbolTableRecord
100
AcDbLayerTableRecord
  2
67
 70
     0
 62
    67
  6
CONTINUOUS
  0
LAYER
  5
7D
330
2
100
AcDbSymbolTableRecord
100
AcDbLayerTableRecord
  2
68
 70
     0
 62
    68
  6
CONTINUOUS
  0
LAYER
  5
7E
330
2
100
AcDbSymbolTableRecord
100
AcDbLayerTableRecord
  2
69
 70
     0
 62
    69
  6
CONTINUOUS
  0
LAYER
  5
7F
330
2
100
AcDbSymbolTableRecord
100
AcDbLayerTableRecord
  2
70
 70
     0
 62
    70
  6
CONTINUOUS
  0
LAYER
  5
80
330
2
100
AcDbSymbolTableRecord
100
AcDbLayerTableRecord
  2
71
 70
     0
 62
    71
  6
CONTINUOUS
  0
LAYER
  5
81
330
2
100
AcDbSymbolTableRecord
100
AcDbLayerTableRecord
  2
72
 70
     0
 62
    72
  6
CONTINUOUS
  0
LAYER
  5
82
330
2
100
AcDbSymbolTableRecord
100
AcDbLayerTableRecord
  2
73
 70
     0
 62
    73
  6
CONTINUOUS
  0
LAYER
  5
83
330
2
100
AcDbSymbolTableRecord
100
AcDbLayerTableRecord
  2
74
 70
     0
 62
    74
  6
CONTINUOUS
  0
LAYER
  5
84
330
2
100
AcDbSymbolTableRecord
100
AcDbLayerTableRecord
  2
75
 70
     0
 62
    75
  6
CONTINUOUS
  0
LAYER
  5
85
330
2
100
AcDbSymbolTableRecord
100
AcDbLayerTableRecord
  2
76
 70
     0
 62
    76
  6
CONTINUOUS
  0
LAYER
  5
86
330
2
100
AcDbSymbolTableRecord
100
AcDbLayerTableRecord
  2
77
 70
     0
 62
    77
  6
CONTINUOUS
  0
LAYER
  5
87
330
2
100
AcDbSymbolTableRecord
100
AcDbLayerTableRecord
  2
78
 70
     0
 62
    78
  6
CONTINUOUS
  0
LAYER
  5
88
330
2
100
AcDbSymbolTableRecord
100
AcDbLayerTableRecord
  2
79
 70
     0
 62
    79
  6
CONTINUOUS
  0
LAYER
  5
89
330
2
100
AcDbSymbolTableRecord
100
AcDbLayerTableRecord
  2
80
 70
     0
 62
    80
  6
CONTINUOUS
  0
LAYER
  5
8A
330
2
100
AcDbSymbolTableRecord
100
AcDbLayerTableRecord
  2
81
 70
     0
 62
    81
  6
CONTINUOUS
  0
LAYER
  5
8B
330
2
100
AcDbSymbolTableRecord
100
AcDbLayerTableRecord
  2
82
 70
     0
 62
    82
  6
CONTINUOUS
  0
LAYER
  5
8C
330
2
100
AcDbSymbolTableRecord
100
AcDbLayerTableRecord
  2
83
 70
     0
 62
    83
  6
CONTINUOUS
  0
LAYER
  5
8D
330
2
100
AcDbSymbolTableRecord
100
AcDbLayerTableRecord
  2
84
 70
     0
 62
    84
  6
CONTINUOUS
  0
LAYER
  5
8E
330
2
100
AcDbSymbolTableRecord
100
AcDbLayerTableRecord
  2
85
 70
     0
 62
    85
  6
CONTINUOUS
  0
LAYER
  5
8F
330
2
100
AcDbSymbolTableRecord
100
AcDbLayerTableRecord
  2
86
 70
     0
 62
    86
  6
CONTINUOUS
  0
LAYER
  5
90
330
2
100
AcDbSymbolTableRecord
100
AcDbLayerTableRecord
  2
87
 70
     0
 62
    87
  6
CONTINUOUS
  0
LAYER
  5
91
330
2
100
AcDbSymbolTableRecord
100
AcDbLayerTableRecord
  2
88
 70
     0
 62
    88
  6
CONTINUOUS
  0
LAYER
  5
92
330
2
100
AcDbSymbolTableRecord
100
AcDbLayerTableRecord
  2
89
 70
     0
 62
    89
  6
CONTINUOUS
  0
LAYER
  5
93
330
2
100
AcDbSymbolTableRecord
100
AcDbLayerTableRecord
  2
90
 70
     0
 62
    90
  6
CONTINUOUS
  0
LAYER
  5
94
330
2
100
AcDbSymbolTableRecord
100
AcDbLayerTableRecord
  2
91
 70
     0
 62
    91
  6
CONTINUOUS
  0
LAYER
  5
95
330
2
100
AcDbSymbolTableRecord
100
AcDbLayerTableRecord
  2
92
 70
     0
 62
    92
  6
CONTINUOUS
  0
LAYER
  5
96
330
2
100
AcDbSymbolTableRecord
100
AcDbLayerTableRecord
  2
93
 70
     0
 62
    93
  6
CONTINUOUS
  0
LAYER
  5
97
330
2
100
AcDbSymbolTableRecord
100
AcDbLayerTableRecord
  2
94
 70
     0
 62
    94
  6
CONTINUOUS
  0
LAYER
  5
98
330
2
100
AcDbSymbolTableRecord
100
AcDbLayerTableRecord
  2
95
 70
     0
 62
    95
  6
CONTINUOUS
  0
LAYER
  5
99
330
2
100
AcDbSymbolTableRecord
100
AcDbLayerTableRecord
  2
96
 70
     0
 62
    96
  6
CONTINUOUS
  0
LAYER
  5
9A
330
2
100
AcDbSymbolTableRecord
100
AcDbLayerTableRecord
  2
97
 70
     0
 62
    97
  6
CONTINUOUS
  0
LAYER
  5
9B
330
2
100
AcDbSymbolTableRecord
100
AcDbLayerTableRecord
  2
98
 70
     0
 62
    98
  6
CONTINUOUS
  0
LAYER
  5
9C
330
2
100
AcDbSymbolTableRecord
100
AcDbLayerTableRecord
  2
99
 70
     0
 62
    99
  6
CONTINUOUS
  0
LAYER
  5
9D
330
2
100
AcDbSymbolTableRecord
100
AcDbLayerTableRecord
  2
100
 70
     0
 62
   100
  6
CONTINUOUS
  0
LAYER
  5
9E
330
2
100
AcDbSymbolTableRecord
100
AcDbLayerTableRecord
  2
101
 70
     0
 62
   101
  6
CONTINUOUS
  0
LAYER
  5
9F
330
2
100
AcDbSymbolTableRecord
100
AcDbLayerTableRecord
  2
102
 70
     0
 62
   102
  6
CONTINUOUS
  0
LAYER
  5
A0
330
2
100
AcDbSymbolTableRecord
100
AcDbLayerTableRecord
  2
103
 70
     0
 62
   103
  6
CONTINUOUS
  0
LAYER
  5
A1
330
2
100
AcDbSymbolTableRecord
100
AcDbLayerTableRecord
  2
104
 70
     0
 62
   104
  6
CONTINUOUS
  0
LAYER
  5
A2
330
2
100
AcDbSymbolTableRecord
100
AcDbLayerTableRecord
  2
105
 70
     0
 62
   105
  6
CONTINUOUS
  0
LAYER
  5
A3
330
2
100
AcDbSymbolTableRecord
100
AcDbLayerTableRecord
  2
106
 70
     0
 62
   106
  6
CONTINUOUS
  0
LAYER
  5
A4
330
2
100
AcDbSymbolTableRecord
100
AcDbLayerTableRecord
  2
107
 70
     0
 62
   107
  6
CONTINUOUS
  0
LAYER
  5
A5
330
2
100
AcDbSymbolTableRecord
100
AcDbLayerTableRecord
  2
108
 70
     0
 62
   108
  6
CONTINUOUS
  0
LAYER
  5
A6
330
2
100
AcDbSymbolTableRecord
100
AcDbLayerTableRecord
  2
109
 70
     0
 62
   109
  6
CONTINUOUS
  0
LAYER
  5
A7
330
2
100
AcDbSymbolTableRecord
100
AcDbLayerTableRecord
  2
110
 70
     0
 62
   110
  6
CONTINUOUS
  0
LAYER
  5
A8
330
2
100
AcDbSymbolTableRecord
100
AcDbLayerTableRecord
  2
111
 70
     0
 62
   111
  6
CONTINUOUS
  0
LAYER
  5
A9
330
2
100
AcDbSymbolTableRecord
100
AcDbLayerTableRecord
  2
112
 70
     0
 62
   112
  6
CONTINUOUS
  0
LAYER
  5
AA
330
2
100
AcDbSymbolTableRecord
100
AcDbLayerTableRecord
  2
113
 70
     0
 62
   113
  6
CONTINUOUS
  0
LAYER
  5
AB
330
2
100
AcDbSymbolTableRecord
100
AcDbLayerTableRecord
  2
114
 70
     0
 62
   114
  6
CONTINUOUS
  0
LAYER
  5
AC
330
2
100
AcDbSymbolTableRecord
100
AcDbLayerTableRecord
  2
115
 70
     0
 62
   115
  6
CONTINUOUS
  0
LAYER
  5
AD
330
2
100
AcDbSymbolTableRecord
100
AcDbLayerTableRecord
  2
116
 70
     0
 62
   116
  6
CONTINUOUS
  0
LAYER
  5
AE
330
2
100
AcDbSymbolTableRecord
100
AcDbLayerTableRecord
  2
117
 70
     0
 62
   117
  6
CONTINUOUS
  0
LAYER
  5
AF
330
2
100
AcDbSymbolTableRecord
100
AcDbLayerTableRecord
  2
118
 70
     0
 62
   118
  6
CONTINUOUS
  0
LAYER
  5
B0
330
2
100
AcDbSymbolTableRecord
100
AcDbLayerTableRecord
  2
119
 70
     0
 62
   119
  6
CONTINUOUS
  0
LAYER
  5
B1
330
2
100
AcDbSymbolTableRecord
100
AcDbLayerTableRecord
  2
120
 70
     0
 62
   120
  6
CONTINUOUS
  0
LAYER
  5
B2
330
2
100
AcDbSymbolTableRecord
100
AcDbLayerTableRecord
  2
121
 70
     0
 62
   121
  6
CONTINUOUS
  0
LAYER
  5
B3
330
2
100
AcDbSymbolTableRecord
100
AcDbLayerTableRecord
  2
122
 70
     0
 62
   122
  6
CONTINUOUS
  0
LAYER
  5
B4
330
2
100
AcDbSymbolTableRecord
100
AcDbLayerTableRecord
  2
123
 70
     0
 62
   123
  6
CONTINUOUS
  0
LAYER
  5
B5
330
2
100
AcDbSymbolTableRecord
100
AcDbLayerTableRecord
  2
124
 70
     0
 62
   124
  6
CONTINUOUS
  0
LAYER
  5
B6
330
2
100
AcDbSymbolTableRecord
100
AcDbLayerTableRecord
  2
125
 70
     0
 62
   125
  6
CONTINUOUS
  0
LAYER
  5
B7
330
2
100
AcDbSymbolTableRecord
100
AcDbLayerTableRecord
  2
126
 70
     0
 62
   126
  6
CONTINUOUS
  0
LAYER
  5
B8
330
2
100
AcDbSymbolTableRecord
100
AcDbLayerTableRecord
  2
127
 70
     0
 62
   127
  6
CONTINUOUS
  0
LAYER
  5
B9
330
2
100
AcDbSymbolTableRecord
100
AcDbLayerTableRecord
  2
128
 70
     0
 62
   128
  6
CONTINUOUS
  0
LAYER
  5
BA
330
2
100
AcDbSymbolTableRecord
100
AcDbLayerTableRecord
  2
129
 70
     0
 62
   129
  6
CONTINUOUS
  0
LAYER
  5
BB
330
2
100
AcDbSymbolTableRecord
100
AcDbLayerTableRecord
  2
130
 70
     0
 62
   130
  6
CONTINUOUS
  0
LAYER
  5
BC
330
2
100
AcDbSymbolTableRecord
100
AcDbLayerTableRecord
  2
131
 70
     0
 62
   131
  6
CONTINUOUS
  0
LAYER
  5
BD
330
2
100
AcDbSymbolTableRecord
100
AcDbLayerTableRecord
  2
132
 70
     0
 62
   132
  6
CONTINUOUS
  0
LAYER
  5
BE
330
2
100
AcDbSymbolTableRecord
100
AcDbLayerTableRecord
  2
133
 70
     0
 62
   133
  6
CONTINUOUS
  0
LAYER
  5
BF
330
2
100
AcDbSymbolTableRecord
100
AcDbLayerTableRecord
  2
134
 70
     0
 62
   134
  6
CONTINUOUS
  0
LAYER
  5
C0
330
2
100
AcDbSymbolTableRecord
100
AcDbLayerTableRecord
  2
135
 70
     0
 62
   135
  6
CONTINUOUS
  0
LAYER
  5
C1
330
2
100
AcDbSymbolTableRecord
100
AcDbLayerTableRecord
  2
136
 70
     0
 62
   136
  6
CONTINUOUS
  0
LAYER
  5
C2
330
2
100
AcDbSymbolTableRecord
100
AcDbLayerTableRecord
  2
137
 70
     0
 62
   137
  6
CONTINUOUS
  0
LAYER
  5
C3
330
2
100
AcDbSymbolTableRecord
100
AcDbLayerTableRecord
  2
138
 70
     0
 62
   138
  6
CONTINUOUS
  0
LAYER
  5
C4
330
2
100
AcDbSymbolTableRecord
100
AcDbLayerTableRecord
  2
139
 70
     0
 62
   139
  6
CONTINUOUS
  0
LAYER
  5
C5
330
2
100
AcDbSymbolTableRecord
100
AcDbLayerTableRecord
  2
140
 70
     0
 62
   140
  6
CONTINUOUS
  0
LAYER
  5
C6
330
2
100
AcDbSymbolTableRecord
100
AcDbLayerTableRecord
  2
141
 70
     0
 62
   141
  6
CONTINUOUS
  0
LAYER
  5
C7
330
2
100
AcDbSymbolTableRecord
100
AcDbLayerTableRecord
  2
142
 70
     0
 62
   142
  6
CONTINUOUS
  0
LAYER
  5
C8
330
2
100
AcDbSymbolTableRecord
100
AcDbLayerTableRecord
  2
143
 70
     0
 62
   143
  6
CONTINUOUS
  0
LAYER
  5
C9
330
2
100
AcDbSymbolTableRecord
100
AcDbLayerTableRecord
  2
144
 70
     0
 62
   144
  6
CONTINUOUS
  0
LAYER
  5
CA
330
2
100
AcDbSymbolTableRecord
100
AcDbLayerTableRecord
  2
145
 70
     0
 62
   145
  6
CONTINUOUS
  0
LAYER
  5
CB
330
2
100
AcDbSymbolTableRecord
100
AcDbLayerTableRecord
  2
146
 70
     0
 62
   146
  6
CONTINUOUS
  0
LAYER
  5
CC
330
2
100
AcDbSymbolTableRecord
100
AcDbLayerTableRecord
  2
147
 70
     0
 62
   147
  6
CONTINUOUS
  0
LAYER
  5
CD
330
2
100
AcDbSymbolTableRecord
100
AcDbLayerTableRecord
  2
148
 70
     0
 62
   148
  6
CONTINUOUS
  0
LAYER
  5
CE
330
2
100
AcDbSymbolTableRecord
100
AcDbLayerTableRecord
  2
149
 70
     0
 62
   149
  6
CONTINUOUS
  0
LAYER
  5
CF
330
2
100
AcDbSymbolTableRecord
100
AcDbLayerTableRecord
  2
150
 70
     0
 62
   150
  6
CONTINUOUS
  0
LAYER
  5
D0
330
2
100
AcDbSymbolTableRecord
100
AcDbLayerTableRecord
  2
151
 70
     0
 62
   151
  6
CONTINUOUS
  0
LAYER
  5
D1
330
2
100
AcDbSymbolTableRecord
100
AcDbLayerTableRecord
  2
152
 70
     0
 62
   152
  6
CONTINUOUS
  0
LAYER
  5
D2
330
2
100
AcDbSymbolTableRecord
100
AcDbLayerTableRecord
  2
153
 70
     0
 62
   153
  6
CONTINUOUS
  0
LAYER
  5
D3
330
2
100
AcDbSymbolTableRecord
100
AcDbLayerTableRecord
  2
154
 70
     0
 62
   154
  6
CONTINUOUS
  0
LAYER
  5
D4
330
2
100
AcDbSymbolTableRecord
100
AcDbLayerTableRecord
  2
155
 70
     0
 62
   155
  6
CONTINUOUS
  0
LAYER
  5
D5
330
2
100
AcDbSymbolTableRecord
100
AcDbLayerTableRecord
  2
156
 70
     0
 62
   156
  6
CONTINUOUS
  0
LAYER
  5
D6
330
2
100
AcDbSymbolTableRecord
100
AcDbLayerTableRecord
  2
157
 70
     0
 62
   157
  6
CONTINUOUS
  0
LAYER
  5
D7
330
2
100
AcDbSymbolTableRecord
100
AcDbLayerTableRecord
  2
158
 70
     0
 62
   158
  6
CONTINUOUS
  0
LAYER
  5
D8
330
2
100
AcDbSymbolTableRecord
100
AcDbLayerTableRecord
  2
159
 70
     0
 62
   159
  6
CONTINUOUS
  0
LAYER
  5
D9
330
2
100
AcDbSymbolTableRecord
100
AcDbLayerTableRecord
  2
160
 70
     0
 62
   160
  6
CONTINUOUS
  0
LAYER
  5
DA
330
2
100
AcDbSymbolTableRecord
100
AcDbLayerTableRecord
  2
161
 70
     0
 62
   161
  6
CONTINUOUS
  0
LAYER
  5
DB
330
2
100
AcDbSymbolTableRecord
100
AcDbLayerTableRecord
  2
162
 70
     0
 62
   162
  6
CONTINUOUS
  0
LAYER
  5
DC
330
2
100
AcDbSymbolTableRecord
100
AcDbLayerTableRecord
  2
163
 70
     0
 62
   163
  6
CONTINUOUS
  0
LAYER
  5
DD
330
2
100
AcDbSymbolTableRecord
100
AcDbLayerTableRecord
  2
164
 70
     0
 62
   164
  6
CONTINUOUS
  0
LAYER
  5
DE
330
2
100
AcDbSymbolTableRecord
100
AcDbLayerTableRecord
  2
165
 70
     0
 62
   165
  6
CONTINUOUS
  0
LAYER
  5
DF
330
2
100
AcDbSymbolTableRecord
100
AcDbLayerTableRecord
  2
166
 70
     0
 62
   166
  6
CONTINUOUS
  0
LAYER
  5
E0
330
2
100
AcDbSymbolTableRecord
100
AcDbLayerTableRecord
  2
167
 70
     0
 62
   167
  6
CONTINUOUS
  0
LAYER
  5
E1
330
2
100
AcDbSymbolTableRecord
100
AcDbLayerTableRecord
  2
168
 70
     0
 62
   168
  6
CONTINUOUS
  0
LAYER
  5
E2
330
2
100
AcDbSymbolTableRecord
100
AcDbLayerTableRecord
  2
169
 70
     0
 62
   169
  6
CONTINUOUS
  0
LAYER
  5
E3
330
2
100
AcDbSymbolTableRecord
100
AcDbLayerTableRecord
  2
170
 70
     0
 62
   170
  6
CONTINUOUS
  0
LAYER
  5
E4
330
2
100
AcDbSymbolTableRecord
100
AcDbLayerTableRecord
  2
171
 70
     0
 62
   171
  6
CONTINUOUS
  0
LAYER
  5
E5
330
2
100
AcDbSymbolTableRecord
100
AcDbLayerTableRecord
  2
172
 70
     0
 62
   172
  6
CONTINUOUS
  0
LAYER
  5
E6
330
2
100
AcDbSymbolTableRecord
100
AcDbLayerTableRecord
  2
173
 70
     0
 62
   173
  6
CONTINUOUS
  0
LAYER
  5
E7
330
2
100
AcDbSymbolTableRecord
100
AcDbLayerTableRecord
  2
174
 70
     0
 62
   174
  6
CONTINUOUS
  0
LAYER
  5
E8
330
2
100
AcDbSymbolTableRecord
100
AcDbLayerTableRecord
  2
175
 70
     0
 62
   175
  6
CONTINUOUS
  0
LAYER
  5
E9
330
2
100
AcDbSymbolTableRecord
100
AcDbLayerTableRecord
  2
176
 70
     0
 62
   176
  6
CONTINUOUS
  0
LAYER
  5
EA
330
2
100
AcDbSymbolTableRecord
100
AcDbLayerTableRecord
  2
177
 70
     0
 62
   177
  6
CONTINUOUS
  0
LAYER
  5
EB
330
2
100
AcDbSymbolTableRecord
100
AcDbLayerTableRecord
  2
178
 70
     0
 62
   178
  6
CONTINUOUS
  0
LAYER
  5
EC
330
2
100
AcDbSymbolTableRecord
100
AcDbLayerTableRecord
  2
179
 70
     0
 62
   179
  6
CONTINUOUS
  0
LAYER
  5
ED
330
2
100
AcDbSymbolTableRecord
100
AcDbLayerTableRecord
  2
180
 70
     0
 62
   180
  6
CONTINUOUS
  0
LAYER
  5
EE
330
2
100
AcDbSymbolTableRecord
100
AcDbLayerTableRecord
  2
181
 70
     0
 62
   181
  6
CONTINUOUS
  0
LAYER
  5
EF
330
2
100
AcDbSymbolTableRecord
100
AcDbLayerTableRecord
  2
182
 70
     0
 62
   182
  6
CONTINUOUS
  0
LAYER
  5
F0
330
2
100
AcDbSymbolTableRecord
100
AcDbLayerTableRecord
  2
183
 70
     0
 62
   183
  6
CONTINUOUS
  0
LAYER
  5
F1
330
2
100
AcDbSymbolTableRecord
100
AcDbLayerTableRecord
  2
184
 70
     0
 62
   184
  6
CONTINUOUS
  0
LAYER
  5
F2
330
2
100
AcDbSymbolTableRecord
100
AcDbLayerTableRecord
  2
185
 70
     0
 62
   185
  6
CONTINUOUS
  0
LAYER
  5
F3
330
2
100
AcDbSymbolTableRecord
100
AcDbLayerTableRecord
  2
186
 70
     0
 62
   186
  6
CONTINUOUS
  0
LAYER
  5
F4
330
2
100
AcDbSymbolTableRecord
100
AcDbLayerTableRecord
  2
187
 70
     0
 62
   187
  6
CONTINUOUS
  0
LAYER
  5
F5
330
2
100
AcDbSymbolTableRecord
100
AcDbLayerTableRecord
  2
188
 70
     0
 62
   188
  6
CONTINUOUS
  0
LAYER
  5
F6
330
2
100
AcDbSymbolTableRecord
100
AcDbLayerTableRecord
  2
189
 70
     0
 62
   189
  6
CONTINUOUS
  0
LAYER
  5
F7
330
2
100
AcDbSymbolTableRecord
100
AcDbLayerTableRecord
  2
190
 70
     0
 62
   190
  6
CONTINUOUS
  0
LAYER
  5
F8
330
2
100
AcDbSymbolTableRecord
100
AcDbLayerTableRecord
  2
191
 70
     0
 62
   191
  6
CONTINUOUS
  0
LAYER
  5
F9
330
2
100
AcDbSymbolTableRecord
100
AcDbLayerTableRecord
  2
192
 70
     0
 62
   192
  6
CONTINUOUS
  0
LAYER
  5
FA
330
2
100
AcDbSymbolTableRecord
100
AcDbLayerTableRecord
  2
193
 70
     0
 62
   193
  6
CONTINUOUS
  0
LAYER
  5
FB
330
2
100
AcDbSymbolTableRecord
100
AcDbLayerTableRecord
  2
194
 70
     0
 62
   194
  6
CONTINUOUS
  0
LAYER
  5
FC
330
2
100
AcDbSymbolTableRecord
100
AcDbLayerTableRecord
  2
195
 70
     0
 62
   195
  6
CONTINUOUS
  0
LAYER
  5
FD
330
2
100
AcDbSymbolTableRecord
100
AcDbLayerTableRecord
  2
196
 70
     0
 62
   196
  6
CONTINUOUS
  0
LAYER
  5
FE
330
2
100
AcDbSymbolTableRecord
100
AcDbLayerTableRecord
  2
197
 70
     0
 62
   197
  6
CONTINUOUS
  0
LAYER
  5
FF
330
2
100
AcDbSymbolTableRecord
100
AcDbLayerTableRecord
  2
198
 70
     0
 62
   198
  6
CONTINUOUS
  0
LAYER
  5
100
330
2
100
AcDbSymbolTableRecord
100
AcDbLayerTableRecord
  2
199
 70
     0
 62
   199
  6
CONTINUOUS
  0
LAYER
  5
101
330
2
100
AcDbSymbolTableRecord
100
AcDbLayerTableRecord
  2
200
 70
     0
 62
   200
  6
CONTINUOUS
  0
LAYER
  5
102
330
2
100
AcDbSymbolTableRecord
100
AcDbLayerTableRecord
  2
201
 70
     0
 62
   201
  6
CONTINUOUS
  0
LAYER
  5
103
330
2
100
AcDbSymbolTableRecord
100
AcDbLayerTableRecord
  2
202
 70
     0
 62
   202
  6
CONTINUOUS
  0
LAYER
  5
104
330
2
100
AcDbSymbolTableRecord
100
AcDbLayerTableRecord
  2
203
 70
     0
 62
   203
  6
CONTINUOUS
  0
LAYER
  5
105
330
2
100
AcDbSymbolTableRecord
100
AcDbLayerTableRecord
  2
204
 70
     0
 62
   204
  6
CONTINUOUS
  0
LAYER
  5
106
330
2
100
AcDbSymbolTableRecord
100
AcDbLayerTableRecord
  2
205
 70
     0
 62
   205
  6
CONTINUOUS
  0
LAYER
  5
107
330
2
100
AcDbSymbolTableRecord
100
AcDbLayerTableRecord
  2
206
 70
     0
 62
   206
  6
CONTINUOUS
  0
LAYER
  5
108
330
2
100
AcDbSymbolTableRecord
100
AcDbLayerTableRecord
  2
207
 70
     0
 62
   207
  6
CONTINUOUS
  0
LAYER
  5
109
330
2
100
AcDbSymbolTableRecord
100
AcDbLayerTableRecord
  2
208
 70
     0
 62
   208
  6
CONTINUOUS
  0
LAYER
  5
10A
330
2
100
AcDbSymbolTableRecord
100
AcDbLayerTableRecord
  2
209
 70
     0
 62
   209
  6
CONTINUOUS
  0
LAYER
  5
10B
330
2
100
AcDbSymbolTableRecord
100
AcDbLayerTableRecord
  2
210
 70
     0
 62
   210
  6
CONTINUOUS
  0
LAYER
  5
10C
330
2
100
AcDbSymbolTableRecord
100
AcDbLayerTableRecord
  2
211
 70
     0
 62
   211
  6
CONTINUOUS
  0
LAYER
  5
10D
330
2
100
AcDbSymbolTableRecord
100
AcDbLayerTableRecord
  2
212
 70
     0
 62
   212
  6
CONTINUOUS
  0
LAYER
  5
10E
330
2
100
AcDbSymbolTableRecord
100
AcDbLayerTableRecord
  2
213
 70
     0
 62
   213
  6
CONTINUOUS
  0
LAYER
  5
10F
330
2
100
AcDbSymbolTableRecord
100
AcDbLayerTableRecord
  2
214
 70
     0
 62
   214
  6
CONTINUOUS
  0
LAYER
  5
110
330
2
100
AcDbSymbolTableRecord
100
AcDbLayerTableRecord
  2
215
 70
     0
 62
   215
  6
CONTINUOUS
  0
LAYER
  5
111
330
2
100
AcDbSymbolTableRecord
100
AcDbLayerTableRecord
  2
216
 70
     0
 62
   216
  6
CONTINUOUS
  0
LAYER
  5
112
330
2
100
AcDbSymbolTableRecord
100
AcDbLayerTableRecord
  2
217
 70
     0
 62
   217
  6
CONTINUOUS
  0
LAYER
  5
113
330
2
100
AcDbSymbolTableRecord
100
AcDbLayerTableRecord
  2
218
 70
     0
 62
   218
  6
CONTINUOUS
  0
LAYER
  5
114
330
2
100
AcDbSymbolTableRecord
100
AcDbLayerTableRecord
  2
219
 70
     0
 62
   219
  6
CONTINUOUS
  0
LAYER
  5
115
330
2
100
AcDbSymbolTableRecord
100
AcDbLayerTableRecord
  2
220
 70
     0
 62
   220
  6
CONTINUOUS
  0
LAYER
  5
116
330
2
100
AcDbSymbolTableRecord
100
AcDbLayerTableRecord
  2
221
 70
     0
 62
   221
  6
CONTINUOUS
  0
LAYER
  5
117
330
2
100
AcDbSymbolTableRecord
100
AcDbLayerTableRecord
  2
222
 70
     0
 62
   222
  6
CONTINUOUS
  0
LAYER
  5
118
330
2
100
AcDbSymbolTableRecord
100
AcDbLayerTableRecord
  2
223
 70
     0
 62
   223
  6
CONTINUOUS
  0
LAYER
  5
119
330
2
100
AcDbSymbolTableRecord
100
AcDbLayerTableRecord
  2
224
 70
     0
 62
   224
  6
CONTINUOUS
  0
LAYER
  5
11A
330
2
100
AcDbSymbolTableRecord
100
AcDbLayerTableRecord
  2
225
 70
     0
 62
   225
  6
CONTINUOUS
  0
LAYER
  5
11B
330
2
100
AcDbSymbolTableRecord
100
AcDbLayerTableRecord
  2
226
 70
     0
 62
   226
  6
CONTINUOUS
  0
LAYER
  5
11C
330
2
100
AcDbSymbolTableRecord
100
AcDbLayerTableRecord
  2
227
 70
     0
 62
   227
  6
CONTINUOUS
  0
LAYER
  5
11D
330
2
100
AcDbSymbolTableRecord
100
AcDbLayerTableRecord
  2
228
 70
     0
 62
   228
  6
CONTINUOUS
  0
LAYER
  5
11E
330
2
100
AcDbSymbolTableRecord
100
AcDbLayerTableRecord
  2
229
 70
     0
 62
   229
  6
CONTINUOUS
  0
LAYER
  5
11F
330
2
100
AcDbSymbolTableRecord
100
AcDbLayerTableRecord
  2
230
 70
     0
 62
   230
  6
CONTINUOUS
  0
LAYER
  5
120
330
2
100
AcDbSymbolTableRecord
100
AcDbLayerTableRecord
  2
231
 70
     0
 62
   231
  6
CONTINUOUS
  0
LAYER
  5
121
330
2
100
AcDbSymbolTableRecord
100
AcDbLayerTableRecord
  2
232
 70
     0
 62
   232
  6
CONTINUOUS
  0
LAYER
  5
122
330
2
100
AcDbSymbolTableRecord
100
AcDbLayerTableRecord
  2
233
 70
     0
 62
   233
  6
CONTINUOUS
  0
LAYER
  5
123
330
2
100
AcDbSymbolTableRecord
100
AcDbLayerTableRecord
  2
234
 70
     0
 62
   234
  6
CONTINUOUS
  0
LAYER
  5
124
330
2
100
AcDbSymbolTableRecord
100
AcDbLayerTableRecord
  2
235
 70
     0
 62
   235
  6
CONTINUOUS
  0
LAYER
  5
125
330
2
100
AcDbSymbolTableRecord
100
AcDbLayerTableRecord
  2
236
 70
     0
 62
   236
  6
CONTINUOUS
  0
LAYER
  5
126
330
2
100
AcDbSymbolTableRecord
100
AcDbLayerTableRecord
  2
237
 70
     0
 62
   237
  6
CONTINUOUS
  0
LAYER
  5
127
330
2
100
AcDbSymbolTableRecord
100
AcDbLayerTableRecord
  2
238
 70
     0
 62
   238
  6
CONTINUOUS
  0
LAYER
  5
128
330
2
100
AcDbSymbolTableRecord
100
AcDbLayerTableRecord
  2
239
 70
     0
 62
   239
  6
CONTINUOUS
  0
LAYER
  5
129
330
2
100
AcDbSymbolTableRecord
100
AcDbLayerTableRecord
  2
240
 70
     0
 62
   240
  6
CONTINUOUS
  0
LAYER
  5
12A
330
2
100
AcDbSymbolTableRecord
100
AcDbLayerTableRecord
  2
241
 70
     0
 62
   241
  6
CONTINUOUS
  0
LAYER
  5
12B
330
2
100
AcDbSymbolTableRecord
100
AcDbLayerTableRecord
  2
242
 70
     0
 62
   242
  6
CONTINUOUS
  0
LAYER
  5
12C
330
2
100
AcDbSymbolTableRecord
100
AcDbLayerTableRecord
  2
243
 70
     0
 62
   243
  6
CONTINUOUS
  0
LAYER
  5
12D
330
2
100
AcDbSymbolTableRecord
100
AcDbLayerTableRecord
  2
244
 70
     0
 62
   244
  6
CONTINUOUS
  0
LAYER
  5
12E
330
2
100
AcDbSymbolTableRecord
100
AcDbLayerTableRecord
  2
245
 70
     0
 62
   245
  6
CONTINUOUS
  0
LAYER
  5
12F
330
2
100
AcDbSymbolTableRecord
100
AcDbLayerTableRecord
  2
246
 70
     0
 62
   246
  6
CONTINUOUS
  0
LAYER
  5
130
330
2
100
AcDbSymbolTableRecord
100
AcDbLayerTableRecord
  2
247
 70
     0
 62
   247
  6
CONTINUOUS
  0
LAYER
  5
131
330
2
100
AcDbSymbolTableRecord
100
AcDbLayerTableRecord
  2
248
 70
     0
 62
   248
  6
CONTINUOUS
  0
LAYER
  5
132
330
2
100
AcDbSymbolTableRecord
100
AcDbLayerTableRecord
  2
249
 70
     0
 62
   249
  6
CONTINUOUS
  0
LAYER
  5
133
330
2
100
AcDbSymbolTableRecord
100
AcDbLayerTableRecord
  2
250
 70
     0
 62
   250
  6
CONTINUOUS
  0
LAYER
  5
134
330
2
100
AcDbSymbolTableRecord
100
AcDbLayerTableRecord
  2
251
 70
     0
 62
   251
  6
CONTINUOUS
  0
LAYER
  5
135
330
2
100
AcDbSymbolTableRecord
100
AcDbLayerTableRecord
  2
252
 70
     0
 62
   252
  6
CONTINUOUS
  0
LAYER
  5
136
330
2
100
AcDbSymbolTableRecord
100
AcDbLayerTableRecord
  2
253
 70
     0
 62
   253
  6
CONTINUOUS
  0
LAYER
  5
137
330
2
100
AcDbSymbolTableRecord
100
AcDbLayerTableRecord
  2
254
 70
     0
 62
   254
  6
CONTINUOUS
  0
LAYER
  5
138
330
2
100
AcDbSymbolTableRecord
100
AcDbLayerTableRecord
  2
255
 70
     0
 62
   255
  6
CONTINUOUS
  0
LAYER
  5
3E6F
330
2
100
AcDbSymbolTableRecord
100
AcDbLayerTableRecord
  2
DEFPOINTS
 70
     0
 62
     7
  6
CONTINUOUS
  0
ENDTAB
  0
TABLE
  2
STYLE
  5
3
330
0
100
AcDbSymbolTable
 70
     1
  0
STYLE
  5
11
330
3
100
AcDbSymbolTableRecord
100
AcDbTextStyleTableRecord
  2
STANDARD
 70
     0
 40
0.0
 41
1.0
 50
0.0
 71
     0
 42
0.2
  3
monotxt
  4

  0
ENDTAB
  0
TABLE
  2
VIEW
  5
6
330
0
100
AcDbSymbolTable
 70
     0
  0
ENDTAB
  0
TABLE
  2
UCS
  5
7
330
0
100
AcDbSymbolTable
 70
     0
  0
ENDTAB
  0
TABLE
  2
APPID
  5
9
330
0
100
AcDbSymbolTable
 70
     1
  0
APPID
  5
12
330
9
100
AcDbSymbolTableRecord
100
AcDbRegAppTableRecord
  2
ACAD
 70
     0
  0
ENDTAB
  0
TABLE
  2
DIMSTYLE
  5
A
330
0
100
AcDbSymbolTable
 70
     1
  0
DIMSTYLE
105
2B34
330
A
100
AcDbSymbolTableRecord
100
AcDbDimStyleTableRecord
  2
STANDARD
 70
     0
  3

  4

  5

  6

  7

 40
1.0
 41
0.18
 42
0.0625
 43
0.38
 44
0.18
 45
0.0
 46
0.0
 47
0.0
 48
0.0
140
0.18
141
0.09
142
0.0
143
25.4
144
1.0
145
0.0
146
1.0
147
0.09
 71
     0
 72
     0
 73
     1
 74
     1
 75
     0
 76
     0
 77
     0
 78
     0
170
     0
171
     2
172
     0
173
     0
174
     0
175
     0
176
     0
177
     0
178
     0
270
     2
271
     4
272
     4
273
     2
274
     2
340
11
275
     0
280
     0
281
     0
282
     0
283
     1
284
     0
285
     0
286
     0
287
     3
288
     0
  0
ENDTAB
  0
TABLE
  2
BLOCK_RECORD
  5
1
330
0
100
AcDbSymbolTable
 70
     1
  0
BLOCK_RECORD
  5
1E
102
{ACAD_XDICTIONARY
360
3E7E
102
}
330
1
100
AcDbSymbolTableRecord
100
AcDbBlockTableRecord
  2
*MODEL_SPACE
  0
BLOCK_RECORD
  5
1A
102
{ACAD_XDICTIONARY
360
3E80
102
}
330
1
100
AcDbSymbolTableRecord
100
AcDbBlockTableRecord
  2
*PAPER_SPACE
  0
ENDTAB
  0
ENDSEC
  0
SECTION
  2
BLOCKS
  0
BLOCK
  5
13B
330
1E
100
AcDbEntity
  8
0
100
AcDbBlockBegin
  2
*MODEL_SPACE
 70
     0
 10
0.0
 20
0.0
 30
0.0
  3
*MODEL_SPACE
  1

  0
ENDBLK
  5
13C
330
1E
100
AcDbEntity
  8
0
100
AcDbBlockEnd
  0
BLOCK
  5
139
330
1A
100
AcDbEntity
 67
     1
  8
0
100
AcDbBlockBegin
  2
*PAPER_SPACE
 70
     0
 10
0.0
 20
0.0
 30
0.0
  3
*PAPER_SPACE
  1

  0
ENDBLK
  5
13A
330
1A
100
AcDbEntity
 67
     1
  8
0
100
AcDbBlockEnd
  0
ENDSEC
  0
SECTION
  2
ENTITIES
  0
LINE
  5
293E
330
1E
100
AcDbEntity
  8
3
100
AcDbLine
 10
1.286417322834645
 20
5.310039370078739
 30
0.0
 11
1.286417322834645
 21
5.123031496062991
 31
0.0
  0
LINE
  5
293F
330
1E
100
AcDbEntity
  8
3
100
AcDbLine
 10
1.051181102362204
 20
5.410433070866141
 30
0.0
 11
1.051181102362204
 21
5.439960629921259
 31
0.0
  0
LINE
  5
2940
330
1E
100
AcDbEntity
  8
3
100
AcDbLine
 10
1.103346456692913
 20
5.410433070866141
 30
0.0
 11
1.103346456692913
 21
5.439960629921259
 31
0.0
  0
LINE
  5
29D4
330
1E
100
AcDbEntity
  8
7
100
AcDbLine
 10
1.36515748031496
 20
5.633858267716535
 30
0.0
 11
1.36515748031496
 21
5.598425196850393
 31
0.0
  0
LINE
  5
29D5
330
1E
100
AcDbEntity
  8
7
100
AcDbLine
 10
1.364173228346456
 20
5.632874015748031
 30
0.0
 11
1.36515748031496
 21
5.633858267716535
 31
0.0
  0
LINE
  5
29D6
330
1E
100
AcDbEntity
  8
7
100
AcDbLine
 10
1.362204724409449
 20
5.504921259842519
 30
0.0
 11
1.364173228346456
 21
5.632874015748031
 31
0.0
  0
LINE
  5
29DC
330
1E
100
AcDbEntity
  8
7
100
AcDbLine
 10
1.36515748031496
 20
4.931102362204724
 30
0.0
 11
1.36515748031496
 21
4.863188976377952
 31
0.0
  0
LINE
  5
29DD
330
1E
100
AcDbEntity
  8
7
100
AcDbLine
 10
1.366141732283464
 20
4.932086614173227
 30
0.0
 11
1.36515748031496
 21
4.931102362204724
 31
0.0
  0
LINE
  5
29E3
330
1E
100
AcDbEntity
  8
7
100
AcDbLine
 10
1.363188976377952
 20
5.4753937007874
 30
0.0
 11
1.363188976377952
 21
5.48031496062992
 31
0.0
  0
LINE
  5
29E4
330
1E
100
AcDbEntity
  8
7
100
AcDbLine
 10
0.7903543307086615
 20
5.562007874015747
 30
0.0
 11
0.7883858267716536
 21
5.563976377952755
 31
0.0
  0
LINE
  5
29EA
330
1E
100
AcDbEntity
  8
7
100
AcDbLine
 10
0.7913385826771654
 20
4.935039370078739
 30
0.0
 11
0.7913385826771654
 21
5.4753937007874
 31
0.0
  0
LINE
  5
29F0
330
1E
100
AcDbEntity
  8
7
100
AcDbLine
 10
0.7883858267716536
 20
4.863188976377952
 30
0.0
 11
0.7883858267716536
 21
4.931102362204724
 31
0.0
  0
LINE
  5
29F1
330
1E
100
AcDbEntity
  8
7
100
AcDbLine
 10
0.7923228346456694
 20
4.870078740157479
 30
0.0
 11
0.7883858267716536
 21
4.863188976377952
 31
0.0
  0
LINE
  5
29F8
330
1E
100
AcDbEntity
  8
7
100
AcDbLine
 10
0.7883858267716536
 20
5.598425196850393
 30
0.0
 11
0.7883858267716536
 21
5.633858267716535
 31
0.0
  0
LINE
  5
29F9
330
1E
100
AcDbEntity
  8
7
100
AcDbLine
 10
0.7883858267716536
 20
5.598425196850393
 30
0.0
 11
0.7883858267716536
 21
5.563976377952755
 31
0.0
  0
LINE
  5
29FA
330
1E
100
AcDbEntity
  8
7
100
AcDbLine
 10
0.7559055118110237
 20
5.632874015748031
 30
0.0
 11
0.7568897637795277
 21
5.633858267716535
 31
0.0
  0
LINE
  5
29FB
330
1E
100
AcDbEntity
  8
7
100
AcDbLine
 10
0.7568897637795277
 20
5.633858267716535
 30
0.0
 11
0.7883858267716536
 21
5.633858267716535
 31
0.0
  0
LINE
  5
29FC
330
1E
100
AcDbEntity
  8
7
100
AcDbLine
 10
0.8297244094488188
 20
5.633858267716535
 30
0.0
 11
0.7883858267716536
 21
5.633858267716535
 31
0.0
  0
LINE
  5
29FD
330
1E
100
AcDbEntity
  8
7
100
AcDbLine
 10
0.8316929133858266
 20
5.634842519685038
 30
0.0
 11
0.8297244094488188
 21
5.633858267716535
 31
0.0
  0
LINE
  5
29FE
330
1E
100
AcDbEntity
  8
7
100
AcDbLine
 10
1.321850393700787
 20
5.634842519685038
 30
0.0
 11
1.324803149606299
 21
5.633858267716535
 31
0.0
  0
LINE
  5
29FF
330
1E
100
AcDbEntity
  8
7
100
AcDbLine
 10
1.36515748031496
 20
5.633858267716535
 30
0.0
 11
1.324803149606299
 21
5.633858267716535
 31
0.0
  0
LINE
  5
2A00
330
1E
100
AcDbEntity
  8
7
100
AcDbLine
 10
1.39763779527559
 20
5.633858267716535
 30
0.0
 11
1.36515748031496
 21
5.633858267716535
 31
0.0
  0
LINE
  5
2A01
330
1E
100
AcDbEntity
  8
7
100
AcDbLine
 10
1.39763779527559
 20
5.633858267716535
 30
0.0
 11
1.398622047244094
 21
5.632874015748031
 31
0.0
  0
LINE
  5
2A07
330
1E
100
AcDbEntity
  8
7
100
AcDbLine
 10
1.324803149606299
 20
4.863188976377952
 30
0.0
 11
1.36515748031496
 21
4.863188976377952
 31
0.0
  0
LINE
  5
2A08
330
1E
100
AcDbEntity
  8
7
100
AcDbLine
 10
1.324803149606299
 20
4.863188976377952
 30
0.0
 11
1.321850393700787
 21
4.862204724409448
 31
0.0
  0
LINE
  5
2A09
330
1E
100
AcDbEntity
  8
7
100
AcDbLine
 10
0.8316929133858266
 20
4.862204724409448
 30
0.0
 11
0.8297244094488188
 21
4.863188976377952
 31
0.0
  0
LINE
  5
2A0A
330
1E
100
AcDbEntity
  8
7
100
AcDbLine
 10
0.7883858267716536
 20
4.863188976377952
 30
0.0
 11
0.8297244094488188
 21
4.863188976377952
 31
0.0
  0
LINE
  5
2A0B
330
1E
100
AcDbEntity
  8
7
100
AcDbLine
 10
0.7883858267716536
 20
4.863188976377952
 30
0.0
 11
0.7568897637795277
 21
4.863188976377952
 31
0.0
  0
LINE
  5
2A0C
330
1E
100
AcDbEntity
  8
7
100
AcDbLine
 10
0.7559055118110237
 20
4.864173228346456
 30
0.0
 11
0.7568897637795277
 21
4.863188976377952
 31
0.0
  0
LINE
  5
2A0D
330
1E
100
AcDbEntity
  8
7
100
AcDbLine
 10
0.7923228346456694
 20
5.504921259842519
 30
0.0
 11
1.362204724409449
 21
5.504921259842519
 31
0.0
  0
LINE
  5
2A0E
330
1E
100
AcDbEntity
  8
7
100
AcDbLine
 10
0.7568897637795277
 20
5.563976377952755
 30
0.0
 11
0.7559055118110237
 21
5.563976377952755
 31
0.0
  0
LINE
  5
2A0F
330
1E
100
AcDbEntity
  8
7
100
AcDbLine
 10
0.7883858267716536
 20
5.563976377952755
 30
0.0
 11
0.7559055118110237
 21
5.563976377952755
 31
0.0
  0
LINE
  5
2A15
330
1E
100
AcDbEntity
  8
7
100
AcDbLine
 10
0.7883858267716536
 20
5.598425196850393
 30
0.0
 11
0.7568897637795277
 21
5.598425196850393
 31
0.0
  0
LINE
  5
2A16
330
1E
100
AcDbEntity
  8
7
100
AcDbLine
 10
0.7568897637795277
 20
4.931102362204724
 30
0.0
 11
0.7883858267716536
 21
4.931102362204724
 31
0.0
  0
LINE
  5
2A1C
330
1E
100
AcDbEntity
  8
7
100
AcDbLine
 10
0.7883858267716536
 20
4.932086614173227
 30
0.0
 11
0.7559055118110237
 21
4.932086614173227
 31
0.0
  0
LINE
  5
2A1D
330
1E
100
AcDbEntity
  8
7
100
AcDbLine
 10
0.7568897637795277
 20
5.598425196850393
 30
0.0
 11
0.7568897637795277
 21
5.633858267716535
 31
0.0
  0
LINE
  5
2A1E
330
1E
100
AcDbEntity
  8
7
100
AcDbLine
 10
1.39763779527559
 20
5.598425196850393
 30
0.0
 11
1.36515748031496
 21
5.598425196850393
 31
0.0
  0
LINE
  5
2A1F
330
1E
100
AcDbEntity
  8
7
100
AcDbLine
 10
1.39763779527559
 20
5.633858267716535
 30
0.0
 11
1.39763779527559
 21
5.598425196850393
 31
0.0
  0
LINE
  5
2A20
330
1E
100
AcDbEntity
  8
7
100
AcDbLine
 10
1.39763779527559
 20
4.931102362204724
 30
0.0
 11
1.39763779527559
 21
4.863188976377952
 31
0.0
  0
LINE
  5
2A21
330
1E
100
AcDbEntity
  8
7
100
AcDbLine
 10
1.36515748031496
 20
4.931102362204724
 30
0.0
 11
1.39763779527559
 21
4.931102362204724
 31
0.0
  0
LINE
  5
2A22
330
1E
100
AcDbEntity
  8
7
100
AcDbLine
 10
1.319881889763779
 20
5.632874015748031
 30
0.0
 11
1.364173228346456
 21
5.632874015748031
 31
0.0
  0
LINE
  5
2A23
330
1E
100
AcDbEntity
  8
7
100
AcDbLine
 10
1.319881889763779
 20
5.632874015748031
 30
0.0
 11
1.324803149606299
 21
5.633858267716535
 31
0.0
  0
LINE
  5
2A24
330
1E
100
AcDbEntity
  8
7
100
AcDbLine
 10
1.321850393700787
 20
5.6751968503937
 30
0.0
 11
1.319881889763779
 21
5.632874015748031
 31
0.0
  0
LINE
  5
2A25
330
1E
100
AcDbEntity
  8
7
100
AcDbLine
 10
0.8316929133858266
 20
5.6751968503937
 30
0.0
 11
1.321850393700787
 21
5.6751968503937
 31
0.0
  0
LINE
  5
2A26
330
1E
100
AcDbEntity
  8
7
100
AcDbLine
 10
0.8316929133858266
 20
5.6751968503937
 30
0.0
 11
0.8346456692913385
 21
5.632874015748031
 31
0.0
  0
LINE
  5
2A27
330
1E
100
AcDbEntity
  8
7
100
AcDbLine
 10
0.7903543307086615
 20
5.632874015748031
 30
0.0
 11
0.8346456692913385
 21
5.632874015748031
 31
0.0
  0
LINE
  5
2A28
330
1E
100
AcDbEntity
  8
7
100
AcDbLine
 10
1.362204724409449
 20
4.870078740157479
 30
0.0
 11
0.7923228346456694
 21
4.870078740157479
 31
0.0
  0
LINE
  5
2A29
330
1E
100
AcDbEntity
  8
7
100
AcDbLine
 10
0.8297244094488188
 20
4.863188976377952
 30
0.0
 11
0.8356299212598424
 21
4.866141732283463
 31
0.0
  0
LINE
  5
2A2A
330
1E
100
AcDbEntity
  8
7
100
AcDbLine
 10
1.317913385826771
 20
4.866141732283463
 30
0.0
 11
0.8356299212598424
 21
4.866141732283463
 31
0.0
  0
LINE
  5
2A2B
330
1E
100
AcDbEntity
  8
7
100
AcDbLine
 10
1.324803149606299
 20
4.863188976377952
 30
0.0
 11
1.317913385826771
 21
4.866141732283463
 31
0.0
  0
LINE
  5
2A2C
330
1E
100
AcDbEntity
  8
7
100
AcDbLine
 10
1.321850393700787
 20
5.634842519685038
 30
0.0
 11
1.321850393700787
 21
5.6751968503937
 31
0.0
  0
LINE
  5
2A2D
330
1E
100
AcDbEntity
  8
7
100
AcDbLine
 10
0.8346456692913385
 20
5.632874015748031
 30
0.0
 11
0.8297244094488188
 21
5.633858267716535
 31
0.0
  0
LINE
  5
2A2E
330
1E
100
AcDbEntity
  8
7
100
AcDbLine
 10
0.8316929133858266
 20
5.634842519685038
 30
0.0
 11
0.8316929133858266
 21
5.6751968503937
 31
0.0
  0
LINE
  5
2A2F
330
1E
100
AcDbEntity
  8
7
100
AcDbLine
 10
0.8316929133858266
 20
4.862204724409448
 30
0.0
 11
0.8316929133858266
 21
4.818897637795275
 31
0.0
  0
LINE
  5
2A35
330
1E
100
AcDbEntity
  8
7
100
AcDbLine
 10
1.317913385826771
 20
4.866141732283463
 30
0.0
 11
1.321850393700787
 21
4.818897637795275
 31
0.0
  0
LINE
  5
2A36
330
1E
100
AcDbEntity
  8
7
100
AcDbLine
 10
1.321850393700787
 20
4.862204724409448
 30
0.0
 11
1.321850393700787
 21
4.818897637795275
 31
0.0
  0
LINE
  5
2A37
330
1E
100
AcDbEntity
  8
7
100
AcDbLine
 10
1.39763779527559
 20
5.563976377952755
 30
0.0
 11
1.366141732283464
 21
5.563976377952755
 31
0.0
  0
LINE
  5
2A38
330
1E
100
AcDbEntity
  8
7
100
AcDbLine
 10
1.398622047244094
 20
5.563976377952755
 30
0.0
 11
1.366141732283464
 21
5.563976377952755
 31
0.0
  0
LINE
  5
2A39
330
1E
100
AcDbEntity
  8
7
100
AcDbLine
 10
1.39763779527559
 20
5.563976377952755
 30
0.0
 11
1.398622047244094
 21
5.563976377952755
 31
0.0
  0
LINE
  5
2A3A
330
1E
100
AcDbEntity
  8
7
100
AcDbLine
 10
1.39763779527559
 20
5.598425196850393
 30
0.0
 11
1.39763779527559
 21
5.563976377952755
 31
0.0
  0
LINE
  5
2A3B
330
1E
100
AcDbEntity
  8
7
100
AcDbLine
 10
1.398622047244094
 20
4.932086614173227
 30
0.0
 11
1.366141732283464
 21
4.932086614173227
 31
0.0
  0
LINE
  5
2A3C
330
1E
100
AcDbEntity
  8
7
100
AcDbLine
 10
1.39763779527559
 20
4.931102362204724
 30
0.0
 11
1.398622047244094
 21
4.932086614173227
 31
0.0
  0
LINE
  5
2A3D
330
1E
100
AcDbEntity
  8
7
100
AcDbLine
 10
0.7559055118110237
 20
4.932086614173227
 30
0.0
 11
0.7559055118110237
 21
4.864173228346456
 31
0.0
  0
LINE
  5
2A3E
330
1E
100
AcDbEntity
  8
7
100
AcDbLine
 10
1.398622047244094
 20
4.932086614173227
 30
0.0
 11
1.398622047244094
 21
4.864173228346456
 31
0.0
  0
LINE
  5
2A3F
330
1E
100
AcDbEntity
  8
7
100
AcDbLine
 10
1.398622047244094
 20
5.632874015748031
 30
0.0
 11
1.398622047244094
 21
5.563976377952755
 31
0.0
  0
LINE
  5
2A40
330
1E
100
AcDbEntity
  8
7
100
AcDbLine
 10
0.7559055118110237
 20
5.632874015748031
 30
0.0
 11
0.7559055118110237
 21
5.563976377952755
 31
0.0
  0
LINE
  5
2A6D
330
1E
100
AcDbEntity
  8
7
100
AcDbLine
 10
0.8956692913385827
 20
5.083661417322834
 30
0.0
 11
0.891732283464567
 21
5.08267716535433
 31
0.0
  0
LINE
  5
2A91
330
1E
100
AcDbEntity
  8
7
100
AcDbLine
 10
0.891732283464567
 20
5.351377952755904
 30
0.0
 11
0.8956692913385827
 21
5.3503937007874
 31
0.0
  0
LINE
  5
2AB5
330
1E
100
AcDbEntity
  8
7
100
AcDbLine
 10
0.8956692913385827
 20
5.3503937007874
 30
0.0
 11
0.8956692913385827
 21
5.083661417322834
 31
0.0
  0
LINE
  5
2AB6
330
1E
100
AcDbEntity
  8
7
100
AcDbLine
 10
0.891732283464567
 20
5.08267716535433
 30
0.0
 11
0.891732283464567
 21
5.351377952755904
 31
0.0
  0
LINE
  5
2AB7
330
1E
100
AcDbEntity
  8
3
100
AcDbLine
 10
3.600393700787401
 20
4.994094488188975
 30
0.0
 11
3.600393700787401
 21
5.494094488188975
 31
0.0
  0
LINE
  5
2AB8
330
1E
100
AcDbEntity
  8
3
100
AcDbLine
 10
3.759842519685039
 20
5.056102362204724
 30
0.0
 11
3.759842519685039
 21
5.121062992125984
 31
0.0
  0
LINE
  5
2AB9
330
1E
100
AcDbEntity
  8
3
100
AcDbLine
 10
4.132874015748031
 20
5.431102362204724
 30
0.0
 11
4.132874015748031
 21
5.056102362204724
 31
0.0
  0
LINE
  5
2ABA
330
1E
100
AcDbEntity
  8
3
100
AcDbLine
 10
2.894685039370078
 20
5.056102362204724
 30
0.0
 11
3.295275590551181
 21
5.056102362204724
 31
0.0
  0
LINE
  5
2ABB
330
1E
100
AcDbEntity
  8
3
100
AcDbLine
 10
3.629921259842519
 20
4.994094488188975
 30
0.0
 11
3.600393700787401
 21
4.994094488188975
 31
0.0
  0
LINE
  5
2ABC
330
1E
100
AcDbEntity
  8
3
100
AcDbLine
 10
3.759842519685039
 20
5.431102362204724
 30
0.0
 11
3.759842519685039
 21
5.371062992125984
 31
0.0
  0
LINE
  5
2ABD
330
1E
100
AcDbEntity
  8
3
100
AcDbLine
 10
3.80511811023622
 20
5.056102362204724
 30
0.0
 11
3.80511811023622
 21
5.121062992125984
 31
0.0
  0
LINE
  5
2ABE
330
1E
100
AcDbEntity
  8
3
100
AcDbLine
 10
4.033464566929133
 20
5.026574803149605
 30
0.0
 11
4.033464566929133
 21
5.056102362204724
 31
0.0
  0
LINE
  5
2ABF
330
1E
100
AcDbEntity
  8
3
100
AcDbLine
 10
3.730314960629921
 20
5.223425196850393
 30
0.0
 11
3.636811023622047
 21
5.223425196850393
 31
0.0
  0
LINE
  5
2AC0
330
1E
100
AcDbEntity
  8
3
100
AcDbLine
 10
3.730314960629921
 20
4.994094488188975
 30
0.0
 11
3.730314960629921
 21
5.494094488188975
 31
0.0
  0
LINE
  5
2AC1
330
1E
100
AcDbEntity
  8
3
100
AcDbLine
 10
3.045275590551181
 20
5.026574803149605
 30
0.0
 11
3.045275590551181
 21
5.056102362204724
 31
0.0
  0
LINE
  5
2AC2
330
1E
100
AcDbEntity
  8
3
100
AcDbLine
 10
3.74507874015748
 20
5.431102362204724
 30
0.0
 11
3.74507874015748
 21
5.371062992125984
 31
0.0
  0
LINE
  5
2AC3
330
1E
100
AcDbEntity
  8
3
100
AcDbLine
 10
3.045275590551181
 20
5.461614173228346
 30
0.0
 11
3.125
 21
5.461614173228346
 31
0.0
  0
LINE
  5
2AC4
330
1E
100
AcDbEntity
  8
3
100
AcDbLine
 10
3.730314960629921
 20
5.371062992125984
 30
0.0
 11
3.819881889763779
 21
5.371062992125984
 31
0.0
  0
LINE
  5
2AC5
330
1E
100
AcDbEntity
  8
3
100
AcDbLine
 10
3.730314960629921
 20
5.121062992125984
 30
0.0
 11
3.819881889763779
 21
5.121062992125984
 31
0.0
  0
LINE
  5
2AC6
330
1E
100
AcDbEntity
  8
3
100
AcDbLine
 10
2.894685039370078
 20
5.431102362204724
 30
0.0
 11
2.894685039370078
 21
5.056102362204724
 31
0.0
  0
LINE
  5
2AC7
330
1E
100
AcDbEntity
  8
3
100
AcDbLine
 10
4.113188976377952
 20
5.461614173228346
 30
0.0
 11
4.033464566929133
 21
5.461614173228346
 31
0.0
  0
LINE
  5
2AC8
330
1E
100
AcDbEntity
  8
3
100
AcDbLine
 10
3.790354330708661
 20
5.056102362204724
 30
0.0
 11
3.790354330708661
 21
5.121062992125984
 31
0.0
  0
LINE
  5
2AC9
330
1E
100
AcDbEntity
  8
3
100
AcDbLine
 10
3.730314960629921
 20
5.494094488188975
 30
0.0
 11
3.636811023622047
 21
5.494094488188975
 31
0.0
  0
LINE
  5
2ACA
330
1E
100
AcDbEntity
  8
3
100
AcDbLine
 10
3.125
 20
5.026574803149605
 30
0.0
 11
3.125
 21
5.056102362204724
 31
0.0
  0
LINE
  5
2ACB
330
1E
100
AcDbEntity
  8
3
100
AcDbLine
 10
2.894685039370078
 20
5.431102362204724
 30
0.0
 11
3.295275590551181
 21
5.431102362204724
 31
0.0
  0
LINE
  5
2ACC
330
1E
100
AcDbEntity
  8
3
100
AcDbLine
 10
4.257874015748031
 20
5.431102362204724
 30
0.0
 11
3.819881889763779
 21
5.431102362204724
 31
0.0
  0
LINE
  5
2ACD
330
1E
100
AcDbEntity
  8
3
100
AcDbLine
 10
3.144685039370078
 20
5.056102362204724
 30
0.0
 11
3.144685039370078
 21
5.431102362204724
 31
0.0
  0
LINE
  5
2ACE
330
1E
100
AcDbEntity
  8
3
100
AcDbLine
 10
3.74507874015748
 20
5.056102362204724
 30
0.0
 11
3.74507874015748
 21
5.121062992125984
 31
0.0
  0
LINE
  5
2ACF
330
1E
100
AcDbEntity
  8
3
100
AcDbLine
 10
4.257874015748031
 20
5.056102362204724
 30
0.0
 11
3.819881889763779
 21
5.056102362204724
 31
0.0
  0
LINE
  5
2AD0
330
1E
100
AcDbEntity
  8
3
100
AcDbLine
 10
3.629921259842519
 20
5.494094488188975
 30
0.0
 11
3.600393700787401
 21
5.494094488188975
 31
0.0
  0
LINE
  5
2AD1
330
1E
100
AcDbEntity
  8
3
100
AcDbLine
 10
3.819881889763779
 20
5.056102362204724
 30
0.0
 11
3.730314960629921
 21
5.056102362204724
 31
0.0
  0
LINE
  5
2AD2
330
1E
100
AcDbEntity
  8
3
100
AcDbLine
 10
4.113188976377952
 20
5.026574803149605
 30
0.0
 11
4.033464566929133
 21
5.026574803149605
 31
0.0
  0
LINE
  5
2AD3
330
1E
100
AcDbEntity
  8
3
100
AcDbLine
 10
3.629921259842519
 20
4.994094488188975
 30
0.0
 11
3.629921259842519
 21
5.494094488188975
 31
0.0
  0
LINE
  5
2AD4
330
1E
100
AcDbEntity
  8
3
100
AcDbLine
 10
3.019685039370078
 20
5.056102362204724
 30
0.0
 11
3.019685039370078
 21
5.431102362204724
 31
0.0
  0
LINE
  5
2AD5
330
1E
100
AcDbEntity
  8
3
100
AcDbLine
 10
3.80511811023622
 20
5.431102362204724
 30
0.0
 11
3.80511811023622
 21
5.371062992125984
 31
0.0
  0
LINE
  5
2AD6
330
1E
100
AcDbEntity
  8
3
100
AcDbLine
 10
3.045275590551181
 20
5.026574803149605
 30
0.0
 11
3.125
 21
5.026574803149605
 31
0.0
  0
LINE
  5
2AD7
330
1E
100
AcDbEntity
  8
3
100
AcDbLine
 10
3.774606299212598
 20
5.056102362204724
 30
0.0
 11
3.774606299212598
 21
5.121062992125984
 31
0.0
  0
LINE
  5
2AD8
330
1E
100
AcDbEntity
  8
3
100
AcDbLine
 10
3.790354330708661
 20
5.431102362204724
 30
0.0
 11
3.790354330708661
 21
5.371062992125984
 31
0.0
  0
LINE
  5
2AD9
330
1E
100
AcDbEntity
  8
3
100
AcDbLine
 10
3.125
 20
5.461614173228346
 30
0.0
 11
3.125
 21
5.431102362204724
 31
0.0
  0
LINE
  5
2ADA
330
1E
100
AcDbEntity
  8
3
100
AcDbLine
 10
4.007874015748031
 20
5.431102362204724
 30
0.0
 11
4.007874015748031
 21
5.056102362204724
 31
0.0
  0
LINE
  5
2ADB
330
1E
100
AcDbEntity
  8
3
100
AcDbLine
 10
3.636811023622047
 20
4.994094488188975
 30
0.0
 11
3.636811023622047
 21
5.494094488188975
 31
0.0
  0
LINE
  5
2ADC
330
1E
100
AcDbEntity
  8
3
100
AcDbLine
 10
3.819881889763779
 20
5.431102362204724
 30
0.0
 11
3.819881889763779
 21
5.056102362204724
 31
0.0
  0
LINE
  5
2ADD
330
1E
100
AcDbEntity
  8
3
100
AcDbLine
 10
4.113188976377952
 20
5.461614173228346
 30
0.0
 11
4.113188976377952
 21
5.431102362204724
 31
0.0
  0
LINE
  5
2ADE
330
1E
100
AcDbEntity
  8
3
100
AcDbLine
 10
4.257874015748031
 20
5.431102362204724
 30
0.0
 11
4.257874015748031
 21
5.056102362204724
 31
0.0
  0
LINE
  5
2ADF
330
1E
100
AcDbEntity
  8
3
100
AcDbLine
 10
3.730314960629921
 20
4.994094488188975
 30
0.0
 11
3.636811023622047
 21
4.994094488188975
 31
0.0
  0
LINE
  5
2AE0
330
1E
100
AcDbEntity
  8
3
100
AcDbLine
 10
4.033464566929133
 20
5.461614173228346
 30
0.0
 11
4.033464566929133
 21
5.431102362204724
 31
0.0
  0
LINE
  5
2AE1
330
1E
100
AcDbEntity
  8
3
100
AcDbLine
 10
3.045275590551181
 20
5.461614173228346
 30
0.0
 11
3.045275590551181
 21
5.431102362204724
 31
0.0
  0
LINE
  5
2AE2
330
1E
100
AcDbEntity
  8
3
100
AcDbLine
 10
3.730314960629921
 20
5.313976377952755
 30
0.0
 11
3.636811023622047
 21
5.313976377952755
 31
0.0
  0
LINE
  5
2AE3
330
1E
100
AcDbEntity
  8
3
100
AcDbLine
 10
4.113188976377952
 20
5.026574803149605
 30
0.0
 11
4.113188976377952
 21
5.056102362204724
 31
0.0
  0
LINE
  5
2AE4
330
1E
100
AcDbEntity
  8
3
100
AcDbLine
 10
3.774606299212598
 20
5.431102362204724
 30
0.0
 11
3.774606299212598
 21
5.371062992125984
 31
0.0
  0
LINE
  5
2AE5
330
1E
100
AcDbEntity
  8
3
100
AcDbLine
 10
3.819881889763779
 20
5.431102362204724
 30
0.0
 11
3.730314960629921
 21
5.431102362204724
 31
0.0
  0
LINE
  5
2AE6
330
1E
100
AcDbEntity
  8
7
100
AcDbLine
 10
3.295275590551181
 20
5.496062992125984
 30
0.0
 11
3.295275590551181
 21
5.005905511811023
 31
0.0
  0
LINE
  5
2AE7
330
1E
100
AcDbEntity
  8
3
100
AcDbLine
 10
3.324803149606299
 20
5.496062992125984
 30
0.0
 11
3.295275590551181
 21
5.496062992125984
 31
0.0
  0
LINE
  5
2AE8
330
1E
100
AcDbEntity
  8
3
100
AcDbLine
 10
3.324803149606299
 20
5.005905511811023
 30
0.0
 11
3.295275590551181
 21
5.005905511811023
 31
0.0
  0
LINE
  5
2AE9
330
1E
100
AcDbEntity
  8
7
100
AcDbLine
 10
3.324803149606299
 20
5.496062992125984
 30
0.0
 11
3.324803149606299
 21
5.005905511811023
 31
0.0
  0
LINE
  5
2AEF
330
1E
100
AcDbEntity
  8
7
100
AcDbLine
 10
3.576771653543306
 20
5.663385826771652
 30
0.0
 11
3.715551181102362
 21
5.664370078740157
 31
0.0
  0
LINE
  5
2AF0
330
1E
100
AcDbEntity
  8
7
100
AcDbLine
 10
3.349409448818897
 20
5.536417322834645
 30
0.0
 11
3.576771653543306
 21
5.663385826771652
 31
0.0
  0
LINE
  5
2AF1
330
1E
100
AcDbEntity
  8
7
100
AcDbLine
 10
3.331692913385826
 20
5.536417322834645
 30
0.0
 11
3.349409448818897
 21
5.536417322834645
 31
0.0
  0
LINE
  5
2B02
330
1E
100
AcDbEntity
  8
7
100
AcDbLine
 10
3.798228346456693
 20
5.664370078740157
 30
0.0
 11
4.118110236220472
 21
5.661417322834645
 31
0.0
  0
LINE
  5
2B03
330
1E
100
AcDbEntity
  8
7
100
AcDbLine
 10
3.798228346456693
 20
4.894685039370078
 30
0.0
 11
4.118110236220472
 21
4.897637795275589
 31
0.0
  0
LINE
  5
2B09
330
1E
100
AcDbEntity
  8
7
100
AcDbLine
 10
3.715551181102362
 20
5.664370078740157
 30
0.0
 11
3.715551181102362
 21
5.628937007874015
 31
0.0
  0
LINE
  5
2B0A
330
1E
100
AcDbEntity
  8
7
100
AcDbLine
 10
3.715551181102362
 20
4.96259842519685
 30
0.0
 11
3.715551181102362
 21
4.893700787401574
 31
0.0
  0
LINE
  5
2B0B
330
1E
100
AcDbEntity
  8
7
100
AcDbLine
 10
3.651574803149606
 20
5.705708661417322
 30
0.0
 11
3.576771653543306
 21
5.663385826771652
 31
0.0
  0
LINE
  5
2B0C
330
1E
100
AcDbEntity
  8
7
100
AcDbLine
 10
3.651574803149606
 20
5.665354330708661
 30
0.0
 11
3.651574803149606
 21
5.705708661417322
 31
0.0
  0
LINE
  5
2B0D
330
1E
100
AcDbEntity
  8
7
100
AcDbLine
 10
3.540354330708661
 20
4.896653543307086
 30
0.0
 11
3.651574803149606
 21
4.849409448818897
 31
0.0
  0
LINE
  5
2B0E
330
1E
100
AcDbEntity
  8
7
100
AcDbLine
 10
3.651574803149606
 20
4.893700787401574
 30
0.0
 11
3.651574803149606
 21
4.849409448818897
 31
0.0
  0
LINE
  5
2B0F
330
1E
100
AcDbEntity
  8
7
100
AcDbLine
 10
3.750984251968504
 20
5.595472440944881
 30
0.0
 11
3.798228346456693
 21
5.594488188976377
 31
0.0
  0
LINE
  5
2B10
330
1E
100
AcDbEntity
  8
7
100
AcDbLine
 10
3.715551181102362
 20
5.628937007874015
 30
0.0
 11
3.750984251968504
 21
5.595472440944881
 31
0.0
  0
LINE
  5
2B16
330
1E
100
AcDbEntity
  8
7
100
AcDbLine
 10
3.798228346456693
 20
5.664370078740157
 30
0.0
 11
3.798228346456693
 21
5.594488188976377
 31
0.0
  0
LINE
  5
2B2B
330
1E
100
AcDbEntity
  8
7
100
AcDbLine
 10
3.43011811023622
 20
4.981299212598425
 30
0.0
 11
3.592519685039369
 21
4.984251968503937
 31
0.0
  0
LINE
  5
2B2C
330
1E
100
AcDbEntity
  8
7
100
AcDbLine
 10
3.592519685039369
 20
5.501968503937007
 30
0.0
 11
3.43011811023622
 21
5.504921259842519
 31
0.0
  0
LINE
  5
2B32
330
1E
100
AcDbEntity
  8
7
100
AcDbLine
 10
4.118110236220472
 20
4.897637795275589
 30
0.0
 11
4.118110236220472
 21
4.959645669291337
 31
0.0
  0
LINE
  5
2B33
330
1E
100
AcDbEntity
  8
7
100
AcDbLine
 10
3.798228346456693
 20
4.96259842519685
 30
0.0
 11
4.118110236220472
 21
4.959645669291337
 31
0.0
  0
LINE
  5
2B37
330
1E
100
AcDbEntity
  8
7
100
AcDbLine
 10
3.798228346456693
 20
5.595472440944881
 30
0.0
 11
4.118110236220472
 21
5.598425196850393
 31
0.0
  0
LINE
  5
2B38
330
1E
100
AcDbEntity
  8
7
100
AcDbLine
 10
4.118110236220472
 20
5.598425196850393
 30
0.0
 11
4.118110236220472
 21
5.661417322834645
 31
0.0
  0
LINE
  5
2B39
330
1E
100
AcDbEntity
  8
7
100
AcDbLine
 10
3.592519685039369
 20
5.231299212598425
 30
0.0
 11
3.592519685039369
 21
5.281496062992125
 31
0.0
  0
LINE
  5
2B3A
330
1E
100
AcDbEntity
  8
7
100
AcDbLine
 10
3.592519685039369
 20
5.281496062992125
 30
0.0
 11
3.592519685039369
 21
5.329724409448818
 31
0.0
  0
LINE
  5
2B3B
330
1E
100
AcDbEntity
  8
7
100
AcDbLine
 10
3.592519685039369
 20
5.329724409448818
 30
0.0
 11
3.592519685039369
 21
5.375984251968503
 31
0.0
  0
LINE
  5
2B3C
330
1E
100
AcDbEntity
  8
7
100
AcDbLine
 10
3.592519685039369
 20
5.375984251968503
 30
0.0
 11
3.592519685039369
 21
5.417322834645668
 31
0.0
  0
LINE
  5
2B3D
330
1E
100
AcDbEntity
  8
7
100
AcDbLine
 10
3.592519685039369
 20
5.417322834645668
 30
0.0
 11
3.592519685039369
 21
5.45275590551181
 31
0.0
  0
LINE
  5
2B3E
330
1E
100
AcDbEntity
  8
7
100
AcDbLine
 10
3.592519685039369
 20
5.45275590551181
 30
0.0
 11
3.592519685039369
 21
5.481299212598425
 31
0.0
  0
LINE
  5
2B3F
330
1E
100
AcDbEntity
  8
7
100
AcDbLine
 10
3.592519685039369
 20
5.481299212598425
 30
0.0
 11
3.592519685039369
 21
5.501968503937007
 31
0.0
  0
LINE
  5
2B40
330
1E
100
AcDbEntity
  8
7
100
AcDbLine
 10
3.592519685039369
 20
4.984251968503937
 30
0.0
 11
3.592519685039369
 21
5.0
 31
0.0
  0
LINE
  5
2B41
330
1E
100
AcDbEntity
  8
7
100
AcDbLine
 10
3.592519685039369
 20
5.0
 30
0.0
 11
3.592519685039369
 21
5.023622047244094
 31
0.0
  0
LINE
  5
2B42
330
1E
100
AcDbEntity
  8
7
100
AcDbLine
 10
3.592519685039369
 20
5.023622047244094
 30
0.0
 11
3.592519685039369
 21
5.05511811023622
 31
0.0
  0
LINE
  5
2B43
330
1E
100
AcDbEntity
  8
7
100
AcDbLine
 10
3.592519685039369
 20
5.05511811023622
 30
0.0
 11
3.592519685039369
 21
5.092519685039369
 31
0.0
  0
LINE
  5
2B44
330
1E
100
AcDbEntity
  8
7
100
AcDbLine
 10
3.592519685039369
 20
5.092519685039369
 30
0.0
 11
3.592519685039369
 21
5.135826771653542
 31
0.0
  0
LINE
  5
2B45
330
1E
100
AcDbEntity
  8
7
100
AcDbLine
 10
3.592519685039369
 20
5.135826771653542
 30
0.0
 11
3.592519685039369
 21
5.182086614173227
 31
0.0
  0
LINE
  5
2B46
330
1E
100
AcDbEntity
  8
7
100
AcDbLine
 10
3.592519685039369
 20
5.182086614173227
 30
0.0
 11
3.592519685039369
 21
5.231299212598425
 31
0.0
  0
LINE
  5
2B47
330
1E
100
AcDbEntity
  8
7
100
AcDbLine
 10
3.715551181102362
 20
4.96259842519685
 30
0.0
 11
3.798228346456693
 21
4.963582677165353
 31
0.0
  0
LINE
  5
2B48
330
1E
100
AcDbEntity
  8
7
100
AcDbLine
 10
3.798228346456693
 20
4.963582677165353
 30
0.0
 11
3.798228346456693
 21
4.894685039370078
 31
0.0
  0
LINE
  5
2B49
330
1E
100
AcDbEntity
  8
7
100
AcDbLine
 10
3.798228346456693
 20
4.894685039370078
 30
0.0
 11
3.715551181102362
 21
4.893700787401574
 31
0.0
  0
LINE
  5
2B4A
330
1E
100
AcDbEntity
  8
7
100
AcDbLine
 10
3.715551181102362
 20
4.893700787401574
 30
0.0
 11
3.651574803149606
 21
4.893700787401574
 31
0.0
  0
LINE
  5
2B4B
330
1E
100
AcDbEntity
  8
7
100
AcDbLine
 10
3.651574803149606
 20
5.665354330708661
 30
0.0
 11
3.715551181102362
 21
5.664370078740157
 31
0.0
  0
LINE
  5
2B4C
330
1E
100
AcDbEntity
  8
7
100
AcDbLine
 10
3.715551181102362
 20
5.664370078740157
 30
0.0
 11
3.798228346456693
 21
5.664370078740157
 31
0.0
  0
LINE
  5
2B4D
330
1E
100
AcDbEntity
  8
7
100
AcDbLine
 10
3.756889763779527
 20
4.96259842519685
 30
0.0
 11
3.43011811023622
 21
4.965551181102362
 31
0.0
  0
LINE
  5
2B4E
330
1E
100
AcDbEntity
  8
7
100
AcDbLine
 10
3.43011811023622
 20
4.965551181102362
 30
0.0
 11
3.43011811023622
 21
5.506889763779526
 31
0.0
  0
LINE
  5
2B4F
330
1E
100
AcDbEntity
  8
7
100
AcDbLine
 10
3.43011811023622
 20
5.506889763779526
 30
0.0
 11
3.433070866141731
 21
5.510826771653542
 31
0.0
  0
LINE
  5
2B50
330
1E
100
AcDbEntity
  8
7
100
AcDbLine
 10
3.331692913385826
 20
5.536417322834645
 30
0.0
 11
3.331692913385826
 21
4.900590551181101
 31
0.0
  0
LINE
  5
2B51
330
1E
100
AcDbEntity
  8
7
100
AcDbLine
 10
3.331692913385826
 20
4.900590551181101
 30
0.0
 11
3.715551181102362
 21
4.893700787401574
 31
0.0
  0
LINE
  5
2B52
330
1E
100
AcDbEntity
  8
7
100
AcDbLine
 10
3.433070866141731
 20
5.510826771653542
 30
0.0
 11
3.579724409448818
 21
5.593503937007873
 31
0.0
  0
LINE
  5
2B53
330
1E
100
AcDbEntity
  8
7
100
AcDbLine
 10
3.579724409448818
 20
5.593503937007873
 30
0.0
 11
3.774606299212598
 21
5.595472440944881
 31
0.0
  0
LINE
  5
2B54
330
1E
100
AcDbEntity
  8
7
100
AcDbLine
 10
1.204724409448818
 20
5.400590551181101
 30
0.0
 11
1.167322834645669
 21
5.422244094488188
 31
0.0
  0
LINE
  5
2B55
330
1E
100
AcDbEntity
  8
7
100
AcDbLine
 10
1.167322834645669
 20
5.422244094488188
 30
0.0
 11
1.125984251968503
 21
5.435039370078739
 31
0.0
  0
LINE
  5
2B56
330
1E
100
AcDbEntity
  8
7
100
AcDbLine
 10
1.125984251968503
 20
5.435039370078739
 30
0.0
 11
1.08267716535433
 21
5.440944881889762
 31
0.0
  0
LINE
  5
2B57
330
1E
100
AcDbEntity
  8
7
100
AcDbLine
 10
1.08267716535433
 20
5.440944881889762
 30
0.0
 11
1.040354330708661
 21
5.437992125984251
 31
0.0
  0
LINE
  5
2B58
330
1E
100
AcDbEntity
  8
7
100
AcDbLine
 10
1.040354330708661
 20
5.437992125984251
 30
0.0
 11
0.998031496062992
 21
5.427165354330708
 31
0.0
  0
LINE
  5
2B59
330
1E
100
AcDbEntity
  8
7
100
AcDbLine
 10
0.998031496062992
 20
5.427165354330708
 30
0.0
 11
0.9596456692913385
 21
5.407480314960629
 31
0.0
  0
LINE
  5
2B5A
330
1E
100
AcDbEntity
  8
7
100
AcDbLine
 10
0.9596456692913385
 20
5.407480314960629
 30
0.0
 11
0.9251968503937007
 21
5.381889763779526
 31
0.0
  0
LINE
  5
2B5B
330
1E
100
AcDbEntity
  8
7
100
AcDbLine
 10
0.9251968503937007
 20
5.381889763779526
 30
0.0
 11
0.8956692913385827
 21
5.349409448818897
 31
0.0
  0
LINE
  5
2B5C
330
1E
100
AcDbEntity
  8
7
100
AcDbLine
 10
0.998031496062992
 20
5.005905511811023
 30
0.0
 11
1.040354330708661
 21
4.995078740157479
 31
0.0
  0
LINE
  5
2B5D
330
1E
100
AcDbEntity
  8
7
100
AcDbLine
 10
1.040354330708661
 20
4.995078740157479
 30
0.0
 11
1.08267716535433
 21
4.992125984251968
 31
0.0
  0
LINE
  5
2B5E
330
1E
100
AcDbEntity
  8
7
100
AcDbLine
 10
1.08267716535433
 20
4.992125984251968
 30
0.0
 11
1.125984251968503
 21
4.998031496062991
 31
0.0
  0
LINE
  5
2B5F
330
1E
100
AcDbEntity
  8
7
100
AcDbLine
 10
1.125984251968503
 20
4.998031496062991
 30
0.0
 11
1.167322834645669
 21
5.010826771653542
 31
0.0
  0
LINE
  5
2B60
330
1E
100
AcDbEntity
  8
7
100
AcDbLine
 10
1.167322834645669
 20
5.010826771653542
 30
0.0
 11
1.204724409448818
 21
5.032480314960629
 31
0.0
  0
LINE
  5
2B61
330
1E
100
AcDbEntity
  8
7
100
AcDbLine
 10
1.204724409448818
 20
5.032480314960629
 30
0.0
 11
1.237204724409449
 21
5.060039370078739
 31
0.0
  0
LINE
  5
2B62
330
1E
100
AcDbEntity
  8
7
100
AcDbLine
 10
1.237204724409449
 20
5.060039370078739
 30
0.0
 11
1.264763779527559
 21
5.093503937007873
 31
0.0
  0
LINE
  5
2B63
330
1E
100
AcDbEntity
  8
7
100
AcDbLine
 10
1.264763779527559
 20
5.093503937007873
 30
0.0
 11
1.284448818897637
 21
5.131889763779526
 31
0.0
  0
LINE
  5
2B64
330
1E
100
AcDbEntity
  8
7
100
AcDbLine
 10
1.284448818897637
 20
5.131889763779526
 30
0.0
 11
1.297244094488188
 21
5.173228346456692
 31
0.0
  0
LINE
  5
2B65
330
1E
100
AcDbEntity
  8
7
100
AcDbLine
 10
1.297244094488188
 20
5.173228346456692
 30
0.0
 11
1.301181102362204
 21
5.216535433070865
 31
0.0
  0
LINE
  5
2B66
330
1E
100
AcDbEntity
  8
7
100
AcDbLine
 10
1.301181102362204
 20
5.216535433070865
 30
0.0
 11
1.297244094488188
 21
5.259842519685038
 31
0.0
  0
LINE
  5
2B67
330
1E
100
AcDbEntity
  8
7
100
AcDbLine
 10
1.297244094488188
 20
5.259842519685038
 30
0.0
 11
1.284448818897637
 21
5.301181102362204
 31
0.0
  0
LINE
  5
2B68
330
1E
100
AcDbEntity
  8
7
100
AcDbLine
 10
1.284448818897637
 20
5.301181102362204
 30
0.0
 11
1.264763779527559
 21
5.339566929133857
 31
0.0
  0
LINE
  5
2B69
330
1E
100
AcDbEntity
  8
7
100
AcDbLine
 10
1.264763779527559
 20
5.339566929133857
 30
0.0
 11
1.237204724409449
 21
5.373031496062991
 31
0.0
  0
LINE
  5
2B6A
330
1E
100
AcDbEntity
  8
7
100
AcDbLine
 10
1.237204724409449
 20
5.373031496062991
 30
0.0
 11
1.204724409448818
 21
5.400590551181101
 31
0.0
  0
LINE
  5
2B6B
330
1E
100
AcDbEntity
  8
7
100
AcDbLine
 10
0.8956692913385827
 20
5.083661417322834
 30
0.0
 11
0.9251968503937007
 21
5.051181102362204
 31
0.0
  0
LINE
  5
2B6C
330
1E
100
AcDbEntity
  8
7
100
AcDbLine
 10
0.9251968503937007
 20
5.051181102362204
 30
0.0
 11
0.9596456692913385
 21
5.025590551181101
 31
0.0
  0
LINE
  5
2B6D
330
1E
100
AcDbEntity
  8
7
100
AcDbLine
 10
0.9596456692913385
 20
5.025590551181101
 30
0.0
 11
0.998031496062992
 21
5.005905511811023
 31
0.0
  0
LINE
  5
2B6E
330
1E
100
AcDbEntity
  8
7
100
AcDbLine
 10
0.996062992125984
 20
5.43011811023622
 30
0.0
 11
0.9566929133858266
 21
5.410433070866141
 31
0.0
  0
LINE
  5
2B6F
330
1E
100
AcDbEntity
  8
7
100
AcDbLine
 10
0.9566929133858266
 20
5.410433070866141
 30
0.0
 11
0.921259842519685
 21
5.383858267716535
 31
0.0
  0
LINE
  5
2B70
330
1E
100
AcDbEntity
  8
7
100
AcDbLine
 10
0.921259842519685
 20
5.383858267716535
 30
0.0
 11
0.891732283464567
 21
5.3503937007874
 31
0.0
  0
LINE
  5
2B71
330
1E
100
AcDbEntity
  8
7
100
AcDbLine
 10
1.24015748031496
 20
5.057086614173227
 30
0.0
 11
1.26771653543307
 21
5.091535433070865
 31
0.0
  0
LINE
  5
2B72
330
1E
100
AcDbEntity
  8
7
100
AcDbLine
 10
1.26771653543307
 20
5.091535433070865
 30
0.0
 11
1.288385826771653
 21
5.130905511811023
 31
0.0
  0
LINE
  5
2B73
330
1E
100
AcDbEntity
  8
7
100
AcDbLine
 10
1.288385826771653
 20
5.130905511811023
 30
0.0
 11
1.301181102362204
 21
5.172244094488188
 31
0.0
  0
LINE
  5
2B74
330
1E
100
AcDbEntity
  8
7
100
AcDbLine
 10
1.301181102362204
 20
5.172244094488188
 30
0.0
 11
1.30511811023622
 21
5.216535433070865
 31
0.0
  0
LINE
  5
2B75
330
1E
100
AcDbEntity
  8
7
100
AcDbLine
 10
1.30511811023622
 20
5.216535433070865
 30
0.0
 11
1.301181102362204
 21
5.260826771653542
 31
0.0
  0
LINE
  5
2B76
330
1E
100
AcDbEntity
  8
7
100
AcDbLine
 10
1.301181102362204
 20
5.260826771653542
 30
0.0
 11
1.288385826771653
 21
5.302165354330708
 31
0.0
  0
LINE
  5
2B77
330
1E
100
AcDbEntity
  8
7
100
AcDbLine
 10
1.288385826771653
 20
5.302165354330708
 30
0.0
 11
1.26771653543307
 21
5.341535433070865
 31
0.0
  0
LINE
  5
2B78
330
1E
100
AcDbEntity
  8
7
100
AcDbLine
 10
1.26771653543307
 20
5.341535433070865
 30
0.0
 11
1.24015748031496
 21
5.375984251968503
 31
0.0
  0
LINE
  5
2B79
330
1E
100
AcDbEntity
  8
7
100
AcDbLine
 10
1.24015748031496
 20
5.375984251968503
 30
0.0
 11
1.206692913385826
 21
5.404527559055117
 31
0.0
  0
LINE
  5
2B7A
330
1E
100
AcDbEntity
  8
7
100
AcDbLine
 10
1.206692913385826
 20
5.404527559055117
 30
0.0
 11
1.168307086614173
 21
5.426181102362204
 31
0.0
  0
LINE
  5
2B7B
330
1E
100
AcDbEntity
  8
7
100
AcDbLine
 10
1.168307086614173
 20
5.426181102362204
 30
0.0
 11
1.125984251968503
 21
5.439960629921259
 31
0.0
  0
LINE
  5
2B7C
330
1E
100
AcDbEntity
  8
7
100
AcDbLine
 10
1.125984251968503
 20
5.439960629921259
 30
0.0
 11
1.08267716535433
 21
5.444881889763778
 31
0.0
  0
LINE
  5
2B7D
330
1E
100
AcDbEntity
  8
7
100
AcDbLine
 10
1.08267716535433
 20
5.444881889763778
 30
0.0
 11
1.038385826771653
 21
5.441929133858267
 31
0.0
  0
LINE
  5
2B7E
330
1E
100
AcDbEntity
  8
7
100
AcDbLine
 10
1.038385826771653
 20
5.441929133858267
 30
0.0
 11
0.996062992125984
 21
5.43011811023622
 31
0.0
  0
LINE
  5
2B7F
330
1E
100
AcDbEntity
  8
7
100
AcDbLine
 10
0.891732283464567
 20
5.08267716535433
 30
0.0
 11
0.921259842519685
 21
5.049212598425196
 31
0.0
  0
LINE
  5
2B80
330
1E
100
AcDbEntity
  8
7
100
AcDbLine
 10
0.921259842519685
 20
5.049212598425196
 30
0.0
 11
0.9566929133858266
 21
5.022637795275589
 31
0.0
  0
LINE
  5
2B81
330
1E
100
AcDbEntity
  8
7
100
AcDbLine
 10
0.9566929133858266
 20
5.022637795275589
 30
0.0
 11
0.996062992125984
 21
5.002952755905511
 31
0.0
  0
LINE
  5
2B82
330
1E
100
AcDbEntity
  8
7
100
AcDbLine
 10
0.996062992125984
 20
5.002952755905511
 30
0.0
 11
1.038385826771653
 21
4.991141732283463
 31
0.0
  0
LINE
  5
2B83
330
1E
100
AcDbEntity
  8
7
100
AcDbLine
 10
1.038385826771653
 20
4.991141732283463
 30
0.0
 11
1.08267716535433
 21
4.988188976377952
 31
0.0
  0
LINE
  5
2B84
330
1E
100
AcDbEntity
  8
7
100
AcDbLine
 10
1.08267716535433
 20
4.988188976377952
 30
0.0
 11
1.125984251968503
 21
4.993110236220472
 31
0.0
  0
LINE
  5
2B85
330
1E
100
AcDbEntity
  8
7
100
AcDbLine
 10
1.125984251968503
 20
4.993110236220472
 30
0.0
 11
1.168307086614173
 21
5.006889763779526
 31
0.0
  0
LINE
  5
2B86
330
1E
100
AcDbEntity
  8
7
100
AcDbLine
 10
1.168307086614173
 20
5.006889763779526
 30
0.0
 11
1.206692913385826
 21
5.028543307086613
 31
0.0
  0
LINE
  5
2B87
330
1E
100
AcDbEntity
  8
7
100
AcDbLine
 10
1.206692913385826
 20
5.028543307086613
 30
0.0
 11
1.24015748031496
 21
5.057086614173227
 31
0.0
  0
LINE
  5
2B88
330
1E
100
AcDbEntity
  8
7
100
AcDbLine
 10
0.8602362204724409
 20
5.359251968503937
 30
0.0
 11
0.8375984251968503
 21
5.318897637795275
 31
0.0
  0
LINE
  5
2B89
330
1E
100
AcDbEntity
  8
7
100
AcDbLine
 10
0.8375984251968503
 20
5.318897637795275
 30
0.0
 11
0.8238188976377951
 21
5.274606299212598
 31
0.0
  0
LINE
  5
2B8A
330
1E
100
AcDbEntity
  8
7
100
AcDbLine
 10
0.8238188976377951
 20
5.274606299212598
 30
0.0
 11
0.8169291338582677
 21
5.228346456692912
 31
0.0
  0
LINE
  5
2B8B
330
1E
100
AcDbEntity
  8
7
100
AcDbLine
 10
0.8169291338582677
 20
5.228346456692912
 30
0.0
 11
0.8188976377952755
 21
5.182086614173227
 31
0.0
  0
LINE
  5
2B8C
330
1E
100
AcDbEntity
  8
7
100
AcDbLine
 10
0.8188976377952755
 20
5.182086614173227
 30
0.0
 11
0.8297244094488188
 21
5.135826771653542
 31
0.0
  0
LINE
  5
2B8D
330
1E
100
AcDbEntity
  8
7
100
AcDbLine
 10
0.8297244094488188
 20
5.135826771653542
 30
0.0
 11
0.8484251968503937
 21
5.093503937007873
 31
0.0
  0
LINE
  5
2B8E
330
1E
100
AcDbEntity
  8
7
100
AcDbLine
 10
0.8484251968503937
 20
5.093503937007873
 30
0.0
 11
0.8740157480314959
 21
5.054133858267715
 31
0.0
  0
LINE
  5
2B8F
330
1E
100
AcDbEntity
  8
7
100
AcDbLine
 10
0.8740157480314959
 20
5.054133858267715
 30
0.0
 11
0.905511811023622
 21
5.020669291338582
 31
0.0
  0
LINE
  5
2B90
330
1E
100
AcDbEntity
  8
7
100
AcDbLine
 10
0.905511811023622
 20
5.020669291338582
 30
0.0
 11
0.9438976377952755
 21
4.993110236220472
 31
0.0
  0
LINE
  5
2B91
330
1E
100
AcDbEntity
  8
7
100
AcDbLine
 10
0.9438976377952755
 20
4.993110236220472
 30
0.0
 11
0.9852362204724409
 21
4.973425196850393
 31
0.0
  0
LINE
  5
2B92
330
1E
100
AcDbEntity
  8
7
100
AcDbLine
 10
0.9852362204724409
 20
4.973425196850393
 30
0.0
 11
1.030511811023622
 21
4.960629921259841
 31
0.0
  0
LINE
  5
2B93
330
1E
100
AcDbEntity
  8
7
100
AcDbLine
 10
1.030511811023622
 20
4.960629921259841
 30
0.0
 11
1.076771653543306
 21
4.956692913385825
 31
0.0
  0
LINE
  5
2B94
330
1E
100
AcDbEntity
  8
7
100
AcDbLine
 10
1.329724409448818
 20
5.274606299212598
 30
0.0
 11
1.315944881889763
 21
5.318897637795275
 31
0.0
  0
LINE
  5
2B95
330
1E
100
AcDbEntity
  8
7
100
AcDbLine
 10
1.315944881889763
 20
5.318897637795275
 30
0.0
 11
1.293307086614173
 21
5.359251968503937
 31
0.0
  0
LINE
  5
2B96
330
1E
100
AcDbEntity
  8
7
100
AcDbLine
 10
1.293307086614173
 20
5.359251968503937
 30
0.0
 11
1.264763779527559
 21
5.395669291338582
 31
0.0
  0
LINE
  5
2B97
330
1E
100
AcDbEntity
  8
7
100
AcDbLine
 10
1.264763779527559
 20
5.395669291338582
 30
0.0
 11
1.229330708661417
 21
5.427165354330708
 31
0.0
  0
LINE
  5
2B98
330
1E
100
AcDbEntity
  8
7
100
AcDbLine
 10
1.229330708661417
 20
5.427165354330708
 30
0.0
 11
1.189960629921259
 21
5.450787401574802
 31
0.0
  0
LINE
  5
2B99
330
1E
100
AcDbEntity
  8
7
100
AcDbLine
 10
1.189960629921259
 20
5.450787401574802
 30
0.0
 11
1.145669291338582
 21
5.466535433070865
 31
0.0
  0
LINE
  5
2B9A
330
1E
100
AcDbEntity
  8
7
100
AcDbLine
 10
1.145669291338582
 20
5.466535433070865
 30
0.0
 11
1.100393700787401
 21
5.4753937007874
 31
0.0
  0
LINE
  5
2B9B
330
1E
100
AcDbEntity
  8
7
100
AcDbLine
 10
1.100393700787401
 20
5.4753937007874
 30
0.0
 11
1.053149606299212
 21
5.4753937007874
 31
0.0
  0
LINE
  5
2B9C
330
1E
100
AcDbEntity
  8
7
100
AcDbLine
 10
1.053149606299212
 20
5.4753937007874
 30
0.0
 11
1.007874015748031
 21
5.466535433070865
 31
0.0
  0
LINE
  5
2B9D
330
1E
100
AcDbEntity
  8
7
100
AcDbLine
 10
1.007874015748031
 20
5.466535433070865
 30
0.0
 11
0.9635826771653542
 21
5.450787401574802
 31
0.0
  0
LINE
  5
2B9E
330
1E
100
AcDbEntity
  8
7
100
AcDbLine
 10
0.9635826771653542
 20
5.450787401574802
 30
0.0
 11
0.9242125984251968
 21
5.427165354330708
 31
0.0
  0
LINE
  5
2B9F
330
1E
100
AcDbEntity
  8
7
100
AcDbLine
 10
0.9242125984251968
 20
5.427165354330708
 30
0.0
 11
0.8887795275590551
 21
5.395669291338582
 31
0.0
  0
LINE
  5
2BA0
330
1E
100
AcDbEntity
  8
7
100
AcDbLine
 10
0.8887795275590551
 20
5.395669291338582
 30
0.0
 11
0.8602362204724409
 21
5.359251968503937
 31
0.0
  0
LINE
  5
2BA1
330
1E
100
AcDbEntity
  8
7
100
AcDbLine
 10
1.076771653543306
 20
4.956692913385825
 30
0.0
 11
1.123031496062992
 21
4.960629921259841
 31
0.0
  0
LINE
  5
2BA2
330
1E
100
AcDbEntity
  8
7
100
AcDbLine
 10
1.123031496062992
 20
4.960629921259841
 30
0.0
 11
1.168307086614173
 21
4.973425196850393
 31
0.0
  0
LINE
  5
2BA3
330
1E
100
AcDbEntity
  8
7
100
AcDbLine
 10
1.168307086614173
 20
4.973425196850393
 30
0.0
 11
1.209645669291338
 21
4.993110236220472
 31
0.0
  0
LINE
  5
2BA4
330
1E
100
AcDbEntity
  8
7
100
AcDbLine
 10
1.209645669291338
 20
4.993110236220472
 30
0.0
 11
1.248031496062992
 21
5.020669291338582
 31
0.0
  0
LINE
  5
2BA5
330
1E
100
AcDbEntity
  8
7
100
AcDbLine
 10
1.248031496062992
 20
5.020669291338582
 30
0.0
 11
1.279527559055118
 21
5.054133858267715
 31
0.0
  0
LINE
  5
2BA6
330
1E
100
AcDbEntity
  8
7
100
AcDbLine
 10
1.279527559055118
 20
5.054133858267715
 30
0.0
 11
1.30511811023622
 21
5.093503937007873
 31
0.0
  0
LINE
  5
2BA7
330
1E
100
AcDbEntity
  8
7
100
AcDbLine
 10
1.30511811023622
 20
5.093503937007873
 30
0.0
 11
1.323818897637795
 21
5.135826771653542
 31
0.0
  0
LINE
  5
2BA8
330
1E
100
AcDbEntity
  8
7
100
AcDbLine
 10
1.323818897637795
 20
5.135826771653542
 30
0.0
 11
1.334645669291338
 21
5.182086614173227
 31
0.0
  0
LINE
  5
2BA9
330
1E
100
AcDbEntity
  8
7
100
AcDbLine
 10
1.334645669291338
 20
5.182086614173227
 30
0.0
 11
1.336614173228346
 21
5.228346456692912
 31
0.0
  0
LINE
  5
2BAA
330
1E
100
AcDbEntity
  8
7
100
AcDbLine
 10
1.336614173228346
 20
5.228346456692912
 30
0.0
 11
1.329724409448818
 21
5.274606299212598
 31
0.0
  0
LINE
  5
2BAB
330
1E
100
AcDbEntity
  8
7
100
AcDbLine
 10
0.8356299212598424
 20
4.866141732283463
 30
0.0
 11
0.8316929133858266
 21
4.818897637795275
 31
0.0
  0
LINE
  5
2BAC
330
1E
100
AcDbEntity
  8
7
100
AcDbLine
 10
0.8316929133858266
 20
4.818897637795275
 30
0.0
 11
1.321850393700787
 21
4.818897637795275
 31
0.0
  0
LINE
  5
2BAD
330
1E
100
AcDbEntity
  8
7
100
AcDbLine
 10
0.7568897637795277
 20
4.863188976377952
 30
0.0
 11
0.7568897637795277
 21
4.931102362204724
 31
0.0
  0
LINE
  5
2BAE
330
1E
100
AcDbEntity
  8
7
100
AcDbLine
 10
0.7568897637795277
 20
4.931102362204724
 30
0.0
 11
0.7559055118110237
 21
4.932086614173227
 31
0.0
  0
LINE
  5
2BAF
330
1E
100
AcDbEntity
  8
7
100
AcDbLine
 10
0.7883858267716536
 20
5.563976377952755
 30
0.0
 11
0.7568897637795277
 21
5.563976377952755
 31
0.0
  0
LINE
  5
2BB0
330
1E
100
AcDbEntity
  8
7
100
AcDbLine
 10
0.7568897637795277
 20
5.563976377952755
 30
0.0
 11
0.7568897637795277
 21
5.598425196850393
 31
0.0
  0
LINE
  5
2BB1
330
1E
100
AcDbEntity
  8
7
100
AcDbLine
 10
1.398622047244094
 20
4.864173228346456
 30
0.0
 11
1.39763779527559
 21
4.863188976377952
 31
0.0
  0
LINE
  5
2BB2
330
1E
100
AcDbEntity
  8
7
100
AcDbLine
 10
1.39763779527559
 20
4.863188976377952
 30
0.0
 11
1.36515748031496
 21
4.863188976377952
 31
0.0
  0
LINE
  5
2BB3
330
1E
100
AcDbEntity
  8
7
100
AcDbLine
 10
0.7923228346456694
 20
4.870078740157479
 30
0.0
 11
0.7923228346456694
 21
5.504921259842519
 31
0.0
  0
LINE
  5
2BB4
330
1E
100
AcDbEntity
  8
7
100
AcDbLine
 10
0.7923228346456694
 20
5.504921259842519
 30
0.0
 11
0.7903543307086615
 21
5.632874015748031
 31
0.0
  0
LINE
  5
2BB5
330
1E
100
AcDbEntity
  8
7
100
AcDbLine
 10
0.7903543307086615
 20
5.632874015748031
 30
0.0
 11
0.7883858267716536
 21
5.633858267716535
 31
0.0
  0
LINE
  5
2BB6
330
1E
100
AcDbEntity
  8
7
100
AcDbLine
 10
0.7913385826771654
 20
4.935039370078739
 30
0.0
 11
0.7883858267716536
 21
4.932086614173227
 31
0.0
  0
LINE
  5
2BB7
330
1E
100
AcDbEntity
  8
7
100
AcDbLine
 10
0.7883858267716536
 20
4.932086614173227
 30
0.0
 11
0.7883858267716536
 21
4.931102362204724
 31
0.0
  0
LINE
  5
2BB8
330
1E
100
AcDbEntity
  8
7
100
AcDbLine
 10
0.7903543307086615
 20
5.562007874015747
 30
0.0
 11
0.7913385826771654
 21
5.48031496062992
 31
0.0
  0
LINE
  5
2BB9
330
1E
100
AcDbEntity
  8
7
100
AcDbLine
 10
0.7913385826771654
 20
5.48031496062992
 30
0.0
 11
0.7913385826771654
 21
5.4753937007874
 31
0.0
  0
LINE
  5
2BBA
330
1E
100
AcDbEntity
  8
7
100
AcDbLine
 10
1.366141732283464
 20
4.932086614173227
 30
0.0
 11
1.363188976377952
 21
4.935039370078739
 31
0.0
  0
LINE
  5
2BBB
330
1E
100
AcDbEntity
  8
7
100
AcDbLine
 10
1.363188976377952
 20
4.935039370078739
 30
0.0
 11
1.363188976377952
 21
5.4753937007874
 31
0.0
  0
LINE
  5
2BBC
330
1E
100
AcDbEntity
  8
7
100
AcDbLine
 10
1.362204724409449
 20
5.504921259842519
 30
0.0
 11
1.362204724409449
 21
4.870078740157479
 31
0.0
  0
LINE
  5
2BBD
330
1E
100
AcDbEntity
  8
7
100
AcDbLine
 10
1.362204724409449
 20
4.870078740157479
 30
0.0
 11
1.36515748031496
 21
4.863188976377952
 31
0.0
  0
LINE
  5
2BBE
330
1E
100
AcDbEntity
  8
7
100
AcDbLine
 10
1.363188976377952
 20
5.48031496062992
 30
0.0
 11
1.364173228346456
 21
5.562007874015747
 31
0.0
  0
LINE
  5
2BBF
330
1E
100
AcDbEntity
  8
7
100
AcDbLine
 10
1.364173228346456
 20
5.562007874015747
 30
0.0
 11
1.366141732283464
 21
5.563976377952755
 31
0.0
  0
LINE
  5
2BC0
330
1E
100
AcDbEntity
  8
7
100
AcDbLine
 10
1.366141732283464
 20
5.563976377952755
 30
0.0
 11
1.36515748031496
 21
5.598425196850393
 31
0.0
  0
LINE
  5
2BC1
330
1E
100
AcDbEntity
  8
3
100
AcDbLine
 10
1.109251968503937
 20
5.439960629921259
 30
0.0
 11
1.116141732283464
 21
5.439960629921259
 31
0.0
  0
LINE
  5
2BC2
330
1E
100
AcDbEntity
  8
3
100
AcDbLine
 10
1.116141732283464
 20
5.439960629921259
 30
0.0
 11
1.107283464566929
 21
5.439960629921259
 31
0.0
  0
LINE
  5
2BC3
330
1E
100
AcDbEntity
  8
3
100
AcDbLine
 10
1.107283464566929
 20
5.439960629921259
 30
0.0
 11
1.092519685039369
 21
5.439960629921259
 31
0.0
  0
LINE
  5
2BC4
330
1E
100
AcDbEntity
  8
3
100
AcDbLine
 10
1.092519685039369
 20
5.439960629921259
 30
0.0
 11
1.074803149606299
 21
5.439960629921259
 31
0.0
  0
LINE
  5
2BC5
330
1E
100
AcDbEntity
  8
3
100
AcDbLine
 10
1.074803149606299
 20
5.439960629921259
 30
0.0
 11
1.058070866141732
 21
5.439960629921259
 31
0.0
  0
LINE
  5
2BC6
330
1E
100
AcDbEntity
  8
3
100
AcDbLine
 10
1.058070866141732
 20
5.439960629921259
 30
0.0
 11
1.044291338582677
 21
5.439960629921259
 31
0.0
  0
LINE
  5
2BC7
330
1E
100
AcDbEntity
  8
3
100
AcDbLine
 10
1.044291338582677
 20
5.439960629921259
 30
0.0
 11
1.037401574803149
 21
5.439960629921259
 31
0.0
  0
LINE
  5
2BC8
330
1E
100
AcDbEntity
  8
3
100
AcDbLine
 10
1.037401574803149
 20
5.439960629921259
 30
0.0
 11
1.038385826771653
 21
5.439960629921259
 31
0.0
  0
LINE
  5
2BC9
330
1E
100
AcDbEntity
  8
3
100
AcDbLine
 10
1.038385826771653
 20
5.439960629921259
 30
0.0
 11
1.047244094488188
 21
5.439960629921259
 31
0.0
  0
LINE
  5
2BCA
330
1E
100
AcDbEntity
  8
3
100
AcDbLine
 10
1.047244094488188
 20
5.439960629921259
 30
0.0
 11
1.062007874015748
 21
5.439960629921259
 31
0.0
  0
LINE
  5
2BCB
330
1E
100
AcDbEntity
  8
3
100
AcDbLine
 10
1.062007874015748
 20
5.439960629921259
 30
0.0
 11
1.078740157480314
 21
5.439960629921259
 31
0.0
  0
LINE
  5
2BCC
330
1E
100
AcDbEntity
  8
3
100
AcDbLine
 10
1.078740157480314
 20
5.439960629921259
 30
0.0
 11
1.096456692913385
 21
5.439960629921259
 31
0.0
  0
LINE
  5
2BCD
330
1E
100
AcDbEntity
  8
3
100
AcDbLine
 10
1.096456692913385
 20
5.439960629921259
 30
0.0
 11
1.109251968503937
 21
5.439960629921259
 31
0.0
  0
LINE
  5
2BCE
330
1E
100
AcDbEntity
  8
3
100
AcDbLine
 10
1.062007874015748
 20
5.242125984251968
 30
0.0
 11
1.051181102362204
 21
5.231299212598425
 31
0.0
  0
LINE
  5
2BCF
330
1E
100
AcDbEntity
  8
3
100
AcDbLine
 10
1.051181102362204
 20
5.231299212598425
 30
0.0
 11
1.047244094488188
 21
5.216535433070865
 31
0.0
  0
LINE
  5
2BD0
330
1E
100
AcDbEntity
  8
3
100
AcDbLine
 10
1.047244094488188
 20
5.216535433070865
 30
0.0
 11
1.051181102362204
 21
5.201771653543306
 31
0.0
  0
LINE
  5
2BD1
330
1E
100
AcDbEntity
  8
3
100
AcDbLine
 10
1.051181102362204
 20
5.201771653543306
 30
0.0
 11
1.062007874015748
 21
5.190944881889762
 31
0.0
  0
LINE
  5
2BD2
330
1E
100
AcDbEntity
  8
3
100
AcDbLine
 10
1.062007874015748
 20
5.190944881889762
 30
0.0
 11
1.076771653543306
 21
5.187007874015747
 31
0.0
  0
LINE
  5
2BD3
330
1E
100
AcDbEntity
  8
3
100
AcDbLine
 10
1.076771653543306
 20
5.187007874015747
 30
0.0
 11
1.091535433070866
 21
5.190944881889762
 31
0.0
  0
LINE
  5
2BD4
330
1E
100
AcDbEntity
  8
3
100
AcDbLine
 10
1.091535433070866
 20
5.190944881889762
 30
0.0
 11
1.102362204724409
 21
5.201771653543306
 31
0.0
  0
LINE
  5
2BD5
330
1E
100
AcDbEntity
  8
3
100
AcDbLine
 10
1.102362204724409
 20
5.201771653543306
 30
0.0
 11
1.106299212598425
 21
5.216535433070865
 31
0.0
  0
LINE
  5
2BD6
330
1E
100
AcDbEntity
  8
3
100
AcDbLine
 10
1.106299212598425
 20
5.216535433070865
 30
0.0
 11
1.102362204724409
 21
5.231299212598425
 31
0.0
  0
LINE
  5
2BD7
330
1E
100
AcDbEntity
  8
3
100
AcDbLine
 10
1.102362204724409
 20
5.231299212598425
 30
0.0
 11
1.091535433070866
 21
5.242125984251968
 31
0.0
  0
LINE
  5
2BD8
330
1E
100
AcDbEntity
  8
3
100
AcDbLine
 10
1.091535433070866
 20
5.242125984251968
 30
0.0
 11
1.076771653543306
 21
5.246062992125984
 31
0.0
  0
LINE
  5
2BD9
330
1E
100
AcDbEntity
  8
3
100
AcDbLine
 10
1.076771653543306
 20
5.246062992125984
 30
0.0
 11
1.062007874015748
 21
5.242125984251968
 31
0.0
  0
LINE
  5
2BDA
330
1E
100
AcDbEntity
  8
3
100
AcDbLine
 10
1.010826771653543
 20
5.155511811023621
 30
0.0
 11
1.031496062992125
 21
5.138779527559054
 31
0.0
  0
LINE
  5
2BDB
330
1E
100
AcDbEntity
  8
3
100
AcDbLine
 10
1.031496062992125
 20
5.138779527559054
 30
0.0
 11
1.057086614173228
 21
5.128937007874015
 31
0.0
  0
LINE
  5
2BDC
330
1E
100
AcDbEntity
  8
3
100
AcDbLine
 10
1.057086614173228
 20
5.128937007874015
 30
0.0
 11
1.083661417322834
 21
5.126968503937007
 31
0.0
  0
LINE
  5
2BDD
330
1E
100
AcDbEntity
  8
3
100
AcDbLine
 10
1.083661417322834
 20
5.126968503937007
 30
0.0
 11
1.109251968503937
 21
5.132874015748031
 31
0.0
  0
LINE
  5
2BDE
330
1E
100
AcDbEntity
  8
3
100
AcDbLine
 10
1.109251968503937
 20
5.132874015748031
 30
0.0
 11
1.132874015748031
 21
5.146653543307086
 31
0.0
  0
LINE
  5
2BDF
330
1E
100
AcDbEntity
  8
3
100
AcDbLine
 10
1.132874015748031
 20
5.146653543307086
 30
0.0
 11
1.150590551181102
 21
5.166338582677164
 31
0.0
  0
LINE
  5
2BE0
330
1E
100
AcDbEntity
  8
3
100
AcDbLine
 10
1.150590551181102
 20
5.166338582677164
 30
0.0
 11
1.162401574803149
 21
5.189960629921259
 31
0.0
  0
LINE
  5
2BE1
330
1E
100
AcDbEntity
  8
3
100
AcDbLine
 10
1.162401574803149
 20
5.189960629921259
 30
0.0
 11
1.166338582677165
 21
5.216535433070865
 31
0.0
  0
LINE
  5
2BE2
330
1E
100
AcDbEntity
  8
3
100
AcDbLine
 10
1.166338582677165
 20
5.216535433070865
 30
0.0
 11
1.162401574803149
 21
5.243110236220472
 31
0.0
  0
LINE
  5
2BE3
330
1E
100
AcDbEntity
  8
3
100
AcDbLine
 10
1.162401574803149
 20
5.243110236220472
 30
0.0
 11
1.150590551181102
 21
5.266732283464566
 31
0.0
  0
LINE
  5
2BE4
330
1E
100
AcDbEntity
  8
3
100
AcDbLine
 10
1.150590551181102
 20
5.266732283464566
 30
0.0
 11
1.132874015748031
 21
5.286417322834645
 31
0.0
  0
LINE
  5
2BE5
330
1E
100
AcDbEntity
  8
3
100
AcDbLine
 10
1.132874015748031
 20
5.286417322834645
 30
0.0
 11
1.109251968503937
 21
5.3001968503937
 31
0.0
  0
LINE
  5
2BE6
330
1E
100
AcDbEntity
  8
3
100
AcDbLine
 10
1.109251968503937
 20
5.3001968503937
 30
0.0
 11
1.083661417322834
 21
5.306102362204724
 31
0.0
  0
LINE
  5
2BE7
330
1E
100
AcDbEntity
  8
3
100
AcDbLine
 10
1.083661417322834
 20
5.306102362204724
 30
0.0
 11
1.057086614173228
 21
5.304133858267715
 31
0.0
  0
LINE
  5
2BE8
330
1E
100
AcDbEntity
  8
3
100
AcDbLine
 10
1.057086614173228
 20
5.304133858267715
 30
0.0
 11
1.03248031496063
 21
5.294291338582676
 31
0.0
  0
LINE
  5
2BE9
330
1E
100
AcDbEntity
  8
3
100
AcDbLine
 10
1.03248031496063
 20
5.294291338582676
 30
0.0
 11
1.010826771653543
 21
5.27755905511811
 31
0.0
  0
LINE
  5
2BEA
330
1E
100
AcDbEntity
  8
3
100
AcDbLine
 10
1.010826771653543
 20
5.27755905511811
 30
0.0
 11
0.996062992125984
 21
5.254921259842519
 31
0.0
  0
LINE
  5
2BEB
330
1E
100
AcDbEntity
  8
3
100
AcDbLine
 10
0.996062992125984
 20
5.254921259842519
 30
0.0
 11
0.9881889763779525
 21
5.230314960629921
 31
0.0
  0
LINE
  5
2BEC
330
1E
100
AcDbEntity
  8
3
100
AcDbLine
 10
0.9881889763779525
 20
5.230314960629921
 30
0.0
 11
0.9881889763779525
 21
5.20275590551181
 31
0.0
  0
LINE
  5
2BED
330
1E
100
AcDbEntity
  8
3
100
AcDbLine
 10
0.9881889763779525
 20
5.20275590551181
 30
0.0
 11
0.996062992125984
 21
5.178149606299212
 31
0.0
  0
LINE
  5
2BEE
330
1E
100
AcDbEntity
  8
3
100
AcDbLine
 10
0.996062992125984
 20
5.178149606299212
 30
0.0
 11
1.010826771653543
 21
5.155511811023621
 31
0.0
  0
LINE
  5
2BEF
330
1E
100
AcDbEntity
  8
3
100
AcDbLine
 10
0.873031496062992
 20
5.113188976377952
 30
0.0
 11
0.8956692913385827
 21
5.076771653543306
 31
0.0
  0
LINE
  5
2BF0
330
1E
100
AcDbEntity
  8
3
100
AcDbLine
 10
0.8956692913385827
 20
5.076771653543306
 30
0.0
 11
0.9251968503937007
 21
5.046259842519684
 31
0.0
  0
LINE
  5
2BF1
330
1E
100
AcDbEntity
  8
3
100
AcDbLine
 10
0.9251968503937007
 20
5.046259842519684
 30
0.0
 11
0.9596456692913385
 21
5.020669291338582
 31
0.0
  0
LINE
  5
2BF2
330
1E
100
AcDbEntity
  8
3
100
AcDbLine
 10
0.9596456692913385
 20
5.020669291338582
 30
0.0
 11
0.998031496062992
 21
5.001968503937007
 31
0.0
  0
LINE
  5
2BF3
330
1E
100
AcDbEntity
  8
3
100
AcDbLine
 10
0.998031496062992
 20
5.001968503937007
 30
0.0
 11
1.039370078740157
 21
4.991141732283463
 31
0.0
  0
LINE
  5
2BF4
330
1E
100
AcDbEntity
  8
3
100
AcDbLine
 10
1.039370078740157
 20
4.991141732283463
 30
0.0
 11
1.08267716535433
 21
4.988188976377952
 31
0.0
  0
LINE
  5
2BF5
330
1E
100
AcDbEntity
  8
3
100
AcDbLine
 10
1.08267716535433
 20
4.988188976377952
 30
0.0
 11
1.125
 21
4.993110236220472
 31
0.0
  0
LINE
  5
2BF6
330
1E
100
AcDbEntity
  8
3
100
AcDbLine
 10
1.125
 20
4.993110236220472
 30
0.0
 11
1.165354330708661
 21
5.005905511811023
 31
0.0
  0
LINE
  5
2BF7
330
1E
100
AcDbEntity
  8
3
100
AcDbLine
 10
1.165354330708661
 20
5.005905511811023
 30
0.0
 11
1.202755905511811
 21
5.026574803149605
 31
0.0
  0
LINE
  5
2BF8
330
1E
100
AcDbEntity
  8
3
100
AcDbLine
 10
1.202755905511811
 20
5.026574803149605
 30
0.0
 11
1.236220472440944
 21
5.053149606299212
 31
0.0
  0
LINE
  5
2BF9
330
1E
100
AcDbEntity
  8
3
100
AcDbLine
 10
1.236220472440944
 20
5.053149606299212
 30
0.0
 11
1.263779527559055
 21
5.085629921259841
 31
0.0
  0
LINE
  5
2BFA
330
1E
100
AcDbEntity
  8
3
100
AcDbLine
 10
1.263779527559055
 20
5.085629921259841
 30
0.0
 11
1.285433070866141
 21
5.123031496062991
 31
0.0
  0
LINE
  5
2BFB
330
1E
100
AcDbEntity
  8
3
100
AcDbLine
 10
1.165354330708661
 20
5.427165354330708
 30
0.0
 11
1.125
 21
5.439960629921259
 31
0.0
  0
LINE
  5
2BFC
330
1E
100
AcDbEntity
  8
3
100
AcDbLine
 10
1.125
 20
5.439960629921259
 30
0.0
 11
1.08267716535433
 21
5.444881889763778
 31
0.0
  0
LINE
  5
2BFD
330
1E
100
AcDbEntity
  8
3
100
AcDbLine
 10
1.08267716535433
 20
5.444881889763778
 30
0.0
 11
1.039370078740157
 21
5.441929133858267
 31
0.0
  0
LINE
  5
2BFE
330
1E
100
AcDbEntity
  8
3
100
AcDbLine
 10
1.039370078740157
 20
5.441929133858267
 30
0.0
 11
0.998031496062992
 21
5.431102362204724
 31
0.0
  0
LINE
  5
2BFF
330
1E
100
AcDbEntity
  8
3
100
AcDbLine
 10
0.998031496062992
 20
5.431102362204724
 30
0.0
 11
0.9596456692913385
 21
5.412401574803149
 31
0.0
  0
LINE
  5
2C00
330
1E
100
AcDbEntity
  8
3
100
AcDbLine
 10
0.9596456692913385
 20
5.412401574803149
 30
0.0
 11
0.9251968503937007
 21
5.386811023622047
 31
0.0
  0
LINE
  5
2C01
330
1E
100
AcDbEntity
  8
3
100
AcDbLine
 10
0.9251968503937007
 20
5.386811023622047
 30
0.0
 11
0.8956692913385827
 21
5.356299212598425
 31
0.0
  0
LINE
  5
2C02
330
1E
100
AcDbEntity
  8
3
100
AcDbLine
 10
0.8956692913385827
 20
5.356299212598425
 30
0.0
 11
0.873031496062992
 21
5.319881889763778
 31
0.0
  0
LINE
  5
2C03
330
1E
100
AcDbEntity
  8
3
100
AcDbLine
 10
0.873031496062992
 20
5.319881889763778
 30
0.0
 11
0.857283464566929
 21
5.279527559055117
 31
0.0
  0
LINE
  5
2C04
330
1E
100
AcDbEntity
  8
3
100
AcDbLine
 10
0.857283464566929
 20
5.279527559055117
 30
0.0
 11
0.8494094488188975
 21
5.238188976377952
 31
0.0
  0
LINE
  5
2C05
330
1E
100
AcDbEntity
  8
3
100
AcDbLine
 10
0.8494094488188975
 20
5.238188976377952
 30
0.0
 11
0.8494094488188975
 21
5.194881889763778
 31
0.0
  0
LINE
  5
2C06
330
1E
100
AcDbEntity
  8
3
100
AcDbLine
 10
0.8494094488188975
 20
5.194881889763778
 30
0.0
 11
0.857283464566929
 21
5.153543307086613
 31
0.0
  0
LINE
  5
2C07
330
1E
100
AcDbEntity
  8
3
100
AcDbLine
 10
0.857283464566929
 20
5.153543307086613
 30
0.0
 11
0.873031496062992
 21
5.113188976377952
 31
0.0
  0
LINE
  5
2C08
330
1E
100
AcDbEntity
  8
3
100
AcDbLine
 10
1.285433070866141
 20
5.310039370078739
 30
0.0
 11
1.263779527559055
 21
5.347440944881888
 31
0.0
  0
LINE
  5
2C09
330
1E
100
AcDbEntity
  8
3
100
AcDbLine
 10
1.263779527559055
 20
5.347440944881888
 30
0.0
 11
1.236220472440944
 21
5.379921259842519
 31
0.0
  0
LINE
  5
2C0A
330
1E
100
AcDbEntity
  8
3
100
AcDbLine
 10
1.236220472440944
 20
5.379921259842519
 30
0.0
 11
1.202755905511811
 21
5.406496062992125
 31
0.0
  0
LINE
  5
2C0B
330
1E
100
AcDbEntity
  8
3
100
AcDbLine
 10
1.202755905511811
 20
5.406496062992125
 30
0.0
 11
1.165354330708661
 21
5.427165354330708
 31
0.0
  0
LINE
  5
2C0C
330
1E
100
AcDbEntity
  8
3
100
AcDbLine
 10
1.057086614173228
 20
5.024606299212598
 30
0.0
 11
1.096456692913385
 21
5.024606299212598
 31
0.0
  0
LINE
  5
2C0D
330
1E
100
AcDbEntity
  8
3
100
AcDbLine
 10
1.096456692913385
 20
5.024606299212598
 30
0.0
 11
1.136811023622047
 21
5.033464566929133
 31
0.0
  0
LINE
  5
2C0E
330
1E
100
AcDbEntity
  8
3
100
AcDbLine
 10
1.136811023622047
 20
5.033464566929133
 30
0.0
 11
1.173228346456693
 21
5.049212598425196
 31
0.0
  0
LINE
  5
2C0F
330
1E
100
AcDbEntity
  8
3
100
AcDbLine
 10
1.173228346456693
 20
5.049212598425196
 30
0.0
 11
1.205708661417323
 21
5.07283464566929
 31
0.0
  0
LINE
  5
2C10
330
1E
100
AcDbEntity
  8
3
100
AcDbLine
 10
1.205708661417323
 20
5.07283464566929
 30
0.0
 11
1.233267716535433
 21
5.103346456692912
 31
0.0
  0
LINE
  5
2C11
330
1E
100
AcDbEntity
  8
3
100
AcDbLine
 10
1.233267716535433
 20
5.103346456692912
 30
0.0
 11
1.252952755905512
 21
5.13779527559055
 31
0.0
  0
LINE
  5
2C12
330
1E
100
AcDbEntity
  8
3
100
AcDbLine
 10
1.252952755905512
 20
5.13779527559055
 30
0.0
 11
1.265748031496062
 21
5.176181102362204
 31
0.0
  0
LINE
  5
2C13
330
1E
100
AcDbEntity
  8
3
100
AcDbLine
 10
1.265748031496062
 20
5.176181102362204
 30
0.0
 11
1.269685039370078
 21
5.216535433070865
 31
0.0
  0
LINE
  5
2C14
330
1E
100
AcDbEntity
  8
3
100
AcDbLine
 10
1.016732283464567
 20
5.399606299212598
 30
0.0
 11
0.9803149606299211
 21
5.383858267716535
 31
0.0
  0
LINE
  5
2C15
330
1E
100
AcDbEntity
  8
3
100
AcDbLine
 10
0.9803149606299211
 20
5.383858267716535
 30
0.0
 11
0.9478346456692912
 21
5.36023622047244
 31
0.0
  0
LINE
  5
2C16
330
1E
100
AcDbEntity
  8
3
100
AcDbLine
 10
0.9478346456692912
 20
5.36023622047244
 30
0.0
 11
0.9202755905511811
 21
5.329724409448818
 31
0.0
  0
LINE
  5
2C17
330
1E
100
AcDbEntity
  8
3
100
AcDbLine
 10
0.9202755905511811
 20
5.329724409448818
 30
0.0
 11
0.9005905511811024
 21
5.29527559055118
 31
0.0
  0
LINE
  5
2C18
330
1E
100
AcDbEntity
  8
3
100
AcDbLine
 10
0.9005905511811024
 20
5.29527559055118
 30
0.0
 11
0.8877952755905512
 21
5.256889763779526
 31
0.0
  0
LINE
  5
2C19
330
1E
100
AcDbEntity
  8
3
100
AcDbLine
 10
0.8877952755905512
 20
5.256889763779526
 30
0.0
 11
0.8838582677165355
 21
5.216535433070865
 31
0.0
  0
LINE
  5
2C1A
330
1E
100
AcDbEntity
  8
3
100
AcDbLine
 10
0.8838582677165355
 20
5.216535433070865
 30
0.0
 11
0.8877952755905512
 21
5.176181102362204
 31
0.0
  0
LINE
  5
2C1B
330
1E
100
AcDbEntity
  8
3
100
AcDbLine
 10
0.8877952755905512
 20
5.176181102362204
 30
0.0
 11
0.9005905511811024
 21
5.13779527559055
 31
0.0
  0
LINE
  5
2C1C
330
1E
100
AcDbEntity
  8
3
100
AcDbLine
 10
0.9005905511811024
 20
5.13779527559055
 30
0.0
 11
0.9202755905511811
 21
5.103346456692912
 31
0.0
  0
LINE
  5
2C1D
330
1E
100
AcDbEntity
  8
3
100
AcDbLine
 10
0.9202755905511811
 20
5.103346456692912
 30
0.0
 11
0.9478346456692912
 21
5.07283464566929
 31
0.0
  0
LINE
  5
2C1E
330
1E
100
AcDbEntity
  8
3
100
AcDbLine
 10
0.9478346456692912
 20
5.07283464566929
 30
0.0
 11
0.9803149606299211
 21
5.049212598425196
 31
0.0
  0
LINE
  5
2C1F
330
1E
100
AcDbEntity
  8
3
100
AcDbLine
 10
0.9803149606299211
 20
5.049212598425196
 30
0.0
 11
1.016732283464567
 21
5.033464566929133
 31
0.0
  0
LINE
  5
2C20
330
1E
100
AcDbEntity
  8
3
100
AcDbLine
 10
1.016732283464567
 20
5.033464566929133
 30
0.0
 11
1.057086614173228
 21
5.024606299212598
 31
0.0
  0
LINE
  5
2C21
330
1E
100
AcDbEntity
  8
3
100
AcDbLine
 10
1.269685039370078
 20
5.216535433070865
 30
0.0
 11
1.265748031496062
 21
5.256889763779526
 31
0.0
  0
LINE
  5
2C22
330
1E
100
AcDbEntity
  8
3
100
AcDbLine
 10
1.265748031496062
 20
5.256889763779526
 30
0.0
 11
1.252952755905512
 21
5.29527559055118
 31
0.0
  0
LINE
  5
2C23
330
1E
100
AcDbEntity
  8
3
100
AcDbLine
 10
1.252952755905512
 20
5.29527559055118
 30
0.0
 11
1.233267716535433
 21
5.329724409448818
 31
0.0
  0
LINE
  5
2C24
330
1E
100
AcDbEntity
  8
3
100
AcDbLine
 10
1.233267716535433
 20
5.329724409448818
 30
0.0
 11
1.205708661417323
 21
5.36023622047244
 31
0.0
  0
LINE
  5
2C25
330
1E
100
AcDbEntity
  8
3
100
AcDbLine
 10
1.205708661417323
 20
5.36023622047244
 30
0.0
 11
1.173228346456693
 21
5.383858267716535
 31
0.0
  0
LINE
  5
2C26
330
1E
100
AcDbEntity
  8
3
100
AcDbLine
 10
1.173228346456693
 20
5.383858267716535
 30
0.0
 11
1.136811023622047
 21
5.399606299212598
 31
0.0
  0
LINE
  5
2C27
330
1E
100
AcDbEntity
  8
3
100
AcDbLine
 10
1.136811023622047
 20
5.399606299212598
 30
0.0
 11
1.096456692913385
 21
5.408464566929133
 31
0.0
  0
LINE
  5
2C28
330
1E
100
AcDbEntity
  8
3
100
AcDbLine
 10
1.096456692913385
 20
5.408464566929133
 30
0.0
 11
1.057086614173228
 21
5.408464566929133
 31
0.0
  0
LINE
  5
2C29
330
1E
100
AcDbEntity
  8
3
100
AcDbLine
 10
1.057086614173228
 20
5.408464566929133
 30
0.0
 11
1.016732283464567
 21
5.399606299212598
 31
0.0
  0
ENDSEC
  0
SECTION
  2
OBJECTS
  0
DICTIONARY
  5
C
330
0
100
AcDbDictionary
  3
ACAD_GROUP
350
D
  3
ACAD_LAYOUT
350
19
  3
ACAD_MLINESTYLE
350
16
  3
ACAD_PLOTSETTINGS
350
18
1001
ACAD
1000
TREAT_AS_HARD
1070
     0
  0
DICTIONARY
  5
3E7E
330
1E
100
AcDbDictionary
  3
ACAD_LAYOUTSELFREF
350
3EB8
1001
ACAD
1000
TREAT_AS_HARD
1070
     1
  0
DICTIONARY
  5
3E80
330
1A
100
AcDbDictionary
  3
ACAD_LAYOUTSELFREF
350
3EB7
1001
ACAD
1000
TREAT_AS_HARD
1070
     1
  0
DICTIONARY
  5
D
102
{ACAD_REACTORS
330
C
102
}
330
C
100
AcDbDictionary
1001
ACAD
1000
TREAT_AS_HARD
1070
     0
  0
DICTIONARY
  5
19
102
{ACAD_REACTORS
330
C
102
}
330
C
100
AcDbDictionary
1001
ACAD
1000
TREAT_AS_HARD
1070
     0
  0
DICTIONARY
  5
16
102
{ACAD_REACTORS
330
C
102
}
330
C
100
AcDbDictionary
  3
STANDARD
350
17
1001
ACAD
1000
TREAT_AS_HARD
1070
     0
  0
DICTIONARY
  5
18
102
{ACAD_REACTORS
330
C
102
}
330
C
100
AcDbDictionary
1001
ACAD
1000
TREAT_AS_HARD
1070
     0
  0
XRECORD
  5
3EB8
102
{ACAD_REACTORS
330
3E7E
102
}
330
3E7E
100
AcDbXrecord
340
1E
  0
XRECORD
  5
3EB7
102
{ACAD_REACTORS
330
3E80
102
}
330
3E80
100
AcDbXrecord
340
1A
  0
MLINESTYLE
  5
17
102
{ACAD_REACTORS
330
16
102
}
330
16
100
AcDbMlineStyle
  2
STANDARD
 70
     0
  3

 62
   256
 51
90.0
 52
90.0
 71
     2
 49
0.5
 62
   256
  6
BYLAYER
 49
-0.5
 62
   256
  6
BYLAYER
  0
ENDSEC
  0
EOF
