999
DXF file: C:\Users\SESA644935\Desktop\Gen2D\CAD\pas600l_3d-CAD\pas600l_3d-simplified_1.dxf
999
Pro/ENGINEER 2019471 by Parametric Technology Corporation
  0
SECTION
  2
HEADER
  9
$ACADVER
  1
AC1024
  9
$DWGCODEPAGE
  3
ANSI_1252
  9
$EXTMAX
 10
128.1259194014
 20
181.2066574391
 30
0.0
  9
$EXTMIN
 10
0.0
 20
0.0
 30
0.0
  9
$LIMMIN
 10
0.0
 20
0.0
  9
$LIMMAX
 10
128.1259194014
 20
181.2066574391
  9
$VIEWCTR
 10
64.0629597007
 20
90.6033287196
  9
$VIEWSIZE
 40
181.2066574391
  9
$CLAYER
  8
0
  9
$LTSCALE
 40
11.811989522
  9
$CELTYPE
  6
BYLAYER
  9
$DIMSCALE
 40
1.0
  9
$DIMASZ
 40
1.5253085643
  9
$DIMEXO
 40
1.0
  9
$DIMDLI
 40
8.1610109424
  9
$DIMEXE
 40
1.0
  9
$DIMCEN
 40
1.9328710127
  9
$DIMLFAC
 40
1.0
  9
$DIMBLK
  1
_FILLED
  9
$DIMALT
 70
0
  9
$DIMALTF
 40
0.0393700787
  9
$DIMTXT
 40
2.13543199
  9
$DIMTOL
 70
1
  9
$DIMLIM
 70
0
  9
$DIMTFAC
 40
1.0
  9
$DIMTP
 40
0.01
  9
$DIMTM
 40
0.01
  9
$DIMGAP
 40
0.625
  9
$DIMDSEP
 70
46
  9
$AUNITS
 70
0
  9
$PDMODE
 70
3
  9
$PDSIZE
 40
0.3125
  9
$HANDSEED
  5
504
  9
$TILEMODE
 70
1
  9
$MEASUREMENT
 70
1
  9
$INSUNITS
 70
4
  0
ENDSEC
  0
SECTION
  2
CLASSES
  0
CLASS
  1
ACDBDICTIONARYWDFLT
  2
AcDbDictionaryWithDefault
  3
AutoCAD 2000
 90
0
 91
1
280
0
281
0
  0
CLASS
  1
ACDBPLACEHOLDER
  2
AcDbPlaceHolder
  3
AutoCAD 2000
 90
0
 91
1
280
0
281
0
  0
CLASS
  1
LAYOUT
  2
AcDbLayout
  3
AutoCAD 2000
 90
0
 91
0
280
0
281
0
  0
ENDSEC
  0
SECTION
  2
TABLES
  0
TABLE
  2
VPORT
  5
8
100
AcDbSymbolTable
 70
2
  0
VPORT
  5
1F4
100
AcDbSymbolTableRecord
100
AcDbViewportTableRecord
  2
*ACTIVE
 70
0
 10
0.0
 20
0.0
 11
1.0
 21
1.0
 12
64.0629597007
 22
90.6033287196
 13
0.0
 23
0.0
 14
1.0
 24
1.0
 15
0.0
 25
0.0
 16
0.0
 26
0.0
 36
1.0
 17
0.0
 27
0.0
 37
0.0
 40
181.2066574391
 41
0.7070707071
 42
50.0
 43
0.0
 44
0.0
 50
0.0
 51
0.0
 71
0
 72
100
 73
1
 74
1
 75
0
 76
0
 77
0
 78
0
  0
ENDTAB
  0
TABLE
  2
LTYPE
  5
5
100
AcDbSymbolTable
 70
6
  0
LTYPE
  5
14
100
AcDbSymbolTableRecord
100
AcDbLinetypeTableRecord
  2
BYBLOCK
 70
0
  3

 72
65
 73
0
 40
0.0
  0
LTYPE
  5
15
100
AcDbSymbolTableRecord
100
AcDbLinetypeTableRecord
  2
BYLAYER
 70
0
  3

 72
65
 73
0
 40
0.0
  0
LTYPE
  5
16
100
AcDbSymbolTableRecord
100
AcDbLinetypeTableRecord
  2
CONTINUOUS
 70
64
  3
Solid line
 72
65
 73
0
 40
0.0
  0
LTYPE
  5
1F5
100
AcDbSymbolTableRecord
100
AcDbLinetypeTableRecord
  2
CENTER
 70
64
  3
____ _ ____ _ ____ _ ____ _ ____ _ ____ _ ____
 72
65
 73
4
 40
0.6
 49
0.375
 74
0
 49
-0.075
 74
0
 49
0.075
 74
0
 49
-0.075
 74
0
  0
LTYPE
  5
1F6
100
AcDbSymbolTableRecord
100
AcDbLinetypeTableRecord
  2
HIDDEN
 70
64
  3
- - - - - - - - - - - - - - - - - - - -
 72
65
 73
2
 40
0.2
 49
0.1
 74
0
 49
-0.1
 74
0
  0
LTYPE
  5
1F7
100
AcDbSymbolTableRecord
100
AcDbLinetypeTableRecord
  2
PHANTOM
 70
64
  3
_____ _ _ _____ _ _ _____ _ _ _____
 72
65
 73
6
 40
0.8
 49
0.45
 74
0
 49
-0.05
 74
0
 49
0.1
 74
0
 49
-0.05
 74
0
 49
0.1
 74
0
 49
-0.05
 74
0
  0
LTYPE
  5
1F8
100
AcDbSymbolTableRecord
100
AcDbLinetypeTableRecord
  2
DOT
 70
64
  3
. . . . . . . . . . . . . . . . . . . .
 72
65
 73
2
 40
0.2
 49
0.1
 74
0
 49
-0.1
 74
0
  0
LTYPE
  5
1F9
100
AcDbSymbolTableRecord
100
AcDbLinetypeTableRecord
  2
DASHED
 70
64
  3
- - - - - - - - - - - - - - - - - - - -
 72
65
 73
2
 40
0.2
 49
0.1
 74
0
 49
-0.1
 74
0
  0
ENDTAB
  0
TABLE
  2
LAYER
  5
2
100
AcDbSymbolTable
 70
36
  0
LAYER
  5
10
100
AcDbSymbolTableRecord
100
AcDbLayerTableRecord
  2
0
 70
0
 62
7
  6
CONTINUOUS
370
-3
390
F
  0
LAYER
  5
1FA
100
AcDbSymbolTableRecord
100
AcDbLayerTableRecord
  2
DEFAULT_1
 70
0
 62
7
  6
CENTER
370
-3
390
F
  0
LAYER
  5
1FB
100
AcDbSymbolTableRecord
100
AcDbLayerTableRecord
  2
DEFAULT_2
 70
0
 62
8
  6
HIDDEN
370
-3
390
F
  0
LAYER
  5
1FC
100
AcDbSymbolTableRecord
100
AcDbLayerTableRecord
  2
DEFAULT_3
 70
0
 62
7
  6
PHANTOM
370
-3
390
F
  0
LAYER
  5
1FD
100
AcDbSymbolTableRecord
100
AcDbLayerTableRecord
  2
00_COMPONENTS
 70
0
 62
7
  6
CONTINUOUS
370
-3
390
F
  0
LAYER
  5
1FE
100
AcDbSymbolTableRecord
100
AcDbLayerTableRecord
  2
00_COMPONENTS_1
 70
0
 62
7
  6
CONTINUOUS
370
-3
390
F
  0
LAYER
  5
1FF
100
AcDbSymbolTableRecord
100
AcDbLayerTableRecord
  2
00_COMPONENTS_10
 70
0
 62
7
  6
CONTINUOUS
370
-3
390
F
  0
LAYER
  5
200
100
AcDbSymbolTableRecord
100
AcDbLayerTableRecord
  2
00_COMPONENTS_11
 70
0
 62
7
  6
CONTINUOUS
370
-3
390
F
  0
LAYER
  5
201
100
AcDbSymbolTableRecord
100
AcDbLayerTableRecord
  2
00_COMPONENTS_2
 70
0
 62
7
  6
CONTINUOUS
370
-3
390
F
  0
LAYER
  5
202
100
AcDbSymbolTableRecord
100
AcDbLayerTableRecord
  2
00_COMPONENTS_5
 70
0
 62
7
  6
CONTINUOUS
370
-3
390
F
  0
LAYER
  5
203
100
AcDbSymbolTableRecord
100
AcDbLayerTableRecord
  2
00_COMPONENTS_6
 70
0
 62
7
  6
CONTINUOUS
370
-3
390
F
  0
LAYER
  5
204
100
AcDbSymbolTableRecord
100
AcDbLayerTableRecord
  2
00_COMPONENTS_7
 70
0
 62
7
  6
CONTINUOUS
370
-3
390
F
  0
LAYER
  5
205
100
AcDbSymbolTableRecord
100
AcDbLayerTableRecord
  2
00_COMPONENTS_9
 70
0
 62
7
  6
CONTINUOUS
370
-3
390
F
  0
LAYER
  5
206
100
AcDbSymbolTableRecord
100
AcDbLayerTableRecord
  2
01_1_DEFAULT_DATUMS
 70
0
 62
7
  6
CONTINUOUS
370
-3
390
F
  0
LAYER
  5
207
100
AcDbSymbolTableRecord
100
AcDbLayerTableRecord
  2
01_PLANES
 70
0
 62
7
  6
CONTINUOUS
370
-3
390
F
  0
LAYER
  5
208
100
AcDbSymbolTableRecord
100
AcDbLayerTableRecord
  2
02_COORD_SYS
 70
0
 62
7
  6
CONTINUOUS
370
-3
390
F
  0
LAYER
  5
209
100
AcDbSymbolTableRecord
100
AcDbLayerTableRecord
  2
03_AXES
 70
0
 62
7
  6
CONTINUOUS
370
-3
390
F
  0
LAYER
  5
20A
100
AcDbSymbolTableRecord
100
AcDbLayerTableRecord
  2
04_POINTS
 70
0
 62
7
  6
CONTINUOUS
370
-3
390
F
  0
LAYER
  5
20B
100
AcDbSymbolTableRecord
100
AcDbLayerTableRecord
  2
05_CURVES
 70
0
 62
7
  6
CONTINUOUS
370
-3
390
F
  0
LAYER
  5
20C
100
AcDbSymbolTableRecord
100
AcDbLayerTableRecord
  2
06_SURFS
 70
0
 62
7
  6
CONTINUOUS
370
-3
390
F
  0
LAYER
  5
20D
100
AcDbSymbolTableRecord
100
AcDbLayerTableRecord
  2
07_COSMETICS
 70
0
 62
7
  6
CONTINUOUS
370
-3
390
F
  0
LAYER
  5
20E
100
AcDbSymbolTableRecord
100
AcDbLayerTableRecord
  2
10_NOTES
 70
0
 62
7
  6
CONTINUOUS
370
-3
390
F
  0
LAYER
  5
20F
100
AcDbSymbolTableRecord
100
AcDbLayerTableRecord
  2
11_NOTES_PUB
 70
0
 62
7
  6
CONTINUOUS
370
-3
390
F
  0
LAYER
  5
210
100
AcDbSymbolTableRecord
100
AcDbLayerTableRecord
  2
13_REF_GTOL
 70
0
 62
7
  6
CONTINUOUS
370
-3
390
F
  0
LAYER
  5
211
100
AcDbSymbolTableRecord
100
AcDbLayerTableRecord
  2
16_MISC
 70
0
 62
7
  6
CONTINUOUS
370
-3
390
F
  0
LAYER
  5
212
100
AcDbSymbolTableRecord
100
AcDbLayerTableRecord
  2
17_NO_PRINT
 70
0
 62
7
  6
CONTINUOUS
370
-3
390
F
  0
LAYER
  5
213
100
AcDbSymbolTableRecord
100
AcDbLayerTableRecord
  2
18_DATUM_CAMS_JOINTS
 70
0
 62
7
  6
CONTINUOUS
370
-3
390
F
  0
LAYER
  5
214
100
AcDbSymbolTableRecord
100
AcDbLayerTableRecord
  2
19_DATUM_FUNCTIONAL
 70
0
 62
7
  6
CONTINUOUS
370
-3
390
F
  0
LAYER
  5
215
100
AcDbSymbolTableRecord
100
AcDbLayerTableRecord
  2
20_DATUM_KINEMATIC_SCHEME
 70
0
 62
7
  6
CONTINUOUS
370
-3
390
F
  0
ENDTAB
  0
TABLE
  2
STYLE
  5
3
100
AcDbSymbolTable
 70
1
  0
STYLE
  5
11
100
AcDbSymbolTableRecord
100
AcDbTextStyleTableRecord
  2
STANDARD
 70
0
 40
0.0
 41
0.8
 50
0.0
 71
0
 42
0.2
  3
txt
  4

  0
STYLE
  5
216
100
AcDbSymbolTableRecord
100
AcDbTextStyleTableRecord
  2
TEXTSTYLE_1
 70
0
 40
0.0
 41
0.8
 50
0.0
 71
0
 42
0.2
  3
gdt
  4

  0
ENDTAB
  0
TABLE
  2
VIEW
  5
6
100
AcDbSymbolTable
 70
0
  0
ENDTAB
  0
TABLE
  2
UCS
  5
7
100
AcDbSymbolTable
 70
0
  0
ENDTAB
  0
TABLE
  2
APPID
  5
9
100
AcDbSymbolTable
 70
1
  0
APPID
  5
217
100
AcDbSymbolTableRecord
100
AcDbRegAppTableRecord
  2
ACAD
 70
0
  0
ENDTAB
  0
TABLE
  2
BLOCK_RECORD
  5
1
100
AcDbSymbolTable
 70
0
  0
BLOCK_RECORD
  5
218
100
AcDbSymbolTableRecord
100
AcDbBlockTableRecord
  2
*Model_Space
  0
BLOCK_RECORD
  5
219
100
AcDbSymbolTableRecord
100
AcDbBlockTableRecord
  2
*Paper_Space
  0
BLOCK_RECORD
  5
21A
100
AcDbSymbolTableRecord
100
AcDbBlockTableRecord
  2
_FILLED
  0
ENDTAB
  0
TABLE
  2
DIMSTYLE
  5
A
100
AcDbSymbolTable
 70
1
100
AcDbDimStyleTable
 71
0
  0
DIMSTYLE
105
21B
100
AcDbSymbolTableRecord
100
AcDbDimStyleTableRecord
  2
STANDARD
 70
0
  3

  4

 40
1.0
 41
1.5253085643
 42
1.0
 43
0.38
 44
1.0
 45
0.0
 46
0.0
 47
0.01
 48
0.01
140
2.13543199
141
0.09
142
0.0
143
25.4
144
1.0
145
0.0
146
1.0
147
0.625
 71
1
 72
0
 73
0
 74
0
 75
0
 76
0
 77
1
 78
8
 79
2
170
0
171
1
172
0
173
0
174
0
175
0
176
0
177
0
178
0
270
2
179
2
271
2
272
2
273
2
274
2
275
0
280
0
281
0
282
0
283
1
284
8
285
0
286
0
287
3
288
0
340
11
278
46
341
21A
342
21A
343
21A
344
21A
  0
ENDTAB
  0
ENDSEC
  0
SECTION
  2
BLOCKS
  0
BLOCK
  5
20
100
AcDbEntity
  8
0
100
AcDbBlockBegin
  2
*Model_Space
 70
0
 10
0.0
 20
0.0
 30
0.0
  3
*Model_Space
  1

  0
ENDBLK
  5
21
100
AcDbEntity
  8
0
100
AcDbBlockEnd
  0
BLOCK
  5
1C
100
AcDbEntity
  8
0
100
AcDbBlockBegin
  2
*Paper_Space
 70
0
 10
0.0
 20
0.0
 30
0.0
  3
*Paper_Space
  1

  0
ENDBLK
  5
1D
100
AcDbEntity
  8
0
100
AcDbBlockEnd
  0
BLOCK
  5
21C
100
AcDbEntity
  8
0
100
AcDbBlockBegin
  2
_FILLED
 70
64
 10
0.0
 20
0.0
  3
_FILLED
  1

  0
SOLID
  5
21D
100
AcDbEntity
  8
0
  6
BYBLOCK
 62
0
100
AcDbTrace
 10
0.0
 20
0.0
 11
-1.0
 21
0.25
 12
-1.0
 22
-0.25
 13
-1.0
 23
-0.25
  0
ENDBLK
  5
21E
100
AcDbEntity
  8
0
  6
BYBLOCK
 62
0
100
AcDbBlockEnd
  0
ENDSEC
  0
SECTION
  2
ENTITIES
  0
LINE
  5
21F
100
AcDbEntity
  8
00_COMPONENTS_1
100
AcDbLine
 62
7
  6
CONTINUOUS
 10
54.3831431329
 20
144.9865458817
 11
29.2851010848
 21
130.4669451964
  0
LINE
  5
220
100
AcDbEntity
  8
00_COMPONENTS_7
100
AcDbLine
 62
7
  6
CONTINUOUS
 10
59.1994219439
 20
147.2121673785
 11
59.9065257811
 21
147.6204115323
  0
LINE
  5
221
100
AcDbEntity
  8
00_COMPONENTS_7
100
AcDbLine
 62
7
  6
CONTINUOUS
 10
60.3307989478
 20
147.3754628468
 11
63.9370176532
 21
149.4575017591
  0
LINE
  5
222
100
AcDbEntity
  8
00_COMPONENTS_1
100
AcDbLine
 62
7
  6
CONTINUOUS
 10
63.2400817211
 20
149.8306609705
 11
54.3831431329
 21
144.9865458817
  0
LINE
  5
223
100
AcDbEntity
  8
00_COMPONENTS_1
100
AcDbLine
 62
7
  6
CONTINUOUS
 10
33.9699195605
 20
130.2757176569
 11
47.4119616462
 21
138.0521443241
  0
LINE
  5
224
100
AcDbEntity
  8
00_COMPONENTS_1
100
AcDbLine
 62
7
  6
CONTINUOUS
 10
36.5862255436
 20
128.7652268651
 11
50.0282676292
 21
136.5416535324
  0
LINE
  5
225
100
AcDbEntity
  8
00_COMPONENTS_1
100
AcDbLine
 62
7
  6
CONTINUOUS
 10
48.8332521937
 20
137.2315804075
 11
35.3841390108
 21
129.4592361478
  0
LINE
  5
226
100
AcDbEntity
  8
00_COMPONENTS_7
100
AcDbLine
 62
7
  6
CONTINUOUS
 10
63.9881812121
 20
148.7224401422
 11
60.9929720744
 21
146.9931656626
  0
LINE
  5
227
100
AcDbEntity
  8
00_COMPONENTS_7
100
AcDbLine
 62
7
  6
CONTINUOUS
 10
56.5124273625
 20
144.0278347595
 11
56.0881650602
 21
143.7828882672
  0
LINE
  5
228
100
AcDbEntity
  8
00_COMPONENTS_7
100
AcDbLine
 62
7
  6
CONTINUOUS
 10
61.7000940188
 20
146.5849178535
 11
63.9881812121
 21
147.905937725
  0
LINE
  5
229
100
AcDbEntity
  8
00_COMPONENTS_7
100
AcDbLine
 62
7
  6
CONTINUOUS
 10
62.0561588964
 20
146.3793483512
 11
63.9653102854
 21
147.4815908401
  0
LINE
  5
22A
100
AcDbEntity
  8
00_COMPONENTS_7
100
AcDbLine
 62
7
  6
CONTINUOUS
 10
65.9185907617
 20
147.6079428823
 11
62.9233816241
 21
145.8786684028
  0
LINE
  5
22B
100
AcDbEntity
  8
00_COMPONENTS_1
100
AcDbLine
 62
7
  6
CONTINUOUS
 10
35.1629417474
 20
129.5869415583
 11
47.4119616462
 21
136.6588742804
  0
LINE
  5
22C
100
AcDbEntity
  8
00_COMPONENTS_7
100
AcDbLine
 62
7
  6
CONTINUOUS
 10
66.6822692649
 20
147.1670428675
 11
63.6870601272
 21
145.4377683879
  0
LINE
  5
22D
100
AcDbEntity
  8
00_COMPONENTS_7
100
AcDbLine
 62
7
  6
CONTINUOUS
 10
64.3941820716
 20
145.0295205788
 11
66.6822692649
 21
146.3505404503
  0
LINE
  5
22E
100
AcDbEntity
  8
00_COMPONENTS_7
100
AcDbLine
 62
7
  6
CONTINUOUS
 10
64.7502469492
 20
144.8239510765
 11
66.6593983382
 21
145.9261935653
  0
LINE
  5
22F
100
AcDbEntity
  8
00_COMPONENTS_7
100
AcDbLine
 62
7
  6
CONTINUOUS
 10
57.9425609626
 20
140.7118205025
 11
57.5889999904
 21
140.5076931985
  0
LINE
  5
230
100
AcDbEntity
  8
00_COMPONENTS_7
100
AcDbLine
 62
7
  6
CONTINUOUS
 10
68.6126788145
 20
146.0525456076
 11
65.6174696769
 21
144.3232711281
  0
LINE
  5
231
100
AcDbEntity
  8
00_COMPONENTS_1
100
AcDbLine
 62
7
  6
CONTINUOUS
 10
37.7792477305
 20
128.0764507666
 11
50.0282676292
 21
135.1483834887
  0
LINE
  5
232
100
AcDbEntity
  8
00_COMPONENTS_7
100
AcDbLine
 62
7
  6
CONTINUOUS
 10
59.1994219439
 20
146.2323644779
 11
56.6341184172
 21
143.9575779857
  0
LINE
  5
233
100
AcDbEntity
  8
00_COMPONENTS_1
100
AcDbLine
 62
7
  6
CONTINUOUS
 10
56.1376590315
 20
138.098128611
 11
56.368890089
 21
138.2318993097
  0
LINE
  5
234
100
AcDbEntity
  8
00_COMPONENTS_1
100
AcDbLine
 62
7
  6
CONTINUOUS
 10
39.2025315266
 20
127.2547360734
 11
52.6445736122
 21
135.0311627407
  0
LINE
  5
235
100
AcDbEntity
  8
00_COMPONENTS_1
100
AcDbLine
 62
7
  6
CONTINUOUS
 10
41.8188375097
 20
125.7442452817
 11
55.2608795953
 21
133.520671949
  0
LINE
  5
236
100
AcDbEntity
  8
00_COMPONENTS_1
100
AcDbLine
 62
7
  6
CONTINUOUS
 10
51.4495581768
 20
135.7210896158
 11
38.0004449939
 21
127.9487453561
  0
LINE
  5
237
100
AcDbEntity
  8
00_COMPONENTS_1
100
AcDbLine
 62
7
  6
CONTINUOUS
 10
54.0658641598
 20
134.2105988241
 11
40.6167509769
 21
126.4382545644
  0
LINE
  5
238
100
AcDbEntity
  8
00_COMPONENTS_7
100
AcDbLine
 62
7
  6
CONTINUOUS
 10
69.3763573177
 20
145.6116455927
 11
66.38114818
 21
143.8823711132
  0
LINE
  5
239
100
AcDbEntity
  8
00_COMPONENTS_7
100
AcDbLine
 62
7
  6
CONTINUOUS
 10
57.1820698377
 20
138.3723441158
 11
56.6538528403
 21
138.0673797105
  0
LINE
  5
23A
100
AcDbEntity
  8
00_COMPONENTS_1
100
AcDbLine
 62
7
  6
CONTINUOUS
 10
56.5124255961
 20
137.9040613784
 11
57.2334806574
 21
138.3203602271
  0
LINE
  5
23B
100
AcDbEntity
  8
00_COMPONENTS_7
100
AcDbLine
 62
7
  6
CONTINUOUS
 10
67.0882701244
 20
143.474123304
 11
69.3763573177
 21
144.7951431756
  0
LINE
  5
23C
100
AcDbEntity
  8
00_COMPONENTS_7
100
AcDbLine
 62
7
  6
CONTINUOUS
 10
67.444335002
 20
143.2685538017
 11
69.353486391
 21
144.3707962906
  0
LINE
  5
23D
100
AcDbEntity
  8
00_COMPONENTS_7
100
AcDbLine
 62
7
  6
CONTINUOUS
 10
60.6366490154
 20
139.1564232278
 11
60.2830880432
 21
138.9522959238
  0
LINE
  5
23E
100
AcDbEntity
  8
00_COMPONENTS_7
100
AcDbLine
 62
7
  6
CONTINUOUS
 10
71.3067668674
 20
144.4971483329
 11
68.3115577297
 21
142.7678738533
  0
LINE
  5
23F
100
AcDbEntity
  8
00_COMPONENTS_1
100
AcDbLine
 62
7
  6
CONTINUOUS
 10
40.3955537135
 20
126.5659599749
 11
52.6445736122
 21
133.637892697
  0
LINE
  5
240
100
AcDbEntity
  8
00_COMPONENTS_7
100
AcDbLine
 62
7
  6
CONTINUOUS
 10
72.0704453705
 20
144.056248318
 11
69.0752362328
 21
142.3269738385
  0
LINE
  5
241
100
AcDbEntity
  8
00_COMPONENTS_7
100
AcDbLine
 62
7
  6
CONTINUOUS
 10
69.7823581772
 20
141.9187260293
 11
72.0704453705
 21
143.2397459009
  0
LINE
  5
242
100
AcDbEntity
  8
00_COMPONENTS_7
100
AcDbLine
 62
7
  6
CONTINUOUS
 10
70.1384230548
 20
141.713156527
 11
72.0475744438
 21
142.8153990159
  0
LINE
  5
243
100
AcDbEntity
  8
00_COMPONENTS_7
100
AcDbLine
 62
7
  6
CONTINUOUS
 10
63.3307370682
 20
137.6010259531
 11
62.977176096
 21
137.3968986491
  0
LINE
  5
244
100
AcDbEntity
  8
00_COMPONENTS_1
100
AcDbLine
 62
7
  6
CONTINUOUS
 10
43.0118596965
 20
125.0554691831
 11
55.2608795953
 21
132.1274019052
  0
LINE
  5
245
100
AcDbEntity
  8
00_COMPONENTS_7
100
AcDbLine
 62
7
  6
CONTINUOUS
 10
74.0008549202
 20
142.9417510582
 11
71.0056457825
 21
141.2124765786
  0
LINE
  5
246
100
AcDbEntity
  8
00_COMPONENTS_1
100
AcDbLine
 62
7
  6
CONTINUOUS
 10
80.1184854502
 20
31.8182335826
 11
29.3480071846
 21
61.1299197572
  0
LINE
  5
247
100
AcDbEntity
  8
00_COMPONENTS_1
100
AcDbLine
 62
7
  6
CONTINUOUS
 10
29.0293992686
 20
62.3887459191
 11
18.1964782793
 21
68.6429942783
  0
LINE
  5
248
100
AcDbEntity
  8
00_COMPONENTS_1
100
AcDbLine
 62
7
  6
CONTINUOUS
 10
29.1001102411
 20
62.3479218436
 11
64.5121652937
 21
41.9032248473
  0
LINE
  5
249
100
AcDbEntity
  8
00_COMPONENTS_1
100
AcDbLine
 62
7
  6
CONTINUOUS
 10
66.4798223704
 20
41.9443823909
 11
66.9366509534
 21
41.6806382522
  0
LINE
  5
24A
100
AcDbEntity
  8
00_COMPONENTS_1
100
AcDbLine
 62
7
  6
CONTINUOUS
 10
68.2094484586
 20
40.9458048941
 11
69.5529569364
 21
40.1701474605
  0
LINE
  5
24B
100
AcDbEntity
  8
00_COMPONENTS_1
100
AcDbLine
 62
7
  6
CONTINUOUS
 10
70.8257544417
 20
39.4353141024
 11
72.1692629195
 21
38.6596566688
  0
LINE
  5
24C
100
AcDbEntity
  8
00_COMPONENTS_1
100
AcDbLine
 62
7
  6
CONTINUOUS
 10
73.4420604247
 20
37.9248233107
 11
74.7855689025
 21
37.1491658771
  0
LINE
  5
24D
100
AcDbEntity
  8
00_COMPONENTS_1
100
AcDbLine
 62
7
  6
CONTINUOUS
 10
76.0583664078
 20
36.4143325189
 11
77.4018748856
 21
35.6386750853
  0
LINE
  5
24E
100
AcDbEntity
  8
00_COMPONENTS_1
100
AcDbLine
 62
7
  6
CONTINUOUS
 10
29.0920068571
 20
62.4229878144
 11
29.1001102411
 21
62.3479218436
  0
LINE
  5
24F
100
AcDbEntity
  8
00_COMPONENTS_1
100
AcDbLine
 62
7
  6
CONTINUOUS
 10
27.9252624974
 20
79.8852293403
 11
27.9243973977
 21
79.9274834228
  0
LINE
  5
250
100
AcDbEntity
  8
00_COMPONENTS_1
100
AcDbLine
 62
7
  6
CONTINUOUS
 10
27.9244034836
 20
79.8847330653
 11
27.9243973977
 21
79.9274834228
  0
LINE
  5
251
100
AcDbEntity
  8
00_COMPONENTS_1
100
AcDbLine
 62
7
  6
CONTINUOUS
 10
29.0243613667
 20
98.6926275659
 11
29.0275966148
 21
98.7263593977
  0
LINE
  5
252
100
AcDbEntity
  8
00_COMPONENTS_1
100
AcDbLine
 62
7
  6
CONTINUOUS
 10
29.0237226227
 20
98.6923625809
 11
29.0275966148
 21
98.7263593977
  0
LINE
  5
253
100
AcDbEntity
  8
00_COMPONENTS_1
100
AcDbLine
 62
7
  6
CONTINUOUS
 10
18.1946756255
 20
104.980607757
 11
29.8083473232
 21
112.8729628533
  0
LINE
  5
254
100
AcDbEntity
  8
00_COMPONENTS_1
100
AcDbLine
 62
7
  6
CONTINUOUS
 10
28.7050026254
 20
112.962231269
 11
16.4795868653
 21
105.0475890512
  0
LINE
  5
255
100
AcDbEntity
  8
00_COMPONENTS_1
100
AcDbLine
 62
7
  6
CONTINUOUS
 10
44.4351434927
 20
124.23375449
 11
57.8771855783
 21
132.0101811572
  0
LINE
  5
256
100
AcDbEntity
  8
00_COMPONENTS_1
100
AcDbLine
 62
7
  6
CONTINUOUS
 10
47.0514494758
 20
122.7232636982
 11
60.4934915614
 21
130.4996903655
  0
LINE
  5
257
100
AcDbEntity
  8
00_COMPONENTS_1
100
AcDbLine
 62
7
  6
CONTINUOUS
 10
56.6821701428
 20
132.7001080324
 11
43.23305696
 21
124.9277637726
  0
LINE
  5
258
100
AcDbEntity
  8
00_COMPONENTS_1
100
AcDbLine
 62
7
  6
CONTINUOUS
 10
59.2984761259
 20
131.1896172406
 11
45.849362943
 21
123.4172729809
  0
LINE
  5
259
100
AcDbEntity
  8
00_COMPONENTS_7
100
AcDbLine
 62
7
  6
CONTINUOUS
 10
70.534390838
 20
140.6680680835
 11
71.2414946752
 21
141.0763122374
  0
LINE
  5
25A
100
AcDbEntity
  8
00_COMPONENTS_7
100
AcDbLine
 62
7
  6
CONTINUOUS
 10
71.2414946752
 20
140.5864107871
 11
75.2719865473
 21
142.9134024642
  0
LINE
  5
25B
100
AcDbEntity
  8
00_COMPONENTS_7
100
AcDbLine
 62
7
  6
CONTINUOUS
 10
67.8473962566
 20
137.4837354645
 11
67.4231339543
 21
137.2387889722
  0
LINE
  5
25C
100
AcDbEntity
  8
00_COMPONENTS_7
100
AcDbLine
 62
7
  6
CONTINUOUS
 10
66.024825121
 20
136.0456286784
 11
65.6712641489
 21
135.8415013744
  0
LINE
  5
25D
100
AcDbEntity
  8
00_COMPONENTS_1
100
AcDbLine
 62
7
  6
CONTINUOUS
 10
45.6281656796
 20
123.5449783914
 11
57.8771855783
 21
130.6169111135
  0
LINE
  5
25E
100
AcDbEntity
  8
00_COMPONENTS_1
100
AcDbLine
 62
7
  6
CONTINUOUS
 10
32.1526611335
 20
115.4952847441
 11
30.8524935343
 21
114.7446371115
  0
LINE
  5
25F
100
AcDbEntity
  8
00_COMPONENTS_1
100
AcDbLine
 62
7
  6
CONTINUOUS
 10
29.0904196688
 20
62.4218140268
 11
29.1001102411
 21
62.3479218436
  0
LINE
  5
260
100
AcDbEntity
  8
00_COMPONENTS_1
100
AcDbLine
 62
7
  6
CONTINUOUS
 10
31.2193716219
 20
99.9760789591
 11
31.2193716219
 21
100.05772745
  0
LINE
  5
261
100
AcDbEntity
  8
00_COMPONENTS_1
100
AcDbLine
 62
7
  6
CONTINUOUS
 10
32.1526611335
 20
115.4952847441
 11
32.1526611335
 21
125.8827083561
  0
LINE
  5
262
100
AcDbEntity
  8
00_COMPONENTS_1
100
AcDbLine
 62
7
  6
CONTINUOUS
 10
31.7639908269
 20
99.7432985187
 11
31.7231668733
 21
99.6852195552
  0
LINE
  5
263
100
AcDbEntity
  8
00_COMPONENTS_1
100
AcDbLine
 62
7
  6
CONTINUOUS
 10
31.7530533034
 20
99.6679650071
 11
31.8357650968
 21
99.7856364919
  0
LINE
  5
264
100
AcDbEntity
  8
00_COMPONENTS_1
100
AcDbLine
 62
7
  6
CONTINUOUS
 10
59.8676574148
 20
136.4976741886
 11
60.0272857003
 21
136.6871357274
  0
LINE
  5
265
100
AcDbEntity
  8
00_COMPONENTS_1
100
AcDbLine
 62
7
  6
CONTINUOUS
 10
62.5617454676
 20
134.9422769139
 11
62.7213737531
 21
135.1317384527
  0
LINE
  5
266
100
AcDbEntity
  8
00_COMPONENTS_7
100
AcDbLine
 62
7
  6
CONTINUOUS
 10
67.8473962566
 20
137.3055689777
 11
70.534390838
 21
139.6882651829
  0
LINE
  5
267
100
AcDbEntity
  8
00_COMPONENTS_1
100
AcDbLine
 62
7
  6
CONTINUOUS
 10
49.6677554588
 20
121.2127729065
 11
63.1097975444
 21
128.9891995738
  0
LINE
  5
268
100
AcDbEntity
  8
00_COMPONENTS_1
100
AcDbLine
 62
7
  6
CONTINUOUS
 10
68.2716619151
 20
131.0927172634
 11
73.3548970586
 21
134.0334464379
  0
LINE
  5
269
100
AcDbEntity
  8
00_COMPONENTS_1
100
AcDbLine
 62
7
  6
CONTINUOUS
 10
52.2911306204
 20
119.7063717426
 11
58.4358629658
 21
123.2611932622
  0
LINE
  5
26A
100
AcDbEntity
  8
00_COMPONENTS_1
100
AcDbLine
 62
7
  6
CONTINUOUS
 10
61.9147821089
 20
129.6791264489
 11
48.4656689261
 21
121.9067821892
  0
LINE
  5
26B
100
AcDbEntity
  8
00_COMPONENTS_1
100
AcDbLine
 62
7
  6
CONTINUOUS
 10
64.531088092
 20
128.1686356572
 11
51.0819749091
 21
120.3962913975
  0
LINE
  5
26C
100
AcDbEntity
  8
00_COMPONENTS_1
100
AcDbLine
 62
7
  6
CONTINUOUS
 10
48.2444716626
 20
122.0344875997
 11
60.4934915614
 21
129.1064203218
  0
LINE
  5
26D
100
AcDbEntity
  8
00_COMPONENTS_1
100
AcDbLine
 62
7
  6
CONTINUOUS
 10
34.7689671165
 20
113.9847939524
 11
33.4687995174
 21
113.2341463198
  0
LINE
  5
26E
100
AcDbEntity
  8
00_COMPONENTS_7
100
AcDbLine
 62
7
  6
CONTINUOUS
 10
68.766631245
 20
132.6255369115
 11
67.4231339543
 21
131.8498730191
  0
LINE
  5
26F
100
AcDbEntity
  8
00_COMPONENTS_7
100
AcDbLine
 62
7
  6
CONTINUOUS
 10
74.7063034776
 20
136.054787804
 11
75.2719865473
 21
136.3813831271
  0
LINE
  5
270
100
AcDbEntity
  8
00_COMPONENTS_7
100
AcDbLine
 62
7
  6
CONTINUOUS
 10
74.7063034776
 20
135.3199356286
 11
68.766631245
 21
131.8906847361
  0
LINE
  5
271
100
AcDbEntity
  8
00_COMPONENTS_1
100
AcDbLine
 62
7
  6
CONTINUOUS
 10
73.2213871858
 20
133.9727267078
 11
68.2716603253
 21
131.1150176307
  0
LINE
  5
272
100
AcDbEntity
  8
00_COMPONENTS_1
100
AcDbLine
 62
7
  6
CONTINUOUS
 10
50.8607776457
 20
120.523996808
 11
63.1097975444
 21
127.5959295301
  0
LINE
  5
273
100
AcDbEntity
  8
00_COMPONENTS_1
100
AcDbLine
 62
7
  6
CONTINUOUS
 10
37.3852730996
 20
112.4743031607
 11
36.0851055004
 21
111.7236555281
  0
LINE
  5
274
100
AcDbEntity
  8
00_COMPONENTS_1
100
AcDbLine
 62
7
  6
CONTINUOUS
 10
73.4123068116
 20
134.0648454872
 11
73.3548970586
 21
134.0334464379
  0
LINE
  5
275
100
AcDbEntity
  8
00_COMPONENTS_1
100
AcDbLine
 62
7
  6
CONTINUOUS
 10
76.6820323827
 20
46.3275091763
 11
75.9330821018
 21
46.7599060404
  0
LINE
  5
276
100
AcDbEntity
  8
00_COMPONENTS_1
100
AcDbLine
 62
7
  6
CONTINUOUS
 10
34.7689671165
 20
113.9847939524
 11
34.7689671165
 21
124.3722175644
  0
LINE
  5
277
100
AcDbEntity
  8
00_COMPONENTS_1
100
AcDbLine
 62
7
  6
CONTINUOUS
 10
37.3852730996
 20
112.4743031607
 11
37.3852730996
 21
122.8617267727
  0
LINE
  5
278
100
AcDbEntity
  8
00_COMPONENTS_1
100
AcDbLine
 62
7
  6
CONTINUOUS
 10
33.9560309748
 20
98.4777521797
 11
33.9152070212
 21
98.4196732162
  0
LINE
  5
279
100
AcDbEntity
  8
00_COMPONENTS_1
100
AcDbLine
 62
7
  6
CONTINUOUS
 10
33.9450934513
 20
98.4024186681
 11
34.0278052448
 21
98.5200901528
  0
LINE
  5
27A
100
AcDbEntity
  8
00_COMPONENTS_1
100
AcDbLine
 62
7
  6
CONTINUOUS
 10
36.1480711228
 20
97.2122058407
 11
36.1072471692
 21
97.1541268772
  0
LINE
  5
27B
100
AcDbEntity
  8
00_COMPONENTS_1
100
AcDbLine
 62
7
  6
CONTINUOUS
 10
36.1371335993
 20
97.1368723291
 11
36.2198453928
 21
97.2545438138
  0
LINE
  5
27C
100
AcDbEntity
  8
00_COMPONENTS_1
100
AcDbLine
 62
7
  6
CONTINUOUS
 10
65.2558335204
 20
133.3868796392
 11
65.4154618059
 21
133.576341178
  0
LINE
  5
27D
100
AcDbEntity
  8
00_COMPONENTS_1
100
AcDbLine
 62
7
  6
CONTINUOUS
 10
31.2193722107
 20
99.9760789591
 11
29.0983075873
 21
98.6855353223
  0
LINE
  5
27E
100
AcDbEntity
  8
00_COMPONENTS_1
100
AcDbLine
 62
7
  6
CONTINUOUS
 10
29.0275966148
 20
98.7263593977
 11
31.2193716219
 21
100.05772745
  0
LINE
  5
27F
100
AcDbEntity
  8
00_COMPONENTS_1
100
AcDbLine
 62
7
  6
CONTINUOUS
 10
59.8571535133
 20
122.4406293456
 11
53.712421168
 21
118.885807826
  0
LINE
  5
280
100
AcDbEntity
  8
00_COMPONENTS_1
100
AcDbLine
 62
7
  6
CONTINUOUS
 10
57.5038303766
 20
116.6968862188
 11
63.648562722
 21
120.2517077384
  0
LINE
  5
281
100
AcDbEntity
  8
00_COMPONENTS_1
100
AcDbLine
 62
7
  6
CONTINUOUS
 10
40.0015790826
 20
110.963812369
 11
38.7014114835
 21
110.2131647364
  0
LINE
  5
282
100
AcDbEntity
  8
00_COMPONENTS_1
100
AcDbLine
 62
7
  6
CONTINUOUS
 10
42.6178850657
 20
109.4533215772
 11
41.3177174665
 21
108.7026739446
  0
LINE
  5
283
100
AcDbEntity
  8
00_COMPONENTS_1
100
AcDbLine
 62
7
  6
CONTINUOUS
 10
33.2274652069
 20
98.8167321551
 11
33.1866412533
 21
98.9219494935
  0
LINE
  5
284
100
AcDbEntity
  8
00_COMPONENTS_1
100
AcDbLine
 62
7
  6
CONTINUOUS
 10
35.4195053549
 20
97.5511858161
 11
35.3786814013
 21
97.6564031544
  0
LINE
  5
285
100
AcDbEntity
  8
00_COMPONENTS_1
100
AcDbLine
 62
7
  6
CONTINUOUS
 10
40.0015790826
 20
110.963812369
 11
40.0015790826
 21
121.3512359809
  0
LINE
  5
286
100
AcDbEntity
  8
00_COMPONENTS_1
100
AcDbLine
 62
7
  6
CONTINUOUS
 10
42.6178850657
 20
109.4533215772
 11
42.6178850657
 21
119.8407451892
  0
LINE
  5
287
100
AcDbEntity
  8
00_COMPONENTS_1
100
AcDbLine
 62
7
  6
CONTINUOUS
 10
38.3401112707
 20
95.9466595017
 11
38.2992873171
 21
95.8885805382
  0
LINE
  5
288
100
AcDbEntity
  8
00_COMPONENTS_1
100
AcDbLine
 62
7
  6
CONTINUOUS
 10
38.3291737472
 20
95.8713259901
 11
38.4118855407
 21
95.9889974748
  0
LINE
  5
289
100
AcDbEntity
  8
00_COMPONENTS_1
100
AcDbLine
 62
7
  6
CONTINUOUS
 10
40.5321514187
 20
94.6811131627
 11
40.4913274651
 21
94.6230341992
  0
LINE
  5
28A
100
AcDbEntity
  8
00_COMPONENTS_1
100
AcDbLine
 62
7
  6
CONTINUOUS
 10
40.5212138952
 20
94.6057796511
 11
40.6039256887
 21
94.7234511358
  0
LINE
  5
28B
100
AcDbEntity
  8
00_COMPONENTS_1
100
AcDbLine
 62
7
  6
CONTINUOUS
 10
67.9499215732
 20
131.8314823645
 11
68.2507437361
 21
132.1885257902
  0
LINE
  5
28C
100
AcDbEntity
  8
00_COMPONENTS_1
100
AcDbLine
 62
7
  6
CONTINUOUS
 10
33.1866412533
 20
98.9219494935
 11
33.2562877508
 21
98.9655159088
  0
LINE
  5
28D
100
AcDbEntity
  8
00_COMPONENTS_1
100
AcDbLine
 62
7
  6
CONTINUOUS
 10
35.3786814013
 20
97.6564031544
 11
35.4483278987
 21
97.6999695698
  0
LINE
  5
28E
100
AcDbEntity
  8
00_COMPONENTS_1
100
AcDbLine
 62
7
  6
CONTINUOUS
 10
31.7639908269
 20
99.7432985187
 11
31.8357650968
 21
99.7856364919
  0
LINE
  5
28F
100
AcDbEntity
  8
00_COMPONENTS_1
100
AcDbLine
 62
7
  6
CONTINUOUS
 10
33.9560309748
 20
98.4777521797
 11
34.0278052448
 21
98.5200901528
  0
LINE
  5
290
100
AcDbEntity
  8
00_COMPONENTS_1
100
AcDbLine
 62
7
  6
CONTINUOUS
 10
36.1480711228
 20
97.2122058407
 11
36.2198453928
 21
97.2545438138
  0
LINE
  5
291
100
AcDbEntity
  8
00_COMPONENTS_1
100
AcDbLine
 62
7
  6
CONTINUOUS
 10
65.0698532696
 20
119.4311438218
 11
58.9251209242
 21
115.8763223022
  0
LINE
  5
292
100
AcDbEntity
  8
00_COMPONENTS_1
100
AcDbLine
 62
7
  6
CONTINUOUS
 10
62.7165301329
 20
113.687400695
 11
68.8612624782
 21
117.2422222146
  0
LINE
  5
293
100
AcDbEntity
  8
00_COMPONENTS_1
100
AcDbLine
 62
7
  6
CONTINUOUS
 10
45.2341910487
 20
107.9428307855
 11
43.9340234496
 21
107.1921831529
  0
LINE
  5
294
100
AcDbEntity
  8
00_COMPONENTS_1
100
AcDbLine
 62
7
  6
CONTINUOUS
 10
47.8504970317
 20
106.4323399938
 11
46.5503294326
 21
105.6816923612
  0
LINE
  5
295
100
AcDbEntity
  8
00_COMPONENTS_2
100
AcDbLine
 62
7
  6
CONTINUOUS
 10
84.6978348435
 20
127.4696235838
 11
91.3446109133
 21
131.3071186302
  0
LINE
  5
296
100
AcDbEntity
  8
00_COMPONENTS_2
100
AcDbLine
 62
7
  6
CONTINUOUS
 10
81.4129717167
 20
124.8012364506
 11
80.8794741225
 21
124.4932233096
  0
LINE
  5
297
100
AcDbEntity
  8
00_COMPONENTS_2
100
AcDbLine
 62
7
  6
CONTINUOUS
 10
85.8724409232
 20
127.3221927701
 11
90.6336156548
 21
130.0710418746
  0
LINE
  5
298
100
AcDbEntity
  8
00_COMPONENTS_2
100
AcDbLine
 62
7
  6
CONTINUOUS
 10
86.2260018954
 20
127.1180688655
 11
90.6336156548
 21
129.662790666
  0
LINE
  5
299
100
AcDbEntity
  8
00_COMPONENTS_2
100
AcDbLine
 62
7
  6
CONTINUOUS
 10
87.8409181416
 20
127.9411424191
 11
90.1036504207
 21
129.2475237115
  0
LINE
  5
29A
100
AcDbEntity
  8
00_COMPONENTS_1
100
AcDbLine
 62
7
  6
CONTINUOUS
 10
37.6115455028
 20
96.2856394771
 11
37.5707215492
 21
96.3908568154
  0
LINE
  5
29B
100
AcDbEntity
  8
00_COMPONENTS_1
100
AcDbLine
 62
7
  6
CONTINUOUS
 10
39.8035856508
 20
95.0200931381
 11
39.7627616972
 21
95.1253104764
  0
LINE
  5
29C
100
AcDbEntity
  8
00_COMPONENTS_1
100
AcDbLine
 62
7
  6
CONTINUOUS
 10
41.9956257988
 20
93.7545467991
 11
41.9548018451
 21
93.8597641374
  0
LINE
  5
29D
100
AcDbEntity
  8
00_COMPONENTS_1
100
AcDbLine
 62
7
  6
CONTINUOUS
 10
45.2341910487
 20
107.9428307855
 11
45.2341910487
 21
118.3302543975
  0
LINE
  5
29E
100
AcDbEntity
  8
00_COMPONENTS_1
100
AcDbLine
 62
7
  6
CONTINUOUS
 10
47.4119616462
 20
136.6588742804
 11
47.4119616462
 21
138.0521443241
  0
LINE
  5
29F
100
AcDbEntity
  8
00_COMPONENTS_1
100
AcDbLine
 62
7
  6
CONTINUOUS
 10
47.8504970317
 20
106.4323399938
 11
47.8504970317
 21
116.8197636058
  0
LINE
  5
2A0
100
AcDbEntity
  8
00_COMPONENTS_1
100
AcDbLine
 62
7
  6
CONTINUOUS
 10
50.0282676292
 20
135.1483834887
 11
50.0282676292
 21
136.5416535324
  0
LINE
  5
2A1
100
AcDbEntity
  8
00_COMPONENTS_1
100
AcDbLine
 62
7
  6
CONTINUOUS
 10
42.7241915666
 20
93.4155668237
 11
42.683367613
 21
93.3574878602
  0
LINE
  5
2A2
100
AcDbEntity
  8
00_COMPONENTS_1
100
AcDbLine
 62
7
  6
CONTINUOUS
 10
42.7132540431
 20
93.340233312
 11
42.7959658366
 21
93.4579047968
  0
LINE
  5
2A3
100
AcDbEntity
  8
00_COMPONENTS_1
100
AcDbLine
 62
7
  6
CONTINUOUS
 10
44.9162317146
 20
92.1500204847
 11
44.875407761
 21
92.0919415211
  0
LINE
  5
2A4
100
AcDbEntity
  8
00_COMPONENTS_1
100
AcDbLine
 62
7
  6
CONTINUOUS
 10
44.9052941911
 20
92.074686973
 11
44.9880059846
 21
92.1923584578
  0
LINE
  5
2A5
100
AcDbEntity
  8
00_COMPONENTS_2
100
AcDbLine
 62
7
  6
CONTINUOUS
 10
84.6978348435
 20
127.2243482262
 11
81.5180323847
 21
124.7405810179
  0
LINE
  5
2A6
100
AcDbEntity
  8
00_COMPONENTS_1
100
AcDbLine
 62
7
  6
CONTINUOUS
 10
37.5707215492
 20
96.3908568154
 11
37.6403680467
 21
96.4344232308
  0
LINE
  5
2A7
100
AcDbEntity
  8
00_COMPONENTS_1
100
AcDbLine
 62
7
  6
CONTINUOUS
 10
39.7627616972
 20
95.1253104764
 11
39.8324081946
 21
95.1688768918
  0
LINE
  5
2A8
100
AcDbEntity
  8
00_COMPONENTS_1
100
AcDbLine
 62
7
  6
CONTINUOUS
 10
41.9548018451
 20
93.8597641374
 11
42.0244483426
 21
93.9033305528
  0
LINE
  5
2A9
100
AcDbEntity
  8
00_COMPONENTS_1
100
AcDbLine
 62
7
  6
CONTINUOUS
 10
38.3401112707
 20
95.9466595017
 11
38.4118855407
 21
95.9889974748
  0
LINE
  5
2AA
100
AcDbEntity
  8
00_COMPONENTS_1
100
AcDbLine
 62
7
  6
CONTINUOUS
 10
40.5321514187
 20
94.6811131627
 11
40.6039256887
 21
94.7234511358
  0
LINE
  5
2AB
100
AcDbEntity
  8
00_COMPONENTS_1
100
AcDbLine
 62
7
  6
CONTINUOUS
 10
70.2825530258
 20
116.421658298
 11
64.1378206804
 21
112.8668367784
  0
LINE
  5
2AC
100
AcDbEntity
  8
00_COMPONENTS_1
100
AcDbLine
 62
7
  6
CONTINUOUS
 10
65.3655913571
 20
112.1498281562
 11
78.8076334427
 21
119.9262548234
  0
LINE
  5
2AD
100
AcDbEntity
  8
00_COMPONENTS_1
100
AcDbLine
 62
7
  6
CONTINUOUS
 10
67.9818973401
 20
110.6393373644
 11
80.8794741225
 21
118.1007825374
  0
LINE
  5
2AE
100
AcDbEntity
  8
00_COMPONENTS_1
100
AcDbLine
 62
7
  6
CONTINUOUS
 10
80.2289239902
 20
119.1056909068
 11
66.7798108074
 21
111.3333466471
  0
LINE
  5
2AF
100
AcDbEntity
  8
00_COMPONENTS_1
100
AcDbLine
 62
7
  6
CONTINUOUS
 10
19.9645009899
 20
87.530164227
 11
19.4300953543
 21
87.2216268312
  0
LINE
  5
2B0
100
AcDbEntity
  8
00_COMPONENTS_1
100
AcDbLine
 62
7
  6
CONTINUOUS
 10
50.4668030148
 20
104.9218492021
 11
49.1666354157
 21
104.1712015695
  0
LINE
  5
2B1
100
AcDbEntity
  8
00_COMPONENTS_2
100
AcDbLine
 62
7
  6
CONTINUOUS
 10
82.1310571585
 20
122.3379589894
 11
81.989636391
 21
122.2563101587
  0
LINE
  5
2B2
100
AcDbEntity
  8
00_COMPONENTS_2
100
AcDbLine
 62
7
  6
CONTINUOUS
 10
92.1189131374
 20
128.0840375611
 11
89.8561808583
 21
126.7776562687
  0
LINE
  5
2B3
100
AcDbEntity
  8
00_COMPONENTS_2
100
AcDbLine
 62
7
  6
CONTINUOUS
 10
93.1155679076
 20
128.6381184903
 11
88.3543931761
 21
125.8892693858
  0
LINE
  5
2B4
100
AcDbEntity
  8
00_COMPONENTS_2
100
AcDbLine
 62
7
  6
CONTINUOUS
 10
89.1871728903
 20
125.4084746707
 11
93.9483476219
 21
128.1573237752
  0
LINE
  5
2B5
100
AcDbEntity
  8
00_COMPONENTS_2
100
AcDbLine
 62
7
  6
CONTINUOUS
 10
89.5407338625
 20
125.2043507661
 11
93.9483476219
 21
127.7490725666
  0
LINE
  5
2B6
100
AcDbEntity
  8
00_COMPONENTS_2
100
AcDbLine
 62
7
  6
CONTINUOUS
 10
82.9819614887
 20
121.1279200466
 11
82.6498087151
 21
120.936152698
  0
LINE
  5
2B7
100
AcDbEntity
  8
00_COMPONENTS_2
100
AcDbLine
 62
7
  6
CONTINUOUS
 10
91.4330355453
 20
125.8672793862
 11
93.6957678244
 21
127.1736606785
  0
LINE
  5
2B8
100
AcDbEntity
  8
00_COMPONENTS_1
100
AcDbLine
 62
7
  6
CONTINUOUS
 10
66.5586135439
 20
111.4610520576
 11
78.8076334427
 21
118.5329847797
  0
LINE
  5
2B9
100
AcDbEntity
  8
00_COMPONENTS_1
100
AcDbLine
 62
7
  6
CONTINUOUS
 10
53.0831089978
 20
103.4113584103
 11
51.7829413987
 21
102.6607107777
  0
LINE
  5
2BA
100
AcDbEntity
  8
00_COMPONENTS_2
100
AcDbLine
 62
7
  6
CONTINUOUS
 10
96.4302998747
 20
126.7244003909
 11
91.6691251432
 21
123.9755512864
  0
LINE
  5
2BB
100
AcDbEntity
  8
00_COMPONENTS_2
100
AcDbLine
 62
7
  6
CONTINUOUS
 10
85.7231745622
 20
120.2640959565
 11
85.5817537948
 21
120.1824471257
  0
LINE
  5
2BC
100
AcDbEntity
  8
00_COMPONENTS_1
100
AcDbLine
 62
7
  6
CONTINUOUS
 10
44.1876659467
 20
92.4890004601
 11
44.1468419931
 21
92.5942177984
  0
LINE
  5
2BD
100
AcDbEntity
  8
00_COMPONENTS_1
100
AcDbLine
 62
7
  6
CONTINUOUS
 10
46.3797060947
 20
91.2234541211
 11
46.3388821411
 21
91.3286714594
  0
LINE
  5
2BE
100
AcDbEntity
  8
00_COMPONENTS_1
100
AcDbLine
 62
7
  6
CONTINUOUS
 10
48.5717462426
 20
89.9579077821
 11
48.530922289
 21
90.0631251204
  0
LINE
  5
2BF
100
AcDbEntity
  8
00_COMPONENTS_1
100
AcDbLine
 62
7
  6
CONTINUOUS
 10
50.4668030148
 20
104.9218492021
 11
50.4668030148
 21
115.309272814
  0
LINE
  5
2C0
100
AcDbEntity
  8
00_COMPONENTS_1
100
AcDbLine
 62
7
  6
CONTINUOUS
 10
52.6445736122
 20
133.637892697
 11
52.6445736122
 21
135.0311627407
  0
LINE
  5
2C1
100
AcDbEntity
  8
00_COMPONENTS_1
100
AcDbLine
 62
7
  6
CONTINUOUS
 10
53.0831089978
 20
103.4113584103
 11
53.0831089978
 21
113.7987820223
  0
LINE
  5
2C2
100
AcDbEntity
  8
00_COMPONENTS_1
100
AcDbLine
 62
7
  6
CONTINUOUS
 10
55.2608795953
 20
132.1274019052
 11
55.2608795953
 21
133.520671949
  0
LINE
  5
2C3
100
AcDbEntity
  8
00_COMPONENTS_1
100
AcDbLine
 62
7
  6
CONTINUOUS
 10
47.1082718626
 20
90.8844741456
 11
47.0674479089
 21
90.8263951821
  0
LINE
  5
2C4
100
AcDbEntity
  8
00_COMPONENTS_1
100
AcDbLine
 62
7
  6
CONTINUOUS
 10
47.097334339
 20
90.809140634
 11
47.1800461325
 21
90.9268121188
  0
LINE
  5
2C5
100
AcDbEntity
  8
00_COMPONENTS_1
100
AcDbLine
 62
7
  6
CONTINUOUS
 10
49.3003120105
 20
89.6189278066
 11
49.2594880569
 21
89.5608488431
  0
LINE
  5
2C6
100
AcDbEntity
  8
00_COMPONENTS_1
100
AcDbLine
 62
7
  6
CONTINUOUS
 10
49.289374487
 20
89.543594295
 11
49.3720862805
 21
89.6612657798
  0
LINE
  5
2C7
100
AcDbEntity
  8
00_COMPONENTS_1
100
AcDbLine
 62
7
  6
CONTINUOUS
 10
51.4923521585
 20
88.3533814676
 11
51.4515282049
 21
88.2953025041
  0
LINE
  5
2C8
100
AcDbEntity
  8
00_COMPONENTS_1
100
AcDbLine
 62
7
  6
CONTINUOUS
 10
51.481414635
 20
88.278047956
 11
51.5641264284
 21
88.3957194407
  0
LINE
  5
2C9
100
AcDbEntity
  8
00_COMPONENTS_1
100
AcDbLine
 62
7
  6
CONTINUOUS
 10
44.1468419931
 20
92.5942177984
 11
44.2164884906
 21
92.6377842138
  0
LINE
  5
2CA
100
AcDbEntity
  8
00_COMPONENTS_1
100
AcDbLine
 62
7
  6
CONTINUOUS
 10
46.338882141
 20
91.3286714594
 11
46.4085286385
 21
91.3722378747
  0
LINE
  5
2CB
100
AcDbEntity
  8
00_COMPONENTS_1
100
AcDbLine
 62
7
  6
CONTINUOUS
 10
42.7241915667
 20
93.4155668237
 11
42.7959658366
 21
93.4579047968
  0
LINE
  5
2CC
100
AcDbEntity
  8
00_COMPONENTS_1
100
AcDbLine
 62
7
  6
CONTINUOUS
 10
44.9162317146
 20
92.1500204847
 11
44.9880059846
 21
92.1923584578
  0
LINE
  5
2CD
100
AcDbEntity
  8
00_COMPONENTS_1
100
AcDbLine
 62
7
  6
CONTINUOUS
 10
70.5982033232
 20
109.1288465727
 11
83.2657772425
 21
116.4572315762
  0
LINE
  5
2CE
100
AcDbEntity
  8
00_COMPONENTS_1
100
AcDbLine
 62
7
  6
CONTINUOUS
 10
73.2145093062
 20
107.618355781
 11
85.8820832255
 21
114.9467407844
  0
LINE
  5
2CF
100
AcDbEntity
  8
00_COMPONENTS_1
100
AcDbLine
 62
7
  6
CONTINUOUS
 10
82.0703544031
 20
117.1473936607
 11
69.3961167904
 21
109.8228558554
  0
LINE
  5
2D0
100
AcDbEntity
  8
00_COMPONENTS_1
100
AcDbLine
 62
7
  6
CONTINUOUS
 10
84.6866603862
 20
115.636902869
 11
72.0124227735
 21
108.3123650637
  0
LINE
  5
2D1
100
AcDbEntity
  8
00_COMPONENTS_2
100
AcDbLine
 62
7
  6
CONTINUOUS
 10
91.9244962345
 20
123.2974030726
 11
98.5712723043
 21
127.134898119
  0
LINE
  5
2D2
100
AcDbEntity
  8
00_COMPONENTS_2
100
AcDbLine
 62
7
  6
CONTINUOUS
 10
98.5712723043
 20
126.9471025631
 11
98.7126930718
 21
127.0287513939
  0
LINE
  5
2D3
100
AcDbEntity
  8
00_COMPONENTS_1
100
AcDbLine
 62
7
  6
CONTINUOUS
 10
69.174919527
 20
109.9505612659
 11
81.4239394257
 21
117.022493988
  0
LINE
  5
2D4
100
AcDbEntity
  8
00_COMPONENTS_1
100
AcDbLine
 62
7
  6
CONTINUOUS
 10
55.6994149809
 20
101.9008676186
 11
54.3992473817
 21
101.150219986
  0
LINE
  5
2D5
100
AcDbEntity
  8
00_COMPONENTS_2
100
AcDbLine
 62
7
  6
CONTINUOUS
 10
88.6396331077
 20
120.6290159394
 11
88.1061355135
 21
120.3210027984
  0
LINE
  5
2D6
100
AcDbEntity
  8
00_COMPONENTS_2
100
AcDbLine
 62
7
  6
CONTINUOUS
 10
86.5740788924
 20
119.0540570136
 11
86.2419261188
 21
118.8622896651
  0
LINE
  5
2D7
100
AcDbEntity
  8
00_COMPONENTS_1
100
AcDbLine
 62
7
  6
CONTINUOUS
 10
71.79122551
 20
108.4400704742
 11
84.0402454088
 21
115.5120031963
  0
LINE
  5
2D8
100
AcDbEntity
  8
00_COMPONENTS_1
100
AcDbLine
 62
7
  6
CONTINUOUS
 10
58.3157209639
 20
100.3903768269
 11
57.0155533648
 21
99.6397291943
  0
LINE
  5
2D9
100
AcDbEntity
  8
00_COMPONENTS_1
100
AcDbLine
 62
7
  6
CONTINUOUS
 10
24.1476613938
 20
80.4767683109
 11
23.5300349719
 21
80.1201836585
  0
LINE
  5
2DA
100
AcDbEntity
  8
00_COMPONENTS_1
100
AcDbLine
 62
7
  6
CONTINUOUS
 10
64.5103626955
 20
78.2408382938
 11
29.0983075873
 21
98.6855353223
  0
LINE
  5
2DB
100
AcDbEntity
  8
00_COMPONENTS_1
100
AcDbLine
 62
7
  6
CONTINUOUS
 10
18.1946756255
 20
104.980607757
 11
29.0275966148
 21
98.7263593977
  0
LINE
  5
2DC
100
AcDbEntity
  8
00_COMPONENTS_1
100
AcDbLine
 62
7
  6
CONTINUOUS
 10
50.7637863906
 20
88.692361443
 11
50.722962437
 21
88.7975787814
  0
LINE
  5
2DD
100
AcDbEntity
  8
00_COMPONENTS_1
100
AcDbLine
 62
7
  6
CONTINUOUS
 10
52.9558265385
 20
87.426815104
 11
52.9150025849
 21
87.5320324423
  0
LINE
  5
2DE
100
AcDbEntity
  8
00_COMPONENTS_1
100
AcDbLine
 62
7
  6
CONTINUOUS
 10
55.1478666865
 20
86.161268765
 11
55.1070427329
 21
86.2664861033
  0
LINE
  5
2DF
100
AcDbEntity
  8
00_COMPONENTS_1
100
AcDbLine
 62
7
  6
CONTINUOUS
 10
55.6994149809
 20
101.9008676186
 11
55.6994149809
 21
112.2882912306
  0
LINE
  5
2E0
100
AcDbEntity
  8
00_COMPONENTS_7
100
AcDbLine
 62
7
  6
CONTINUOUS
 10
56.0881650602
 20
138.3939723141
 11
56.0881650602
 21
143.7828882672
  0
LINE
  5
2E1
100
AcDbEntity
  8
00_COMPONENTS_1
100
AcDbLine
 62
7
  6
CONTINUOUS
 10
56.5124255961
 20
137.8817619289
 11
56.5124255961
 21
137.9040613784
  0
LINE
  5
2E2
100
AcDbEntity
  8
00_COMPONENTS_7
100
AcDbLine
 62
7
  6
CONTINUOUS
 10
56.6538528403
 20
138.9573673452
 11
56.6538528403
 21
138.0673797105
  0
LINE
  5
2E3
100
AcDbEntity
  8
00_COMPONENTS_1
100
AcDbLine
 62
7
  6
CONTINUOUS
 10
57.8771855783
 20
130.6169111135
 11
57.8771855783
 21
132.0101811572
  0
LINE
  5
2E4
100
AcDbEntity
  8
00_COMPONENTS_1
100
AcDbLine
 62
7
  6
CONTINUOUS
 10
58.3157209639
 20
100.3903768269
 11
58.3157209639
 21
110.7778004389
  0
LINE
  5
2E5
100
AcDbEntity
  8
00_COMPONENTS_1
100
AcDbLine
 62
7
  6
CONTINUOUS
 10
58.4074291092
 20
137.3407183217
 11
58.4074291092
 21
137.7716605761
  0
LINE
  5
2E6
100
AcDbEntity
  8
00_COMPONENTS_1
100
AcDbLine
 62
7
  6
CONTINUOUS
 10
58.4358629658
 20
121.6183910543
 11
58.4358629658
 21
123.2611932622
  0
LINE
  5
2E7
100
AcDbEntity
  8
00_COMPONENTS_1
100
AcDbLine
 62
7
  6
CONTINUOUS
 10
58.8741642472
 20
137.0712547603
 11
58.8741642472
 21
137.6019740136
  0
LINE
  5
2E8
100
AcDbEntity
  8
00_COMPONENTS_1
100
AcDbLine
 62
7
  6
CONTINUOUS
 10
59.1570069596
 20
137.4386783917
 11
59.1570069596
 21
136.9079591383
  0
LINE
  5
2E9
100
AcDbEntity
  8
00_COMPONENTS_7
100
AcDbLine
 62
7
  6
CONTINUOUS
 10
59.1994219439
 20
146.2323644779
 11
59.1994219439
 21
147.2121673785
  0
LINE
  5
2EA
100
AcDbEntity
  8
00_COMPONENTS_1
100
AcDbLine
 62
7
  6
CONTINUOUS
 10
59.6570455875
 20
136.619268233
 11
59.6570455875
 21
137.0892287024
  0
LINE
  5
2EB
100
AcDbEntity
  8
00_COMPONENTS_1
100
AcDbLine
 62
7
  6
CONTINUOUS
 10
59.7156248201
 20
137.0164346956
 11
59.7156248201
 21
136.5854482624
  0
LINE
  5
2EC
100
AcDbEntity
  8
00_COMPONENTS_1
100
AcDbLine
 62
7
  6
CONTINUOUS
 10
60.4934915614
 20
129.1064203218
 11
60.4934915614
 21
130.4996903655
  0
LINE
  5
2ED
100
AcDbEntity
  8
00_COMPONENTS_1
100
AcDbLine
 62
7
  6
CONTINUOUS
 10
53.6843923064
 20
87.0878351286
 11
53.6435683528
 21
87.0297561651
  0
LINE
  5
2EE
100
AcDbEntity
  8
00_COMPONENTS_1
100
AcDbLine
 62
7
  6
CONTINUOUS
 10
53.6734547829
 20
87.012501617
 11
53.7561665764
 21
87.1301731017
  0
LINE
  5
2EF
100
AcDbEntity
  8
00_COMPONENTS_1
100
AcDbLine
 62
7
  6
CONTINUOUS
 10
55.8764324544
 20
85.8222887896
 11
55.8356085008
 21
85.7642098261
  0
LINE
  5
2F0
100
AcDbEntity
  8
00_COMPONENTS_1
100
AcDbLine
 62
7
  6
CONTINUOUS
 10
55.8654949309
 20
85.746955278
 11
55.9482067244
 21
85.8646267627
  0
LINE
  5
2F1
100
AcDbEntity
  8
00_COMPONENTS_2
100
AcDbLine
 62
7
  6
CONTINUOUS
 10
88.7044016791
 20
120.5368880521
 11
91.9244962345
 21
123.052127715
  0
LINE
  5
2F2
100
AcDbEntity
  8
00_COMPONENTS_1
100
AcDbLine
 62
7
  6
CONTINUOUS
 10
48.530922289
 20
90.0631251204
 11
48.6005687865
 21
90.1066915357
  0
LINE
  5
2F3
100
AcDbEntity
  8
00_COMPONENTS_1
100
AcDbLine
 62
7
  6
CONTINUOUS
 10
50.722962437
 20
88.7975787814
 11
50.7926089344
 21
88.8411451967
  0
LINE
  5
2F4
100
AcDbEntity
  8
00_COMPONENTS_1
100
AcDbLine
 62
7
  6
CONTINUOUS
 10
47.1082718626
 20
90.8844741456
 11
47.1800461325
 21
90.9268121188
  0
LINE
  5
2F5
100
AcDbEntity
  8
00_COMPONENTS_1
100
AcDbLine
 62
7
  6
CONTINUOUS
 10
49.3003120105
 20
89.6189278066
 11
49.3720862805
 21
89.6612657798
  0
LINE
  5
2F6
100
AcDbEntity
  8
00_COMPONENTS_1
100
AcDbLine
 62
7
  6
CONTINUOUS
 10
51.4923521585
 20
88.3533814676
 11
51.5641264284
 21
88.3957194407
  0
LINE
  5
2F7
100
AcDbEntity
  8
00_COMPONENTS_1
100
AcDbLine
 62
7
  6
CONTINUOUS
 10
75.8308152892
 20
106.1078649893
 11
89.2728573749
 21
113.8842916565
  0
LINE
  5
2F8
100
AcDbEntity
  8
00_COMPONENTS_1
100
AcDbLine
 62
7
  6
CONTINUOUS
 10
93.3033561947
 20
115.2515656409
 11
99.5886678615
 21
118.8877144452
  0
LINE
  5
2F9
100
AcDbEntity
  8
00_COMPONENTS_1
100
AcDbLine
 62
7
  6
CONTINUOUS
 10
78.4471212723
 20
104.5973741975
 11
91.8891633579
 21
112.3738008648
  0
LINE
  5
2FA
100
AcDbEntity
  8
00_COMPONENTS_1
100
AcDbLine
 62
7
  6
CONTINUOUS
 10
87.3029663692
 20
114.1264120772
 11
74.6287287565
 21
106.8018742719
  0
LINE
  5
2FB
100
AcDbEntity
  8
00_COMPONENTS_1
100
AcDbLine
 62
7
  6
CONTINUOUS
 10
90.6941479224
 20
113.0637277399
 11
77.2450347395
 21
105.2913834802
  0
LINE
  5
2FC
100
AcDbEntity
  8
00_COMPONENTS_1
100
AcDbLine
 62
7
  6
CONTINUOUS
 10
74.4075314931
 20
106.9295796824
 11
86.6565513918
 21
114.0015124045
  0
LINE
  5
2FD
100
AcDbEntity
  8
00_COMPONENTS_1
100
AcDbLine
 62
7
  6
CONTINUOUS
 10
60.932026947
 20
98.8798860352
 11
59.6318593478
 21
98.1292384026
  0
LINE
  5
2FE
100
AcDbEntity
  8
00_COMPONENTS_2
100
AcDbLine
 62
7
  6
CONTINUOUS
 10
90.1568702633
 20
114.8466978382
 11
88.1061355135
 21
113.6627126459
  0
LINE
  5
2FF
100
AcDbEntity
  8
00_COMPONENTS_2
100
AcDbLine
 62
7
  6
CONTINUOUS
 10
97.8535619095
 20
119.290358307
 11
98.7126930718
 21
119.7863749539
  0
LINE
  5
300
100
AcDbEntity
  8
00_COMPONENTS_2
100
AcDbLine
 62
7
  6
CONTINUOUS
 10
93.4016181873
 20
116.4179368489
 11
91.0315145425
 21
115.0495650396
  0
LINE
  5
301
100
AcDbEntity
  8
00_COMPONENTS_2
100
AcDbLine
 62
7
  6
CONTINUOUS
 10
97.4894034334
 20
118.3697554648
 11
97.8535619095
 21
118.5800012041
  0
LINE
  5
302
100
AcDbEntity
  8
00_COMPONENTS_1
100
AcDbLine
 62
7
  6
CONTINUOUS
 10
98.0975155596
 20
118.467738092
 11
93.92560292
 21
116.0590975842
  0
LINE
  5
303
100
AcDbEntity
  8
00_COMPONENTS_1
100
AcDbLine
 62
7
  6
CONTINUOUS
 10
99.4410157943
 20
118.8351595302
 11
93.3599227942
 21
115.3242598069
  0
LINE
  5
304
100
AcDbEntity
  8
00_COMPONENTS_1
100
AcDbLine
 62
7
  6
CONTINUOUS
 10
77.0238374761
 20
105.4190888907
 11
89.2728573749
 21
112.4910216128
  0
LINE
  5
305
100
AcDbEntity
  8
00_COMPONENTS_1
100
AcDbLine
 62
7
  6
CONTINUOUS
 10
63.54833293
 20
97.3693952434
 11
62.2481653309
 21
96.6187476108
  0
LINE
  5
306
100
AcDbEntity
  8
00_COMPONENTS_1
100
AcDbLine
 62
7
  6
CONTINUOUS
 10
99.787498382
 20
118.9964605898
 11
99.5886678615
 21
118.8877144452
  0
LINE
  5
307
100
AcDbEntity
  8
00_COMPONENTS_1
100
AcDbLine
 62
7
  6
CONTINUOUS
 10
31.2193722107
 20
99.9760789591
 11
66.7572167903
 21
79.4587589885
  0
LINE
  5
308
100
AcDbEntity
  8
00_COMPONENTS_1
100
AcDbLine
 62
7
  6
CONTINUOUS
 10
31.2193716219
 20
100.05772745
 11
31.7639908269
 21
99.7432985187
  0
LINE
  5
309
100
AcDbEntity
  8
00_COMPONENTS_1
100
AcDbLine
 62
7
  6
CONTINUOUS
 10
33.1866412533
 20
98.9219494935
 11
33.9560309748
 21
98.4777521797
  0
LINE
  5
30A
100
AcDbEntity
  8
00_COMPONENTS_1
100
AcDbLine
 62
7
  6
CONTINUOUS
 10
35.3786814013
 20
97.6564031544
 11
36.1480711228
 21
97.2122058407
  0
LINE
  5
30B
100
AcDbEntity
  8
00_COMPONENTS_1
100
AcDbLine
 62
7
  6
CONTINUOUS
 10
37.5707215492
 20
96.3908568154
 11
38.3401112707
 21
95.9466595017
  0
LINE
  5
30C
100
AcDbEntity
  8
00_COMPONENTS_1
100
AcDbLine
 62
7
  6
CONTINUOUS
 10
39.7627616972
 20
95.1253104764
 11
40.5321514187
 21
94.6811131627
  0
LINE
  5
30D
100
AcDbEntity
  8
00_COMPONENTS_1
100
AcDbLine
 62
7
  6
CONTINUOUS
 10
41.9548018451
 20
93.8597641374
 11
42.7241915666
 21
93.4155668237
  0
LINE
  5
30E
100
AcDbEntity
  8
00_COMPONENTS_1
100
AcDbLine
 62
7
  6
CONTINUOUS
 10
44.1468419931
 20
92.5942177984
 11
44.9162317146
 21
92.1500204847
  0
LINE
  5
30F
100
AcDbEntity
  8
00_COMPONENTS_1
100
AcDbLine
 62
7
  6
CONTINUOUS
 10
46.3388821411
 20
91.3286714594
 11
47.1082718626
 21
90.8844741456
  0
LINE
  5
310
100
AcDbEntity
  8
00_COMPONENTS_1
100
AcDbLine
 62
7
  6
CONTINUOUS
 10
48.530922289
 20
90.0631251204
 11
49.3003120105
 21
89.6189278066
  0
LINE
  5
311
100
AcDbEntity
  8
00_COMPONENTS_1
100
AcDbLine
 62
7
  6
CONTINUOUS
 10
50.722962437
 20
88.7975787814
 11
51.4923521585
 21
88.3533814676
  0
LINE
  5
312
100
AcDbEntity
  8
00_COMPONENTS_1
100
AcDbLine
 62
7
  6
CONTINUOUS
 10
52.9150025849
 20
87.5320324423
 11
53.6843923064
 21
87.0878351286
  0
LINE
  5
313
100
AcDbEntity
  8
00_COMPONENTS_1
100
AcDbLine
 62
7
  6
CONTINUOUS
 10
55.1070427329
 20
86.2664861033
 11
55.8764324544
 21
85.8222887896
  0
LINE
  5
314
100
AcDbEntity
  8
00_COMPONENTS_1
100
AcDbLine
 62
7
  6
CONTINUOUS
 10
57.2990828808
 20
85.0009397643
 11
58.0684726023
 21
84.5567424506
  0
LINE
  5
315
100
AcDbEntity
  8
00_COMPONENTS_1
100
AcDbLine
 62
7
  6
CONTINUOUS
 10
59.4911230288
 20
83.7353934253
 11
60.2605127503
 21
83.2911961116
  0
LINE
  5
316
100
AcDbEntity
  8
00_COMPONENTS_1
100
AcDbLine
 62
7
  6
CONTINUOUS
 10
61.6831631767
 20
82.4698470863
 11
62.4525528983
 21
82.0256497726
  0
LINE
  5
317
100
AcDbEntity
  8
00_COMPONENTS_1
100
AcDbLine
 62
7
  6
CONTINUOUS
 10
63.8752033247
 20
81.2043007473
 11
64.6445930462
 21
80.7601034335
  0
LINE
  5
318
100
AcDbEntity
  8
00_COMPONENTS_1
100
AcDbLine
 62
7
  6
CONTINUOUS
 10
66.0672434727
 20
79.9387544083
 11
66.8366331942
 21
79.4945570945
  0
LINE
  5
319
100
AcDbEntity
  8
00_COMPONENTS_1
100
AcDbLine
 62
7
  6
CONTINUOUS
 10
66.1368899701
 20
79.9823208236
 11
64.7163673162
 21
80.8024414067
  0
LINE
  5
31A
100
AcDbEntity
  8
00_COMPONENTS_1
100
AcDbLine
 62
7
  6
CONTINUOUS
 10
63.9448498222
 20
81.2478671626
 11
62.5243271682
 21
82.0679877457
  0
LINE
  5
31B
100
AcDbEntity
  8
00_COMPONENTS_1
100
AcDbLine
 62
7
  6
CONTINUOUS
 10
61.7528096742
 20
82.5134135017
 11
60.3322870203
 21
83.3335340847
  0
LINE
  5
31C
100
AcDbEntity
  8
00_COMPONENTS_1
100
AcDbLine
 62
7
  6
CONTINUOUS
 10
59.5607695263
 20
83.7789598407
 11
58.1402468723
 21
84.5990804237
  0
LINE
  5
31D
100
AcDbEntity
  8
00_COMPONENTS_1
100
AcDbLine
 62
7
  6
CONTINUOUS
 10
57.3687293783
 20
85.0445061797
 11
55.9482067244
 21
85.8646267627
  0
LINE
  5
31E
100
AcDbEntity
  8
00_COMPONENTS_1
100
AcDbLine
 62
7
  6
CONTINUOUS
 10
55.1766892303
 20
86.3100525187
 11
53.7561665764
 21
87.1301731017
  0
LINE
  5
31F
100
AcDbEntity
  8
00_COMPONENTS_1
100
AcDbLine
 62
7
  6
CONTINUOUS
 10
52.9846490824
 20
87.5755988577
 11
51.5641264284
 21
88.3957194407
  0
LINE
  5
320
100
AcDbEntity
  8
00_COMPONENTS_1
100
AcDbLine
 62
7
  6
CONTINUOUS
 10
50.7926089344
 20
88.8411451967
 11
49.3720862805
 21
89.6612657798
  0
LINE
  5
321
100
AcDbEntity
  8
00_COMPONENTS_1
100
AcDbLine
 62
7
  6
CONTINUOUS
 10
48.6005687865
 20
90.1066915357
 11
47.1800461325
 21
90.9268121188
  0
LINE
  5
322
100
AcDbEntity
  8
00_COMPONENTS_1
100
AcDbLine
 62
7
  6
CONTINUOUS
 10
46.4085286385
 20
91.3722378747
 11
44.9880059846
 21
92.1923584578
  0
LINE
  5
323
100
AcDbEntity
  8
00_COMPONENTS_1
100
AcDbLine
 62
7
  6
CONTINUOUS
 10
44.2164884906
 20
92.6377842138
 11
42.7959658366
 21
93.4579047968
  0
LINE
  5
324
100
AcDbEntity
  8
00_COMPONENTS_1
100
AcDbLine
 62
7
  6
CONTINUOUS
 10
42.0244483426
 20
93.9033305528
 11
40.6039256887
 21
94.7234511358
  0
LINE
  5
325
100
AcDbEntity
  8
00_COMPONENTS_1
100
AcDbLine
 62
7
  6
CONTINUOUS
 10
39.8324081946
 20
95.1688768918
 11
38.4118855407
 21
95.9889974748
  0
LINE
  5
326
100
AcDbEntity
  8
00_COMPONENTS_1
100
AcDbLine
 62
7
  6
CONTINUOUS
 10
37.6403680467
 20
96.4344232308
 11
36.2198453928
 21
97.2545438138
  0
LINE
  5
327
100
AcDbEntity
  8
00_COMPONENTS_1
100
AcDbLine
 62
7
  6
CONTINUOUS
 10
35.4483278987
 20
97.6999695698
 11
34.0278052448
 21
98.5200901528
  0
LINE
  5
328
100
AcDbEntity
  8
00_COMPONENTS_1
100
AcDbLine
 62
7
  6
CONTINUOUS
 10
33.2562877508
 20
98.9655159088
 11
31.8357650968
 21
99.7856364919
  0
LINE
  5
329
100
AcDbEntity
  8
00_COMPONENTS_1
100
AcDbLine
 62
7
  6
CONTINUOUS
 10
57.3399068344
 20
84.895722426
 11
57.2990828808
 21
85.0009397643
  0
LINE
  5
32A
100
AcDbEntity
  8
00_COMPONENTS_1
100
AcDbLine
 62
7
  6
CONTINUOUS
 10
59.5319469824
 20
83.630176087
 11
59.4911230288
 21
83.7353934253
  0
LINE
  5
32B
100
AcDbEntity
  8
00_COMPONENTS_1
100
AcDbLine
 62
7
  6
CONTINUOUS
 10
61.7239871304
 20
82.364629748
 11
61.6831631767
 21
82.4698470863
  0
LINE
  5
32C
100
AcDbEntity
  8
00_COMPONENTS_1
100
AcDbLine
 62
7
  6
CONTINUOUS
 10
63.9160272783
 20
81.099083409
 11
63.8752033247
 21
81.2043007473
  0
LINE
  5
32D
100
AcDbEntity
  8
00_COMPONENTS_1
100
AcDbLine
 62
7
  6
CONTINUOUS
 10
60.932026947
 20
98.8798860352
 11
60.932026947
 21
109.2673096471
  0
LINE
  5
32E
100
AcDbEntity
  8
00_COMPONENTS_1
100
AcDbLine
 62
7
  6
CONTINUOUS
 10
61.101517162
 20
135.785321047
 11
61.101517162
 21
136.2162633013
  0
LINE
  5
32F
100
AcDbEntity
  8
00_COMPONENTS_1
100
AcDbLine
 62
7
  6
CONTINUOUS
 10
61.5682523
 20
135.5158574856
 11
61.5682523
 21
136.0465767389
  0
LINE
  5
330
100
AcDbEntity
  8
00_COMPONENTS_1
100
AcDbLine
 62
7
  6
CONTINUOUS
 10
61.8510950124
 20
135.8832811169
 11
61.8510950124
 21
135.3525618636
  0
LINE
  5
331
100
AcDbEntity
  8
00_COMPONENTS_1
100
AcDbLine
 62
7
  6
CONTINUOUS
 10
62.3511336403
 20
135.0638709583
 11
62.3511336403
 21
135.5338314277
  0
LINE
  5
332
100
AcDbEntity
  8
00_COMPONENTS_1
100
AcDbLine
 62
7
  6
CONTINUOUS
 10
62.4097128729
 20
135.4610374209
 11
62.4097128729
 21
135.0300509877
  0
LINE
  5
333
100
AcDbEntity
  8
00_COMPONENTS_1
100
AcDbLine
 62
7
  6
CONTINUOUS
 10
63.1097975444
 20
127.5959295301
 11
63.1097975444
 21
128.9891995738
  0
LINE
  5
334
100
AcDbEntity
  8
00_COMPONENTS_1
100
AcDbLine
 62
7
  6
CONTINUOUS
 10
63.54833293
 20
97.3693952434
 11
63.54833293
 21
107.7568188554
  0
LINE
  5
335
100
AcDbEntity
  8
00_COMPONENTS_1
100
AcDbLine
 62
7
  6
CONTINUOUS
 10
63.648562722
 20
118.6089055305
 11
63.648562722
 21
120.2517077384
  0
LINE
  5
336
100
AcDbEntity
  8
00_COMPONENTS_1
100
AcDbLine
 62
7
  6
CONTINUOUS
 10
63.7956052148
 20
134.2299237723
 11
63.7956052148
 21
134.6608660266
  0
LINE
  5
337
100
AcDbEntity
  8
00_COMPONENTS_7
100
AcDbLine
 62
7
  6
CONTINUOUS
 10
63.9653102854
 20
146.4802226051
 11
63.9653102854
 21
147.4815908401
  0
LINE
  5
338
100
AcDbEntity
  8
00_COMPONENTS_7
100
AcDbLine
 62
7
  6
CONTINUOUS
 10
63.9881812121
 20
147.905937725
 11
63.9881812121
 21
148.7224401422
  0
LINE
  5
339
100
AcDbEntity
  8
00_COMPONENTS_1
100
AcDbLine
 62
7
  6
CONTINUOUS
 10
64.2623403528
 20
133.9604602108
 11
64.2623403528
 21
134.4911794642
  0
LINE
  5
33A
100
AcDbEntity
  8
00_COMPONENTS_1
100
AcDbLine
 62
7
  6
CONTINUOUS
 10
64.5451830652
 20
134.3278838422
 11
64.5451830652
 21
133.7971645889
  0
LINE
  5
33B
100
AcDbEntity
  8
00_COMPONENTS_1
100
AcDbLine
 62
7
  6
CONTINUOUS
 10
65.0452216931
 20
133.5084736835
 11
65.0452216931
 21
133.978434153
  0
LINE
  5
33C
100
AcDbEntity
  8
00_COMPONENTS_1
100
AcDbLine
 62
7
  6
CONTINUOUS
 10
65.1038009257
 20
133.9056401462
 11
65.1038009257
 21
133.474653713
  0
LINE
  5
33D
100
AcDbEntity
  8
00_COMPONENTS_1
100
AcDbLine
 62
7
  6
CONTINUOUS
 10
58.0684726023
 20
84.5567424506
 11
58.0276486487
 21
84.4986634871
  0
LINE
  5
33E
100
AcDbEntity
  8
00_COMPONENTS_1
100
AcDbLine
 62
7
  6
CONTINUOUS
 10
58.0575350788
 20
84.481408939
 11
58.1402468723
 21
84.5990804237
  0
LINE
  5
33F
100
AcDbEntity
  8
00_COMPONENTS_1
100
AcDbLine
 62
7
  6
CONTINUOUS
 10
60.2605127503
 20
83.2911961116
 11
60.2196887967
 21
83.2331171481
  0
LINE
  5
340
100
AcDbEntity
  8
00_COMPONENTS_1
100
AcDbLine
 62
7
  6
CONTINUOUS
 10
60.2495752268
 20
83.2158625999
 11
60.3322870203
 21
83.3335340847
  0
LINE
  5
341
100
AcDbEntity
  8
00_COMPONENTS_1
100
AcDbLine
 62
7
  6
CONTINUOUS
 10
52.9150025849
 20
87.5320324423
 11
52.9846490824
 21
87.5755988577
  0
LINE
  5
342
100
AcDbEntity
  8
00_COMPONENTS_1
100
AcDbLine
 62
7
  6
CONTINUOUS
 10
55.1070427329
 20
86.2664861033
 11
55.1766892303
 21
86.3100525187
  0
LINE
  5
343
100
AcDbEntity
  8
00_COMPONENTS_1
100
AcDbLine
 62
7
  6
CONTINUOUS
 10
53.6843923064
 20
87.0878351286
 11
53.7561665764
 21
87.1301731017
  0
LINE
  5
344
100
AcDbEntity
  8
00_COMPONENTS_1
100
AcDbLine
 62
7
  6
CONTINUOUS
 10
55.8764324544
 20
85.8222887896
 11
55.9482067244
 21
85.8646267627
  0
LINE
  5
345
100
AcDbEntity
  8
00_COMPONENTS_1
100
AcDbLine
 62
7
  6
CONTINUOUS
 10
80.0555793504
 20
101.1552590218
 11
105.1536213984
 21
115.6748597071
  0
LINE
  5
346
100
AcDbEntity
  8
00_COMPONENTS_1
100
AcDbLine
 62
7
  6
CONTINUOUS
 10
93.3104539055
 20
111.5532369482
 11
79.8613407226
 21
103.7808926885
  0
LINE
  5
347
100
AcDbEntity
  8
00_COMPONENTS_1
100
AcDbLine
 62
7
  6
CONTINUOUS
 10
79.6401434592
 20
103.908598099
 11
91.8891633579
 21
110.9805308211
  0
LINE
  5
348
100
AcDbEntity
  8
00_COMPONENTS_1
100
AcDbLine
 62
7
  6
CONTINUOUS
 10
66.1646389131
 20
95.8589044517
 11
64.8644713139
 21
95.1082568191
  0
LINE
  5
349
100
AcDbEntity
  8
00_COMPONENTS_1
100
AcDbLine
 62
7
  6
CONTINUOUS
 10
68.7809448961
 20
94.34841366
 11
67.480777297
 21
93.5977660274
  0
LINE
  5
34A
100
AcDbEntity
  8
00_COMPONENTS_1
100
AcDbLine
 62
7
  6
CONTINUOUS
 10
105.1536213984
 20
115.6748597071
 11
114.0105599867
 21
120.5189747959
  0
LINE
  5
34B
100
AcDbEntity
  8
00_COMPONENTS_1
100
AcDbLine
 62
7
  6
CONTINUOUS
 10
66.1080674263
 20
79.8335370699
 11
66.0672434727
 21
79.9387544083
  0
LINE
  5
34C
100
AcDbEntity
  8
00_COMPONENTS_1
100
AcDbLine
 62
7
  6
CONTINUOUS
 10
66.1646389131
 20
95.8589044517
 11
66.1646389131
 21
106.2463280637
  0
LINE
  5
34D
100
AcDbEntity
  8
00_COMPONENTS_1
100
AcDbLine
 62
7
  6
CONTINUOUS
 10
66.4896932676
 20
132.6745264976
 11
66.4896932676
 21
133.1054687519
  0
LINE
  5
34E
100
AcDbEntity
  8
00_COMPONENTS_7
100
AcDbLine
 62
7
  6
CONTINUOUS
 10
66.6593983382
 20
144.9248253304
 11
66.6593983382
 21
145.9261935653
  0
LINE
  5
34F
100
AcDbEntity
  8
00_COMPONENTS_7
100
AcDbLine
 62
7
  6
CONTINUOUS
 10
66.6822692649
 20
146.3505404503
 11
66.6822692649
 21
147.1670428675
  0
LINE
  5
350
100
AcDbEntity
  8
00_COMPONENTS_7
100
AcDbLine
 62
7
  6
CONTINUOUS
 10
66.8574461742
 20
133.0664532574
 11
66.8574461742
 21
132.1764656228
  0
LINE
  5
351
100
AcDbEntity
  8
00_COMPONENTS_7
100
AcDbLine
 62
7
  6
CONTINUOUS
 10
67.4231339543
 20
137.2387889722
 11
67.4231339543
 21
131.8498730191
  0
LINE
  5
352
100
AcDbEntity
  8
00_COMPONENTS_1
100
AcDbLine
 62
7
  6
CONTINUOUS
 10
67.739309746
 20
131.9530764088
 11
67.739309746
 21
132.0324161079
  0
LINE
  5
353
100
AcDbEntity
  8
00_COMPONENTS_1
100
AcDbLine
 62
7
  6
CONTINUOUS
 10
67.7978889785
 20
132.0662366417
 11
67.7978889785
 21
131.9192564382
  0
LINE
  5
354
100
AcDbEntity
  8
00_COMPONENTS_7
100
AcDbLine
 62
7
  6
CONTINUOUS
 10
67.8473962566
 20
137.4837354645
 11
67.8473962566
 21
137.3055689777
  0
LINE
  5
355
100
AcDbEntity
  8
00_COMPONENTS_1
100
AcDbLine
 62
7
  6
CONTINUOUS
 10
68.2716603253
 20
131.0927172634
 11
68.2716603253
 21
131.1150176307
  0
LINE
  5
356
100
AcDbEntity
  8
00_COMPONENTS_7
100
AcDbLine
 62
7
  6
CONTINUOUS
 10
68.766631245
 20
131.8906847361
 11
68.766631245
 21
132.6255369115
  0
LINE
  5
357
100
AcDbEntity
  8
00_COMPONENTS_1
100
AcDbLine
 62
7
  6
CONTINUOUS
 10
68.7809448961
 20
94.34841366
 11
68.7809448961
 21
104.735837272
  0
LINE
  5
358
100
AcDbEntity
  8
00_COMPONENTS_1
100
AcDbLine
 62
7
  6
CONTINUOUS
 10
68.8588228803
 20
44.2055488151
 11
68.8588228803
 21
75.8142319334
  0
LINE
  5
359
100
AcDbEntity
  8
00_COMPONENTS_1
100
AcDbLine
 62
7
  6
CONTINUOUS
 10
68.8612624782
 20
115.5994200067
 11
68.8612624782
 21
117.2422222146
  0
LINE
  5
35A
100
AcDbEntity
  8
00_COMPONENTS_1
100
AcDbLine
 62
7
  6
CONTINUOUS
 10
68.929533264
 20
75.8550563709
 11
68.929533264
 21
44.2463732392
  0
LINE
  5
35B
100
AcDbEntity
  8
00_COMPONENTS_7
100
AcDbLine
 62
7
  6
CONTINUOUS
 10
69.353486391
 20
143.3694280556
 11
69.353486391
 21
144.3707962906
  0
LINE
  5
35C
100
AcDbEntity
  8
00_COMPONENTS_7
100
AcDbLine
 62
7
  6
CONTINUOUS
 10
69.3763573177
 20
144.7951431756
 11
69.3763573177
 21
145.6116455927
  0
LINE
  5
35D
100
AcDbEntity
  8
00_COMPONENTS_7
100
AcDbLine
 62
7
  6
CONTINUOUS
 10
70.534390838
 20
139.6882651829
 11
70.534390838
 21
140.6680680835
  0
LINE
  5
35E
100
AcDbEntity
  8
00_COMPONENTS_1
100
AcDbLine
 62
7
  6
CONTINUOUS
 10
62.4525528983
 20
82.0256497726
 11
62.4117289446
 21
81.967570809
  0
LINE
  5
35F
100
AcDbEntity
  8
00_COMPONENTS_1
100
AcDbLine
 62
7
  6
CONTINUOUS
 10
62.4416153747
 20
81.9503162609
 11
62.5243271682
 21
82.0679877457
  0
LINE
  5
360
100
AcDbEntity
  8
00_COMPONENTS_1
100
AcDbLine
 62
7
  6
CONTINUOUS
 10
64.6445930462
 20
80.7601034335
 11
64.6037690926
 21
80.70202447
  0
LINE
  5
361
100
AcDbEntity
  8
00_COMPONENTS_1
100
AcDbLine
 62
7
  6
CONTINUOUS
 10
64.6336555227
 20
80.6847699219
 11
64.7163673162
 21
80.8024414067
  0
LINE
  5
362
100
AcDbEntity
  8
00_COMPONENTS_1
100
AcDbLine
 62
7
  6
CONTINUOUS
 10
57.2990828808
 20
85.0009397643
 11
57.3687293783
 21
85.0445061797
  0
LINE
  5
363
100
AcDbEntity
  8
00_COMPONENTS_1
100
AcDbLine
 62
7
  6
CONTINUOUS
 10
59.4911230288
 20
83.7353934253
 11
59.5607695263
 21
83.7789598407
  0
LINE
  5
364
100
AcDbEntity
  8
00_COMPONENTS_1
100
AcDbLine
 62
7
  6
CONTINUOUS
 10
61.6831631767
 20
82.4698470863
 11
61.7528096742
 21
82.5134135017
  0
LINE
  5
365
100
AcDbEntity
  8
00_COMPONENTS_1
100
AcDbLine
 62
7
  6
CONTINUOUS
 10
58.0684726023
 20
84.5567424506
 11
58.1402468723
 21
84.5990804237
  0
LINE
  5
366
100
AcDbEntity
  8
00_COMPONENTS_1
100
AcDbLine
 62
7
  6
CONTINUOUS
 10
60.2605127503
 20
83.2911961116
 11
60.3322870203
 21
83.3335340847
  0
LINE
  5
367
100
AcDbEntity
  8
00_COMPONENTS_1
100
AcDbLine
 62
7
  6
CONTINUOUS
 10
71.3972508791
 20
92.8379228683
 11
70.09708328
 21
92.0872752357
  0
LINE
  5
368
100
AcDbEntity
  8
00_COMPONENTS_1
100
AcDbLine
 62
7
  6
CONTINUOUS
 10
74.0135568622
 20
91.3274320765
 11
72.713389263
 21
90.5767844439
  0
LINE
  5
369
100
AcDbEntity
  8
00_COMPONENTS_1
100
AcDbLine
 62
7
  6
CONTINUOUS
 10
77.5382537706
 20
85.3167119232
 11
29.8083473232
 21
112.8729628533
  0
LINE
  5
36A
100
AcDbEntity
  8
00_COMPONENTS_1
100
AcDbLine
 62
7
  6
CONTINUOUS
 10
30.8524935343
 20
114.7446371116
 11
32.1960020121
 21
113.968979678
  0
LINE
  5
36B
100
AcDbEntity
  8
00_COMPONENTS_1
100
AcDbLine
 62
7
  6
CONTINUOUS
 10
33.4687995174
 20
113.2341463198
 11
34.8123079952
 21
112.4584888862
  0
LINE
  5
36C
100
AcDbEntity
  8
00_COMPONENTS_1
100
AcDbLine
 62
7
  6
CONTINUOUS
 10
36.0851055004
 20
111.7236555281
 11
37.4286139782
 21
110.9479980945
  0
LINE
  5
36D
100
AcDbEntity
  8
00_COMPONENTS_1
100
AcDbLine
 62
7
  6
CONTINUOUS
 10
38.7014114835
 20
110.2131647364
 11
40.0449199613
 21
109.4375073028
  0
LINE
  5
36E
100
AcDbEntity
  8
00_COMPONENTS_1
100
AcDbLine
 62
7
  6
CONTINUOUS
 10
41.3177174665
 20
108.7026739446
 11
42.6612259443
 21
107.9270165111
  0
LINE
  5
36F
100
AcDbEntity
  8
00_COMPONENTS_1
100
AcDbLine
 62
7
  6
CONTINUOUS
 10
43.9340234496
 20
107.1921831529
 11
45.2775319273
 21
106.4165257193
  0
LINE
  5
370
100
AcDbEntity
  8
00_COMPONENTS_1
100
AcDbLine
 62
7
  6
CONTINUOUS
 10
46.5503294326
 20
105.6816923612
 11
47.8938379104
 21
104.9060349276
  0
LINE
  5
371
100
AcDbEntity
  8
00_COMPONENTS_1
100
AcDbLine
 62
7
  6
CONTINUOUS
 10
49.1666354157
 20
104.1712015695
 11
50.5101438934
 21
103.3955441359
  0
LINE
  5
372
100
AcDbEntity
  8
00_COMPONENTS_1
100
AcDbLine
 62
7
  6
CONTINUOUS
 10
51.7829413987
 20
102.6607107777
 11
53.1264498765
 21
101.8850533442
  0
LINE
  5
373
100
AcDbEntity
  8
00_COMPONENTS_1
100
AcDbLine
 62
7
  6
CONTINUOUS
 10
54.3992473817
 20
101.150219986
 11
55.7427558595
 21
100.3745625524
  0
LINE
  5
374
100
AcDbEntity
  8
00_COMPONENTS_1
100
AcDbLine
 62
7
  6
CONTINUOUS
 10
57.0155533648
 20
99.6397291943
 11
58.3590618426
 21
98.8640717607
  0
LINE
  5
375
100
AcDbEntity
  8
00_COMPONENTS_1
100
AcDbLine
 62
7
  6
CONTINUOUS
 10
59.6318593478
 20
98.1292384026
 11
60.9753678256
 21
97.353580969
  0
LINE
  5
376
100
AcDbEntity
  8
00_COMPONENTS_1
100
AcDbLine
 62
7
  6
CONTINUOUS
 10
62.2481653309
 20
96.6187476108
 11
63.5916738087
 21
95.8430901773
  0
LINE
  5
377
100
AcDbEntity
  8
00_COMPONENTS_1
100
AcDbLine
 62
7
  6
CONTINUOUS
 10
64.8644713139
 20
95.1082568191
 11
66.2079797917
 21
94.3325993855
  0
LINE
  5
378
100
AcDbEntity
  8
00_COMPONENTS_1
100
AcDbLine
 62
7
  6
CONTINUOUS
 10
67.480777297
 20
93.5977660274
 11
68.8242857747
 21
92.8221085938
  0
LINE
  5
379
100
AcDbEntity
  8
00_COMPONENTS_1
100
AcDbLine
 62
7
  6
CONTINUOUS
 10
70.09708328
 20
92.0872752357
 11
71.4405917578
 21
91.3116178021
  0
LINE
  5
37A
100
AcDbEntity
  8
00_COMPONENTS_1
100
AcDbLine
 62
7
  6
CONTINUOUS
 10
72.7133892631
 20
90.5767844439
 11
74.0568977408
 21
89.8011270104
  0
LINE
  5
37B
100
AcDbEntity
  8
00_COMPONENTS_1
100
AcDbLine
 62
7
  6
CONTINUOUS
 10
75.3296952461
 20
89.0662936522
 11
76.6732037239
 21
88.2906362186
  0
LINE
  5
37C
100
AcDbEntity
  8
00_COMPONENTS_1
100
AcDbLine
 62
7
  6
CONTINUOUS
 10
76.7194112591
 20
89.7652416536
 11
76.6298628452
 21
89.8169412848
  0
LINE
  5
37D
100
AcDbEntity
  8
00_COMPONENTS_1
100
AcDbLine
 62
7
  6
CONTINUOUS
 10
74.103105276
 20
91.2757324453
 11
74.0135568622
 21
91.3274320765
  0
LINE
  5
37E
100
AcDbEntity
  8
00_COMPONENTS_1
100
AcDbLine
 62
7
  6
CONTINUOUS
 10
71.486799293
 20
92.786223237
 11
71.3972508791
 21
92.8379228683
  0
LINE
  5
37F
100
AcDbEntity
  8
00_COMPONENTS_1
100
AcDbLine
 62
7
  6
CONTINUOUS
 10
68.8704933099
 20
94.2967140287
 11
68.7809448961
 21
94.34841366
  0
LINE
  5
380
100
AcDbEntity
  8
00_COMPONENTS_1
100
AcDbLine
 62
7
  6
CONTINUOUS
 10
66.2541873269
 20
95.8072048205
 11
66.1646389131
 21
95.8589044517
  0
LINE
  5
381
100
AcDbEntity
  8
00_COMPONENTS_1
100
AcDbLine
 62
7
  6
CONTINUOUS
 10
63.6378813439
 20
97.3176956122
 11
63.54833293
 21
97.3693952434
  0
LINE
  5
382
100
AcDbEntity
  8
00_COMPONENTS_1
100
AcDbLine
 62
7
  6
CONTINUOUS
 10
61.0215753608
 20
98.8281864039
 11
60.932026947
 21
98.8798860352
  0
LINE
  5
383
100
AcDbEntity
  8
00_COMPONENTS_1
100
AcDbLine
 62
7
  6
CONTINUOUS
 10
58.4052693778
 20
100.3386771956
 11
58.3157209639
 21
100.3903768269
  0
LINE
  5
384
100
AcDbEntity
  8
00_COMPONENTS_1
100
AcDbLine
 62
7
  6
CONTINUOUS
 10
55.7889633947
 20
101.8491679874
 11
55.6994149809
 21
101.9008676186
  0
LINE
  5
385
100
AcDbEntity
  8
00_COMPONENTS_1
100
AcDbLine
 62
7
  6
CONTINUOUS
 10
53.1726574117
 20
103.3596587791
 11
53.0831089978
 21
103.4113584103
  0
LINE
  5
386
100
AcDbEntity
  8
00_COMPONENTS_1
100
AcDbLine
 62
7
  6
CONTINUOUS
 10
50.5563514286
 20
104.8701495708
 11
50.4668030148
 21
104.9218492021
  0
LINE
  5
387
100
AcDbEntity
  8
00_COMPONENTS_1
100
AcDbLine
 62
7
  6
CONTINUOUS
 10
47.9400454456
 20
106.3806403625
 11
47.8504970317
 21
106.4323399938
  0
LINE
  5
388
100
AcDbEntity
  8
00_COMPONENTS_1
100
AcDbLine
 62
7
  6
CONTINUOUS
 10
45.3237394626
 20
107.8911311543
 11
45.2341910487
 21
107.9428307855
  0
LINE
  5
389
100
AcDbEntity
  8
00_COMPONENTS_1
100
AcDbLine
 62
7
  6
CONTINUOUS
 10
42.7074334795
 20
109.401621946
 11
42.6178850657
 21
109.4533215772
  0
LINE
  5
38A
100
AcDbEntity
  8
00_COMPONENTS_1
100
AcDbLine
 62
7
  6
CONTINUOUS
 10
40.0911274965
 20
110.9121127377
 11
40.0015790826
 21
110.963812369
  0
LINE
  5
38B
100
AcDbEntity
  8
00_COMPONENTS_1
100
AcDbLine
 62
7
  6
CONTINUOUS
 10
37.4748215134
 20
112.4226035294
 11
37.3852730996
 21
112.4743031607
  0
LINE
  5
38C
100
AcDbEntity
  8
00_COMPONENTS_1
100
AcDbLine
 62
7
  6
CONTINUOUS
 10
34.8585155304
 20
113.9330943212
 11
34.7689671165
 21
113.9847939524
  0
LINE
  5
38D
100
AcDbEntity
  8
00_COMPONENTS_1
100
AcDbLine
 62
7
  6
CONTINUOUS
 10
32.2422095473
 20
115.4435851129
 11
32.1526611335
 21
115.4952847441
  0
LINE
  5
38E
100
AcDbEntity
  8
00_COMPONENTS_7
100
AcDbLine
 62
7
  6
CONTINUOUS
 10
71.2414946752
 20
140.5864107871
 11
71.2414946752
 21
141.0763122374
  0
LINE
  5
38F
100
AcDbEntity
  8
00_COMPONENTS_1
100
AcDbLine
 62
7
  6
CONTINUOUS
 10
71.3972508791
 20
92.8379228683
 11
71.3972508791
 21
103.2253464802
  0
LINE
  5
390
100
AcDbEntity
  8
00_COMPONENTS_7
100
AcDbLine
 62
7
  6
CONTINUOUS
 10
72.0475744438
 20
141.8140307809
 11
72.0475744438
 21
142.8153990159
  0
LINE
  5
391
100
AcDbEntity
  8
00_COMPONENTS_7
100
AcDbLine
 62
7
  6
CONTINUOUS
 10
72.0704453705
 20
143.2397459009
 11
72.0704453705
 21
144.056248318
  0
LINE
  5
392
100
AcDbEntity
  8
00_COMPONENTS_1
100
AcDbLine
 62
7
  6
CONTINUOUS
 10
74.0135568622
 20
91.3274320765
 11
74.0135568622
 21
101.7148556885
  0
LINE
  5
393
100
AcDbEntity
  8
00_COMPONENTS_7
100
AcDbLine
 62
7
  6
CONTINUOUS
 10
74.7063034776
 20
136.054787804
 11
74.7063034776
 21
135.3199356286
  0
LINE
  5
394
100
AcDbEntity
  8
00_COMPONENTS_7
100
AcDbLine
 62
7
  6
CONTINUOUS
 10
75.2719865473
 20
142.9134024642
 11
75.2719865473
 21
136.3813831271
  0
LINE
  5
395
100
AcDbEntity
  8
00_COMPONENTS_1
100
AcDbLine
 62
7
  6
CONTINUOUS
 10
66.8209510219
 20
79.4141345847
 11
66.9073216935
 21
79.537492387
  0
LINE
  5
396
100
AcDbEntity
  8
00_COMPONENTS_1
100
AcDbLine
 62
7
  6
CONTINUOUS
 10
66.8366331942
 20
79.4945570945
 11
66.7935294121
 21
79.4332346903
  0
LINE
  5
397
100
AcDbEntity
  8
00_COMPONENTS_1
100
AcDbLine
 62
7
  6
CONTINUOUS
 10
68.4770162603
 20
77.370175641
 11
68.5487174643
 21
77.472182704
  0
LINE
  5
398
100
AcDbEntity
  8
00_COMPONENTS_1
100
AcDbLine
 62
7
  6
CONTINUOUS
 10
63.8752033247
 20
81.2043007473
 11
63.9448498222
 21
81.2478671626
  0
LINE
  5
399
100
AcDbEntity
  8
00_COMPONENTS_1
100
AcDbLine
 62
7
  6
CONTINUOUS
 10
66.0672434727
 20
79.9387544083
 11
66.1368899701
 21
79.9823208236
  0
LINE
  5
39A
100
AcDbEntity
  8
00_COMPONENTS_1
100
AcDbLine
 62
7
  6
CONTINUOUS
 10
62.4525528983
 20
82.0256497725
 11
62.5243271682
 21
82.0679877457
  0
LINE
  5
39B
100
AcDbEntity
  8
00_COMPONENTS_1
100
AcDbLine
 62
7
  6
CONTINUOUS
 10
64.6445930462
 20
80.7601034335
 11
64.7163673162
 21
80.8024414067
  0
LINE
  5
39C
100
AcDbEntity
  8
00_COMPONENTS_1
100
AcDbLine
 62
7
  6
CONTINUOUS
 10
76.6298628452
 20
89.8169412848
 11
75.3296952461
 21
89.0662936522
  0
LINE
  5
39D
100
AcDbEntity
  8
00_COMPONENTS_1
100
AcDbLine
 62
7
  6
CONTINUOUS
 10
29.0920068571
 20
62.4229878144
 11
29.0293992686
 21
62.3887459191
  0
LINE
  5
39E
100
AcDbEntity
  8
00_COMPONENTS_1
100
AcDbLine
 62
7
  6
CONTINUOUS
 10
77.5382537706
 20
85.3167119232
 11
66.9073260016
 21
79.5375088997
  0
LINE
  5
39F
100
AcDbEntity
  8
00_COMPONENTS_1
100
AcDbLine
 62
7
  6
CONTINUOUS
 10
66.7572167903
 20
79.4587589885
 11
64.5103626955
 21
78.2408382938
  0
LINE
  5
3A0
100
AcDbEntity
  8
00_COMPONENTS_1
100
AcDbLine
 62
7
  6
CONTINUOUS
 10
114.1913948813
 20
72.1722974897
 11
111.3634162901
 21
73.8049947541
  0
LINE
  5
3A1
100
AcDbEntity
  8
00_COMPONENTS_1
100
AcDbLine
 62
7
  6
CONTINUOUS
 10
114.1913948813
 20
72.1722974897
 11
115.2519056399
 21
71.5351596342
  0
LINE
  5
3A2
100
AcDbEntity
  8
00_COMPONENTS_1
100
AcDbLine
 62
7
  6
CONTINUOUS
 10
76.6298628452
 20
89.8169412848
 11
76.6298628452
 21
100.2043648968
  0
LINE
  5
3A3
100
AcDbEntity
  8
00_COMPONENTS_1
100
AcDbLine
 62
7
  6
CONTINUOUS
 10
78.8076334427
 20
118.5329847797
 11
78.8076334427
 21
119.9262548234
  0
LINE
  5
3A4
100
AcDbEntity
  8
00_COMPONENTS_2
100
AcDbLine
 62
7
  6
CONTINUOUS
 10
80.8794741225
 20
117.8349331571
 11
80.8794741225
 21
124.4932233096
  0
LINE
  5
3A5
100
AcDbEntity
  8
00_COMPONENTS_1
100
AcDbLine
 62
7
  6
CONTINUOUS
 10
66.4429072624
 20
74.1794922272
 11
68.8588228803
 21
75.8142319334
  0
LINE
  5
3A6
100
AcDbEntity
  8
00_COMPONENTS_1
100
AcDbLine
 62
7
  6
CONTINUOUS
 10
68.929533264
 20
75.855056371
 11
79.0741075635
 21
82.690778821
  0
LINE
  5
3A7
100
AcDbEntity
  8
00_COMPONENTS_1
100
AcDbLine
 62
7
  6
CONTINUOUS
 10
115.2519056399
 20
102.0687822827
 11
111.3634162901
 21
99.7461030428
  0
LINE
  5
3A8
100
AcDbEntity
  8
00_COMPONENTS_1
100
AcDbLine
 62
7
  6
CONTINUOUS
 10
68.5487174643
 20
77.472182704
 11
68.6208900501
 21
77.5150873487
  0
LINE
  5
3A9
100
AcDbEntity
  8
00_COMPONENTS_1
100
AcDbLine
 62
7
  6
CONTINUOUS
 10
77.3524142111
 20
99.7872091085
 11
76.0089057334
 21
100.5628665421
  0
LINE
  5
3AA
100
AcDbEntity
  8
00_COMPONENTS_1
100
AcDbLine
 62
7
  6
CONTINUOUS
 10
74.7361082281
 20
101.2976999002
 11
73.3925997503
 21
102.0733573338
  0
LINE
  5
3AB
100
AcDbEntity
  8
00_COMPONENTS_1
100
AcDbLine
 62
7
  6
CONTINUOUS
 10
72.1198022451
 20
102.808190692
 11
70.7762937673
 21
103.5838481255
  0
LINE
  5
3AC
100
AcDbEntity
  8
00_COMPONENTS_1
100
AcDbLine
 62
7
  6
CONTINUOUS
 10
69.503496262
 20
104.3186814837
 11
68.1599877842
 21
105.0943389173
  0
LINE
  5
3AD
100
AcDbEntity
  8
00_COMPONENTS_1
100
AcDbLine
 62
7
  6
CONTINUOUS
 10
66.887190279
 20
105.8291722754
 11
65.5436818012
 21
106.604829709
  0
LINE
  5
3AE
100
AcDbEntity
  8
00_COMPONENTS_1
100
AcDbLine
 62
7
  6
CONTINUOUS
 10
64.2708842959
 20
107.3396630671
 11
62.9273758182
 21
108.1153205007
  0
LINE
  5
3AF
100
AcDbEntity
  8
00_COMPONENTS_1
100
AcDbLine
 62
7
  6
CONTINUOUS
 10
61.6545783129
 20
108.8501538589
 11
60.3110698351
 21
109.6258112924
  0
LINE
  5
3B0
100
AcDbEntity
  8
00_COMPONENTS_1
100
AcDbLine
 62
7
  6
CONTINUOUS
 10
59.0382723298
 20
110.3606446506
 11
57.6947638521
 21
111.1363020842
  0
LINE
  5
3B1
100
AcDbEntity
  8
00_COMPONENTS_1
100
AcDbLine
 62
7
  6
CONTINUOUS
 10
56.4219663468
 20
111.8711354423
 11
55.078457869
 21
112.6467928759
  0
LINE
  5
3B2
100
AcDbEntity
  8
00_COMPONENTS_1
100
AcDbLine
 62
7
  6
CONTINUOUS
 10
53.8056603638
 20
113.381626234
 11
52.462151886
 21
114.1572836676
  0
LINE
  5
3B3
100
AcDbEntity
  8
00_COMPONENTS_1
100
AcDbLine
 62
7
  6
CONTINUOUS
 10
51.1893543807
 20
114.8921170258
 11
49.8458459029
 21
115.6677744593
  0
LINE
  5
3B4
100
AcDbEntity
  8
00_COMPONENTS_1
100
AcDbLine
 62
7
  6
CONTINUOUS
 10
48.5730483977
 20
116.4026078175
 11
47.2295399199
 21
117.1782652511
  0
LINE
  5
3B5
100
AcDbEntity
  8
00_COMPONENTS_1
100
AcDbLine
 62
7
  6
CONTINUOUS
 10
45.9567424146
 20
117.9130986092
 11
44.6132339368
 21
118.6887560428
  0
LINE
  5
3B6
100
AcDbEntity
  8
00_COMPONENTS_1
100
AcDbLine
 62
7
  6
CONTINUOUS
 10
43.3404364316
 20
119.4235894009
 11
41.9969279538
 21
120.1992468345
  0
LINE
  5
3B7
100
AcDbEntity
  8
00_COMPONENTS_1
100
AcDbLine
 62
7
  6
CONTINUOUS
 10
40.7241304485
 20
120.9340801927
 11
39.3806219708
 21
121.7097376262
  0
LINE
  5
3B8
100
AcDbEntity
  8
00_COMPONENTS_1
100
AcDbLine
 62
7
  6
CONTINUOUS
 10
38.1078244655
 20
122.4445709844
 11
36.7643159877
 21
123.220228418
  0
LINE
  5
3B9
100
AcDbEntity
  8
00_COMPONENTS_1
100
AcDbLine
 62
7
  6
CONTINUOUS
 10
35.4915184824
 20
123.9550617761
 11
34.1480100047
 21
124.7307192097
  0
LINE
  5
3BA
100
AcDbEntity
  8
00_COMPONENTS_1
100
AcDbLine
 62
7
  6
CONTINUOUS
 10
32.8752124994
 20
125.4655525678
 11
31.5317040216
 21
126.2412100014
  0
LINE
  5
3BB
100
AcDbEntity
  8
00_COMPONENTS_1
100
AcDbLine
 62
7
  6
CONTINUOUS
 10
81.4239394257
 20
117.022493988
 11
81.4239394257
 21
117.520593079
  0
LINE
  5
3BC
100
AcDbEntity
  8
00_COMPONENTS_2
100
AcDbLine
 62
7
  6
CONTINUOUS
 10
81.989636391
 20
122.2563101587
 11
81.989636391
 21
123.1544628175
  0
LINE
  5
3BD
100
AcDbEntity
  8
00_COMPONENTS_2
100
AcDbLine
 62
7
  6
CONTINUOUS
 10
82.1310571585
 20
122.3379589894
 11
82.1310571585
 21
123.0728153465
  0
LINE
  5
3BE
100
AcDbEntity
  8
00_COMPONENTS_2
100
AcDbLine
 62
7
  6
CONTINUOUS
 10
83.4038558413
 20
122.3379813085
 11
83.4038558413
 21
121.4398286496
  0
LINE
  5
3BF
100
AcDbEntity
  8
00_COMPONENTS_1
100
AcDbLine
 62
7
  6
CONTINUOUS
 10
84.0402454088
 20
115.5120031963
 11
84.0402454088
 21
116.0101022873
  0
LINE
  5
3C0
100
AcDbEntity
  8
00_COMPONENTS_2
100
AcDbLine
 62
7
  6
CONTINUOUS
 10
84.6978348435
 20
127.2243482262
 11
84.6978348435
 21
127.4696235838
  0
LINE
  5
3C1
100
AcDbEntity
  8
00_COMPONENTS_2
100
AcDbLine
 62
7
  6
CONTINUOUS
 10
85.5817537948
 20
120.1824471257
 11
85.5817537948
 21
121.0805997845
  0
LINE
  5
3C2
100
AcDbEntity
  8
00_COMPONENTS_2
100
AcDbLine
 62
7
  6
CONTINUOUS
 10
85.7231745622
 20
120.2640959565
 11
85.7231745622
 21
120.9989523135
  0
LINE
  5
3C3
100
AcDbEntity
  8
00_COMPONENTS_2
100
AcDbLine
 62
7
  6
CONTINUOUS
 10
91.0315145425
 20
115.0495650396
 11
90.1568702633
 21
114.8466978382
  0
LINE
  5
3C4
100
AcDbEntity
  8
00_COMPONENTS_1
100
AcDbLine
 62
7
  6
CONTINUOUS
 10
29.2851010848
 20
130.4669451964
 11
80.0555793504
 21
101.1552590218
  0
LINE
  5
3C5
100
AcDbEntity
  8
00_COMPONENTS_1
100
AcDbLine
 62
7
  6
CONTINUOUS
 10
79.8613407226
 20
103.7808926885
 11
78.4471212723
 21
104.5973741975
  0
LINE
  5
3C6
100
AcDbEntity
  8
00_COMPONENTS_1
100
AcDbLine
 62
7
  6
CONTINUOUS
 10
77.2450347395
 20
105.2913834802
 11
75.8308152892
 21
106.1078649893
  0
LINE
  5
3C7
100
AcDbEntity
  8
00_COMPONENTS_1
100
AcDbLine
 62
7
  6
CONTINUOUS
 10
74.6287287565
 20
106.8018742719
 11
73.2145093062
 21
107.618355781
  0
LINE
  5
3C8
100
AcDbEntity
  8
00_COMPONENTS_1
100
AcDbLine
 62
7
  6
CONTINUOUS
 10
72.0124227735
 20
108.3123650637
 11
70.5982033232
 21
109.1288465727
  0
LINE
  5
3C9
100
AcDbEntity
  8
00_COMPONENTS_1
100
AcDbLine
 62
7
  6
CONTINUOUS
 10
69.3961167904
 20
109.8228558554
 11
67.9818973401
 21
110.6393373644
  0
LINE
  5
3CA
100
AcDbEntity
  8
00_COMPONENTS_1
100
AcDbLine
 62
7
  6
CONTINUOUS
 10
66.7798108074
 20
111.3333466471
 11
65.3655913571
 21
112.1498281562
  0
LINE
  5
3CB
100
AcDbEntity
  8
00_COMPONENTS_1
100
AcDbLine
 62
7
  6
CONTINUOUS
 10
51.0819749091
 20
120.3962913975
 11
49.6677554588
 21
121.2127729065
  0
LINE
  5
3CC
100
AcDbEntity
  8
00_COMPONENTS_1
100
AcDbLine
 62
7
  6
CONTINUOUS
 10
48.4656689261
 20
121.9067821892
 11
47.0514494758
 21
122.7232636982
  0
LINE
  5
3CD
100
AcDbEntity
  8
00_COMPONENTS_1
100
AcDbLine
 62
7
  6
CONTINUOUS
 10
45.849362943
 20
123.4172729809
 11
44.4351434927
 21
124.23375449
  0
LINE
  5
3CE
100
AcDbEntity
  8
00_COMPONENTS_1
100
AcDbLine
 62
7
  6
CONTINUOUS
 10
43.23305696
 20
124.9277637726
 11
41.8188375097
 21
125.7442452817
  0
LINE
  5
3CF
100
AcDbEntity
  8
00_COMPONENTS_1
100
AcDbLine
 62
7
  6
CONTINUOUS
 10
40.6167509769
 20
126.4382545644
 11
39.2025315266
 21
127.2547360734
  0
LINE
  5
3D0
100
AcDbEntity
  8
00_COMPONENTS_1
100
AcDbLine
 62
7
  6
CONTINUOUS
 10
38.0004449939
 20
127.9487453561
 11
36.5862255436
 21
128.7652268651
  0
LINE
  5
3D1
100
AcDbEntity
  8
00_COMPONENTS_1
100
AcDbLine
 62
7
  6
CONTINUOUS
 10
35.3841390108
 20
129.4592361478
 11
33.9699195605
 21
130.2757176569
  0
LINE
  5
3D2
100
AcDbEntity
  8
00_COMPONENTS_1
100
AcDbLine
 62
7
  6
CONTINUOUS
 10
64.1378206804
 20
112.8668367784
 11
62.7165301329
 21
113.6874006949
  0
LINE
  5
3D3
100
AcDbEntity
  8
00_COMPONENTS_1
100
AcDbLine
 62
7
  6
CONTINUOUS
 10
58.9251209242
 20
115.8763223022
 11
57.5038303766
 21
116.6968862187
  0
LINE
  5
3D4
100
AcDbEntity
  8
00_COMPONENTS_1
100
AcDbLine
 62
7
  6
CONTINUOUS
 10
53.712421168
 20
118.885807826
 11
52.2911306204
 21
119.7063717426
  0
LINE
  5
3D5
100
AcDbEntity
  8
00_COMPONENTS_1
100
AcDbLine
 62
7
  6
CONTINUOUS
 10
86.6565513918
 20
114.0015124045
 11
86.6565513918
 21
114.4996114956
  0
LINE
  5
3D6
100
AcDbEntity
  8
00_COMPONENTS_2
100
AcDbLine
 62
7
  6
CONTINUOUS
 10
86.9959732451
 20
120.2641182755
 11
86.9959732451
 21
119.3659656167
  0
LINE
  5
3D7
100
AcDbEntity
  8
00_COMPONENTS_2
100
AcDbLine
 62
7
  6
CONTINUOUS
 10
88.1061355135
 20
120.3210027984
 11
88.1061355135
 21
113.6627126459
  0
LINE
  5
3D8
100
AcDbEntity
  8
00_COMPONENTS_1
100
AcDbLine
 62
7
  6
CONTINUOUS
 10
89.2728573749
 20
112.4910216128
 11
89.2728573749
 21
113.8842916565
  0
LINE
  5
3D9
100
AcDbEntity
  8
00_COMPONENTS_2
100
AcDbLine
 62
7
  6
CONTINUOUS
 10
90.1036504207
 20
126.9205320344
 11
90.1036504207
 21
129.2475237115
  0
LINE
  5
3DA
100
AcDbEntity
  8
00_COMPONENTS_2
100
AcDbLine
 62
7
  6
CONTINUOUS
 10
90.6336156548
 20
129.662790666
 11
90.6336156548
 21
130.0710418746
  0
LINE
  5
3DB
100
AcDbEntity
  8
00_COMPONENTS_1
100
AcDbLine
 62
7
  6
CONTINUOUS
 10
58.4358629658
 20
123.2611932622
 11
59.8571535133
 21
122.4406293456
  0
LINE
  5
3DC
100
AcDbEntity
  8
00_COMPONENTS_1
100
AcDbLine
 62
7
  6
CONTINUOUS
 10
63.648562722
 20
120.2517077384
 11
65.0698532696
 21
119.4311438218
  0
LINE
  5
3DD
100
AcDbEntity
  8
00_COMPONENTS_1
100
AcDbLine
 62
7
  6
CONTINUOUS
 10
68.8612624782
 20
117.2422222146
 11
70.2825530258
 21
116.421658298
  0
LINE
  5
3DE
100
AcDbEntity
  8
00_COMPONENTS_1
100
AcDbLine
 62
7
  6
CONTINUOUS
 10
91.8891633579
 20
110.9805308211
 11
91.8891633579
 21
112.3738008648
  0
LINE
  5
3DF
100
AcDbEntity
  8
00_COMPONENTS_2
100
AcDbLine
 62
7
  6
CONTINUOUS
 10
91.9244962345
 20
123.052127715
 11
91.9244962345
 21
123.2974030726
  0
LINE
  5
3E0
100
AcDbEntity
  8
00_COMPONENTS_1
100
AcDbLine
 62
7
  6
CONTINUOUS
 10
93.3599227942
 20
115.2842902827
 11
93.3599227942
 21
115.3242598069
  0
LINE
  5
3E1
100
AcDbEntity
  8
00_COMPONENTS_2
100
AcDbLine
 62
7
  6
CONTINUOUS
 10
93.6957678244
 20
125.1456269996
 11
93.6957678244
 21
127.1736606785
  0
LINE
  5
3E2
100
AcDbEntity
  8
00_COMPONENTS_2
100
AcDbLine
 62
7
  6
CONTINUOUS
 10
93.9483476219
 20
127.7490725666
 11
93.9483476219
 21
128.1573237752
  0
LINE
  5
3E3
100
AcDbEntity
  8
00_COMPONENTS_2
100
AcDbLine
 62
7
  6
CONTINUOUS
 10
94.0139880735
 20
116.3632354485
 11
94.0139880735
 21
116.1101264717
  0
LINE
  5
3E4
100
AcDbEntity
  8
00_COMPONENTS_2
100
AcDbLine
 62
7
  6
CONTINUOUS
 10
94.0139880735
 20
116.3632354485
 11
93.4016181873
 21
116.4179368489
  0
LINE
  5
3E5
100
AcDbEntity
  8
00_COMPONENTS_1
100
AcDbLine
 62
7
  6
CONTINUOUS
 10
47.4119616462
 20
136.6588742804
 11
47.6272133737
 21
136.534601449
  0
LINE
  5
3E6
100
AcDbEntity
  8
00_COMPONENTS_1
100
AcDbLine
 62
7
  6
CONTINUOUS
 10
50.0282676292
 20
135.1483834887
 11
50.2435193568
 21
135.0241106573
  0
LINE
  5
3E7
100
AcDbEntity
  8
00_COMPONENTS_1
100
AcDbLine
 62
7
  6
CONTINUOUS
 10
52.6445736122
 20
133.637892697
 11
52.8598253398
 21
133.5136198656
  0
LINE
  5
3E8
100
AcDbEntity
  8
00_COMPONENTS_1
100
AcDbLine
 62
7
  6
CONTINUOUS
 10
55.2608795953
 20
132.1274019052
 11
55.4761313228
 21
132.0031290738
  0
LINE
  5
3E9
100
AcDbEntity
  8
00_COMPONENTS_1
100
AcDbLine
 62
7
  6
CONTINUOUS
 10
57.8771855783
 20
130.6169111135
 11
58.0924373059
 21
130.4926382821
  0
LINE
  5
3EA
100
AcDbEntity
  8
00_COMPONENTS_1
100
AcDbLine
 62
7
  6
CONTINUOUS
 10
60.4934915614
 20
129.1064203218
 11
60.7087432889
 21
128.9821474904
  0
LINE
  5
3EB
100
AcDbEntity
  8
00_COMPONENTS_1
100
AcDbLine
 62
7
  6
CONTINUOUS
 10
63.1097975444
 20
127.5959295301
 11
63.325049272
 21
127.4716566987
  0
LINE
  5
3EC
100
AcDbEntity
  8
00_COMPONENTS_1
100
AcDbLine
 62
7
  6
CONTINUOUS
 10
78.8076334427
 20
118.5329847797
 11
79.0228851702
 21
118.4087119483
  0
LINE
  5
3ED
100
AcDbEntity
  8
00_COMPONENTS_1
100
AcDbLine
 62
7
  6
CONTINUOUS
 10
81.4239394257
 20
117.022493988
 11
81.6391911533
 21
116.8982211566
  0
LINE
  5
3EE
100
AcDbEntity
  8
00_COMPONENTS_1
100
AcDbLine
 62
7
  6
CONTINUOUS
 10
84.0402454088
 20
115.5120031963
 11
84.2554971363
 21
115.3877303648
  0
LINE
  5
3EF
100
AcDbEntity
  8
00_COMPONENTS_1
100
AcDbLine
 62
7
  6
CONTINUOUS
 10
86.6565513918
 20
114.0015124045
 11
86.8718031194
 21
113.8772395731
  0
LINE
  5
3F0
100
AcDbEntity
  8
00_COMPONENTS_1
100
AcDbLine
 62
7
  6
CONTINUOUS
 10
89.2728573749
 20
112.4910216128
 11
89.4881091024
 21
112.3667487814
  0
LINE
  5
3F1
100
AcDbEntity
  8
00_COMPONENTS_1
100
AcDbLine
 62
7
  6
CONTINUOUS
 10
91.8891633579
 20
110.9805308211
 11
92.1044150855
 21
110.8562579897
  0
LINE
  5
3F2
100
AcDbEntity
  8
00_COMPONENTS_2
100
AcDbLine
 62
7
  6
CONTINUOUS
 10
88.1061355135
 20
113.6627126459
 11
80.8794741225
 21
117.8349331571
  0
LINE
  5
3F3
100
AcDbEntity
  8
00_COMPONENTS_2
100
AcDbLine
 62
7
  6
CONTINUOUS
 10
97.4894034334
 20
118.3697554648
 11
97.4894034334
 21
118.116646488
  0
LINE
  5
3F4
100
AcDbEntity
  8
00_COMPONENTS_2
100
AcDbLine
 62
7
  6
CONTINUOUS
 10
97.8535619095
 20
119.290358307
 11
97.8535619095
 21
118.5800012041
  0
LINE
  5
3F5
100
AcDbEntity
  8
00_COMPONENTS_2
100
AcDbLine
 62
7
  6
CONTINUOUS
 10
98.5712723043
 20
126.9471025631
 11
98.5712723043
 21
127.134898119
  0
LINE
  5
3F6
100
AcDbEntity
  8
00_COMPONENTS_2
100
AcDbLine
 62
7
  6
CONTINUOUS
 10
98.7126930718
 20
127.0287513939
 11
98.7126930718
 21
119.7863749539
  0
LINE
  5
3F7
100
AcDbEntity
  8
00_COMPONENTS_1
100
AcDbLine
 62
7
  6
CONTINUOUS
 10
99.4410157943
 20
118.802295469
 11
99.4410157943
 21
118.8351595302
  0
LINE
  5
3F8
100
AcDbEntity
  8
00_COMPONENTS_1
100
AcDbLine
 62
7
  6
CONTINUOUS
 10
47.4119616462
 20
138.0521443241
 11
48.8332521937
 21
137.2315804075
  0
LINE
  5
3F9
100
AcDbEntity
  8
00_COMPONENTS_1
100
AcDbLine
 62
7
  6
CONTINUOUS
 10
50.0282676292
 20
136.5416535324
 11
51.4495581768
 21
135.7210896158
  0
LINE
  5
3FA
100
AcDbEntity
  8
00_COMPONENTS_1
100
AcDbLine
 62
7
  6
CONTINUOUS
 10
52.6445736122
 20
135.0311627407
 11
54.0658641598
 21
134.2105988241
  0
LINE
  5
3FB
100
AcDbEntity
  8
00_COMPONENTS_1
100
AcDbLine
 62
7
  6
CONTINUOUS
 10
55.2608795953
 20
133.520671949
 11
56.6821701428
 21
132.7001080324
  0
LINE
  5
3FC
100
AcDbEntity
  8
00_COMPONENTS_1
100
AcDbLine
 62
7
  6
CONTINUOUS
 10
57.8771855783
 20
132.0101811572
 11
59.2984761259
 21
131.1896172406
  0
LINE
  5
3FD
100
AcDbEntity
  8
00_COMPONENTS_1
100
AcDbLine
 62
7
  6
CONTINUOUS
 10
60.4934915614
 20
130.4996903655
 11
61.9147821089
 21
129.6791264489
  0
LINE
  5
3FE
100
AcDbEntity
  8
00_COMPONENTS_1
100
AcDbLine
 62
7
  6
CONTINUOUS
 10
63.1097975444
 20
128.9891995738
 11
64.531088092
 21
128.1686356572
  0
LINE
  5
3FF
100
AcDbEntity
  8
00_COMPONENTS_1
100
AcDbLine
 62
7
  6
CONTINUOUS
 10
78.8076334427
 20
119.9262548234
 11
80.2289239902
 21
119.1056909068
  0
LINE
  5
400
100
AcDbEntity
  8
00_COMPONENTS_1
100
AcDbLine
 62
7
  6
CONTINUOUS
 10
89.2728573749
 20
113.8842916565
 11
90.6941479224
 21
113.0637277399
  0
LINE
  5
401
100
AcDbEntity
  8
00_COMPONENTS_1
100
AcDbLine
 62
7
  6
CONTINUOUS
 10
91.8891633579
 20
112.3738008648
 11
93.3104539055
 21
111.5532369482
  0
LINE
  5
402
100
AcDbEntity
  8
00_COMPONENTS_2
100
AcDbLine
 62
7
  6
CONTINUOUS
 10
83.6589443361
 20
120.353541156
 11
82.6498087151
 21
120.936152698
  0
LINE
  5
403
100
AcDbEntity
  8
00_COMPONENTS_2
100
AcDbLine
 62
7
  6
CONTINUOUS
 10
86.2419261188
 20
118.8622896651
 11
87.2510617398
 21
118.2796781231
  0
LINE
  5
404
100
AcDbEntity
  8
00_COMPONENTS_1
100
AcDbLine
 62
7
  6
CONTINUOUS
 10
93.3033561947
 20
115.2515656409
 11
92.3423660632
 21
115.8063810004
  0
LINE
  5
405
100
AcDbEntity
  8
00_COMPONENTS_1
100
AcDbLine
 62
7
  6
CONTINUOUS
 10
93.3599227942
 20
115.3242598069
 11
92.4336050219
 21
115.8590575234
  0
LINE
  5
406
100
AcDbEntity
  8
00_COMPONENTS_2
100
AcDbLine
 62
7
  6
CONTINUOUS
 10
86.9959732451
 20
119.3659656167
 11
85.5817537948
 21
120.1824471257
  0
LINE
  5
407
100
AcDbEntity
  8
00_COMPONENTS_2
100
AcDbLine
 62
7
  6
CONTINUOUS
 10
83.4038558413
 20
121.4398286496
 11
81.989636391
 21
122.2563101587
  0
LINE
  5
408
100
AcDbEntity
  8
00_COMPONENTS_2
100
AcDbLine
 62
7
  6
CONTINUOUS
 10
86.9959732451
 20
119.5292619185
 11
85.7231745622
 21
120.2640959565
  0
LINE
  5
409
100
AcDbEntity
  8
00_COMPONENTS_2
100
AcDbLine
 62
7
  6
CONTINUOUS
 10
83.4038558413
 20
121.6031249514
 11
82.1310571585
 21
122.3379589894
  0
LINE
  5
40A
100
AcDbEntity
  8
00_COMPONENTS_1
100
AcDbLine
 62
7
  6
CONTINUOUS
 10
93.92560292
 20
116.0590975842
 11
93.3528400103
 21
116.3897749234
  0
LINE
  5
40B
100
AcDbEntity
  8
00_COMPONENTS_2
100
AcDbLine
 62
7
  6
CONTINUOUS
 10
81.989636391
 20
123.1544628175
 11
83.4038558413
 21
122.3379813085
  0
LINE
  5
40C
100
AcDbEntity
  8
00_COMPONENTS_2
100
AcDbLine
 62
7
  6
CONTINUOUS
 10
85.5817537948
 20
121.0805997845
 11
86.9959732451
 21
120.2641182755
  0
LINE
  5
40D
100
AcDbEntity
  8
00_COMPONENTS_1
100
AcDbLine
 62
7
  6
CONTINUOUS
 10
68.2716619151
 20
131.0927172634
 11
56.1376590315
 21
138.098128611
  0
LINE
  5
40E
100
AcDbEntity
  8
00_COMPONENTS_1
100
AcDbLine
 62
7
  6
CONTINUOUS
 10
68.2716603253
 20
131.1150176307
 11
56.5124255961
 21
137.9040613784
  0
LINE
  5
40F
100
AcDbEntity
  8
00_COMPONENTS_7
100
AcDbLine
 62
7
  6
CONTINUOUS
 10
67.4231339543
 20
131.8498730191
 11
66.8574461742
 21
132.1764656228
  0
LINE
  5
410
100
AcDbEntity
  8
00_COMPONENTS_7
100
AcDbLine
 62
7
  6
CONTINUOUS
 10
56.6538528403
 20
138.0673797105
 11
56.0881650602
 21
138.3939723141
  0
LINE
  5
411
100
AcDbEntity
  8
00_COMPONENTS_2
100
AcDbLine
 62
7
  6
CONTINUOUS
 10
88.6396331077
 20
120.6290159394
 11
88.7044016791
 21
120.5368880521
  0
LINE
  5
412
100
AcDbEntity
  8
00_COMPONENTS_1
100
AcDbLine
 62
7
  6
CONTINUOUS
 10
111.3634162901
 20
70.5969667513
 11
114.1913948813
 21
72.1722974897
  0
LINE
  5
413
100
AcDbEntity
  8
00_COMPONENTS_1
100
AcDbLine
 62
7
  6
CONTINUOUS
 10
66.1686585821
 20
133.1395734329
 11
65.8427345923
 21
133.0480398129
  0
LINE
  5
414
100
AcDbEntity
  8
00_COMPONENTS_1
100
AcDbLine
 62
7
  6
CONTINUOUS
 10
67.9499215732
 20
131.8314823645
 11
67.6705985687
 21
131.9927459281
  0
LINE
  5
415
100
AcDbEntity
  8
00_COMPONENTS_1
100
AcDbLine
 62
7
  6
CONTINUOUS
 10
66.8574461742
 20
132.4622090613
 11
65.8427345923
 21
133.0480398129
  0
LINE
  5
416
100
AcDbEntity
  8
00_COMPONENTS_1
100
AcDbLine
 62
7
  6
CONTINUOUS
 10
65.2558335204
 20
133.3868796392
 11
63.1486465395
 21
134.6034370877
  0
LINE
  5
417
100
AcDbEntity
  8
00_COMPONENTS_1
100
AcDbLine
 62
7
  6
CONTINUOUS
 10
62.5617454676
 20
134.9422769139
 11
60.4545584867
 21
136.1588343624
  0
LINE
  5
418
100
AcDbEntity
  8
00_COMPONENTS_1
100
AcDbLine
 62
7
  6
CONTINUOUS
 10
59.8676574148
 20
136.4976741886
 11
57.7604704338
 21
137.7142316371
  0
LINE
  5
419
100
AcDbEntity
  8
00_COMPONENTS_2
100
AcDbLine
 62
7
  6
CONTINUOUS
 10
88.1061355135
 20
120.3210027984
 11
80.8794741225
 21
124.4932233096
  0
LINE
  5
41A
100
AcDbEntity
  8
00_COMPONENTS_7
100
AcDbLine
 62
7
  6
CONTINUOUS
 10
68.766631245
 20
131.8906847361
 11
68.130221495
 21
132.2581077643
  0
LINE
  5
41B
100
AcDbEntity
  8
00_COMPONENTS_7
100
AcDbLine
 62
7
  6
CONTINUOUS
 10
66.8574461742
 20
132.9929283146
 11
66.6396627966
 21
133.1186627617
  0
LINE
  5
41C
100
AcDbEntity
  8
00_COMPONENTS_7
100
AcDbLine
 62
7
  6
CONTINUOUS
 10
64.9538992828
 20
134.0919167623
 11
63.9455747438
 21
134.6740600364
  0
LINE
  5
41D
100
AcDbEntity
  8
00_COMPONENTS_7
100
AcDbLine
 62
7
  6
CONTINUOUS
 10
62.25981123
 20
135.647314037
 11
61.251486691
 21
136.2294573112
  0
LINE
  5
41E
100
AcDbEntity
  8
00_COMPONENTS_7
100
AcDbLine
 62
7
  6
CONTINUOUS
 10
59.5657231772
 20
137.2027113117
 11
58.5573986382
 21
137.7848545859
  0
LINE
  5
41F
100
AcDbEntity
  8
00_COMPONENTS_7
100
AcDbLine
 62
7
  6
CONTINUOUS
 10
56.6538528403
 20
138.9573673452
 11
56.7611247656
 21
138.8954352713
  0
LINE
  5
420
100
AcDbEntity
  8
00_COMPONENTS_7
100
AcDbLine
 62
7
  6
CONTINUOUS
 10
58.6679100904
 20
137.7945771555
 11
59.4552128185
 21
137.3400379965
  0
LINE
  5
421
100
AcDbEntity
  8
00_COMPONENTS_7
100
AcDbLine
 62
7
  6
CONTINUOUS
 10
61.3619981432
 20
136.2391798808
 11
62.1493008713
 21
135.7846407218
  0
LINE
  5
422
100
AcDbEntity
  8
00_COMPONENTS_7
100
AcDbLine
 62
7
  6
CONTINUOUS
 10
64.056086196
 20
134.683782606
 11
64.8433889241
 21
134.2292434471
  0
LINE
  5
423
100
AcDbEntity
  8
00_COMPONENTS_7
100
AcDbLine
 62
7
  6
CONTINUOUS
 10
66.7501742488
 20
133.1283853313
 11
66.8574461742
 21
133.0664532574
  0
LINE
  5
424
100
AcDbEntity
  8
00_COMPONENTS_2
100
AcDbLine
 62
7
  6
CONTINUOUS
 10
88.6396331077
 20
120.6290159394
 11
81.4129717167
 21
124.8012364506
  0
LINE
  5
425
100
AcDbEntity
  8
00_COMPONENTS_7
100
AcDbLine
 62
7
  6
CONTINUOUS
 10
63.8633038637
 20
136.8853041177
 11
62.977176096
 21
137.3968986491
  0
LINE
  5
426
100
AcDbEntity
  8
00_COMPONENTS_7
100
AcDbLine
 62
7
  6
CONTINUOUS
 10
61.1692158109
 20
138.4407013925
 11
60.2830880432
 21
138.9522959238
  0
LINE
  5
427
100
AcDbEntity
  8
00_COMPONENTS_7
100
AcDbLine
 62
7
  6
CONTINUOUS
 10
58.475127758
 20
139.9960986672
 11
57.5889999904
 21
140.5076931985
  0
LINE
  5
428
100
AcDbEntity
  8
00_COMPONENTS_7
100
AcDbLine
 62
7
  6
CONTINUOUS
 10
65.6712641489
 20
135.8415013744
 11
66.5573919165
 21
135.329906843
  0
LINE
  5
429
100
AcDbEntity
  8
00_COMPONENTS_1
100
AcDbLine
 62
7
  6
CONTINUOUS
 10
97.8535619095
 20
118.6085816113
 11
98.0975155596
 21
118.467738092
  0
LINE
  5
42A
100
AcDbEntity
  8
00_COMPONENTS_2
100
AcDbLine
 62
7
  6
CONTINUOUS
 10
91.9244962345
 20
123.052127715
 11
84.6978348435
 21
127.2243482262
  0
LINE
  5
42B
100
AcDbEntity
  8
00_COMPONENTS_7
100
AcDbLine
 62
7
  6
CONTINUOUS
 10
67.4231339543
 20
137.2387889722
 11
56.0881650602
 21
143.7828882672
  0
LINE
  5
42C
100
AcDbEntity
  8
00_COMPONENTS_1
100
AcDbLine
 62
7
  6
CONTINUOUS
 10
73.2213871858
 20
133.9727267078
 11
72.7971176849
 21
134.2176732769
  0
LINE
  5
42D
100
AcDbEntity
  8
00_COMPONENTS_1
100
AcDbLine
 62
7
  6
CONTINUOUS
 10
98.2530629025
 20
119.521008936
 11
99.4410157943
 21
118.8351595302
  0
LINE
  5
42E
100
AcDbEntity
  8
00_COMPONENTS_2
100
AcDbLine
 62
7
  6
CONTINUOUS
 10
84.6978348435
 20
127.4696235838
 11
91.9244962345
 21
123.2974030726
  0
LINE
  5
42F
100
AcDbEntity
  8
00_COMPONENTS_1
100
AcDbLine
 62
7
  6
CONTINUOUS
 10
105.1536213984
 20
115.6748597071
 11
99.5886678615
 21
118.8877144452
  0
LINE
  5
430
100
AcDbEntity
  8
00_COMPONENTS_1
100
AcDbLine
 62
7
  6
CONTINUOUS
 10
84.7043831434
 20
127.4809658286
 11
73.3548970586
 21
134.0334464379
  0
LINE
  5
431
100
AcDbEntity
  8
00_COMPONENTS_1
100
AcDbLine
 62
7
  6
CONTINUOUS
 10
56.278074169
 20
143.8925316878
 11
54.3831431329
 21
144.9865458817
  0
LINE
  5
432
100
AcDbEntity
  8
00_COMPONENTS_1
100
AcDbLine
 62
7
  6
CONTINUOUS
 10
72.9723550465
 20
134.3188460109
 11
73.4123068116
 21
134.0648454872
  0
LINE
  5
433
100
AcDbEntity
  8
00_COMPONENTS_1
100
AcDbLine
 62
7
  6
CONTINUOUS
 10
98.5659955662
 20
119.7016796152
 11
99.787498382
 21
118.9964605898
  0
LINE
  5
434
100
AcDbEntity
  8
00_COMPONENTS_7
100
AcDbLine
 62
7
  6
CONTINUOUS
 10
67.8473962566
 20
137.4837354645
 11
56.5124273625
 21
144.0278347595
  0
LINE
  5
435
100
AcDbEntity
  8
00_COMPONENTS_1
100
AcDbLine
 62
7
  6
CONTINUOUS
 10
111.3634162901
 20
70.5969667513
 11
111.3634162901
 21
99.7461030428
  0
LINE
  5
436
100
AcDbEntity
  8
00_COMPONENTS_1
100
AcDbLine
 62
7
  6
CONTINUOUS
 10
69.4067468139
 20
41.6370612956
 11
68.2094484586
 21
40.9458048941
  0
LINE
  5
437
100
AcDbEntity
  8
00_COMPONENTS_1
100
AcDbLine
 62
7
  6
CONTINUOUS
 10
68.3389301852
 20
42.8935653125
 11
68.309626014
 21
42.8786328648
  0
LINE
  5
438
100
AcDbEntity
  8
00_COMPONENTS_1
100
AcDbLine
 62
7
  6
CONTINUOUS
 10
78.5796122561
 20
48.1077656257
 11
68.3824229338
 21
42.9144073151
  0
LINE
  5
439
100
AcDbEntity
  8
00_COMPONENTS_1
100
AcDbLine
 62
7
  6
CONTINUOUS
 10
65.9524702675
 20
41.6769513742
 11
68.1953162598
 21
42.8143141587
  0
LINE
  5
43A
100
AcDbEntity
  8
00_COMPONENTS_1
100
AcDbLine
 62
7
  6
CONTINUOUS
 10
79.0674201506
 20
49.1178841287
 11
68.929533264
 21
44.2463732392
  0
LINE
  5
43B
100
AcDbEntity
  8
00_COMPONENTS_1
100
AcDbLine
 62
7
  6
CONTINUOUS
 10
68.8588228803
 20
44.2055488151
 11
66.4444277097
 21
43.052217114
  0
LINE
  5
43C
100
AcDbEntity
  8
00_COMPONENTS_1
100
AcDbLine
 62
7
  6
CONTINUOUS
 10
63.4745705292
 20
134.6949707076
 11
63.1486465395
 21
134.6034370877
  0
LINE
  5
43D
100
AcDbEntity
  8
00_COMPONENTS_1
100
AcDbLine
 62
7
  6
CONTINUOUS
 10
60.7804824764
 20
136.2503679823
 11
60.4545584867
 21
136.1588343624
  0
LINE
  5
43E
100
AcDbEntity
  8
00_COMPONENTS_1
100
AcDbLine
 62
7
  6
CONTINUOUS
 10
58.0863944236
 20
137.8057652571
 11
57.7604704338
 21
137.7142316371
  0
LINE
  5
43F
100
AcDbEntity
  8
00_COMPONENTS_2
100
AcDbLine
 62
7
  6
CONTINUOUS
 10
91.6691251432
 20
123.9755512864
 11
89.1871728903
 21
125.4084746707
  0
LINE
  5
440
100
AcDbEntity
  8
00_COMPONENTS_2
100
AcDbLine
 62
7
  6
CONTINUOUS
 10
88.3543931761
 20
125.8892693858
 11
85.8724409232
 21
127.3221927701
  0
LINE
  5
441
100
AcDbEntity
  8
00_COMPONENTS_2
100
AcDbLine
 62
7
  6
CONTINUOUS
 10
93.1893893396
 20
124.8532709902
 11
91.4330355453
 21
125.8672793862
  0
LINE
  5
442
100
AcDbEntity
  8
00_COMPONENTS_2
100
AcDbLine
 62
7
  6
CONTINUOUS
 10
89.8561808583
 20
126.7776562687
 11
87.8409181416
 21
127.9411424191
  0
LINE
  5
443
100
AcDbEntity
  8
00_COMPONENTS_7
100
AcDbLine
 62
7
  6
CONTINUOUS
 10
70.534390838
 20
139.6882651829
 11
59.1994219439
 21
146.2323644779
  0
LINE
  5
444
100
AcDbEntity
  8
00_COMPONENTS_2
100
AcDbLine
 62
7
  6
CONTINUOUS
 10
90.1036504207
 20
129.2475237115
 11
92.1189131374
 21
128.0840375611
  0
LINE
  5
445
100
AcDbEntity
  8
00_COMPONENTS_2
100
AcDbLine
 62
7
  6
CONTINUOUS
 10
93.6957678244
 20
127.1736606785
 11
95.4521216187
 21
126.1596522826
  0
LINE
  5
446
100
AcDbEntity
  8
00_COMPONENTS_7
100
AcDbLine
 62
7
  6
CONTINUOUS
 10
59.1994219439
 20
147.2121673785
 11
70.534390838
 21
140.6680680835
  0
LINE
  5
447
100
AcDbEntity
  8
00_COMPONENTS_2
100
AcDbLine
 62
7
  6
CONTINUOUS
 10
90.6336156548
 20
129.662790666
 11
92.7620069354
 21
128.4339911864
  0
LINE
  5
448
100
AcDbEntity
  8
00_COMPONENTS_2
100
AcDbLine
 62
7
  6
CONTINUOUS
 10
93.9483476219
 20
127.7490725666
 11
96.0767389025
 21
126.5202730869
  0
LINE
  5
449
100
AcDbEntity
  8
00_COMPONENTS_7
100
AcDbLine
 62
7
  6
CONTINUOUS
 10
59.9065257811
 20
147.6204115323
 11
71.2414946752
 21
141.0763122374
  0
LINE
  5
44A
100
AcDbEntity
  8
00_COMPONENTS_2
100
AcDbLine
 62
7
  6
CONTINUOUS
 10
90.6336156548
 20
130.0710418746
 11
93.1155679076
 21
128.6381184903
  0
LINE
  5
44B
100
AcDbEntity
  8
00_COMPONENTS_2
100
AcDbLine
 62
7
  6
CONTINUOUS
 10
93.9483476219
 20
128.1573237752
 11
96.4302998747
 21
126.7244003909
  0
LINE
  5
44C
100
AcDbEntity
  8
00_COMPONENTS_1
100
AcDbLine
 62
7
  6
CONTINUOUS
 10
115.2519056399
 20
52.4045080009
 11
115.2519056399
 21
71.5351596342
  0
LINE
  5
44D
100
AcDbEntity
  8
00_COMPONENTS_1
100
AcDbLine
 62
7
  6
CONTINUOUS
 10
115.2519056399
 20
102.0687822827
 11
115.2519056399
 21
113.4998161225
  0
LINE
  5
44E
100
AcDbEntity
  8
00_COMPONENTS_1
100
AcDbLine
 62
7
  6
CONTINUOUS
 10
72.0230527969
 20
40.1265705038
 11
70.8257544417
 21
39.4353141024
  0
LINE
  5
44F
100
AcDbEntity
  8
00_COMPONENTS_1
100
AcDbLine
 62
7
  6
CONTINUOUS
 10
74.63935878
 20
38.6160797121
 11
73.4420604247
 21
37.9248233107
  0
LINE
  5
450
100
AcDbEntity
  8
00_COMPONENTS_2
100
AcDbLine
 62
7
  6
CONTINUOUS
 10
98.7126930718
 20
127.0287513939
 11
98.5712723043
 21
127.1103988649
  0
LINE
  5
451
100
AcDbEntity
  8
00_COMPONENTS_2
100
AcDbLine
 62
7
  6
CONTINUOUS
 10
91.3446109133
 20
131.3071186302
 11
98.5712723043
 21
127.134898119
  0
LINE
  5
452
100
AcDbEntity
  8
00_COMPONENTS_7
100
AcDbLine
 62
7
  6
CONTINUOUS
 10
63.9653102854
 20
147.4815908401
 11
64.8325330131
 21
146.9809108917
  0
LINE
  5
453
100
AcDbEntity
  8
00_COMPONENTS_7
100
AcDbLine
 62
7
  6
CONTINUOUS
 10
66.6593983382
 20
145.9261935653
 11
67.5266210659
 21
145.4255136169
  0
LINE
  5
454
100
AcDbEntity
  8
00_COMPONENTS_7
100
AcDbLine
 62
7
  6
CONTINUOUS
 10
69.353486391
 20
144.3707962906
 11
70.2207091187
 21
143.8701163422
  0
LINE
  5
455
100
AcDbEntity
  8
00_COMPONENTS_7
100
AcDbLine
 62
7
  6
CONTINUOUS
 10
72.0475744438
 20
142.8153990159
 11
72.9147971715
 21
142.3147190675
  0
LINE
  5
456
100
AcDbEntity
  8
00_COMPONENTS_7
100
AcDbLine
 62
7
  6
CONTINUOUS
 10
63.9881812121
 20
147.905937725
 11
65.2114688174
 21
147.1996882743
  0
LINE
  5
457
100
AcDbEntity
  8
00_COMPONENTS_7
100
AcDbLine
 62
7
  6
CONTINUOUS
 10
66.6822692649
 20
146.3505404503
 11
67.9055568702
 21
145.6442909996
  0
LINE
  5
458
100
AcDbEntity
  8
00_COMPONENTS_7
100
AcDbLine
 62
7
  6
CONTINUOUS
 10
69.3763573177
 20
144.7951431756
 11
70.599644923
 21
144.0888937249
  0
LINE
  5
459
100
AcDbEntity
  8
00_COMPONENTS_7
100
AcDbLine
 62
7
  6
CONTINUOUS
 10
72.0704453705
 20
143.2397459009
 11
73.2937329758
 21
142.5334964502
  0
LINE
  5
45A
100
AcDbEntity
  8
00_COMPONENTS_7
100
AcDbLine
 62
7
  6
CONTINUOUS
 10
63.9881812121
 20
148.7224401422
 11
65.9185907617
 21
147.6079428823
  0
LINE
  5
45B
100
AcDbEntity
  8
00_COMPONENTS_7
100
AcDbLine
 62
7
  6
CONTINUOUS
 10
66.6822692649
 20
147.1670428675
 11
68.6126788145
 21
146.0525456076
  0
LINE
  5
45C
100
AcDbEntity
  8
00_COMPONENTS_7
100
AcDbLine
 62
7
  6
CONTINUOUS
 10
69.3763573177
 20
145.6116455927
 11
71.3067668674
 21
144.4971483329
  0
LINE
  5
45D
100
AcDbEntity
  8
00_COMPONENTS_7
100
AcDbLine
 62
7
  6
CONTINUOUS
 10
72.0704453705
 20
144.056248318
 11
74.0008549202
 21
142.9417510582
  0
LINE
  5
45E
100
AcDbEntity
  8
00_COMPONENTS_1
100
AcDbLine
 62
7
  6
CONTINUOUS
 10
114.0105599867
 20
120.5189747959
 11
75.2719865473
 21
142.8841946303
  0
LINE
  5
45F
100
AcDbEntity
  8
00_COMPONENTS_1
100
AcDbLine
 62
7
  6
CONTINUOUS
 10
63.9117225655
 20
149.4428977206
 11
63.2400817211
 21
149.8306609705
  0
LINE
  5
460
100
AcDbEntity
  8
00_COMPONENTS_7
100
AcDbLine
 62
7
  6
CONTINUOUS
 10
75.2719865473
 20
142.9134024642
 11
63.9370176532
 21
149.4575017591
  0
LINE
  5
461
100
AcDbEntity
  8
00_COMPONENTS_1
100
AcDbLine
 62
7
  6
CONTINUOUS
 10
77.255664763
 20
37.1055889204
 11
76.0583664078
 21
36.4143325189
  0
LINE
  5
462
100
AcDbEntity
  8
00_COMPONENTS_1
100
AcDbLine
 62
7
  6
CONTINUOUS
 10
114.0105599867
 20
120.5189747959
 11
115.2519056399
 21
113.4998161225
  0
LINE
  5
463
100
AcDbEntity
  8
00_COMPONENTS_1
100
AcDbLine
 62
7
  6
CONTINUOUS
 10
115.2519056399
 20
52.4045080009
 11
105.2144402695
 21
46.307303365
  0
LINE
  5
464
100
AcDbEntity
  8
00_COMPONENTS_1
100
AcDbLine
 62
7
  6
CONTINUOUS
 10
105.2144402695
 20
46.307303365
 11
80.1184854502
 21
31.8182335826
  0
ARC
  5
465
100
AcDbEntity
  8
00_COMPONENTS_1
100
AcDbCircle
 62
7
  6
CONTINUOUS
 10
207.4404664329
 20
47.5873225086
 40
128.382170221
100
AcDbArc
 50
179.3169082711
 51
179.9994122425
  0
ARC
  5
466
100
AcDbEntity
  8
00_COMPONENTS_1
100
AcDbCircle
 62
7
  6
CONTINUOUS
 10
154.6268972391
 20
113.9985220367
 40
126.3390792897
100
AcDbArc
 50
179.9995610386
 51
180.5904891969
  0
ARC
  5
467
100
AcDbEntity
  8
00_COMPONENTS_1
100
AcDbCircle
 62
7
  6
CONTINUOUS
 10
204.317021348
 20
84.6809583729
 40
125.2587253164
100
AcDbArc
 50
179.9968687746
 51
180.9103851787
  0
ARC
  5
468
100
AcDbEntity
  8
00_COMPONENTS_1
100
AcDbCircle
 62
7
  6
CONTINUOUS
 10
176.3347943518
 20
52.5750049987
 40
107.4999594993
100
AcDbArc
 50
184.9248870057
 51
186.626354749
  0
ARC
  5
469
100
AcDbEntity
  8
00_COMPONENTS_1
100
AcDbCircle
 62
7
  6
CONTINUOUS
 10
173.1138644923
 20
53.1505574136
 40
105.6119902635
100
AcDbArc
 50
185.6669692721
 51
186.6360521596
  0
ARC
  5
46A
100
AcDbEntity
  8
00_COMPONENTS_1
100
AcDbCircle
 62
7
  6
CONTINUOUS
 10
170.9821181634
 20
53.7873072318
 40
104.7474614524
100
AcDbArc
 50
186.3799188707
 51
186.6370562137
  0
ARC
  5
46B
100
AcDbEntity
  8
00_COMPONENTS_1
100
AcDbCircle
 62
7
  6
CONTINUOUS
 10
129.7289270782
 20
75.2538860227
 40
101.3696971573
100
AcDbArc
 50
187.3609270086
 51
188.0091502249
  0
ARC
  5
46C
100
AcDbEntity
  8
00_COMPONENTS_1
100
AcDbCircle
 62
7
  6
CONTINUOUS
 10
75.8417685039
 20
64.1922926501
 40
17.7553304412
100
AcDbArc
 50
120.297894312
 51
120.4761234831
  0
ARC
  5
46D
100
AcDbEntity
  8
00_COMPONENTS_1
100
AcDbCircle
 62
7
  6
CONTINUOUS
 10
62.3918334305
 20
87.1972921197
 40
8.8929499934
100
AcDbArc
 50
300.3425800956
 51
300.5208093564
  0
ARC
  5
46E
100
AcDbEntity
  8
00_COMPONENTS_1
100
AcDbCircle
 62
7
  6
CONTINUOUS
 10
63.8427503912
 20
75.3436601039
 40
5.0839382653
100
AcDbArc
 50
24.6163612809
 51
26.2364006062
  0
ARC
  5
46F
100
AcDbEntity
  8
00_COMPONENTS_1
100
AcDbCircle
 62
7
  6
CONTINUOUS
 10
63.8837931452
 20
75.3626510993
 40
5.0387150775
100
AcDbArc
 50
24.4077971011
 51
24.6144387135
  0
ARC
  5
470
100
AcDbEntity
  8
00_COMPONENTS_1
100
AcDbCircle
 62
7
  6
CONTINUOUS
 10
63.9136446124
 20
75.3761247555
 40
5.0059638161
100
AcDbArc
 50
23.538705804
 51
24.4085524098
  0
ARC
  5
471
100
AcDbEntity
  8
00_COMPONENTS_1
100
AcDbCircle
 62
7
  6
CONTINUOUS
 10
22.4002820381
 20
85.4111692596
 40
3.9724372667
100
AcDbArc
 50
180.004376112
 51
181.300137052
  0
ARC
  5
472
100
AcDbEntity
  8
00_COMPONENTS_1
100
AcDbCircle
 62
7
  6
CONTINUOUS
 10
65.7445959232
 20
44.246194321
 40
3.1849373458
100
AcDbArc
 50
359.0795041497
 51
0.0032186679
  0
ARC
  5
473
100
AcDbEntity
  8
00_COMPONENTS_2
100
AcDbCircle
 62
7
  6
CONTINUOUS
 10
84.7987885603
 20
120.3417809864
 40
1.6549797077
100
AcDbArc
 50
239.9293899084
 51
244.5254671787
  0
ARC
  5
474
100
AcDbEntity
  8
00_COMPONENTS_2
100
AcDbCircle
 62
7
  6
CONTINUOUS
 10
88.3425904855
 20
118.167790592
 40
1.543810378
100
AcDbArc
 50
244.7158276113
 51
245.2547739522
  0
ARC
  5
475
100
AcDbEntity
  8
00_COMPONENTS_1
100
AcDbCircle
 62
7
  6
CONTINUOUS
 10
20.0808826446
 20
86.0990415142
 40
1.4875346892
100
AcDbArc
 50
118.9577286908
 51
120.01010386
  0
ARC
  5
476
100
AcDbEntity
  8
00_COMPONENTS_1
100
AcDbCircle
 62
7
  6
CONTINUOUS
 10
20.0806639089
 20
86.0994278567
 40
1.4870907397
100
AcDbArc
 50
120.0102509953
 51
121.85739665
  0
ARC
  5
477
100
AcDbEntity
  8
00_COMPONENTS_1
100
AcDbCircle
 62
7
  6
CONTINUOUS
 10
22.9372274034
 20
81.150498053
 40
1.3786388992
100
AcDbArc
 50
298.6661061876
 51
300.0111922385
  0
ARC
  5
478
100
AcDbEntity
  8
00_COMPONENTS_1
100
AcDbCircle
 62
7
  6
CONTINUOUS
 10
22.9374571359
 20
81.1500883647
 40
1.3781692336
100
AcDbArc
 50
300.0114409204
 51
301.9073863255
  0
ARC
  5
479
100
AcDbEntity
  8
00_COMPONENTS_1
100
AcDbCircle
 62
7
  6
CONTINUOUS
 10
67.7447612604
 20
43.8659804374
 40
1.137509305
100
AcDbArc
 50
299.7740136175
 51
300.2916091859
  0
ARC
  5
47A
100
AcDbEntity
  8
00_COMPONENTS_1
100
AcDbCircle
 62
7
  6
CONTINUOUS
 10
67.7478917307
 20
43.8606390354
 40
1.1313181548
100
AcDbArc
 50
300.2911606748
 51
301.3310919097
  0
ARC
  5
47B
100
AcDbEntity
  8
00_COMPONENTS_1
100
AcDbCircle
 62
7
  6
CONTINUOUS
 10
67.7538889863
 20
43.8508467646
 40
1.1198353556
100
AcDbArc
 50
301.3295106711
 51
303.4317160313
  0
ARC
  5
47C
100
AcDbEntity
  8
00_COMPONENTS_1
100
AcDbCircle
 62
7
  6
CONTINUOUS
 10
67.7623513634
 20
43.8380529508
 40
1.1044960821
100
AcDbArc
 50
303.431012695
 51
306.1911686874
  0
ARC
  5
47D
100
AcDbEntity
  8
00_COMPONENTS_1
100
AcDbCircle
 62
7
  6
CONTINUOUS
 10
67.8404674818
 20
43.8596181886
 40
1.0883549334
100
AcDbArc
 50
294.5189871966
 51
295.6089534965
  0
ARC
  5
47E
100
AcDbEntity
  8
00_COMPONENTS_1
100
AcDbCircle
 62
7
  6
CONTINUOUS
 10
67.7773717672
 20
43.8180490197
 40
1.0794826601
100
AcDbArc
 50
306.1746993947
 51
324.2878007706
  0
ARC
  5
47F
100
AcDbEntity
  8
00_COMPONENTS_1
100
AcDbCircle
 62
7
  6
CONTINUOUS
 10
67.7316782294
 20
43.7219973057
 40
1.0192786329
100
AcDbArc
 50
304.5379327388
 51
310.6714101909
  0
ARC
  5
480
100
AcDbEntity
  8
00_COMPONENTS_1
100
AcDbCircle
 62
7
  6
CONTINUOUS
 10
67.7389887781
 20
43.7118169382
 40
1.0067478477
100
AcDbArc
 50
303.3160427945
 51
304.5236880142
  0
ARC
  5
481
100
AcDbEntity
  8
00_COMPONENTS_1
100
AcDbCircle
 62
7
  6
CONTINUOUS
 10
67.7403388759
 20
43.7098427105
 40
1.0043565277
100
AcDbArc
 50
296.9328077702
 51
303.3135409244
  0
SPLINE
  5
482
100
AcDbEntity
  8
00_COMPONENTS_7
100
AcDbSpline
 62
7
  6
CONTINUOUS
 70
0
 71
3
 72
15
 73
11
 74
0
 42
0.0000001
 43
0.0000001
 44
0.0000000001
 40
0.0
 40
0.0
 40
0.0
 40
0.0
 40
0.106305255
 40
0.2229460833
 40
0.3481451102
 40
0.479306689
 40
0.6133447377
 40
0.7469372825
 40
0.8768306649
 40
1.0
 40
1.0
 40
1.0
 40
1.0
 10
58.7174080377
 20
138.9312324771
 30
0.0
 10
58.6510220139
 20
138.9574522413
 30
0.0
 10
58.5173406351
 20
139.026906035
 30
0.0
 10
58.3290258748
 20
139.1666423804
 30
0.0
 10
58.1493339019
 20
139.3420876761
 30
0.0
 10
57.9847760143
 20
139.5468676098
 30
0.0
 10
57.84127703
 20
139.7735784401
 30
0.0
 10
57.7240333302
 20
140.0139903924
 30
0.0
 10
57.6373583707
 20
140.2592962854
 30
0.0
 10
57.6007949326
 20
140.4258392992
 30
0.0
 10
57.5889999904
 20
140.5076931985
 30
0.0
  0
SPLINE
  5
483
100
AcDbEntity
  8
00_COMPONENTS_7
100
AcDbSpline
 62
7
  6
CONTINUOUS
 70
0
 71
3
 72
12
 73
8
 74
0
 42
0.0000001
 43
0.0000001
 44
0.0000000001
 40
0.0
 40
0.0
 40
0.0
 40
0.0
 40
0.1081617394
 40
0.2183631591
 40
0.4513653165
 40
0.7104188067
 40
1.0
 40
1.0
 40
1.0
 40
1.0
 10
58.4395129446
 20
138.4038385394
 30
0.0
 10
58.4632862745
 20
138.417563993
 30
0.0
 10
58.5089881717
 20
138.4494729758
 30
0.0
 10
58.5909954135
 20
138.5301102444
 30
0.0
 10
58.6721866593
 20
138.6625087865
 30
0.0
 10
58.7286911797
 20
138.854390792
 30
0.0
 10
58.7398265295
 20
138.9941314151
 30
0.0
 10
58.7398265295
 20
139.0676260109
 30
0.0
  0
SPLINE
  5
484
100
AcDbEntity
  8
00_COMPONENTS_7
100
AcDbSpline
 62
7
  6
CONTINUOUS
 70
0
 71
3
 72
15
 73
11
 74
0
 42
0.0000001
 43
0.0000001
 44
0.0000000001
 40
0.0
 40
0.0
 40
0.0
 40
0.0
 40
0.106305255
 40
0.2229460833
 40
0.3481451102
 40
0.479306689
 40
0.6133447377
 40
0.7469372825
 40
0.8768306649
 40
1.0
 40
1.0
 40
1.0
 40
1.0
 10
66.7996721961
 20
134.2650406529
 30
0.0
 10
66.7332861723
 20
134.2912604171
 30
0.0
 10
66.5996047936
 20
134.3607142108
 30
0.0
 10
66.4112900332
 20
134.5004505562
 30
0.0
 10
66.2315980604
 20
134.675895852
 30
0.0
 10
66.0670401727
 20
134.8806757856
 30
0.0
 10
65.9235411885
 20
135.107386616
 30
0.0
 10
65.8062974886
 20
135.3477985683
 30
0.0
 10
65.7196225292
 20
135.5931044612
 30
0.0
 10
65.6830590911
 20
135.759647475
 30
0.0
 10
65.6712641489
 20
135.8415013744
 30
0.0
  0
SPLINE
  5
485
100
AcDbEntity
  8
00_COMPONENTS_7
100
AcDbSpline
 62
7
  6
CONTINUOUS
 70
0
 71
3
 72
12
 73
8
 74
0
 42
0.0000001
 43
0.0000001
 44
0.0000000001
 40
0.0
 40
0.0
 40
0.0
 40
0.0
 40
0.1081617394
 40
0.2183631591
 40
0.4513653165
 40
0.7104188067
 40
1.0
 40
1.0
 40
1.0
 40
1.0
 10
66.521777103
 20
133.7376467152
 30
0.0
 10
66.5455504329
 20
133.7513721688
 30
0.0
 10
66.5912523301
 20
133.7832811517
 30
0.0
 10
66.6732595719
 20
133.8639184202
 30
0.0
 10
66.7544508178
 20
133.9963169624
 30
0.0
 10
66.8109553381
 20
134.1881989678
 30
0.0
 10
66.8220906879
 20
134.3279395909
 30
0.0
 10
66.8220906879
 20
134.4014341867
 30
0.0
  0
SPLINE
  5
486
100
AcDbEntity
  8
00_COMPONENTS_7
100
AcDbSpline
 62
7
  6
CONTINUOUS
 70
0
 71
3
 72
15
 73
11
 74
0
 42
0.0000001
 43
0.0000001
 44
0.0000000001
 40
0.0
 40
0.0
 40
0.0
 40
0.0
 40
0.106305255
 40
0.2229460833
 40
0.3481451102
 40
0.479306689
 40
0.6133447377
 40
0.7469372825
 40
0.8768306649
 40
1.0
 40
1.0
 40
1.0
 40
1.0
 10
64.1055841433
 20
135.8204379277
 30
0.0
 10
64.0391981195
 20
135.8466576918
 30
0.0
 10
63.9055167407
 20
135.9161114855
 30
0.0
 10
63.7172019804
 20
136.0558478309
 30
0.0
 10
63.5375100075
 20
136.2312931267
 30
0.0
 10
63.3729521199
 20
136.4360730604
 30
0.0
 10
63.2294531357
 20
136.6627838907
 30
0.0
 10
63.1122094358
 20
136.903195843
 30
0.0
 10
63.0255344764
 20
137.1485017359
 30
0.0
 10
62.9889710383
 20
137.3150447497
 30
0.0
 10
62.977176096
 20
137.3968986491
 30
0.0
  0
SPLINE
  5
487
100
AcDbEntity
  8
00_COMPONENTS_7
100
AcDbSpline
 62
7
  6
CONTINUOUS
 70
0
 71
3
 72
12
 73
8
 74
0
 42
0.0000001
 43
0.0000001
 44
0.0000000001
 40
0.0
 40
0.0
 40
0.0
 40
0.0
 40
0.1081617394
 40
0.2183631591
 40
0.4513653165
 40
0.7104188067
 40
1.0
 40
1.0
 40
1.0
 40
1.0
 10
63.8276890502
 20
135.2930439899
 30
0.0
 10
63.8514623801
 20
135.3067694435
 30
0.0
 10
63.8971642773
 20
135.3386784264
 30
0.0
 10
63.9791715191
 20
135.4193156949
 30
0.0
 10
64.0603627649
 20
135.5517142371
 30
0.0
 10
64.1168672853
 20
135.7435962425
 30
0.0
 10
64.1280026351
 20
135.8833368656
 30
0.0
 10
64.1280026351
 20
135.9568314615
 30
0.0
  0
SPLINE
  5
488
100
AcDbEntity
  8
00_COMPONENTS_7
100
AcDbSpline
 62
7
  6
CONTINUOUS
 70
0
 71
3
 72
15
 73
11
 74
0
 42
0.0000001
 43
0.0000001
 44
0.0000000001
 40
0.0
 40
0.0
 40
0.0
 40
0.0
 40
0.106305255
 40
0.2229460833
 40
0.3481451102
 40
0.479306689
 40
0.6133447377
 40
0.7469372825
 40
0.8768306649
 40
1.0
 40
1.0
 40
1.0
 40
1.0
 10
61.4114960905
 20
137.3758352024
 30
0.0
 10
61.3451100667
 20
137.4020549666
 30
0.0
 10
61.2114286879
 20
137.4715087603
 30
0.0
 10
61.0231139276
 20
137.6112451057
 30
0.0
 10
60.8434219547
 20
137.7866904014
 30
0.0
 10
60.6788640671
 20
137.9914703351
 30
0.0
 10
60.5353650829
 20
138.2181811654
 30
0.0
 10
60.418121383
 20
138.4585931177
 30
0.0
 10
60.3314464235
 20
138.7038990106
 30
0.0
 10
60.2948829855
 20
138.8704420245
 30
0.0
 10
60.2830880432
 20
138.9522959238
 30
0.0
  0
SPLINE
  5
489
100
AcDbEntity
  8
00_COMPONENTS_7
100
AcDbSpline
 62
7
  6
CONTINUOUS
 70
0
 71
3
 72
15
 73
11
 74
0
 42
0.0000001
 43
0.0000001
 44
0.0000000001
 40
0.0
 40
0.0
 40
0.0
 40
0.0
 40
0.0923757408
 40
0.192032689
 40
0.3018965751
 40
0.4231062576
 40
0.5553231151
 40
0.6971085094
 40
0.8462457526
 40
1.0
 40
1.0
 40
1.0
 40
1.0
 10
58.6679100904
 20
137.7945771555
 30
0.0
 10
58.6003943638
 20
137.7682682915
 30
0.0
 10
58.4509310244
 20
137.7351800232
 30
0.0
 10
58.2122167852
 20
137.7475014703
 30
0.0
 10
57.9606729332
 20
137.8177484983
 30
0.0
 10
57.7032528111
 20
137.9428699762
 30
0.0
 10
57.4468363801
 20
138.1188178331
 30
0.0
 10
57.1986461514
 20
138.3403978909
 30
0.0
 10
56.965880689
 20
138.6010559905
 30
0.0
 10
56.8266775885
 20
138.7941991248
 30
0.0
 10
56.7611247656
 20
138.8954352713
 30
0.0
  0
SPLINE
  5
48A
100
AcDbEntity
  8
00_COMPONENTS_7
100
AcDbSpline
 62
7
  6
CONTINUOUS
 70
0
 71
3
 72
15
 73
11
 74
0
 42
0.0000001
 43
0.0000001
 44
0.0000000001
 40
0.0
 40
0.0
 40
0.0
 40
0.0
 40
0.0923757408
 40
0.192032689
 40
0.3018965751
 40
0.4231062576
 40
0.5553231151
 40
0.6971085094
 40
0.8462457526
 40
1.0
 40
1.0
 40
1.0
 40
1.0
 10
66.7501742488
 20
133.1283853313
 30
0.0
 10
66.6826585222
 20
133.1020764673
 30
0.0
 10
66.5331951828
 20
133.0689881991
 30
0.0
 10
66.2944809436
 20
133.0813096462
 30
0.0
 10
66.0429370916
 20
133.1515566741
 30
0.0
 10
65.7855169696
 20
133.2766781521
 30
0.0
 10
65.5291005385
 20
133.4526260089
 30
0.0
 10
65.2809103098
 20
133.6742060668
 30
0.0
 10
65.0481448474
 20
133.9348641663
 30
0.0
 10
64.9089417469
 20
134.1280073007
 30
0.0
 10
64.8433889241
 20
134.2292434471
 30
0.0
  0
SPLINE
  5
48B
100
AcDbEntity
  8
00_COMPONENTS_7
100
AcDbSpline
 62
7
  6
CONTINUOUS
 70
0
 71
3
 72
15
 73
11
 74
0
 42
0.0000001
 43
0.0000001
 44
0.0000000001
 40
0.0
 40
0.0
 40
0.0
 40
0.0
 40
0.0923757408
 40
0.192032689
 40
0.3018965751
 40
0.4231062576
 40
0.5553231151
 40
0.6971085094
 40
0.8462457526
 40
1.0
 40
1.0
 40
1.0
 40
1.0
 10
64.056086196
 20
134.683782606
 30
0.0
 10
63.9885704694
 20
134.6574737421
 30
0.0
 10
63.83910713
 20
134.6243854738
 30
0.0
 10
63.6003928908
 20
134.6367069209
 30
0.0
 10
63.3488490388
 20
134.7069539488
 30
0.0
 10
63.0914289168
 20
134.8320754268
 30
0.0
 10
62.8350124857
 20
135.0080232837
 30
0.0
 10
62.586822257
 20
135.2296033415
 30
0.0
 10
62.3540567946
 20
135.490261441
 30
0.0
 10
62.2148536941
 20
135.6834045754
 30
0.0
 10
62.1493008713
 20
135.7846407218
 30
0.0
  0
SPLINE
  5
48C
100
AcDbEntity
  8
00_COMPONENTS_7
100
AcDbSpline
 62
7
  6
CONTINUOUS
 70
0
 71
3
 72
15
 73
11
 74
0
 42
0.0000001
 43
0.0000001
 44
0.0000000001
 40
0.0
 40
0.0
 40
0.0
 40
0.0
 40
0.0923757408
 40
0.192032689
 40
0.3018965751
 40
0.4231062576
 40
0.5553231151
 40
0.6971085094
 40
0.8462457526
 40
1.0
 40
1.0
 40
1.0
 40
1.0
 10
61.3619981432
 20
136.2391798808
 30
0.0
 10
61.2944824166
 20
136.2128710168
 30
0.0
 10
61.1450190772
 20
136.1797827485
 30
0.0
 10
60.906304838
 20
136.1921041956
 30
0.0
 10
60.654760986
 20
136.2623512235
 30
0.0
 10
60.3973408639
 20
136.3874727015
 30
0.0
 10
60.1409244329
 20
136.5634205584
 30
0.0
 10
59.8927342042
 20
136.7850006162
 30
0.0
 10
59.6599687418
 20
137.0456587158
 30
0.0
 10
59.5207656413
 20
137.2388018501
 30
0.0
 10
59.4552128185
 20
137.3400379965
 30
0.0
  0
SPLINE
  5
48D
100
AcDbEntity
  8
00_COMPONENTS_7
100
AcDbSpline
 62
7
  6
CONTINUOUS
 70
0
 71
3
 72
15
 73
11
 74
0
 42
0.0000001
 43
0.0000001
 44
0.0000000001
 40
0.0
 40
0.0
 40
0.0
 40
0.0
 40
0.1141555516
 40
0.2373276756
 40
0.3669773296
 40
0.5000011
 40
0.6330247168
 40
0.7626739247
 40
0.885845342
 40
1.0
 40
1.0
 40
1.0
 40
1.0
 10
61.4339145823
 20
137.5122287362
 30
0.0
 10
61.4339145823
 20
137.5932780448
 30
0.0
 10
61.4190692483
 20
137.761935724
 30
0.0
 10
61.3598886224
 20
138.0163741466
 30
0.0
 10
61.2650846741
 20
138.2740998636
 30
0.0
 10
61.1382004159
 20
138.525421563
 30
0.0
 10
60.9839906183
 20
138.7609664048
 30
0.0
 10
60.8081950484
 20
138.9719302542
 30
0.0
 10
60.6174351422
 20
139.150399192
 30
0.0
 10
60.4787960885
 20
139.2475826856
 30
0.0
 10
60.4086054808
 20
139.2881063351
 30
0.0
  0
SPLINE
  5
48E
100
AcDbEntity
  8
00_COMPONENTS_7
100
AcDbSpline
 62
7
  6
CONTINUOUS
 70
0
 71
3
 72
9
 73
5
 74
0
 42
0.0000001
 43
0.0000001
 44
0.0000000001
 40
0.0
 40
0.0
 40
0.0
 40
0.0
 40
0.2564622827
 40
1.0
 40
1.0
 40
1.0
 40
1.0
 10
60.4086054808
 20
139.2881063351
 30
0.0
 10
60.397276604
 20
139.2946469172
 30
0.0
 10
60.3527384056
 20
139.319509334
 30
0.0
 10
60.3067234071
 20
139.3417576672
 30
0.0
 10
60.2717810611
 20
139.3565017826
 30
0.0
  0
SPLINE
  5
48F
100
AcDbEntity
  8
00_COMPONENTS_7
100
AcDbSpline
 62
7
  6
CONTINUOUS
 70
0
 71
3
 72
11
 73
7
 74
0
 42
0.0000001
 43
0.0000001
 44
0.0000000001
 40
0.0
 40
0.0
 40
0.0
 40
0.0
 40
0.281648212
 40
0.5381476859
 40
0.7747065715
 40
1.0
 40
1.0
 40
1.0
 40
1.0
 10
60.2717810611
 20
139.3565017826
 30
0.0
 10
60.2191429565
 20
139.3787127207
 30
0.0
 10
60.1149889758
 20
139.4135323468
 30
0.0
 10
59.9579471378
 20
139.4336872975
 30
0.0
 10
59.8115589238
 20
139.418022985
 30
0.0
 10
59.7231880038
 20
139.3827646464
 30
0.0
 10
59.6836099643
 20
139.3599143958
 30
0.0
  0
SPLINE
  5
490
100
AcDbEntity
  8
00_COMPONENTS_7
100
AcDbSpline
 62
7
  6
CONTINUOUS
 70
0
 71
3
 72
9
 73
5
 74
0
 42
0.0000001
 43
0.0000001
 44
0.0000000001
 40
0.0
 40
0.0
 40
0.0
 40
0.0
 40
0.2564622827
 40
1.0
 40
1.0
 40
1.0
 40
1.0
 10
63.1026935336
 20
137.7327090603
 30
0.0
 10
63.0913646568
 20
137.7392496425
 30
0.0
 10
63.0468264585
 20
137.7641120593
 30
0.0
 10
63.0008114599
 20
137.7863603925
 30
0.0
 10
62.9658691139
 20
137.8011045079
 30
0.0
  0
SPLINE
  5
491
100
AcDbEntity
  8
00_COMPONENTS_7
100
AcDbSpline
 62
7
  6
CONTINUOUS
 70
0
 71
3
 72
11
 73
7
 74
0
 42
0.0000001
 43
0.0000001
 44
0.0000000001
 40
0.0
 40
0.0
 40
0.0
 40
0.0
 40
0.281648212
 40
0.5381476859
 40
0.7747065715
 40
1.0
 40
1.0
 40
1.0
 40
1.0
 10
62.9658691139
 20
137.8011045079
 30
0.0
 10
62.9132310093
 20
137.823315446
 30
0.0
 10
62.8090770286
 20
137.8581350721
 30
0.0
 10
62.6520351906
 20
137.8782900228
 30
0.0
 10
62.5056469766
 20
137.8626257103
 30
0.0
 10
62.4172760566
 20
137.8273673717
 30
0.0
 10
62.3776980171
 20
137.8045171211
 30
0.0
  0
SPLINE
  5
492
100
AcDbEntity
  8
00_COMPONENTS_7
100
AcDbSpline
 62
7
  6
CONTINUOUS
 70
0
 71
3
 72
15
 73
11
 74
0
 42
0.0000001
 43
0.0000001
 44
0.0000000001
 40
0.0
 40
0.0
 40
0.0
 40
0.0
 40
0.1141555516
 40
0.2373276756
 40
0.3669773296
 40
0.5000011
 40
0.6330247168
 40
0.7626739247
 40
0.885845342
 40
1.0
 40
1.0
 40
1.0
 40
1.0
 10
64.1280026351
 20
135.9568314615
 30
0.0
 10
64.1280026351
 20
136.0378807701
 30
0.0
 10
64.1131573011
 20
136.2065384492
 30
0.0
 10
64.0539766752
 20
136.4609768719
 30
0.0
 10
63.9591727269
 20
136.7187025889
 30
0.0
 10
63.8322884688
 20
136.9700242882
 30
0.0
 10
63.6780786711
 20
137.20556913
 30
0.0
 10
63.5022831012
 20
137.4165329795
 30
0.0
 10
63.311523195
 20
137.5950019173
 30
0.0
 10
63.1728841413
 20
137.6921854109
 30
0.0
 10
63.1026935336
 20
137.7327090603
 30
0.0
  0
SPLINE
  5
493
100
AcDbEntity
  8
00_COMPONENTS_7
100
AcDbSpline
 62
7
  6
CONTINUOUS
 70
0
 71
3
 72
15
 73
11
 74
0
 42
0.0000001
 43
0.0000001
 44
0.0000000001
 40
0.0
 40
0.0
 40
0.0
 40
0.0
 40
0.1141555516
 40
0.2373276756
 40
0.3669773296
 40
0.5000011
 40
0.6330247168
 40
0.7626739247
 40
0.885845342
 40
1.0
 40
1.0
 40
1.0
 40
1.0
 10
66.8220906879
 20
134.4014341867
 30
0.0
 10
66.8220906879
 20
134.4824834954
 30
0.0
 10
66.8072453539
 20
134.6511411745
 30
0.0
 10
66.748064728
 20
134.9055795972
 30
0.0
 10
66.6532607797
 20
135.1633053142
 30
0.0
 10
66.5263765216
 20
135.4146270135
 30
0.0
 10
66.372166724
 20
135.6501718553
 30
0.0
 10
66.196371154
 20
135.8611357048
 30
0.0
 10
66.0056112478
 20
136.0396046425
 30
0.0
 10
65.8669721941
 20
136.1367881361
 30
0.0
 10
65.7967815864
 20
136.1773117856
 30
0.0
  0
SPLINE
  5
494
100
AcDbEntity
  8
00_COMPONENTS_7
100
AcDbSpline
 62
7
  6
CONTINUOUS
 70
0
 71
3
 72
9
 73
5
 74
0
 42
0.0000001
 43
0.0000001
 44
0.0000000001
 40
0.0
 40
0.0
 40
0.0
 40
0.0
 40
0.2564622827
 40
1.0
 40
1.0
 40
1.0
 40
1.0
 10
65.7967815864
 20
136.1773117856
 30
0.0
 10
65.7854527096
 20
136.1838523677
 30
0.0
 10
65.7409145113
 20
136.2087147846
 30
0.0
 10
65.6948995127
 20
136.2309631178
 30
0.0
 10
65.6599571667
 20
136.2457072331
 30
0.0
  0
SPLINE
  5
495
100
AcDbEntity
  8
00_COMPONENTS_7
100
AcDbSpline
 62
7
  6
CONTINUOUS
 70
0
 71
3
 72
11
 73
7
 74
0
 42
0.0000001
 43
0.0000001
 44
0.0000000001
 40
0.0
 40
0.0
 40
0.0
 40
0.0
 40
0.281648212
 40
0.5381476859
 40
0.7747065715
 40
1.0
 40
1.0
 40
1.0
 40
1.0
 10
65.6599571667
 20
136.2457072331
 30
0.0
 10
65.6073190621
 20
136.2679181713
 30
0.0
 10
65.5031650814
 20
136.3027377973
 30
0.0
 10
65.3461232434
 20
136.3228927481
 30
0.0
 10
65.1997350294
 20
136.3072284356
 30
0.0
 10
65.1113641095
 20
136.271970097
 30
0.0
 10
65.0717860699
 20
136.2491198464
 30
0.0
  0
SPLINE
  5
496
100
AcDbEntity
  8
00_COMPONENTS_7
100
AcDbSpline
 62
7
  6
CONTINUOUS
 70
0
 71
3
 72
9
 73
5
 74
0
 42
0.0000001
 43
0.0000001
 44
0.0000000001
 40
0.0
 40
0.0
 40
0.0
 40
0.0
 40
0.2564622827
 40
1.0
 40
1.0
 40
1.0
 40
1.0
 10
57.714517428
 20
140.8435036098
 30
0.0
 10
57.7031885512
 20
140.8500441919
 30
0.0
 10
57.6586503528
 20
140.8749066087
 30
0.0
 10
57.6126353543
 20
140.8971549419
 30
0.0
 10
57.5776930083
 20
140.9118990573
 30
0.0
  0
SPLINE
  5
497
100
AcDbEntity
  8
00_COMPONENTS_7
100
AcDbSpline
 62
7
  6
CONTINUOUS
 70
0
 71
3
 72
11
 73
7
 74
0
 42
0.0000001
 43
0.0000001
 44
0.0000000001
 40
0.0
 40
0.0
 40
0.0
 40
0.0
 40
0.281648212
 40
0.5381476859
 40
0.7747065715
 40
1.0
 40
1.0
 40
1.0
 40
1.0
 10
57.5776930083
 20
140.9118990573
 30
0.0
 10
57.5250549037
 20
140.9341099955
 30
0.0
 10
57.420900923
 20
140.9689296215
 30
0.0
 10
57.263859085
 20
140.9890845723
 30
0.0
 10
57.1174708709
 20
140.9734202597
 30
0.0
 10
57.029099951
 20
140.9381619212
 30
0.0
 10
56.9895219115
 20
140.9153116706
 30
0.0
  0
SPLINE
  5
498
100
AcDbEntity
  8
00_COMPONENTS_7
100
AcDbSpline
 62
7
  6
CONTINUOUS
 70
0
 71
3
 72
15
 73
11
 74
0
 42
0.0000001
 43
0.0000001
 44
0.0000000001
 40
0.0
 40
0.0
 40
0.0
 40
0.0
 40
0.1141555516
 40
0.2373276756
 40
0.3669773296
 40
0.5000011
 40
0.6330247168
 40
0.7626739247
 40
0.885845342
 40
1.0
 40
1.0
 40
1.0
 40
1.0
 10
58.7398265295
 20
139.0676260109
 30
0.0
 10
58.7398265295
 20
139.1486753195
 30
0.0
 10
58.7249811955
 20
139.3173329987
 30
0.0
 10
58.6658005696
 20
139.5717714213
 30
0.0
 10
58.5709966213
 20
139.8294971383
 30
0.0
 10
58.4441123631
 20
140.0808188377
 30
0.0
 10
58.2899025655
 20
140.3163636795
 30
0.0
 10
58.1141069956
 20
140.527327529
 30
0.0
 10
57.9233470894
 20
140.7057964667
 30
0.0
 10
57.7847080357
 20
140.8029799603
 30
0.0
 10
57.714517428
 20
140.8435036098
 30
0.0
  0
SPLINE
  5
499
100
AcDbEntity
  8
00_COMPONENTS_7
100
AcDbSpline
 62
7
  6
CONTINUOUS
 70
0
 71
3
 72
12
 73
8
 74
0
 42
0.0000001
 43
0.0000001
 44
0.0000000001
 40
0.0
 40
0.0
 40
0.0
 40
0.0
 40
0.1081617394
 40
0.2183631591
 40
0.4513653165
 40
0.7104188067
 40
1.0
 40
1.0
 40
1.0
 40
1.0
 10
61.1336009974
 20
136.8484412646
 30
0.0
 10
61.1573743273
 20
136.8621667183
 30
0.0
 10
61.2030762245
 20
136.8940757011
 30
0.0
 10
61.2850834663
 20
136.9747129697
 30
0.0
 10
61.3662747121
 20
137.1071115118
 30
0.0
 10
61.4227792325
 20
137.2989935173
 30
0.0
 10
61.4339145823
 20
137.4387341403
 30
0.0
 10
61.4339145823
 20
137.5122287362
 30
0.0
  0
SPLINE
  5
49A
100
AcDbEntity
  8
00_COMPONENTS_7
100
AcDbSpline
 62
7
  6
CONTINUOUS
 70
0
 71
3
 72
12
 73
8
 74
0
 42
0.0000001
 43
0.0000001
 44
0.0000000001
 40
0.0
 40
0.0
 40
0.0
 40
0.0
 40
0.2895802184
 40
0.5486333627
 40
0.7816359182
 40
0.8918377609
 40
1.0
 40
1.0
 40
1.0
 40
1.0
 10
60.4086054808
 20
136.9202493254
 30
0.0
 10
60.4722521102
 20
136.8835037581
 30
0.0
 10
60.5988355866
 20
136.8232799084
 30
0.0
 10
60.7932574691
 20
136.7762761761
 30
0.0
 10
60.948509459
 20
136.7803912803
 30
0.0
 10
61.0593443324
 20
136.8110922985
 30
0.0
 10
61.1098281938
 20
136.8347161149
 30
0.0
 10
61.1336009974
 20
136.8484412646
 30
0.0
  0
SPLINE
  5
49B
100
AcDbEntity
  8
00_COMPONENTS_7
100
AcDbSpline
 62
7
  6
CONTINUOUS
 70
0
 71
3
 72
12
 73
8
 74
0
 42
0.0000001
 43
0.0000001
 44
0.0000000001
 40
0.0
 40
0.0
 40
0.0
 40
0.0
 40
0.1081617394
 40
0.2183631591
 40
0.4513653165
 40
0.7104188067
 40
1.0
 40
1.0
 40
1.0
 40
1.0
 10
62.3776980171
 20
137.8045171211
 30
0.0
 10
62.3539246871
 20
137.7907916675
 30
0.0
 10
62.30822279
 20
137.7588826846
 30
0.0
 10
62.2262155481
 20
137.6782454161
 30
0.0
 10
62.1450243023
 20
137.5458468739
 30
0.0
 10
62.088519782
 20
137.3539648685
 30
0.0
 10
62.0773844322
 20
137.2142242454
 30
0.0
 10
62.0773844322
 20
137.1407296496
 30
0.0
  0
SPLINE
  5
49C
100
AcDbEntity
  8
00_COMPONENTS_7
100
AcDbSpline
 62
7
  6
CONTINUOUS
 70
0
 71
3
 72
15
 73
11
 74
0
 42
0.0000001
 43
0.0000001
 44
0.0000000001
 40
0.0
 40
0.0
 40
0.0
 40
0.0
 40
0.1141555516
 40
0.2373276756
 40
0.3669773296
 40
0.5000011
 40
0.6330247168
 40
0.7626739247
 40
0.885845342
 40
1.0
 40
1.0
 40
1.0
 40
1.0
 10
59.3832963794
 20
138.6961269243
 30
0.0
 10
59.3832963794
 20
138.6150776156
 30
0.0
 10
59.3981417133
 20
138.4464199365
 30
0.0
 10
59.4573223392
 20
138.1919815139
 30
0.0
 10
59.5521262875
 20
137.9342557969
 30
0.0
 10
59.6790105457
 20
137.6829340975
 30
0.0
 10
59.8332203433
 20
137.4473892557
 30
0.0
 10
60.0090159132
 20
137.2364254062
 30
0.0
 10
60.1997758194
 20
137.0579564685
 30
0.0
 10
60.3384148731
 20
136.9607729749
 30
0.0
 10
60.4086054808
 20
136.9202493254
 30
0.0
  0
SPLINE
  5
49D
100
AcDbEntity
  8
00_COMPONENTS_7
100
AcDbSpline
 62
7
  6
CONTINUOUS
 70
0
 71
3
 72
15
 73
11
 74
0
 42
0.0000001
 43
0.0000001
 44
0.0000000001
 40
0.0
 40
0.0
 40
0.0
 40
0.0
 40
0.1141555516
 40
0.2373276756
 40
0.3669773296
 40
0.5000011
 40
0.6330247168
 40
0.7626739247
 40
0.885845342
 40
1.0
 40
1.0
 40
1.0
 40
1.0
 10
62.0773844322
 20
137.1407296496
 30
0.0
 10
62.0773844322
 20
137.0596803409
 30
0.0
 10
62.0922297661
 20
136.8910226618
 30
0.0
 10
62.151410392
 20
136.6365842391
 30
0.0
 10
62.2462143404
 20
136.3788585221
 30
0.0
 10
62.3730985985
 20
136.1275368228
 30
0.0
 10
62.5273083961
 20
135.891991981
 30
0.0
 10
62.703103966
 20
135.6810281315
 30
0.0
 10
62.8938638722
 20
135.5025591938
 30
0.0
 10
63.0325029259
 20
135.4053757002
 30
0.0
 10
63.1026935336
 20
135.3648520507
 30
0.0
  0
SPLINE
  5
49E
100
AcDbEntity
  8
00_COMPONENTS_7
100
AcDbSpline
 62
7
  6
CONTINUOUS
 70
0
 71
3
 72
12
 73
8
 74
0
 42
0.0000001
 43
0.0000001
 44
0.0000000001
 40
0.0
 40
0.0
 40
0.0
 40
0.0
 40
0.2895802184
 40
0.5486333627
 40
0.7816359182
 40
0.8918377609
 40
1.0
 40
1.0
 40
1.0
 40
1.0
 10
63.1026935336
 20
135.3648520507
 30
0.0
 10
63.166340163
 20
135.3281064834
 30
0.0
 10
63.2929236394
 20
135.2678826337
 30
0.0
 10
63.4873455219
 20
135.2208789014
 30
0.0
 10
63.6425975118
 20
135.2249940056
 30
0.0
 10
63.7534323852
 20
135.2556950238
 30
0.0
 10
63.8039162466
 20
135.2793188402
 30
0.0
 10
63.8276890502
 20
135.2930439899
 30
0.0
  0
SPLINE
  5
49F
100
AcDbEntity
  8
00_COMPONENTS_7
100
AcDbSpline
 62
7
  6
CONTINUOUS
 70
0
 71
3
 72
12
 73
8
 74
0
 42
0.0000001
 43
0.0000001
 44
0.0000000001
 40
0.0
 40
0.0
 40
0.0
 40
0.0
 40
0.1081617394
 40
0.2183631591
 40
0.4513653165
 40
0.7104188067
 40
1.0
 40
1.0
 40
1.0
 40
1.0
 10
65.0717860699
 20
136.2491198464
 30
0.0
 10
65.04801274
 20
136.2353943928
 30
0.0
 10
65.0023108428
 20
136.2034854099
 30
0.0
 10
64.9203036009
 20
136.1228481414
 30
0.0
 10
64.8391123551
 20
135.9904495992
 30
0.0
 10
64.7826078348
 20
135.7985675938
 30
0.0
 10
64.771472485
 20
135.6588269707
 30
0.0
 10
64.771472485
 20
135.5853323748
 30
0.0
  0
SPLINE
  5
4A0
100
AcDbEntity
  8
00_COMPONENTS_7
100
AcDbSpline
 62
7
  6
CONTINUOUS
 70
0
 71
3
 72
12
 73
8
 74
0
 42
0.0000001
 43
0.0000001
 44
0.0000000001
 40
0.0
 40
0.0
 40
0.0
 40
0.0
 40
0.2895802184
 40
0.5486333627
 40
0.7816359182
 40
0.8918377609
 40
1.0
 40
1.0
 40
1.0
 40
1.0
 10
65.7967815864
 20
133.8094547759
 30
0.0
 10
65.8604282158
 20
133.7727092086
 30
0.0
 10
65.9870116922
 20
133.7124853589
 30
0.0
 10
66.1814335747
 20
133.6654816267
 30
0.0
 10
66.3366855646
 20
133.6695967309
 30
0.0
 10
66.447520438
 20
133.7002977491
 30
0.0
 10
66.4980042994
 20
133.7239215655
 30
0.0
 10
66.521777103
 20
133.7376467152
 30
0.0
  0
SPLINE
  5
4A1
100
AcDbEntity
  8
00_COMPONENTS_7
100
AcDbSpline
 62
7
  6
CONTINUOUS
 70
0
 71
3
 72
15
 73
11
 74
0
 42
0.0000001
 43
0.0000001
 44
0.0000000001
 40
0.0
 40
0.0
 40
0.0
 40
0.0
 40
0.1141555516
 40
0.2373276756
 40
0.3669773296
 40
0.5000011
 40
0.6330247168
 40
0.7626739247
 40
0.885845342
 40
1.0
 40
1.0
 40
1.0
 40
1.0
 10
64.771472485
 20
135.5853323748
 30
0.0
 10
64.771472485
 20
135.5042830662
 30
0.0
 10
64.786317819
 20
135.3356253871
 30
0.0
 10
64.8454984449
 20
135.0811869644
 30
0.0
 10
64.9403023932
 20
134.8234612474
 30
0.0
 10
65.0671866513
 20
134.5721395481
 30
0.0
 10
65.2213964489
 20
134.3365947063
 30
0.0
 10
65.3971920188
 20
134.1256308568
 30
0.0
 10
65.587951925
 20
133.947161919
 30
0.0
 10
65.7265909787
 20
133.8499784254
 30
0.0
 10
65.7967815864
 20
133.8094547759
 30
0.0
  0
SPLINE
  5
4A2
100
AcDbEntity
  8
00_COMPONENTS_7
100
AcDbSpline
 62
7
  6
CONTINUOUS
 70
0
 71
3
 72
12
 73
8
 74
0
 42
0.0000001
 43
0.0000001
 44
0.0000000001
 40
0.0
 40
0.0
 40
0.0
 40
0.0
 40
0.1081617394
 40
0.2183631591
 40
0.4513653165
 40
0.7104188067
 40
1.0
 40
1.0
 40
1.0
 40
1.0
 10
56.9895219115
 20
140.9153116706
 30
0.0
 10
56.9657485815
 20
140.9015862169
 30
0.0
 10
56.9200466844
 20
140.8696772341
 30
0.0
 10
56.8380394425
 20
140.7890399655
 30
0.0
 10
56.7568481967
 20
140.6566414234
 30
0.0
 10
56.7003436763
 20
140.4647594179
 30
0.0
 10
56.6892083265
 20
140.3250187948
 30
0.0
 10
56.6892083265
 20
140.251524199
 30
0.0
  0
SPLINE
  5
4A3
100
AcDbEntity
  8
00_COMPONENTS_7
100
AcDbSpline
 62
7
  6
CONTINUOUS
 70
0
 71
3
 72
15
 73
11
 74
0
 42
0.0000001
 43
0.0000001
 44
0.0000000001
 40
0.0
 40
0.0
 40
0.0
 40
0.0
 40
0.1141555516
 40
0.2373276756
 40
0.3669773296
 40
0.5000011
 40
0.6330247168
 40
0.7626739247
 40
0.885845342
 40
1.0
 40
1.0
 40
1.0
 40
1.0
 10
56.6892083265
 20
140.251524199
 30
0.0
 10
56.6892083265
 20
140.1704748904
 30
0.0
 10
56.7040536605
 20
140.0018172112
 30
0.0
 10
56.7632342864
 20
139.7473787886
 30
0.0
 10
56.8580382347
 20
139.4896530716
 30
0.0
 10
56.9849224929
 20
139.2383313722
 30
0.0
 10
57.1391322905
 20
139.0027865304
 30
0.0
 10
57.3149278604
 20
138.791822681
 30
0.0
 10
57.5056877666
 20
138.6133537432
 30
0.0
 10
57.6443268203
 20
138.5161702496
 30
0.0
 10
57.714517428
 20
138.4756466001
 30
0.0
  0
SPLINE
  5
4A4
100
AcDbEntity
  8
00_COMPONENTS_7
100
AcDbSpline
 62
7
  6
CONTINUOUS
 70
0
 71
3
 72
12
 73
8
 74
0
 42
0.0000001
 43
0.0000001
 44
0.0000000001
 40
0.0
 40
0.0
 40
0.0
 40
0.0
 40
0.2895802184
 40
0.5486333627
 40
0.7816359182
 40
0.8918377609
 40
1.0
 40
1.0
 40
1.0
 40
1.0
 10
57.714517428
 20
138.4756466001
 30
0.0
 10
57.7781640574
 20
138.4389010328
 30
0.0
 10
57.9047475338
 20
138.3786771831
 30
0.0
 10
58.0991694162
 20
138.3316734508
 30
0.0
 10
58.2544214061
 20
138.3357885551
 30
0.0
 10
58.3652562796
 20
138.3664895732
 30
0.0
 10
58.415740141
 20
138.3901133896
 30
0.0
 10
58.4395129446
 20
138.4038385394
 30
0.0
  0
SPLINE
  5
4A5
100
AcDbEntity
  8
00_COMPONENTS_7
100
AcDbSpline
 62
7
  6
CONTINUOUS
 70
0
 71
3
 72
12
 73
8
 74
0
 42
0.0000001
 43
0.0000001
 44
0.0000000001
 40
0.0
 40
0.0
 40
0.0
 40
0.0
 40
0.1081617394
 40
0.2183631591
 40
0.4513653165
 40
0.7104188067
 40
1.0
 40
1.0
 40
1.0
 40
1.0
 10
59.6836099643
 20
139.3599143958
 30
0.0
 10
59.6598366343
 20
139.3461889422
 30
0.0
 10
59.6141347372
 20
139.3142799593
 30
0.0
 10
59.5321274953
 20
139.2336426908
 30
0.0
 10
59.4509362495
 20
139.1012441487
 30
0.0
 10
59.3944317292
 20
138.9093621432
 30
0.0
 10
59.3832963794
 20
138.7696215201
 30
0.0
 10
59.3832963794
 20
138.6961269243
 30
0.0
  0
SPLINE
  5
4A6
100
AcDbEntity
  8
00_COMPONENTS_2
100
AcDbSpline
 62
7
  6
CONTINUOUS
 70
0
 71
3
 72
13
 73
9
 74
0
 42
0.0000001
 43
0.0000001
 44
0.0000000001
 40
0.0
 40
0.0
 40
0.0
 40
0.0
 40
0.2894501207
 40
0.4228150777
 40
0.548836145
 40
0.7817340211
 40
0.8918863542
 40
1.0
 40
1.0
 40
1.0
 40
1.0
 10
82.6967461162
 20
121.3581679539
 30
0.0
 10
82.6089576618
 20
121.408851495
 30
0.0
 10
82.4741986847
 20
121.473006475
 30
0.0
 10
82.2892920848
 20
121.5268869096
 30
0.0
 10
82.1190420409
 20
121.5555271218
 30
0.0
 10
81.9520314344
 20
121.5510713331
 30
0.0
 10
81.7991789877
 20
121.508730179
 30
0.0
 10
81.7295423741
 20
121.4761447959
 30
0.0
 10
81.6967523002
 20
121.4572135549
 30
0.0
  0
SPLINE
  5
4A7
100
AcDbEntity
  8
00_COMPONENTS_2
100
AcDbSpline
 62
7
  6
CONTINUOUS
 70
0
 71
3
 72
15
 73
11
 74
0
 42
0.0000001
 43
0.0000001
 44
0.0000000001
 40
0.0
 40
0.0
 40
0.0
 40
0.0
 40
0.1141555516
 40
0.2373276756
 40
0.3669773296
 40
0.5000011
 40
0.6330247168
 40
0.7626739247
 40
0.885845342
 40
1.0
 40
1.0
 40
1.0
 40
1.0
 10
84.1109655665
 20
118.9086816106
 30
0.0
 10
84.1109655665
 20
119.0204737604
 30
0.0
 10
84.0904892437
 20
119.253105042
 30
0.0
 10
84.0088607942
 20
119.6040545905
 30
0.0
 10
83.8780967276
 20
119.9595383381
 30
0.0
 10
83.7030839577
 20
120.3061889578
 30
0.0
 10
83.4903807886
 20
120.6310783948
 30
0.0
 10
83.2479041404
 20
120.9220630148
 30
0.0
 10
82.9847870285
 20
121.1682270669
 30
0.0
 10
82.7935607475
 20
121.3022732649
 30
0.0
 10
82.6967461162
 20
121.3581679539
 30
0.0
  0
SPLINE
  5
4A8
100
AcDbEntity
  8
00_COMPONENTS_2
100
AcDbSpline
 62
7
  6
CONTINUOUS
 70
0
 71
3
 72
15
 73
11
 74
0
 42
0.0000001
 43
0.0000001
 44
0.0000000001
 40
0.0
 40
0.0
 40
0.0
 40
0.0
 40
0.1141555516
 40
0.2373276756
 40
0.3669773296
 40
0.5000011
 40
0.6330247168
 40
0.7626739247
 40
0.885845342
 40
1.0
 40
1.0
 40
1.0
 40
1.0
 10
87.7030829702
 20
116.8348185776
 30
0.0
 10
87.7030829702
 20
116.9466107274
 30
0.0
 10
87.6826066475
 20
117.179242009
 30
0.0
 10
87.600978198
 20
117.5301915575
 30
0.0
 10
87.4702141313
 20
117.8856753051
 30
0.0
 10
87.2952013615
 20
118.2323259249
 30
0.0
 10
87.0824981924
 20
118.5572153618
 30
0.0
 10
86.8400215442
 20
118.8481999818
 30
0.0
 10
86.5769044322
 20
119.0943640339
 30
0.0
 10
86.3856781512
 20
119.2284102319
 30
0.0
 10
86.2888635199
 20
119.2843049209
 30
0.0
  0
SPLINE
  5
4A9
100
AcDbEntity
  8
00_COMPONENTS_2
100
AcDbSpline
 62
7
  6
CONTINUOUS
 70
0
 71
3
 72
13
 73
9
 74
0
 42
0.0000001
 43
0.0000001
 44
0.0000000001
 40
0.0
 40
0.0
 40
0.0
 40
0.0
 40
0.2894501207
 40
0.4228150777
 40
0.548836145
 40
0.7817340211
 40
0.8918863542
 40
1.0
 40
1.0
 40
1.0
 40
1.0
 10
86.2888635199
 20
119.2843049209
 30
0.0
 10
86.2010750656
 20
119.334988462
 30
0.0
 10
86.0663160885
 20
119.399143442
 30
0.0
 10
85.8814094886
 20
119.4530238766
 30
0.0
 10
85.7111594447
 20
119.4816640888
 30
0.0
 10
85.5441488381
 20
119.4772083001
 30
0.0
 10
85.3912963915
 20
119.434867146
 30
0.0
 10
85.3216597779
 20
119.402281763
 30
0.0
 10
85.288869704
 20
119.383350522
 30
0.0
  0
SPLINE
  5
4AA
100
AcDbEntity
  8
00_COMPONENTS_2
100
AcDbSpline
 62
7
  6
CONTINUOUS
 70
0
 71
3
 72
15
 73
11
 74
0
 42
0.0000001
 43
0.0000001
 44
0.0000000001
 40
0.0
 40
0.0
 40
0.0
 40
0.0
 40
0.1088346231
 40
0.2270566817
 40
0.3528286893
 40
0.4836831102
 40
0.6167801326
 40
0.7491167482
 40
0.8777583109
 40
1.0
 40
1.0
 40
1.0
 40
1.0
 10
87.6832165686
 20
116.771876368
 30
0.0
 10
87.5970485603
 20
116.8125773659
 30
0.0
 10
87.4248589851
 20
116.9139768368
 30
0.0
 10
87.1833012964
 20
117.1079038782
 30
0.0
 10
86.954367216
 20
117.3442001478
 30
0.0
 10
86.7456514481
 20
117.6150282667
 30
0.0
 10
86.56402222
 20
117.9114472884
 30
0.0
 10
86.4154874637
 20
118.2236434745
 30
0.0
 10
86.30501609
 20
118.5411895335
 30
0.0
 10
86.2576468707
 20
118.7564141628
 30
0.0
 10
86.2419261188
 20
118.8622896651
 30
0.0
  0
SPLINE
  5
4AB
100
AcDbEntity
  8
00_COMPONENTS_2
100
AcDbSpline
 62
7
  6
CONTINUOUS
 70
0
 71
3
 72
13
 73
9
 74
0
 42
0.0000001
 43
0.0000001
 44
0.0000000001
 40
0.0
 40
0.0
 40
0.0
 40
0.0
 40
0.1081131453
 40
0.2182650547
 40
0.4511625307
 40
0.5771836882
 40
0.7105489075
 40
1.0
 40
1.0
 40
1.0
 40
1.0
 10
87.2888573358
 20
115.9192496513
 30
0.0
 10
87.3216481358
 20
115.9381813115
 30
0.0
 10
87.3846877865
 20
115.9821965029
 30
0.0
 10
87.4977852045
 20
116.0934027324
 30
0.0
 10
87.5851508502
 20
116.2358143838
 30
0.0
 10
87.6454731468
 20
116.3975801085
 30
0.0
 10
87.6912643932
 20
116.5846599902
 30
0.0
 10
87.7030829702
 20
116.7334467213
 30
0.0
 10
87.7030829702
 20
116.8348185776
 30
0.0
  0
SPLINE
  5
4AC
100
AcDbEntity
  8
00_COMPONENTS_2
100
AcDbSpline
 62
7
  6
CONTINUOUS
 70
0
 71
3
 72
13
 73
9
 74
0
 42
0.0000001
 43
0.0000001
 44
0.0000000001
 40
0.0
 40
0.0
 40
0.0
 40
0.0
 40
0.1081131453
 40
0.2182650547
 40
0.4511625307
 40
0.5771836882
 40
0.7105489075
 40
1.0
 40
1.0
 40
1.0
 40
1.0
 10
83.6967399321
 20
117.9931126843
 30
0.0
 10
83.729530732
 20
118.0120443445
 30
0.0
 10
83.7925703827
 20
118.0560595359
 30
0.0
 10
83.9056678007
 20
118.1672657654
 30
0.0
 10
83.9930334465
 20
118.3096774168
 30
0.0
 10
84.0533557431
 20
118.4714431415
 30
0.0
 10
84.0991469894
 20
118.6585230231
 30
0.0
 10
84.1109655665
 20
118.8073097542
 30
0.0
 10
84.1109655665
 20
118.9086816106
 30
0.0
  0
SPLINE
  5
4AD
100
AcDbEntity
  8
00_COMPONENTS_2
100
AcDbSpline
 62
7
  6
CONTINUOUS
 70
0
 71
3
 72
15
 73
11
 74
0
 42
0.0000001
 43
0.0000001
 44
0.0000000001
 40
0.0
 40
0.0
 40
0.0
 40
0.0
 40
0.1122416719
 40
0.232586742
 40
0.3591418447
 40
0.4896459728
 40
0.6215544252
 40
0.7522354158
 40
0.8791685924
 40
1.0
 40
1.0
 40
1.0
 40
1.0
 10
83.9695330232
 20
118.9095473856
 30
0.0
 10
83.8888583293
 20
118.9561238882
 30
0.0
 10
83.7290311945
 20
119.0656780959
 30
0.0
 10
83.5059651966
 20
119.2643475283
 30
0.0
 10
83.2965235597
 20
119.4980862753
 30
0.0
 10
83.1068401481
 20
119.7599818081
 30
0.0
 10
82.9424708593
 20
120.0424145278
 30
0.0
 10
82.8081908186
 20
120.33710876
 30
0.0
 10
82.7080005344
 20
120.6353766997
 30
0.0
 10
82.6645376816
 20
120.8369566328
 30
0.0
 10
82.6498087151
 20
120.936152698
 30
0.0
  0
SPLINE
  5
4AE
100
AcDbEntity
  8
00_COMPONENTS_2
100
AcDbSpline
 62
7
  6
CONTINUOUS
 70
0
 71
3
 72
13
 73
9
 74
0
 42
0.0000001
 43
0.0000001
 44
0.0000000001
 40
0.0
 40
0.0
 40
0.0
 40
0.0
 40
0.1081131453
 40
0.2182650547
 40
0.4511625307
 40
0.5771836882
 40
0.7105489075
 40
1.0
 40
1.0
 40
1.0
 40
1.0
 10
85.288869704
 20
119.383350522
 30
0.0
 10
85.2560789041
 20
119.3644188618
 30
0.0
 10
85.1930392534
 20
119.3204036704
 30
0.0
 10
85.0799418354
 20
119.2091974409
 30
0.0
 10
84.9925761896
 20
119.0667857895
 30
0.0
 10
84.932253893
 20
118.9050200648
 30
0.0
 10
84.8864626467
 20
118.7179401831
 30
0.0
 10
84.8746440696
 20
118.569153452
 30
0.0
 10
84.8746440696
 20
118.4677815957
 30
0.0
  0
SPLINE
  5
4AF
100
AcDbEntity
  8
00_COMPONENTS_2
100
AcDbSpline
 62
7
  6
CONTINUOUS
 70
0
 71
3
 72
13
 73
9
 74
0
 42
0.0000001
 43
0.0000001
 44
0.0000000001
 40
0.0
 40
0.0
 40
0.0
 40
0.0
 40
0.1081131453
 40
0.2182650547
 40
0.4511625307
 40
0.5771836882
 40
0.7105489075
 40
1.0
 40
1.0
 40
1.0
 40
1.0
 10
81.6967523002
 20
121.4572135549
 30
0.0
 10
81.6639615003
 20
121.4382818947
 30
0.0
 10
81.6009218496
 20
121.3942667034
 30
0.0
 10
81.4878244316
 20
121.2830604739
 30
0.0
 10
81.4004587859
 20
121.1406488224
 30
0.0
 10
81.3401364893
 20
120.9788830978
 30
0.0
 10
81.2943452429
 20
120.7918032161
 30
0.0
 10
81.2825266659
 20
120.643016485
 30
0.0
 10
81.2825266659
 20
120.5416446286
 30
0.0
  0
SPLINE
  5
4B0
100
AcDbEntity
  8
00_COMPONENTS_2
100
AcDbSpline
 62
7
  6
CONTINUOUS
 70
0
 71
3
 72
13
 73
9
 74
0
 42
0.0000001
 43
0.0000001
 44
0.0000000001
 40
0.0
 40
0.0
 40
0.0
 40
0.0
 40
0.2894501207
 40
0.4228150777
 40
0.548836145
 40
0.7817340211
 40
0.8918863542
 40
1.0
 40
1.0
 40
1.0
 40
1.0
 10
86.2888635199
 20
116.0182952524
 30
0.0
 10
86.3766519742
 20
115.9676117113
 30
0.0
 10
86.5114109514
 20
115.9034567313
 30
0.0
 10
86.6963175513
 20
115.8495762966
 30
0.0
 10
86.8665675952
 20
115.8209360845
 30
0.0
 10
87.0335782017
 20
115.8253918731
 30
0.0
 10
87.1864306484
 20
115.8677330273
 30
0.0
 10
87.256067262
 20
115.9003184103
 30
0.0
 10
87.2888573358
 20
115.9192496513
 30
0.0
  0
SPLINE
  5
4B1
100
AcDbEntity
  8
00_COMPONENTS_2
100
AcDbSpline
 62
7
  6
CONTINUOUS
 70
0
 71
3
 72
15
 73
11
 74
0
 42
0.0000001
 43
0.0000001
 44
0.0000000001
 40
0.0
 40
0.0
 40
0.0
 40
0.0
 40
0.1141555516
 40
0.2373276756
 40
0.3669773296
 40
0.5000011
 40
0.6330247168
 40
0.7626739247
 40
0.885845342
 40
1.0
 40
1.0
 40
1.0
 40
1.0
 10
81.2825266659
 20
120.5416446286
 30
0.0
 10
81.2825266659
 20
120.4298524788
 30
0.0
 10
81.3030029886
 20
120.1972211972
 30
0.0
 10
81.3846314381
 20
119.8462716488
 30
0.0
 10
81.5153955048
 20
119.4907879011
 30
0.0
 10
81.6904082746
 20
119.1441372814
 30
0.0
 10
81.9031114437
 20
118.8192478444
 30
0.0
 10
82.1455880919
 20
118.5282632244
 30
0.0
 10
82.4087052039
 20
118.2820991724
 30
0.0
 10
82.5999314848
 20
118.1480529743
 30
0.0
 10
82.6967461162
 20
118.0921582853
 30
0.0
  0
SPLINE
  5
4B2
100
AcDbEntity
  8
00_COMPONENTS_2
100
AcDbSpline
 62
7
  6
CONTINUOUS
 70
0
 71
3
 72
13
 73
9
 74
0
 42
0.0000001
 43
0.0000001
 44
0.0000000001
 40
0.0
 40
0.0
 40
0.0
 40
0.0
 40
0.2894501207
 40
0.4228150777
 40
0.548836145
 40
0.7817340211
 40
0.8918863542
 40
1.0
 40
1.0
 40
1.0
 40
1.0
 10
82.6967461162
 20
118.0921582853
 30
0.0
 10
82.7845345705
 20
118.0414747442
 30
0.0
 10
82.9192935476
 20
117.9773197642
 30
0.0
 10
83.1042001475
 20
117.9234393296
 30
0.0
 10
83.2744501914
 20
117.8947991175
 30
0.0
 10
83.441460798
 20
117.8992549061
 30
0.0
 10
83.5943132446
 20
117.9415960602
 30
0.0
 10
83.6639498582
 20
117.9741814433
 30
0.0
 10
83.6967399321
 20
117.9931126843
 30
0.0
  0
SPLINE
  5
4B3
100
AcDbEntity
  8
00_COMPONENTS_2
100
AcDbSpline
 62
7
  6
CONTINUOUS
 70
0
 71
3
 72
15
 73
11
 74
0
 42
0.0000001
 43
0.0000001
 44
0.0000000001
 40
0.0
 40
0.0
 40
0.0
 40
0.0
 40
0.1141555516
 40
0.2373276756
 40
0.3669773296
 40
0.5000011
 40
0.6330247168
 40
0.7626739247
 40
0.885845342
 40
1.0
 40
1.0
 40
1.0
 40
1.0
 10
84.8746440696
 20
118.4677815957
 30
0.0
 10
84.8746440696
 20
118.3559894458
 30
0.0
 10
84.8951203924
 20
118.1233581643
 30
0.0
 10
84.9767488419
 20
117.7724086158
 30
0.0
 10
85.1075129085
 20
117.4169248682
 30
0.0
 10
85.2825256784
 20
117.0702742484
 30
0.0
 10
85.4952288475
 20
116.7453848114
 30
0.0
 10
85.7377054956
 20
116.4544001915
 30
0.0
 10
86.0008226076
 20
116.2082361394
 30
0.0
 10
86.1920488886
 20
116.0741899413
 30
0.0
 10
86.2888635199
 20
116.0182952524
 30
0.0
  0
SPLINE
  5
4B4
100
AcDbEntity
  8
00_COMPONENTS_1
100
AcDbSpline
 62
7
  6
CONTINUOUS
 70
0
 71
3
 72
11
 73
7
 74
0
 42
0.0000001
 43
0.0000001
 44
0.0000000001
 40
0.0
 40
0.0
 40
0.0
 40
0.0
 40
0.2184913957
 40
0.4544803552
 40
0.7144616296
 40
1.0
 40
1.0
 40
1.0
 40
1.0
 10
68.3959625245
 20
42.948915611
 30
0.0
 10
68.4721145043
 20
43.0143272918
 30
0.0
 10
68.6109492268
 20
43.1744755299
 30
0.0
 10
68.7560592852
 20
43.4721877306
 30
0.0
 10
68.8416789784
 20
43.8231517812
 30
0.0
 10
68.858653473
 20
44.0743551389
 30
0.0
 10
68.8588228803
 20
44.2055488151
 30
0.0
  0
SPLINE
  5
4B5
100
AcDbEntity
  8
00_COMPONENTS_1
100
AcDbSpline
 62
7
  6
CONTINUOUS
 70
0
 71
3
 72
9
 73
5
 74
0
 42
0.0000001
 43
0.0000001
 44
0.0000000001
 40
0.0
 40
0.0
 40
0.0
 40
0.0
 40
0.4759860282
 40
1.0
 40
1.0
 40
1.0
 40
1.0
 10
68.8588228803
 20
75.8142319334
 30
0.0
 10
68.8584937244
 20
76.0695756514
 30
0.0
 10
68.78886083
 20
76.6066426577
 30
0.0
 10
68.6153269465
 20
77.1176296604
 30
0.0
 10
68.5030646459
 20
77.3753489761
 30
0.0
  0
SPLINE
  5
4B6
100
AcDbEntity
  8
00_COMPONENTS_1
100
AcDbSpline
 62
7
  6
CONTINUOUS
 70
0
 71
3
 72
11
 73
7
 74
0
 42
0.0000001
 43
0.0000001
 44
0.0000000001
 40
0.0
 40
0.0
 40
0.0
 40
0.0
 40
0.2645949651
 40
0.5249002252
 40
0.7723346509
 40
1.0
 40
1.0
 40
1.0
 40
1.0
 10
68.4029296197
 20
77.5911461861
 30
0.0
 10
68.3046280967
 20
77.7906178073
 30
0.0
 10
68.0838418704
 20
78.1741610416
 30
0.0
 10
67.6898087168
 20
78.6923381851
 30
0.0
 10
67.2492711285
 20
79.1288744066
 30
0.0
 10
66.9227989213
 20
79.3628741797
 30
0.0
 10
66.7572167903
 20
79.4587589885
 30
0.0
  0
SPLINE
  5
4B7
100
AcDbEntity
  8
00_COMPONENTS_1
100
AcDbSpline
 62
7
  6
CONTINUOUS
 70
0
 71
3
 72
12
 73
8
 74
0
 42
0.0000001
 43
0.0000001
 44
0.0000000001
 40
0.0
 40
0.0
 40
0.0
 40
0.0
 40
0.0995794952
 40
0.2037114113
 40
0.432603334
 40
0.6974341746
 40
1.0
 40
1.0
 40
1.0
 40
1.0
 10
65.9523720245
 20
41.677097391
 30
0.0
 10
65.9075865103
 20
41.6543150213
 30
0.0
 10
65.8113214612
 20
41.6163652322
 30
0.0
 10
65.5964066036
 20
41.5730909219
 30
0.0
 10
65.2905939785
 20
41.586917749
 30
0.0
 10
64.9024683963
 20
41.6998230433
 30
0.0
 10
64.6444396426
 20
41.8269852657
 30
0.0
 10
64.5121652938
 20
41.9032248473
 30
0.0
  0
SPLINE
  5
4B8
100
AcDbEntity
  8
00_COMPONENTS_1
100
AcDbSpline
 62
7
  6
CONTINUOUS
 70
0
 71
3
 72
9
 73
5
 74
0
 42
0.0000001
 43
0.0000001
 44
0.0000000001
 40
0.0
 40
0.0
 40
0.0
 40
0.0
 40
0.508098641
 40
1.0
 40
1.0
 40
1.0
 40
1.0
 10
29.0983075873
 20
98.6855353223
 30
0.0
 10
28.7367677427
 20
95.5154305501
 30
0.0
 10
28.1885194251
 20
89.2563383316
 30
0.0
 10
27.9951083703
 20
82.9756013274
 30
0.0
 10
27.9951083703
 20
79.8866593474
 30
0.0
  0
SPLINE
  5
4B9
100
AcDbEntity
  8
00_COMPONENTS_1
100
AcDbSpline
 62
7
  6
CONTINUOUS
 70
0
 71
3
 72
9
 73
5
 74
0
 42
0.0000001
 43
0.0000001
 44
0.0000000001
 40
0.0
 40
0.0
 40
0.0
 40
0.0
 40
0.5092762583
 40
1.0
 40
1.0
 40
1.0
 40
1.0
 10
27.9951083703
 20
79.8866593474
 30
0.0
 10
27.9951083703
 20
76.9144566423
 30
0.0
 10
28.1680399521
 20
71.076721759
 30
0.0
 10
28.7188996466
 20
65.2615420594
 30
0.0
 10
29.0904196688
 20
62.4218140268
 30
0.0
  0
SPLINE
  5
4BA
100
AcDbEntity
  8
00_COMPONENTS_1
100
AcDbSpline
 62
7
  6
CONTINUOUS
 70
0
 71
3
 72
14
 73
10
 74
0
 42
0.0000001
 43
0.0000001
 44
0.0000000001
 40
0.0
 40
0.0
 40
0.0
 40
0.0
 40
0.3022010567
 40
0.4377196761
 40
0.5632043649
 40
0.6799008496
 40
0.7897391947
 40
0.8953537314
 40
1.0
 40
1.0
 40
1.0
 40
1.0
 10
66.4444277064
 20
43.0522171124
 30
0.0
 10
66.461629491
 20
42.8968516785
 30
0.0
 10
66.4697266553
 20
42.6686981816
 30
0.0
 10
66.43102779
 20
42.3793636627
 30
0.0
 10
66.3802627948
 20
42.1900343333
 30
0.0
 10
66.30680041
 20
42.0225543817
 30
0.0
 10
66.2108033684
 20
41.8788472769
 30
0.0
 10
66.0927958787
 20
41.7611134578
 30
0.0
 10
66.0006171902
 20
41.7016396839
 30
0.0
 10
65.9523720245
 20
41.677097391
 30
0.0
  0
SPLINE
  5
4BB
100
AcDbEntity
  8
00_COMPONENTS_1
100
AcDbSpline
 62
7
  6
CONTINUOUS
 70
0
 71
3
 72
15
 73
11
 74
0
 42
0.0000001
 43
0.0000001
 44
0.0000000001
 40
0.0
 40
0.0
 40
0.0
 40
0.0
 40
0.1127563923
 40
0.2339010312
 40
0.3615159568
 40
0.4930192275
 40
0.6254444018
 40
0.7558121776
 40
0.8814310374
 40
1.0
 40
1.0
 40
1.0
 40
1.0
 10
64.5103626955
 20
78.2408382938
 30
0.0
 10
64.6636856237
 20
78.1521233988
 30
0.0
 10
64.9635346501
 20
77.9356125303
 30
0.0
 10
65.3642199313
 20
77.5301639721
 30
0.0
 10
65.7189628946
 20
77.0470719233
 30
0.0
 10
66.0152823029
 20
76.5061287622
 30
0.0
 10
66.2430080799
 20
75.9283539866
 30
0.0
 10
66.395037481
 20
75.3357099366
 30
0.0
 10
66.467306001
 20
74.7501276669
 30
0.0
 10
66.4610745026
 20
74.3648747341
 30
0.0
 10
66.4429072615
 20
74.1794922267
 30
0.0
  0
SPLINE
  5
4BC
100
AcDbEntity
  8
00_COMPONENTS_1
100
AcDbSpline
 62
7
  6
CONTINUOUS
 70
0
 71
3
 72
9
 73
5
 74
0
 42
0.0000001
 43
0.0000001
 44
0.0000000001
 40
0.0
 40
0.0
 40
0.0
 40
0.0
 40
0.2440951329
 40
1.0
 40
1.0
 40
1.0
 40
1.0
 10
66.4444277097
 20
43.052217114
 30
0.0
 10
66.3085038863
 20
44.2757339883
 30
0.0
 10
65.8261638637
 20
49.296323413
 30
0.0
 10
65.6345590398
 20
54.3437526469
 30
0.0
 10
65.6345590398
 20
58.1560039843
 30
0.0
  0
SPLINE
  5
4BD
100
AcDbEntity
  8
00_COMPONENTS_1
100
AcDbSpline
 62
7
  6
CONTINUOUS
 70
0
 71
3
 72
9
 73
5
 74
0
 42
0.0000001
 43
0.0000001
 44
0.0000000001
 40
0.0
 40
0.0
 40
0.0
 40
0.0
 40
0.2447382539
 40
1.0
 40
1.0
 40
1.0
 40
1.0
 10
65.6345590398
 20
58.1560039843
 30
0.0
 10
65.6345590398
 20
59.4651517877
 30
0.0
 10
65.7044907666
 20
64.8141960647
 30
0.0
 10
66.0473827445
 20
70.1588726369
 30
0.0
 10
66.4429072624
 20
74.1794922272
 30
0.0
  0
SPLINE
  5
4BE
100
AcDbEntity
  8
00_COMPONENTS_1
100
AcDbSpline
 62
7
  6
CONTINUOUS
 70
0
 71
3
 72
11
 73
7
 74
0
 42
0.0000001
 43
0.0000001
 44
0.0000000001
 40
0.0
 40
0.0
 40
0.0
 40
0.0
 40
0.2196282941
 40
0.4536092675
 40
0.7123050731
 40
1.0
 40
1.0
 40
1.0
 40
1.0
 10
19.4301005708
 20
87.2216079367
 30
0.0
 10
19.2925074392
 20
87.1422034017
 30
0.0
 10
19.0351454552
 20
86.9274057522
 30
0.0
 10
18.7593154711
 20
86.4839736863
 30
0.0
 10
18.5947514827
 20
85.9386414753
 30
0.0
 10
18.5622655639
 20
85.5420197838
 30
0.0
 10
18.5622646427
 20
85.3339244464
 30
0.0
  0
SPLINE
  5
4BF
100
AcDbEntity
  8
00_COMPONENTS_1
100
AcDbSpline
 62
7
  6
CONTINUOUS
 70
0
 71
3
 72
11
 73
7
 74
0
 42
0.0000001
 43
0.0000001
 44
0.0000000001
 40
0.0
 40
0.0
 40
0.0
 40
0.0
 40
0.2158024182
 40
0.4486128354
 40
0.7088124217
 40
1.0
 40
1.0
 40
1.0
 40
1.0
 10
23.6658854194
 20
79.9801556007
 30
0.0
 10
23.7992961497
 20
80.0632203613
 30
0.0
 10
24.0476692548
 20
80.2862223016
 30
0.0
 10
24.3092638436
 20
80.7388361289
 30
0.0
 10
24.4643416715
 20
81.2932513786
 30
0.0
 10
24.4949832845
 20
81.6960217697
 30
0.0
 10
24.4949842242
 20
81.9080770009
 30
0.0
  0
SPLINE
  5
4C0
100
AcDbEntity
  8
00_COMPONENTS_1
100
AcDbSpline
 62
7
  6
CONTINUOUS
 70
0
 71
3
 72
15
 73
11
 74
0
 42
0.0000001
 43
0.0000001
 44
0.0000000001
 40
0.0
 40
0.0
 40
0.0
 40
0.0
 40
0.1160527719
 40
0.2420598299
 40
0.374382822
 40
0.509205023
 40
0.6425542286
 40
0.7707393883
 40
0.8907369551
 40
1.0
 40
1.0
 40
1.0
 40
1.0
 10
18.1964782793
 20
68.6429942783
 30
0.0
 10
18.0413489282
 20
68.7325562248
 30
0.0
 10
17.73193087
 20
68.9443284434
 30
0.0
 10
17.2967225703
 20
69.3261352131
 30
0.0
 10
16.8848244117
 20
69.7732353739
 30
0.0
 10
16.512457378
 20
70.2679041891
 30
0.0
 10
16.1940574726
 20
70.7914833294
 30
0.0
 10
15.9408799442
 20
71.3244813218
 30
0.0
 10
15.762097326
 20
71.8477245174
 30
0.0
 10
15.6925703342
 20
72.1962875087
 30
0.0
 10
15.6739494309
 20
72.3639033761
 30
0.0
  0
SPLINE
  5
4C1
100
AcDbEntity
  8
00_COMPONENTS_1
100
AcDbSpline
 62
7
  6
CONTINUOUS
 70
0
 71
3
 72
11
 73
7
 74
0
 42
0.0000001
 43
0.0000001
 44
0.0000000001
 40
0.0
 40
0.0
 40
0.0
 40
0.0
 40
0.2793622048
 40
0.537615019
 40
0.7760043228
 40
1.0
 40
1.0
 40
1.0
 40
1.0
 10
15.6724289936
 20
103.4911783764
 30
0.0
 10
15.6889227472
 20
103.6588420891
 30
0.0
 10
15.7456970504
 20
103.9799197814
 30
0.0
 10
15.9123051262
 20
104.420648781
 30
0.0
 10
16.1540637841
 20
104.7866223228
 30
0.0
 10
16.366222517
 20
104.9741294482
 30
0.0
 10
16.4795952455
 20
105.0475745565
 30
0.0
  0
SPLINE
  5
4C2
100
AcDbEntity
  8
00_COMPONENTS_1
100
AcDbSpline
 62
7
  6
CONTINUOUS
 70
0
 71
3
 72
17
 73
13
 74
0
 42
0.0000001
 43
0.0000001
 44
0.0000000001
 40
0.0
 40
0.0
 40
0.0
 40
0.0
 40
0.1283389854
 40
0.2695768388
 40
0.4161957856
 40
0.5599101738
 40
0.6931141803
 40
0.8104777386
 40
0.8627773685
 40
0.9111513659
 40
0.9564515008
 40
1.0
 40
1.0
 40
1.0
 40
1.0
 10
24.4949842242
 20
81.9080770009
 30
0.0
 10
24.4949858436
 20
82.2735252047
 30
0.0
 10
24.3961129196
 20
83.0419580461
 30
0.0
 10
24.0266532701
 20
84.1736388073
 30
0.0
 10
23.4536538065
 20
85.2672409915
 30
0.0
 10
22.7201967094
 20
86.2326231514
 30
0.0
 10
21.8817366561
 20
86.9895727961
 30
0.0
 10
21.1169006746
 20
87.4137130398
 30
0.0
 10
20.5146062267
 20
87.5760042786
 30
0.0
 10
20.0974398933
 20
87.6088304255
 30
0.0
 10
19.7070435709
 20
87.5554844266
 30
0.0
 10
19.4691733771
 20
87.4606394132
 30
0.0
 10
19.3606715764
 20
87.4006003753
 30
0.0
  0
SPLINE
  5
4C3
100
AcDbEntity
  8
00_COMPONENTS_1
100
AcDbSpline
 62
7
  6
CONTINUOUS
 70
0
 71
3
 72
9
 73
5
 74
0
 42
0.0000001
 43
0.0000001
 44
0.0000000001
 40
0.0
 40
0.0
 40
0.0
 40
0.0
 40
0.2552589854
 40
1.0
 40
1.0
 40
1.0
 40
1.0
 10
15.6724289936
 20
103.4911783764
 30
0.0
 10
15.5387527553
 20
102.1323212667
 30
0.0
 10
15.0764358413
 20
96.8031230628
 30
0.0
 10
14.8640807743
 20
91.451415171
 30
0.0
 10
14.8640807743
 20
87.4676901588
 30
0.0
  0
SPLINE
  5
4C4
100
AcDbEntity
  8
00_COMPONENTS_1
100
AcDbSpline
 62
7
  6
CONTINUOUS
 70
0
 71
3
 72
9
 73
5
 74
0
 42
0.0000001
 43
0.0000001
 44
0.0000000001
 40
0.0
 40
0.0
 40
0.0
 40
0.0
 40
0.2559631471
 40
1.0
 40
1.0
 40
1.0
 40
1.0
 10
14.8640807743
 20
87.4676901588
 30
0.0
 10
14.8640807743
 20
86.1768041814
 30
0.0
 10
14.9290830762
 20
81.1339061141
 30
0.0
 10
15.2596379532
 20
76.0933238329
 30
0.0
 10
15.6739494309
 20
72.3639033761
 30
0.0
  0
SPLINE
  5
4C5
100
AcDbEntity
  8
00_COMPONENTS_1
100
AcDbSpline
 62
7
  6
CONTINUOUS
 70
0
 71
3
 72
9
 73
5
 74
0
 42
0.0000001
 43
0.0000001
 44
0.0000000001
 40
0.0
 40
0.0
 40
0.0
 40
0.0
 40
0.256248997
 40
1.0
 40
1.0
 40
1.0
 40
1.0
 10
29.2851010848
 20
130.4669451964
 30
0.0
 10
29.1204576127
 20
129.0669826961
 30
0.0
 10
28.5523159678
 20
123.5953882199
 30
0.0
 10
28.2878179531
 20
118.0908207522
 30
0.0
 10
28.2878179531
 20
113.999489961
 30
0.0
  0
SPLINE
  5
4C6
100
AcDbEntity
  8
00_COMPONENTS_1
100
AcDbSpline
 62
7
  6
CONTINUOUS
 70
0
 71
3
 72
9
 73
5
 74
0
 42
0.0000001
 43
0.0000001
 44
0.0000000001
 40
0.0
 40
0.0
 40
0.0
 40
0.0
 40
0.2543768054
 40
1.0
 40
1.0
 40
1.0
 40
1.0
 10
74.7361082281
 20
101.2976999002
 30
0.0
 10
74.6396090234
 20
100.3258073322
 30
0.0
 10
74.2973802503
 20
96.5015749663
 30
0.0
 10
74.1059771068
 20
92.6635024263
 30
0.0
 10
74.0568977408
 20
89.8011270104
 30
0.0
  0
SPLINE
  5
4C7
100
AcDbEntity
  8
00_COMPONENTS_1
100
AcDbSpline
 62
7
  6
CONTINUOUS
 70
0
 71
3
 72
9
 73
5
 74
0
 42
0.0000001
 43
0.0000001
 44
0.0000000001
 40
0.0
 40
0.0
 40
0.0
 40
0.0
 40
0.2543768054
 40
1.0
 40
1.0
 40
1.0
 40
1.0
 10
69.503496262
 20
104.3186814837
 30
0.0
 10
69.4069970573
 20
103.3467889156
 30
0.0
 10
69.0647682842
 20
99.5225565497
 30
0.0
 10
68.8733651408
 20
95.6844840097
 30
0.0
 10
68.8242857747
 20
92.8221085938
 30
0.0
  0
SPLINE
  5
4C8
100
AcDbEntity
  8
00_COMPONENTS_1
100
AcDbSpline
 62
7
  6
CONTINUOUS
 70
0
 71
3
 72
9
 73
5
 74
0
 42
0.0000001
 43
0.0000001
 44
0.0000000001
 40
0.0
 40
0.0
 40
0.0
 40
0.0
 40
0.2543768054
 40
1.0
 40
1.0
 40
1.0
 40
1.0
 10
64.2708842959
 20
107.3396630671
 30
0.0
 10
64.1743850912
 20
106.3677704991
 30
0.0
 10
63.8321563181
 20
102.5435381332
 30
0.0
 10
63.6407531747
 20
98.7054655932
 30
0.0
 10
63.5916738087
 20
95.8430901773
 30
0.0
  0
SPLINE
  5
4C9
100
AcDbEntity
  8
00_COMPONENTS_1
100
AcDbSpline
 62
7
  6
CONTINUOUS
 70
0
 71
3
 72
9
 73
5
 74
0
 42
0.0000001
 43
0.0000001
 44
0.0000000001
 40
0.0
 40
0.0
 40
0.0
 40
0.0
 40
0.2543768054
 40
1.0
 40
1.0
 40
1.0
 40
1.0
 10
59.0382723298
 20
110.3606446506
 30
0.0
 10
58.9417731251
 20
109.3887520825
 30
0.0
 10
58.599544352
 20
105.5645197166
 30
0.0
 10
58.4081412086
 20
101.7264471766
 30
0.0
 10
58.3590618426
 20
98.8640717607
 30
0.0
  0
SPLINE
  5
4CA
100
AcDbEntity
  8
00_COMPONENTS_1
100
AcDbSpline
 62
7
  6
CONTINUOUS
 70
0
 71
3
 72
9
 73
5
 74
0
 42
0.0000001
 43
0.0000001
 44
0.0000000001
 40
0.0
 40
0.0
 40
0.0
 40
0.0
 40
0.2543768054
 40
1.0
 40
1.0
 40
1.0
 40
1.0
 10
53.8056603637
 20
113.381626234
 30
0.0
 10
53.709161159
 20
112.409733666
 30
0.0
 10
53.3669323859
 20
108.5855013001
 30
0.0
 10
53.1755292425
 20
104.7474287601
 30
0.0
 10
53.1264498765
 20
101.8850533442
 30
0.0
  0
SPLINE
  5
4CB
100
AcDbEntity
  8
00_COMPONENTS_1
100
AcDbSpline
 62
7
  6
CONTINUOUS
 70
0
 71
3
 72
9
 73
5
 74
0
 42
0.0000001
 43
0.0000001
 44
0.0000000001
 40
0.0
 40
0.0
 40
0.0
 40
0.0
 40
0.2543768054
 40
1.0
 40
1.0
 40
1.0
 40
1.0
 10
48.5730483977
 20
116.4026078175
 30
0.0
 10
48.4765491929
 20
115.4307152494
 30
0.0
 10
48.1343204198
 20
111.6064828835
 30
0.0
 10
47.9429172764
 20
107.7684103435
 30
0.0
 10
47.8938379104
 20
104.9060349276
 30
0.0
  0
SPLINE
  5
4CC
100
AcDbEntity
  8
00_COMPONENTS_1
100
AcDbSpline
 62
7
  6
CONTINUOUS
 70
0
 71
3
 72
9
 73
5
 74
0
 42
0.0000001
 43
0.0000001
 44
0.0000000001
 40
0.0
 40
0.0
 40
0.0
 40
0.0
 40
0.2543768054
 40
1.0
 40
1.0
 40
1.0
 40
1.0
 10
43.3404364316
 20
119.4235894009
 30
0.0
 10
43.2439372268
 20
118.4516968329
 30
0.0
 10
42.9017084537
 20
114.627464467
 30
0.0
 10
42.7103053103
 20
110.789391927
 30
0.0
 10
42.6612259443
 20
107.9270165111
 30
0.0
  0
SPLINE
  5
4CD
100
AcDbEntity
  8
00_COMPONENTS_1
100
AcDbSpline
 62
7
  6
CONTINUOUS
 70
0
 71
3
 72
9
 73
5
 74
0
 42
0.0000001
 43
0.0000001
 44
0.0000000001
 40
0.0
 40
0.0
 40
0.0
 40
0.0
 40
0.2543768054
 40
1.0
 40
1.0
 40
1.0
 40
1.0
 10
38.1078244655
 20
122.4445709844
 30
0.0
 10
38.0113252608
 20
121.4726784163
 30
0.0
 10
37.6690964876
 20
117.6484460504
 30
0.0
 10
37.4776933442
 20
113.8103735104
 30
0.0
 10
37.4286139782
 20
110.9479980945
 30
0.0
  0
SPLINE
  5
4CE
100
AcDbEntity
  8
00_COMPONENTS_1
100
AcDbSpline
 62
7
  6
CONTINUOUS
 70
0
 71
3
 72
9
 73
5
 74
0
 42
0.0000001
 43
0.0000001
 44
0.0000000001
 40
0.0
 40
0.0
 40
0.0
 40
0.0
 40
0.2543768054
 40
1.0
 40
1.0
 40
1.0
 40
1.0
 10
32.8752124994
 20
125.4655525678
 30
0.0
 10
32.7787132947
 20
124.4936599998
 30
0.0
 10
32.4364845216
 20
120.6694276339
 30
0.0
 10
32.2450813781
 20
116.8313550939
 30
0.0
 10
32.1960020121
 20
113.968979678
 30
0.0
  0
SPLINE
  5
4CF
100
AcDbEntity
  8
00_COMPONENTS_1
100
AcDbSpline
 62
7
  6
CONTINUOUS
 70
0
 71
3
 72
9
 73
5
 74
0
 42
0.0000001
 43
0.0000001
 44
0.0000000001
 40
0.0
 40
0.0
 40
0.0
 40
0.0
 40
0.2543768054
 40
1.0
 40
1.0
 40
1.0
 40
1.0
 10
35.4915184824
 20
123.9550617761
 30
0.0
 10
35.3950192777
 20
122.983169208
 30
0.0
 10
35.0527905046
 20
119.1589368421
 30
0.0
 10
34.8613873612
 20
115.3208643022
 30
0.0
 10
34.8123079952
 20
112.4584888862
 30
0.0
  0
SPLINE
  5
4D0
100
AcDbEntity
  8
00_COMPONENTS_1
100
AcDbSpline
 62
7
  6
CONTINUOUS
 70
0
 71
3
 72
9
 73
5
 74
0
 42
0.0000001
 43
0.0000001
 44
0.0000000001
 40
0.0
 40
0.0
 40
0.0
 40
0.0
 40
0.2543768054
 40
1.0
 40
1.0
 40
1.0
 40
1.0
 10
40.7241304485
 20
120.9340801926
 30
0.0
 10
40.6276312438
 20
119.9621876246
 30
0.0
 10
40.2854024707
 20
116.1379552587
 30
0.0
 10
40.0939993273
 20
112.2998827187
 30
0.0
 10
40.0449199613
 20
109.4375073028
 30
0.0
  0
SPLINE
  5
4D1
100
AcDbEntity
  8
00_COMPONENTS_1
100
AcDbSpline
 62
7
  6
CONTINUOUS
 70
0
 71
3
 72
9
 73
5
 74
0
 42
0.0000001
 43
0.0000001
 44
0.0000000001
 40
0.0
 40
0.0
 40
0.0
 40
0.0
 40
0.2543768054
 40
1.0
 40
1.0
 40
1.0
 40
1.0
 10
45.9567424146
 20
117.9130986092
 30
0.0
 10
45.8602432099
 20
116.9412060411
 30
0.0
 10
45.5180144368
 20
113.1169736752
 30
0.0
 10
45.3266112934
 20
109.2789011353
 30
0.0
 10
45.2775319273
 20
106.4165257193
 30
0.0
  0
SPLINE
  5
4D2
100
AcDbEntity
  8
00_COMPONENTS_1
100
AcDbSpline
 62
7
  6
CONTINUOUS
 70
0
 71
3
 72
9
 73
5
 74
0
 42
0.0000001
 43
0.0000001
 44
0.0000000001
 40
0.0
 40
0.0
 40
0.0
 40
0.0
 40
0.2543768054
 40
1.0
 40
1.0
 40
1.0
 40
1.0
 10
51.1893543807
 20
114.8921170257
 30
0.0
 10
51.092855176
 20
113.9202244577
 30
0.0
 10
50.7506264029
 20
110.0959920918
 30
0.0
 10
50.5592232595
 20
106.2579195518
 30
0.0
 10
50.5101438934
 20
103.3955441359
 30
0.0
  0
SPLINE
  5
4D3
100
AcDbEntity
  8
00_COMPONENTS_1
100
AcDbSpline
 62
7
  6
CONTINUOUS
 70
0
 71
3
 72
9
 73
5
 74
0
 42
0.0000001
 43
0.0000001
 44
0.0000000001
 40
0.0
 40
0.0
 40
0.0
 40
0.0
 40
0.2543768054
 40
1.0
 40
1.0
 40
1.0
 40
1.0
 10
56.4219663468
 20
111.8711354423
 30
0.0
 10
56.3254671421
 20
110.8992428742
 30
0.0
 10
55.983238369
 20
107.0750105083
 30
0.0
 10
55.7918352255
 20
103.2369379684
 30
0.0
 10
55.7427558595
 20
100.3745625524
 30
0.0
  0
SPLINE
  5
4D4
100
AcDbEntity
  8
00_COMPONENTS_1
100
AcDbSpline
 62
7
  6
CONTINUOUS
 70
0
 71
3
 72
9
 73
5
 74
0
 42
0.0000001
 43
0.0000001
 44
0.0000000001
 40
0.0
 40
0.0
 40
0.0
 40
0.0
 40
0.2543768054
 40
1.0
 40
1.0
 40
1.0
 40
1.0
 10
61.6545783129
 20
108.8501538588
 30
0.0
 10
61.5580791082
 20
107.8782612908
 30
0.0
 10
61.215850335
 20
104.0540289249
 30
0.0
 10
61.0244471916
 20
100.2159563849
 30
0.0
 10
60.9753678256
 20
97.353580969
 30
0.0
  0
SPLINE
  5
4D5
100
AcDbEntity
  8
00_COMPONENTS_1
100
AcDbSpline
 62
7
  6
CONTINUOUS
 70
0
 71
3
 72
9
 73
5
 74
0
 42
0.0000001
 43
0.0000001
 44
0.0000000001
 40
0.0
 40
0.0
 40
0.0
 40
0.0
 40
0.2543768054
 40
1.0
 40
1.0
 40
1.0
 40
1.0
 10
66.887190279
 20
105.8291722754
 30
0.0
 10
66.7906910742
 20
104.8572797073
 30
0.0
 10
66.4484623011
 20
101.0330473414
 30
0.0
 10
66.2570591577
 20
97.1949748015
 30
0.0
 10
66.2079797917
 20
94.3325993855
 30
0.0
  0
SPLINE
  5
4D6
100
AcDbEntity
  8
00_COMPONENTS_1
100
AcDbSpline
 62
7
  6
CONTINUOUS
 70
0
 71
3
 72
9
 73
5
 74
0
 42
0.0000001
 43
0.0000001
 44
0.0000000001
 40
0.0
 40
0.0
 40
0.0
 40
0.0
 40
0.2543768054
 40
1.0
 40
1.0
 40
1.0
 40
1.0
 10
72.1198022451
 20
102.8081906919
 30
0.0
 10
72.0233030403
 20
101.8362981239
 30
0.0
 10
71.6810742672
 20
98.012065758
 30
0.0
 10
71.4896711238
 20
94.173993218
 30
0.0
 10
71.4405917578
 20
91.3116178021
 30
0.0
  0
SPLINE
  5
4D7
100
AcDbEntity
  8
00_COMPONENTS_1
100
AcDbSpline
 62
7
  6
CONTINUOUS
 70
0
 71
3
 72
9
 73
5
 74
0
 42
0.0000001
 43
0.0000001
 44
0.0000000001
 40
0.0
 40
0.0
 40
0.0
 40
0.0
 40
0.2543768054
 40
1.0
 40
1.0
 40
1.0
 40
1.0
 10
77.3524142111
 20
99.7872091085
 30
0.0
 10
77.2559150064
 20
98.8153165404
 30
0.0
 10
76.9136862333
 20
94.9910841745
 30
0.0
 10
76.7222830899
 20
91.1530116346
 30
0.0
 10
76.6732037239
 20
88.2906362186
 30
0.0
  0
SPLINE
  5
4D8
100
AcDbEntity
  8
00_COMPONENTS_1
100
AcDbSpline
 62
7
  6
CONTINUOUS
 70
0
 71
3
 72
18
 73
14
 74
0
 42
0.0000001
 43
0.0000001
 44
0.0000000001
 40
0.0
 40
0.0
 40
0.0
 40
0.0
 40
0.128784971
 40
0.2704318562
 40
0.4178423486
 40
0.5626667161
 40
0.6968442299
 40
0.75800455
 40
0.8145115962
 40
0.866299717
 40
0.9137498519
 40
0.9578150374
 40
1.0
 40
1.0
 40
1.0
 40
1.0
 10
18.5622646427
 20
85.3339244464
 30
0.0
 10
18.5622630932
 20
84.9839157426
 30
0.0
 10
18.6627875747
 20
84.2480318065
 30
0.0
 10
19.0379081351
 20
83.1702878019
 30
0.0
 10
19.6132233085
 20
82.1343018225
 30
0.0
 10
20.3387386615
 20
81.22405264
 30
0.0
 10
21.0394473134
 20
80.6103295131
 30
0.0
 10
21.6247468333
 20
80.2525532222
 30
0.0
 10
22.0468846055
 20
80.0646392275
 30
0.0
 10
22.4572371465
 20
79.9530564011
 30
0.0
 10
22.8481105306
 20
79.9214972012
 30
0.0
 10
23.2111872978
 20
79.9722563002
 30
0.0
 10
23.4307195935
 20
80.0628941155
 30
0.0
 10
23.5300204153
 20
80.1201986001
 30
0.0
  0
SPLINE
  5
4D9
100
AcDbEntity
  8
00_COMPONENTS_1
100
AcDbSpline
 62
7
  6
CONTINUOUS
 70
0
 71
3
 72
9
 73
5
 74
0
 42
0.0000001
 43
0.0000001
 44
0.0000000001
 40
0.0
 40
0.0
 40
0.0
 40
0.0
 40
0.2550824386
 40
1.0
 40
1.0
 40
1.0
 40
1.0
 10
76.6820323827
 20
46.3275091763
 30
0.0
 10
76.7013453896
 20
45.4166221792
 30
0.0
 10
76.8168299937
 20
41.8466871809
 30
0.0
 10
77.0943490305
 20
38.2815052981
 30
0.0
 10
77.4018748856
 20
35.6386750853
 30
0.0
  0
SPLINE
  5
4DA
100
AcDbEntity
  8
00_COMPONENTS_1
100
AcDbSpline
 62
7
  6
CONTINUOUS
 70
0
 71
3
 72
9
 73
5
 74
0
 42
0.0000001
 43
0.0000001
 44
0.0000000001
 40
0.0
 40
0.0
 40
0.0
 40
0.0
 40
0.2528928843
 40
1.0
 40
1.0
 40
1.0
 40
1.0
 10
71.6458420545
 20
44.5747182157
 30
0.0
 10
71.6766167661
 20
44.0750566238
 30
0.0
 10
71.8112682566
 20
42.1000991455
 30
0.0
 10
71.9983258332
 20
40.1286638717
 30
0.0
 10
72.1692629195
 20
38.6596566688
 30
0.0
  0
SPLINE
  5
4DB
100
AcDbEntity
  8
00_COMPONENTS_1
100
AcDbSpline
 62
7
  6
CONTINUOUS
 70
0
 71
3
 72
9
 73
5
 74
0
 42
0.0000001
 43
0.0000001
 44
0.0000000001
 40
0.0
 40
0.0
 40
0.0
 40
0.0
 40
0.254184241
 40
1.0
 40
1.0
 40
1.0
 40
1.0
 10
74.1246324897
 20
45.8373025021
 30
0.0
 10
74.1524969833
 20
45.0994680699
 30
0.0
 10
74.2890760863
 20
42.1978225927
 30
0.0
 10
74.5351637767
 20
39.3011092698
 30
0.0
 10
74.7855689025
 20
37.1491658771
 30
0.0
  0
SPLINE
  5
4DC
100
AcDbEntity
  8
00_COMPONENTS_1
100
AcDbSpline
 62
7
  6
CONTINUOUS
 70
0
 71
3
 72
20
 73
16
 74
0
 42
0.0000001
 43
0.0000001
 44
0.0000000001
 40
0.0
 40
0.0
 40
0.0
 40
0.0
 40
0.0630577643
 40
0.1298970217
 40
0.1997793582
 40
0.2719206173
 40
0.3822571974
 40
0.4921573175
 40
0.598189754
 40
0.6972610706
 40
0.7870214506
 40
0.8663339551
 40
0.9360973651
 40
0.9684857024
 40
1.0
 40
1.0
 40
1.0
 40
1.0
 10
18.4288674554
 20
85.3210357505
 30
0.0
 10
18.432864698
 20
85.1442871856
 30
0.0
 10
18.4646672411
 20
84.7804791718
 30
0.0
 10
18.5743896029
 20
84.2302720875
 30
0.0
 10
18.7452100071
 20
83.6692082902
 30
0.0
 10
19.0121553551
 20
83.0130571263
 30
0.0
 10
19.4018921854
 20
82.2892630943
 30
0.0
 10
19.9329324414
 20
81.5416205802
 30
0.0
 10
20.5329066682
 20
80.8899908629
 30
0.0
 10
21.1744793989
 20
80.3638592482
 30
0.0
 10
21.8288432235
 20
79.9852762394
 30
0.0
 10
22.4699077344
 20
79.7731924119
 30
0.0
 10
22.9871629315
 20
79.7469696984
 30
0.0
 10
23.3550886568
 20
79.8275618564
 30
0.0
 10
23.5210405857
 20
79.8984539197
 30
0.0
 10
23.5985667286
 20
79.9408387989
 30
0.0
  0
SPLINE
  5
4DD
100
AcDbEntity
  8
00_COMPONENTS_1
100
AcDbSpline
 62
7
  6
CONTINUOUS
 70
0
 71
3
 72
9
 73
5
 74
0
 42
0.0000001
 43
0.0000001
 44
0.0000000001
 40
0.0
 40
0.0
 40
0.0
 40
0.0
 40
0.2430723289
 40
1.0
 40
1.0
 40
1.0
 40
1.0
 10
29.0293992686
 20
62.3887459191
 30
0.0
 10
28.8441882505
 20
63.7976210237
 30
0.0
 10
28.1850885243
 20
69.6070447761
 30
0.0
 10
27.9256634513
 20
75.459746342
 30
0.0
 10
27.9244034836
 20
79.8847330653
 30
0.0
  0
SPLINE
  5
4DE
100
AcDbEntity
  8
00_COMPONENTS_1
100
AcDbSpline
 62
7
  6
CONTINUOUS
 70
0
 71
3
 72
9
 73
5
 74
0
 42
0.0000001
 43
0.0000001
 44
0.0000000001
 40
0.0
 40
0.0
 40
0.0
 40
0.0
 40
0.2439330653
 40
1.0
 40
1.0
 40
1.0
 40
1.0
 10
27.9243973977
 20
79.9274834228
 30
0.0
 10
27.9243973977
 20
81.456357877
 30
0.0
 10
28.0200950425
 20
87.7237658157
 30
0.0
 10
28.4876512754
 20
93.9840581355
 30
0.0
 10
29.0237226227
 20
98.6923625809
 30
0.0
  0
SPLINE
  5
4DF
100
AcDbEntity
  8
00_COMPONENTS_1
100
AcDbSpline
 62
7
  6
CONTINUOUS
 70
0
 71
3
 72
11
 73
7
 74
0
 42
0.0000001
 43
0.0000001
 44
0.0000000001
 40
0.0
 40
0.0
 40
0.0
 40
0.0
 40
0.2633158261
 40
0.5239319527
 40
0.7721864134
 40
1.0
 40
1.0
 40
1.0
 40
1.0
 10
68.6208995794
 20
77.5151009057
 30
0.0
 10
68.524315595
 20
77.7304034993
 30
0.0
 10
68.3016444116
 20
78.1457614313
 30
0.0
 10
67.8932883106
 20
78.7071618819
 30
0.0
 10
67.4304470512
 20
79.1812254162
 30
0.0
 10
67.0839337097
 20
79.4350779262
 30
0.0
 10
66.9073216935
 20
79.537492387
 30
0.0
  0
SPLINE
  5
4E0
100
AcDbEntity
  8
00_COMPONENTS_1
100
AcDbSpline
 62
7
  6
CONTINUOUS
 70
0
 71
3
 72
9
 73
5
 74
0
 42
0.0000001
 43
0.0000001
 44
0.0000000001
 40
0.0
 40
0.0
 40
0.0
 40
0.0
 40
0.2456180716
 40
1.0
 40
1.0
 40
1.0
 40
1.0
 10
72.713389263
 20
90.5767844439
 30
0.0
 10
72.7295567099
 20
91.5196919471
 30
0.0
 10
72.836801047
 20
95.3578282945
 30
0.0
 10
73.1064198739
 20
99.1910942538
 30
0.0
 10
73.3925997503
 20
102.0733573338
 30
0.0
  0
SPLINE
  5
4E1
100
AcDbEntity
  8
00_COMPONENTS_1
100
AcDbSpline
 62
7
  6
CONTINUOUS
 70
0
 71
3
 72
9
 73
5
 74
0
 42
0.0000001
 43
0.0000001
 44
0.0000000001
 40
0.0
 40
0.0
 40
0.0
 40
0.0
 40
0.2456180716
 40
1.0
 40
1.0
 40
1.0
 40
1.0
 10
67.480777297
 20
93.5977660274
 30
0.0
 10
67.4969447438
 20
94.5406735305
 30
0.0
 10
67.6041890809
 20
98.378809878
 30
0.0
 10
67.8738079078
 20
102.2120758373
 30
0.0
 10
68.1599877842
 20
105.0943389173
 30
0.0
  0
SPLINE
  5
4E2
100
AcDbEntity
  8
00_COMPONENTS_1
100
AcDbSpline
 62
7
  6
CONTINUOUS
 70
0
 71
3
 72
9
 73
5
 74
0
 42
0.0000001
 43
0.0000001
 44
0.0000000001
 40
0.0
 40
0.0
 40
0.0
 40
0.0
 40
0.2456180716
 40
1.0
 40
1.0
 40
1.0
 40
1.0
 10
62.2481653309
 20
96.6187476108
 30
0.0
 10
62.2643327777
 20
97.561655114
 30
0.0
 10
62.3715771148
 20
101.3997914614
 30
0.0
 10
62.6411959417
 20
105.2330574207
 30
0.0
 10
62.9273758181
 20
108.1153205007
 30
0.0
  0
SPLINE
  5
4E3
100
AcDbEntity
  8
00_COMPONENTS_1
100
AcDbSpline
 62
7
  6
CONTINUOUS
 70
0
 71
3
 72
9
 73
5
 74
0
 42
0.0000001
 43
0.0000001
 44
0.0000000001
 40
0.0
 40
0.0
 40
0.0
 40
0.0
 40
0.2456180716
 40
1.0
 40
1.0
 40
1.0
 40
1.0
 10
57.0155533648
 20
99.6397291943
 30
0.0
 10
57.0317208117
 20
100.5826366974
 30
0.0
 10
57.1389651487
 20
104.4207730449
 30
0.0
 10
57.4085839756
 20
108.2540390042
 30
0.0
 10
57.6947638521
 20
111.1363020842
 30
0.0
  0
SPLINE
  5
4E4
100
AcDbEntity
  8
00_COMPONENTS_1
100
AcDbSpline
 62
7
  6
CONTINUOUS
 70
0
 71
3
 72
9
 73
5
 74
0
 42
0.0000001
 43
0.0000001
 44
0.0000000001
 40
0.0
 40
0.0
 40
0.0
 40
0.0
 40
0.2456180716
 40
1.0
 40
1.0
 40
1.0
 40
1.0
 10
51.7829413987
 20
102.6607107777
 30
0.0
 10
51.7991088456
 20
103.6036182809
 30
0.0
 10
51.9063531827
 20
107.4417546283
 30
0.0
 10
52.1759720095
 20
111.2750205876
 30
0.0
 10
52.462151886
 20
114.1572836676
 30
0.0
  0
SPLINE
  5
4E5
100
AcDbEntity
  8
00_COMPONENTS_1
100
AcDbSpline
 62
7
  6
CONTINUOUS
 70
0
 71
3
 72
9
 73
5
 74
0
 42
0.0000001
 43
0.0000001
 44
0.0000000001
 40
0.0
 40
0.0
 40
0.0
 40
0.0
 40
0.2456180716
 40
1.0
 40
1.0
 40
1.0
 40
1.0
 10
46.5503294326
 20
105.6816923612
 30
0.0
 10
46.5664968795
 20
106.6245998644
 30
0.0
 10
46.6737412166
 20
110.4627362118
 30
0.0
 10
46.9433600434
 20
114.2960021711
 30
0.0
 10
47.2295399199
 20
117.1782652511
 30
0.0
  0
SPLINE
  5
4E6
100
AcDbEntity
  8
00_COMPONENTS_1
100
AcDbSpline
 62
7
  6
CONTINUOUS
 70
0
 71
3
 72
9
 73
5
 74
0
 42
0.0000001
 43
0.0000001
 44
0.0000000001
 40
0.0
 40
0.0
 40
0.0
 40
0.0
 40
0.2456180716
 40
1.0
 40
1.0
 40
1.0
 40
1.0
 10
41.3177174665
 20
108.7026739446
 30
0.0
 10
41.3338849134
 20
109.6455814478
 30
0.0
 10
41.4411292505
 20
113.4837177952
 30
0.0
 10
41.7107480774
 20
117.3169837545
 30
0.0
 10
41.9969279538
 20
120.1992468345
 30
0.0
  0
SPLINE
  5
4E7
100
AcDbEntity
  8
00_COMPONENTS_1
100
AcDbSpline
 62
7
  6
CONTINUOUS
 70
0
 71
3
 72
9
 73
5
 74
0
 42
0.0000001
 43
0.0000001
 44
0.0000000001
 40
0.0
 40
0.0
 40
0.0
 40
0.0
 40
0.2456180716
 40
1.0
 40
1.0
 40
1.0
 40
1.0
 10
36.0851055004
 20
111.7236555281
 30
0.0
 10
36.1012729473
 20
112.6665630313
 30
0.0
 10
36.2085172844
 20
116.5046993787
 30
0.0
 10
36.4781361113
 20
120.337965338
 30
0.0
 10
36.7643159877
 20
123.220228418
 30
0.0
  0
SPLINE
  5
4E8
100
AcDbEntity
  8
00_COMPONENTS_1
100
AcDbSpline
 62
7
  6
CONTINUOUS
 70
0
 71
3
 72
9
 73
5
 74
0
 42
0.0000001
 43
0.0000001
 44
0.0000000001
 40
0.0
 40
0.0
 40
0.0
 40
0.0
 40
0.2456180716
 40
1.0
 40
1.0
 40
1.0
 40
1.0
 10
30.8524935343
 20
114.7446371115
 30
0.0
 10
30.8686609812
 20
115.6875446147
 30
0.0
 10
30.9759053183
 20
119.5256809621
 30
0.0
 10
31.2455241452
 20
123.3589469214
 30
0.0
 10
31.5317040216
 20
126.2412100014
 30
0.0
  0
SPLINE
  5
4E9
100
AcDbEntity
  8
00_COMPONENTS_1
100
AcDbSpline
 62
7
  6
CONTINUOUS
 70
0
 71
3
 72
9
 73
5
 74
0
 42
0.0000001
 43
0.0000001
 44
0.0000000001
 40
0.0
 40
0.0
 40
0.0
 40
0.0
 40
0.2456180716
 40
1.0
 40
1.0
 40
1.0
 40
1.0
 10
33.4687995174
 20
113.2341463198
 30
0.0
 10
33.4849669643
 20
114.177053823
 30
0.0
 10
33.5922113013
 20
118.0151901704
 30
0.0
 10
33.8618301282
 20
121.8484561297
 30
0.0
 10
34.1480100047
 20
124.7307192097
 30
0.0
  0
SPLINE
  5
4EA
100
AcDbEntity
  8
00_COMPONENTS_1
100
AcDbSpline
 62
7
  6
CONTINUOUS
 70
0
 71
3
 72
9
 73
5
 74
0
 42
0.0000001
 43
0.0000001
 44
0.0000000001
 40
0.0
 40
0.0
 40
0.0
 40
0.0
 40
0.2456180716
 40
1.0
 40
1.0
 40
1.0
 40
1.0
 10
38.7014114835
 20
110.2131647364
 30
0.0
 10
38.7175789304
 20
111.1560722395
 30
0.0
 10
38.8248232674
 20
114.994208587
 30
0.0
 10
39.0944420943
 20
118.8274745462
 30
0.0
 10
39.3806219708
 20
121.7097376262
 30
0.0
  0
SPLINE
  5
4EB
100
AcDbEntity
  8
00_COMPONENTS_1
100
AcDbSpline
 62
7
  6
CONTINUOUS
 70
0
 71
3
 72
9
 73
5
 74
0
 42
0.0000001
 43
0.0000001
 44
0.0000000001
 40
0.0
 40
0.0
 40
0.0
 40
0.0
 40
0.2456180716
 40
1.0
 40
1.0
 40
1.0
 40
1.0
 10
43.9340234496
 20
107.1921831529
 30
0.0
 10
43.9501908964
 20
108.1350906561
 30
0.0
 10
44.0574352335
 20
111.9732270035
 30
0.0
 10
44.3270540604
 20
115.8064929628
 30
0.0
 10
44.6132339368
 20
118.6887560428
 30
0.0
  0
SPLINE
  5
4EC
100
AcDbEntity
  8
00_COMPONENTS_1
100
AcDbSpline
 62
7
  6
CONTINUOUS
 70
0
 71
3
 72
9
 73
5
 74
0
 42
0.0000001
 43
0.0000001
 44
0.0000000001
 40
0.0
 40
0.0
 40
0.0
 40
0.0
 40
0.2456180716
 40
1.0
 40
1.0
 40
1.0
 40
1.0
 10
49.1666354157
 20
104.1712015695
 30
0.0
 10
49.1828028625
 20
105.1141090726
 30
0.0
 10
49.2900471996
 20
108.9522454201
 30
0.0
 10
49.5596660265
 20
112.7855113793
 30
0.0
 10
49.8458459029
 20
115.6677744593
 30
0.0
  0
SPLINE
  5
4ED
100
AcDbEntity
  8
00_COMPONENTS_1
100
AcDbSpline
 62
7
  6
CONTINUOUS
 70
0
 71
3
 72
9
 73
5
 74
0
 42
0.0000001
 43
0.0000001
 44
0.0000000001
 40
0.0
 40
0.0
 40
0.0
 40
0.0
 40
0.2456180716
 40
1.0
 40
1.0
 40
1.0
 40
1.0
 10
54.3992473817
 20
101.150219986
 30
0.0
 10
54.4154148286
 20
102.0931274892
 30
0.0
 10
54.5226591657
 20
105.9312638366
 30
0.0
 10
54.7922779926
 20
109.7645297959
 30
0.0
 10
55.078457869
 20
112.6467928759
 30
0.0
  0
SPLINE
  5
4EE
100
AcDbEntity
  8
00_COMPONENTS_1
100
AcDbSpline
 62
7
  6
CONTINUOUS
 70
0
 71
3
 72
9
 73
5
 74
0
 42
0.0000001
 43
0.0000001
 44
0.0000000001
 40
0.0
 40
0.0
 40
0.0
 40
0.0
 40
0.2456180716
 40
1.0
 40
1.0
 40
1.0
 40
1.0
 10
59.6318593478
 20
98.1292384026
 30
0.0
 10
59.6480267947
 20
99.0721459057
 30
0.0
 10
59.7552711318
 20
102.9102822532
 30
0.0
 10
60.0248899587
 20
106.7435482124
 30
0.0
 10
60.3110698351
 20
109.6258112924
 30
0.0
  0
SPLINE
  5
4EF
100
AcDbEntity
  8
00_COMPONENTS_1
100
AcDbSpline
 62
7
  6
CONTINUOUS
 70
0
 71
3
 72
9
 73
5
 74
0
 42
0.0000001
 43
0.0000001
 44
0.0000000001
 40
0.0
 40
0.0
 40
0.0
 40
0.0
 40
0.2456180716
 40
1.0
 40
1.0
 40
1.0
 40
1.0
 10
64.8644713139
 20
95.1082568191
 30
0.0
 10
64.8806387608
 20
96.0511643223
 30
0.0
 10
64.9878830979
 20
99.8893006697
 30
0.0
 10
65.2575019248
 20
103.722566629
 30
0.0
 10
65.5436818012
 20
106.604829709
 30
0.0
  0
SPLINE
  5
4F0
100
AcDbEntity
  8
00_COMPONENTS_1
100
AcDbSpline
 62
7
  6
CONTINUOUS
 70
0
 71
3
 72
9
 73
5
 74
0
 42
0.0000001
 43
0.0000001
 44
0.0000000001
 40
0.0
 40
0.0
 40
0.0
 40
0.0
 40
0.2456180716
 40
1.0
 40
1.0
 40
1.0
 40
1.0
 10
70.09708328
 20
92.0872752357
 30
0.0
 10
70.1132507269
 20
93.0301827388
 30
0.0
 10
70.220495064
 20
96.8683190863
 30
0.0
 10
70.4901138908
 20
100.7015850455
 30
0.0
 10
70.7762937673
 20
103.5838481255
 30
0.0
  0
SPLINE
  5
4F1
100
AcDbEntity
  8
00_COMPONENTS_1
100
AcDbSpline
 62
7
  6
CONTINUOUS
 70
0
 71
3
 72
9
 73
5
 74
0
 42
0.0000001
 43
0.0000001
 44
0.0000000001
 40
0.0
 40
0.0
 40
0.0
 40
0.0
 40
0.2456180716
 40
1.0
 40
1.0
 40
1.0
 40
1.0
 10
75.3296952461
 20
89.0662936522
 30
0.0
 10
75.345862693
 20
90.0092011554
 30
0.0
 10
75.45310703
 20
93.8473375028
 30
0.0
 10
75.7227258569
 20
97.6806034621
 30
0.0
 10
76.0089057334
 20
100.5628665421
 30
0.0
  0
SPLINE
  5
4F2
100
AcDbEntity
  8
00_COMPONENTS_1
100
AcDbSpline
 62
7
  6
CONTINUOUS
 70
0
 71
3
 72
21
 73
17
 74
0
 42
0.0000001
 43
0.0000001
 44
0.0000000001
 40
0.0
 40
0.0
 40
0.0
 40
0.0
 40
0.1384498022
 40
0.2143416033
 40
0.2919128652
 40
0.443903396
 40
0.5151524171
 40
0.5814177427
 40
0.6419209761
 40
0.6965365425
 40
0.7459995771
 40
0.7921269717
 40
0.8377914264
 40
0.8861890704
 40
0.9398692367
 40
1.0
 40
1.0
 40
1.0
 40
1.0
 10
23.7242616712
 20
82.3529253151
 30
0.0
 10
23.7242577572
 20
82.7187123026
 30
0.0
 10
23.6195179765
 20
83.2861805645
 30
0.0
 10
23.3470630025
 20
84.0081847043
 30
0.0
 10
22.9771772622
 20
84.727151905
 30
0.0
 10
22.4967196953
 20
85.3709081456
 30
0.0
 10
21.933582709
 20
85.8910721825
 30
0.0
 10
21.50277146
 20
86.191365642
 30
0.0
 10
21.0682817717
 20
86.3994002754
 30
0.0
 10
20.6435116995
 20
86.5075023596
 30
0.0
 10
20.2417077714
 20
86.5087213782
 30
0.0
 10
19.8787863636
 20
86.3960567101
 30
0.0
 10
19.5775657611
 20
86.1680921993
 30
0.0
 10
19.3564188553
 20
85.8389274686
 30
0.0
 10
19.2243193722
 20
85.4265874022
 30
0.0
 10
19.1985698047
 20
85.1246604068
 30
0.0
 10
19.1985668613
 20
84.9657937965
 30
0.0
  0
SPLINE
  5
4F3
100
AcDbEntity
  8
00_COMPONENTS_1
100
AcDbSpline
 62
7
  6
CONTINUOUS
 70
0
 71
3
 72
22
 73
18
 74
0
 42
0.0000001
 43
0.0000001
 44
0.0000000001
 40
0.0
 40
0.0
 40
0.0
 40
0.0
 40
0.1388455184
 40
0.2149595101
 40
0.2928738982
 40
0.3705839536
 40
0.4461581433
 40
0.5179607849
 40
0.5846595188
 40
0.6453430977
 40
0.6997726336
 40
0.7486414672
 40
0.7938662067
 40
0.8385842797
 40
0.8863002056
 40
0.9397232718
 40
1.0
 40
1.0
 40
1.0
 40
1.0
 10
19.1985668613
 20
84.9657937965
 30
0.0
 10
19.1985601015
 20
84.600934108
 30
0.0
 10
19.3078146628
 20
84.0348461702
 30
0.0
 10
19.5895576608
 20
83.318361894
 30
0.0
 10
19.8773380561
 20
82.7797953693
 30
0.0
 10
20.2230775391
 20
82.2787681987
 30
0.0
 10
20.6122852998
 20
81.8316411063
 30
0.0
 10
21.0300343736
 20
81.4527688881
 30
0.0
 10
21.4618458587
 20
81.1538587977
 30
0.0
 10
21.8941878328
 20
80.9451159562
 30
0.0
 10
22.3139756789
 20
80.8341568515
 30
0.0
 10
22.7091203388
 20
80.8283395489
 30
0.0
 10
23.0649332071
 20
80.9360374059
 30
0.0
 10
23.3587311825
 20
81.1598876374
 30
0.0
 10
23.5724995284
 20
81.4854860368
 30
0.0
 10
23.6995306219
 20
81.894590699
 30
0.0
 10
23.724263366
 20
82.1945295056
 30
0.0
 10
23.7242616712
 20
82.3529253151
 30
0.0
  0
SPLINE
  5
4F4
100
AcDbEntity
  8
00_COMPONENTS_1
100
AcDbSpline
 62
7
  6
CONTINUOUS
 70
0
 71
3
 72
17
 73
13
 74
0
 42
0.0000001
 43
0.0000001
 44
0.0000000001
 40
0.0
 40
0.0
 40
0.0
 40
0.0
 40
0.1285806891
 40
0.2700976895
 40
0.4169602493
 40
0.5607737326
 40
0.6939048998
 40
0.8109773464
 40
0.8631085182
 40
0.9113061491
 40
0.9564821461
 40
1.0
 40
1.0
 40
1.0
 40
1.0
 10
24.3605643889
 20
81.9863502594
 30
0.0
 10
24.3605659487
 20
82.3373125515
 30
0.0
 10
24.2649954965
 20
83.0753311219
 30
0.0
 10
23.9081683744
 20
84.1614682142
 30
0.0
 10
23.3556233716
 20
85.2100333667
 30
0.0
 10
22.6487439272
 20
86.1334427331
 30
0.0
 10
21.8426567105
 20
86.8555268522
 30
0.0
 10
21.107661029
 20
87.2560901361
 30
0.0
 10
20.5306122672
 20
87.4061655743
 30
0.0
 10
20.1315490119
 20
87.4325652216
 30
0.0
 10
19.7590250969
 20
87.3756659782
 30
0.0
 10
19.5329804629
 20
87.2809795776
 30
0.0
 10
19.4301005708
 20
87.2216079367
 30
0.0
  0
SPLINE
  5
4F5
100
AcDbEntity
  8
00_COMPONENTS_1
100
AcDbSpline
 62
7
  6
CONTINUOUS
 70
0
 71
3
 72
9
 73
5
 74
0
 42
0.0000001
 43
0.0000001
 44
0.0000000001
 40
0.0
 40
0.0
 40
0.0
 40
0.0
 40
0.2452455884
 40
1.0
 40
1.0
 40
1.0
 40
1.0
 10
76.0583664078
 20
36.4143325189
 30
0.0
 10
75.9631585132
 20
37.2325346185
 30
0.0
 10
75.6144525359
 20
40.5733166224
 30
0.0
 10
75.420749325
 20
43.9298937615
 30
0.0
 10
75.3537458392
 20
46.4640523096
 30
0.0
  0
SPLINE
  5
4F6
100
AcDbEntity
  8
00_COMPONENTS_1
100
AcDbSpline
 62
7
  6
CONTINUOUS
 70
0
 71
3
 72
9
 73
5
 74
0
 42
0.0000001
 43
0.0000001
 44
0.0000000001
 40
0.0
 40
0.0
 40
0.0
 40
0.0
 40
0.24778433
 40
1.0
 40
1.0
 40
1.0
 40
1.0
 10
70.8257544417
 20
39.4353141024
 30
0.0
 10
70.7825631887
 20
39.8064931313
 30
0.0
 10
70.6163012632
 20
41.3054131709
 30
0.0
 10
70.4819457008
 20
42.8078547584
 30
0.0
 10
70.3980705833
 20
43.9391660765
 30
0.0
  0
SPLINE
  5
4F7
100
AcDbEntity
  8
00_COMPONENTS_1
100
AcDbSpline
 62
7
  6
CONTINUOUS
 70
0
 71
3
 72
11
 73
7
 74
0
 42
0.0000001
 43
0.0000001
 44
0.0000000001
 40
0.0
 40
0.0
 40
0.0
 40
0.0
 40
0.2196948241
 40
0.4541982651
 40
0.7130373355
 40
1.0
 40
1.0
 40
1.0
 40
1.0
 10
19.295767126
 20
87.3625097654
 30
0.0
 10
19.1573955659
 20
87.2765236074
 30
0.0
 10
18.8997973084
 20
87.0490669891
 30
0.0
 10
18.6246280928
 20
86.5897600611
 30
0.0
 10
18.4604557085
 20
86.0297416054
 30
0.0
 10
18.427845731
 20
85.6236594488
 30
0.0
 10
18.4278447831
 20
85.4108658545
 30
0.0
  0
SPLINE
  5
4F8
100
AcDbEntity
  8
00_COMPONENTS_1
100
AcDbSpline
 62
7
  6
CONTINUOUS
 70
0
 71
3
 72
9
 73
5
 74
0
 42
0.0000001
 43
0.0000001
 44
0.0000000001
 40
0.0
 40
0.0
 40
0.0
 40
0.0
 40
0.2464990685
 40
1.0
 40
1.0
 40
1.0
 40
1.0
 10
73.4420604247
 20
37.9248233107
 30
0.0
 10
73.3728594207
 20
38.5195261663
 30
0.0
 10
73.1128906532
 20
40.9345078194
 30
0.0
 10
72.934825923
 20
43.3581950353
 30
0.0
 10
72.8436293939
 20
45.1860813143
 30
0.0
  0
SPLINE
  5
4F9
100
AcDbEntity
  8
00_COMPONENTS_1
100
AcDbSpline
 62
7
  6
CONTINUOUS
 70
0
 71
3
 72
10
 73
6
 74
0
 42
0.0000001
 43
0.0000001
 44
0.0000000001
 40
0.0
 40
0.0
 40
0.0
 40
0.0
 40
0.277729337
 40
0.5374751103
 40
1.0
 40
1.0
 40
1.0
 40
1.0
 10
68.9291222519
 20
44.1950283273
 30
0.0
 10
68.9275445273
 20
44.0971759559
 30
0.0
 10
68.9155953451
 20
43.9075866825
 30
0.0
 10
68.8520930449
 20
43.5608503222
 30
0.0
 10
68.7490681576
 20
43.3202280563
 30
0.0
 10
68.6538677121
 20
43.1879397656
 30
0.0
  0
SPLINE
  5
4FA
100
AcDbEntity
  8
00_COMPONENTS_1
100
AcDbSpline
 62
7
  6
CONTINUOUS
 70
0
 71
3
 72
9
 73
5
 74
0
 42
0.0000001
 43
0.0000001
 44
0.0000000001
 40
0.0
 40
0.0
 40
0.0
 40
0.0
 40
0.2437396236
 40
1.0
 40
1.0
 40
1.0
 40
1.0
 10
79.0582962186
 20
84.6878037864
 30
0.0
 10
79.0582962186
 20
86.0286155539
 30
0.0
 10
79.145242723
 20
91.5294410674
 30
0.0
 10
79.5696665549
 20
97.0235453053
 30
0.0
 10
80.0555793504
 20
101.1552590218
 30
0.0
  0
SPLINE
  5
4FB
100
AcDbEntity
  8
00_COMPONENTS_1
100
AcDbSpline
 62
7
  6
CONTINUOUS
 70
0
 71
3
 72
9
 73
5
 74
0
 42
0.0000001
 43
0.0000001
 44
0.0000000001
 40
0.0
 40
0.0
 40
0.0
 40
0.0
 40
0.2425910982
 40
1.0
 40
1.0
 40
1.0
 40
1.0
 10
80.1184854502
 20
31.8182335826
 30
0.0
 10
79.9402841018
 20
33.0844834336
 30
0.0
 10
79.3055997191
 20
38.3180201692
 30
0.0
 10
79.0582962186
 20
43.5962435922
 30
0.0
 10
79.0582962186
 20
47.5886394918
 30
0.0
  0
SPLINE
  5
4FC
100
AcDbEntity
  8
00_COMPONENTS_1
100
AcDbSpline
 62
7
  6
CONTINUOUS
 70
0
 71
3
 72
13
 73
9
 74
0
 42
0.0000001
 43
0.0000001
 44
0.0000000001
 40
0.0
 40
0.0
 40
0.0
 40
0.0
 40
0.2361072052
 40
0.3658982315
 40
0.4992062004
 40
0.6325929156
 40
0.7626342557
 40
1.0
 40
1.0
 40
1.0
 40
1.0
 10
79.0741075635
 20
82.690778821
 30
0.0
 10
79.0701613307
 20
82.9388300137
 30
0.0
 10
78.9971189421
 20
83.3230422058
 30
0.0
 10
78.8121613342
 20
83.8141496455
 30
0.0
 10
78.6227156517
 20
84.1863043565
 30
0.0
 10
78.3925149254
 20
84.5350603782
 30
0.0
 10
78.0551830331
 20
84.9392573866
 30
0.0
 10
77.7542460175
 20
85.1920115624
 30
0.0
 10
77.5382537706
 20
85.3167119232
 30
0.0
  0
SPLINE
  5
4FD
100
AcDbEntity
  8
00_COMPONENTS_1
100
AcDbSpline
 62
7
  6
CONTINUOUS
 70
0
 71
3
 72
11
 73
7
 74
0
 42
0.0000001
 43
0.0000001
 44
0.0000000001
 40
0.0
 40
0.0
 40
0.0
 40
0.0
 40
0.2913083356
 40
0.5505922662
 40
0.7828469842
 40
1.0
 40
1.0
 40
1.0
 40
1.0
 10
29.8083473232
 20
112.8729628533
 30
0.0
 10
29.7107012582
 20
112.9293375598
 30
0.0
 10
29.5168480019
 20
113.0214296626
 30
0.0
 10
29.2185284757
 20
113.0896967245
 30
0.0
 10
28.9404951558
 20
113.0755312717
 30
0.0
 10
28.7755068668
 20
113.0079872625
 30
0.0
 10
28.704993333
 20
112.9622473128
 30
0.0
  0
SPLINE
  5
4FE
100
AcDbEntity
  8
00_COMPONENTS_1
100
AcDbSpline
 62
7
  6
CONTINUOUS
 70
0
 71
3
 72
11
 73
7
 74
0
 42
0.0000001
 43
0.0000001
 44
0.0000000001
 40
0.0
 40
0.0
 40
0.0
 40
0.0
 40
0.2173739858
 40
0.4496627629
 40
0.708954591
 40
1.0
 40
1.0
 40
1.0
 40
1.0
 10
78.5796196832
 20
48.1077521127
 30
0.0
 10
78.6555601483
 20
48.1463364019
 30
0.0
 10
78.7986665543
 20
48.2564265099
 30
0.0
 10
78.9529353381
 20
48.492360821
 30
0.0
 10
79.0463220231
 20
48.7876031168
 30
0.0
 10
79.0660639484
 20
49.0038428222
 30
0.0
 10
79.0674201506
 20
49.1178841287
 30
0.0
  0
SPLINE
  5
4FF
100
AcDbEntity
  8
00_COMPONENTS_1
100
AcDbSpline
 62
7
  6
CONTINUOUS
 70
0
 71
3
 72
11
 73
7
 74
0
 42
0.0000001
 43
0.0000001
 44
0.0000000001
 40
0.0
 40
0.0
 40
0.0
 40
0.0
 40
0.2158604786
 40
0.4481413244
 40
0.708152505
 40
1.0
 40
1.0
 40
1.0
 40
1.0
 10
23.5300204153
 20
80.1201986001
 30
0.0
 10
23.6629266441
 20
80.1968960815
 30
0.0
 10
23.9116317666
 20
80.4075927089
 30
0.0
 10
24.1744992508
 20
80.8450194466
 30
0.0
 10
24.3301382351
 20
81.3852981432
 30
0.0
 10
24.3605634669
 20
81.7788843929
 30
0.0
 10
24.3605643889
 20
81.9863502594
 30
0.0
  0
SPLINE
  5
500
100
AcDbEntity
  8
00_COMPONENTS_1
100
AcDbSpline
 62
7
  6
CONTINUOUS
 70
0
 71
3
 72
11
 73
7
 74
0
 42
0.0000001
 43
0.0000001
 44
0.0000000001
 40
0.0
 40
0.0
 40
0.0
 40
0.0
 40
0.2311933216
 40
0.4682447659
 40
0.7223840978
 40
1.0
 40
1.0
 40
1.0
 40
1.0
 10
16.4795952455
 20
105.0475745565
 30
0.0
 10
16.5962600266
 20
105.1231523218
 30
0.0
 10
16.8584502367
 20
105.2401130284
 30
0.0
 10
17.2970724299
 20
105.2847158255
 30
0.0
 10
17.7565751098
 20
105.1980702959
 30
0.0
 10
18.0501197633
 20
105.0640652349
 30
0.0
 10
18.1946756255
 20
104.980607757
 30
0.0
  0
ELLIPSE
  5
501
100
AcDbEntity
  8
00_COMPONENTS_1
100
AcDbEllipse
 62
7
  6
CONTINUOUS
 10
66.8178040392
 20
77.0625255301
 30
0.0
 11
-1.4868448687
 21
2.5848797021
 31
0.0
 40
0.5801291851
 41
-2.3519354589
 42
-1.7419674927
  0
ENDSEC
  0
SECTION
  2
OBJECTS
  0
DICTIONARY
  5
C
100
AcDbDictionary
280
0
281
1
  3
ACAD_GROUP
350
D
  3
ACAD_MLINESTYLE
350
17
  3
ACAD_LAYOUT
350
1A
  3
ACAD_PLOTSETTINGS
350
19
  3
ACAD_PLOTSTYLENAME
350
E
  0
DICTIONARY
  5
D
102
{ACAD_REACTORS
330
C
102
}
100
AcDbDictionary
280
0
281
1
  0
ACDBDICTIONARYWDFLT
  5
E
102
{ACAD_REACTORS
330
C
102
}
100
AcDbDictionary
281
1
  3
Normal
350
F
100
AcDbDictionaryWithDefault
340
F
  0
DICTIONARY
  5
17
102
{ACAD_REACTORS
330
C
102
}
100
AcDbDictionary
280
0
281
1
  3
Standard
350
18
  0
DICTIONARY
  5
19
102
{ACAD_REACTORS
330
C
102
}
100
AcDbDictionary
281
1
  0
DICTIONARY
  5
1A
102
{ACAD_REACTORS
330
C
102
}
100
AcDbDictionary
281
1
  3
Model
350
502
  3
Layout1
350
503
  0
ACDBPLACEHOLDER
  5
F
102
{ACAD_REACTORS
330
E
102
}
  0
MLINESTYLE
  5
18
102
{ACAD_REACTORS
330
17
102
}
100
AcDbMlineStyle
  2
STANDARD
 70
0
  3

 62
256
 51
90.0
 52
90.0
 71
2
 49
0.5
 62
256
  6
BYLAYER
 49
-0.5
 62
256
  6
BYLAYER
  0
LAYOUT
  5
502
102
{ACAD_REACTORS
330
1A
102
}
100
AcDbPlotSettings
  1

  2
none_device
  4

  6

 40
0.0
 41
0.0
 42
0.0
 43
0.0
 44
210.0
 45
297.0
 46
0.0
 47
0.0
 48
0.0
 49
0.0
140
0.0
141
0.0
142
1.0
143
1.0
 70
1024
 72
1
 73
0
 74
0
  7

 75
0
147
1.0
148
0.0
149
0.0
100
AcDbLayout
  1
Model
 70
0
 71
0
 10
0.0
 20
0.0
 11
210.0
 21
297.0
 12
0.0
 22
0.0
 32
0.0
 14
0.0
 24
0.0
 34
0.0
 15
0.0
 25
0.0
 35
0.0
146
0.0
 13
0.0
 23
0.0
 33
0.0
 16
1.0
 26
0.0
 36
0.0
 17
0.0
 27
1.0
 37
0.0
 76
0
330
218
345
0
346
0
  0
LAYOUT
  5
503
102
{ACAD_REACTORS
330
1A
102
}
100
AcDbPlotSettings
  1

  2
none_device
  4

  6

 40
0.0
 41
0.0
 42
0.0
 43
0.0
 44
210.0
 45
297.0
 46
0.0
 47
0.0
 48
0.0
 49
0.0
140
0.0
141
0.0
142
1.0
143
1.0
 70
0
 72
1
 73
0
 74
0
  7

 75
0
147
1.0
148
0.0
149
0.0
100
AcDbLayout
  1
Layout1
 70
0
 71
1
 10
0.0
 20
0.0
 11
210.0
 21
297.0
 12
0.0
 22
0.0
 32
0.0
 14
0.0
 24
0.0
 34
0.0
 15
0.0
 25
0.0
 35
0.0
146
0.0
 13
0.0
 23
0.0
 33
0.0
 16
1.0
 26
0.0
 36
0.0
 17
0.0
 27
1.0
 37
0.0
 76
0
330
219
345
0
346
0
  0
ENDSEC
  0
EOF
