999
DXF file: C:\Vinayak\New 2D genarating\updateCreo8 with 3dPdf\CAD\NSYCRN66200_3D-CAD\drw0001_5.dxf
999
Pro/ENGINEER 2021284 by Parametric Technology Corporation
  0
SECTION
  2
HEADER
  9
$ACADVER
  1
AC1024
  9
$DWGCODEPAGE
  3
ANSI_1252
  9
$EXTMAX
 10
508.0603982154
 20
718.5425631904
 30
0.0
  9
$EXTMIN
 10
0.0
 20
0.0
 30
0.0
  9
$LIMMIN
 10
0.0
 20
0.0
  9
$LIMMAX
 10
508.0603982154
 20
718.5425631904
  9
$VIEWCTR
 10
254.0301991077
 20
359.2712815952
  9
$VIEWSIZE
 40
718.5425631904
  9
$CLAYER
  8
0
  9
$LTSCALE
 40
46.838330045
  9
$CELTYPE
  6
BYLAYER
  9
$DIMSCALE
 40
1.0
  9
$DIMASZ
 40
6.048338074
  9
$DIMEXO
 40
1.0
  9
$DIMDLI
 40
32.3610280311
  9
$DIMEXE
 40
1.0
  9
$DIMCEN
 40
7.6644540074
  9
$DIMLFAC
 40
1.0
  9
$DIMBLK
  1
_FILLED
  9
$DIMALT
 70
0
  9
$DIMALTF
 40
0.0393700787
  9
$DIMTXT
 40
8.4676733036
  9
$DIMTOL
 70
1
  9
$DIMLIM
 70
0
  9
$DIMTFAC
 40
1.0
  9
$DIMTP
 40
0.01
  9
$DIMTM
 40
0.01
  9
$DIMGAP
 40
0.625
  9
$DIMDSEP
 70
46
  9
$AUNITS
 70
0
  9
$PDMODE
 70
3
  9
$PDSIZE
 40
0.3125
  9
$HANDSEED
  5
364
  9
$TILEMODE
 70
1
  9
$MEASUREMENT
 70
1
  9
$INSUNITS
 70
4
  0
ENDSEC
  0
SECTION
  2
CLASSES
  0
CLASS
  1
ACDBDICTIONARYWDFLT
  2
AcDbDictionaryWithDefault
  3
AutoCAD 2000
 90
0
 91
1
280
0
281
0
  0
CLASS
  1
ACDBPLACEHOLDER
  2
AcDbPlaceHolder
  3
AutoCAD 2000
 90
0
 91
1
280
0
281
0
  0
CLASS
  1
LAYOUT
  2
AcDbLayout
  3
AutoCAD 2000
 90
0
 91
0
280
0
281
0
  0
ENDSEC
  0
SECTION
  2
TABLES
  0
TABLE
  2
VPORT
  5
8
100
AcDbSymbolTable
 70
2
  0
VPORT
  5
1F4
100
AcDbSymbolTableRecord
100
AcDbViewportTableRecord
  2
*ACTIVE
 70
0
 10
0.0
 20
0.0
 11
1.0
 21
1.0
 12
254.0301991077
 22
359.2712815952
 13
0.0
 23
0.0
 14
1.0
 24
1.0
 15
0.0
 25
0.0
 16
0.0
 26
0.0
 36
1.0
 17
0.0
 27
0.0
 37
0.0
 40
718.5425631904
 41
0.7070707071
 42
50.0
 43
0.0
 44
0.0
 50
0.0
 51
0.0
 71
0
 72
100
 73
1
 74
1
 75
0
 76
0
 77
0
 78
0
  0
ENDTAB
  0
TABLE
  2
LTYPE
  5
5
100
AcDbSymbolTable
 70
6
  0
LTYPE
  5
14
100
AcDbSymbolTableRecord
100
AcDbLinetypeTableRecord
  2
BYBLOCK
 70
0
  3

 72
65
 73
0
 40
0.0
  0
LTYPE
  5
15
100
AcDbSymbolTableRecord
100
AcDbLinetypeTableRecord
  2
BYLAYER
 70
0
  3

 72
65
 73
0
 40
0.0
  0
LTYPE
  5
16
100
AcDbSymbolTableRecord
100
AcDbLinetypeTableRecord
  2
CONTINUOUS
 70
64
  3
Solid line
 72
65
 73
0
 40
0.0
  0
LTYPE
  5
1F5
100
AcDbSymbolTableRecord
100
AcDbLinetypeTableRecord
  2
CENTER
 70
64
  3
____ _ ____ _ ____ _ ____ _ ____ _ ____ _ ____
 72
65
 73
4
 40
0.6
 49
0.375
 74
0
 49
-0.075
 74
0
 49
0.075
 74
0
 49
-0.075
 74
0
  0
LTYPE
  5
1F6
100
AcDbSymbolTableRecord
100
AcDbLinetypeTableRecord
  2
HIDDEN
 70
64
  3
- - - - - - - - - - - - - - - - - - - -
 72
65
 73
2
 40
0.2
 49
0.1
 74
0
 49
-0.1
 74
0
  0
LTYPE
  5
1F7
100
AcDbSymbolTableRecord
100
AcDbLinetypeTableRecord
  2
PHANTOM
 70
64
  3
_____ _ _ _____ _ _ _____ _ _ _____
 72
65
 73
6
 40
0.8
 49
0.45
 74
0
 49
-0.05
 74
0
 49
0.1
 74
0
 49
-0.05
 74
0
 49
0.1
 74
0
 49
-0.05
 74
0
  0
LTYPE
  5
1F8
100
AcDbSymbolTableRecord
100
AcDbLinetypeTableRecord
  2
DOT
 70
64
  3
. . . . . . . . . . . . . . . . . . . .
 72
65
 73
2
 40
0.2
 49
0.1
 74
0
 49
-0.1
 74
0
  0
LTYPE
  5
1F9
100
AcDbSymbolTableRecord
100
AcDbLinetypeTableRecord
  2
DASHED
 70
64
  3
- - - - - - - - - - - - - - - - - - - -
 72
65
 73
2
 40
0.2
 49
0.1
 74
0
 49
-0.1
 74
0
  0
ENDTAB
  0
TABLE
  2
LAYER
  5
2
100
AcDbSymbolTable
 70
36
  0
LAYER
  5
10
100
AcDbSymbolTableRecord
100
AcDbLayerTableRecord
  2
0
 70
0
 62
7
  6
CONTINUOUS
370
-3
390
F
  0
LAYER
  5
1FA
100
AcDbSymbolTableRecord
100
AcDbLayerTableRecord
  2
DEFAULT_1
 70
0
 62
7
  6
CENTER
370
-3
390
F
  0
LAYER
  5
1FB
100
AcDbSymbolTableRecord
100
AcDbLayerTableRecord
  2
DEFAULT_2
 70
0
 62
8
  6
HIDDEN
370
-3
390
F
  0
LAYER
  5
1FC
100
AcDbSymbolTableRecord
100
AcDbLayerTableRecord
  2
DEFAULT_3
 70
0
 62
7
  6
PHANTOM
370
-3
390
F
  0
LAYER
  5
1FD
100
AcDbSymbolTableRecord
100
AcDbLayerTableRecord
  2
00_COMPONENTS
 70
0
 62
7
  6
CONTINUOUS
370
-3
390
F
  0
LAYER
  5
1FE
100
AcDbSymbolTableRecord
100
AcDbLayerTableRecord
  2
00_COMPONENTS_11
 70
0
 62
7
  6
CONTINUOUS
370
-3
390
F
  0
LAYER
  5
1FF
100
AcDbSymbolTableRecord
100
AcDbLayerTableRecord
  2
01_1_DEFAULT_DATUMS
 70
0
 62
7
  6
CONTINUOUS
370
-3
390
F
  0
LAYER
  5
200
100
AcDbSymbolTableRecord
100
AcDbLayerTableRecord
  2
01_PLANES
 70
0
 62
7
  6
CONTINUOUS
370
-3
390
F
  0
LAYER
  5
201
100
AcDbSymbolTableRecord
100
AcDbLayerTableRecord
  2
02_COORD_SYS
 70
0
 62
7
  6
CONTINUOUS
370
-3
390
F
  0
LAYER
  5
202
100
AcDbSymbolTableRecord
100
AcDbLayerTableRecord
  2
03_AXES
 70
0
 62
7
  6
CONTINUOUS
370
-3
390
F
  0
LAYER
  5
203
100
AcDbSymbolTableRecord
100
AcDbLayerTableRecord
  2
04_POINTS
 70
0
 62
7
  6
CONTINUOUS
370
-3
390
F
  0
LAYER
  5
204
100
AcDbSymbolTableRecord
100
AcDbLayerTableRecord
  2
05_CURVES
 70
0
 62
7
  6
CONTINUOUS
370
-3
390
F
  0
LAYER
  5
205
100
AcDbSymbolTableRecord
100
AcDbLayerTableRecord
  2
06_SURFS
 70
0
 62
7
  6
CONTINUOUS
370
-3
390
F
  0
LAYER
  5
206
100
AcDbSymbolTableRecord
100
AcDbLayerTableRecord
  2
07_COSMETICS
 70
0
 62
7
  6
CONTINUOUS
370
-3
390
F
  0
LAYER
  5
207
100
AcDbSymbolTableRecord
100
AcDbLayerTableRecord
  2
10_NOTES
 70
0
 62
7
  6
CONTINUOUS
370
-3
390
F
  0
LAYER
  5
208
100
AcDbSymbolTableRecord
100
AcDbLayerTableRecord
  2
11_NOTES_PUB
 70
0
 62
7
  6
CONTINUOUS
370
-3
390
F
  0
LAYER
  5
209
100
AcDbSymbolTableRecord
100
AcDbLayerTableRecord
  2
13_REF_GTOL
 70
0
 62
7
  6
CONTINUOUS
370
-3
390
F
  0
LAYER
  5
20A
100
AcDbSymbolTableRecord
100
AcDbLayerTableRecord
  2
16_MISC
 70
0
 62
7
  6
CONTINUOUS
370
-3
390
F
  0
LAYER
  5
20B
100
AcDbSymbolTableRecord
100
AcDbLayerTableRecord
  2
17_NO_PRINT
 70
0
 62
7
  6
CONTINUOUS
370
-3
390
F
  0
LAYER
  5
20C
100
AcDbSymbolTableRecord
100
AcDbLayerTableRecord
  2
18_DATUM_CAMS_JOINTS
 70
0
 62
7
  6
CONTINUOUS
370
-3
390
F
  0
LAYER
  5
20D
100
AcDbSymbolTableRecord
100
AcDbLayerTableRecord
  2
19_DATUM_FUNCTIONAL
 70
0
 62
7
  6
CONTINUOUS
370
-3
390
F
  0
LAYER
  5
20E
100
AcDbSymbolTableRecord
100
AcDbLayerTableRecord
  2
20_DATUM_KINEMATIC_SCHEME
 70
0
 62
7
  6
CONTINUOUS
370
-3
390
F
  0
LAYER
  5
20F
100
AcDbSymbolTableRecord
100
AcDbLayerTableRecord
  2
PART
 70
0
 62
7
  6
CONTINUOUS
370
-3
390
F
  0
LAYER
  5
210
100
AcDbSymbolTableRecord
100
AcDbLayerTableRecord
  2
PART_1
 70
0
 62
7
  6
CONTINUOUS
370
-3
390
F
  0
ENDTAB
  0
TABLE
  2
STYLE
  5
3
100
AcDbSymbolTable
 70
1
  0
STYLE
  5
11
100
AcDbSymbolTableRecord
100
AcDbTextStyleTableRecord
  2
STANDARD
 70
0
 40
0.0
 41
0.8
 50
0.0
 71
0
 42
0.2
  3
txt
  4

  0
STYLE
  5
211
100
AcDbSymbolTableRecord
100
AcDbTextStyleTableRecord
  2
TEXTSTYLE_1
 70
0
 40
0.0
 41
0.8
 50
0.0
 71
0
 42
0.2
  3
gdt
  4

  0
ENDTAB
  0
TABLE
  2
VIEW
  5
6
100
AcDbSymbolTable
 70
0
  0
ENDTAB
  0
TABLE
  2
UCS
  5
7
100
AcDbSymbolTable
 70
0
  0
ENDTAB
  0
TABLE
  2
APPID
  5
9
100
AcDbSymbolTable
 70
1
  0
APPID
  5
212
100
AcDbSymbolTableRecord
100
AcDbRegAppTableRecord
  2
ACAD
 70
0
  0
ENDTAB
  0
TABLE
  2
BLOCK_RECORD
  5
1
100
AcDbSymbolTable
 70
0
  0
BLOCK_RECORD
  5
213
100
AcDbSymbolTableRecord
100
AcDbBlockTableRecord
  2
*Model_Space
  0
BLOCK_RECORD
  5
214
100
AcDbSymbolTableRecord
100
AcDbBlockTableRecord
  2
*Paper_Space
  0
BLOCK_RECORD
  5
215
100
AcDbSymbolTableRecord
100
AcDbBlockTableRecord
  2
_FILLED
  0
ENDTAB
  0
TABLE
  2
DIMSTYLE
  5
A
100
AcDbSymbolTable
 70
1
100
AcDbDimStyleTable
 71
0
  0
DIMSTYLE
105
216
100
AcDbSymbolTableRecord
100
AcDbDimStyleTableRecord
  2
STANDARD
 70
0
  3

  4

 40
1.0
 41
6.048338074
 42
1.0
 43
0.38
 44
1.0
 45
0.0
 46
0.0
 47
0.01
 48
0.01
140
8.4676733036
141
0.09
142
0.0
143
25.4
144
1.0
145
0.0
146
1.0
147
0.625
 71
1
 72
0
 73
0
 74
0
 75
0
 76
0
 77
1
 78
8
 79
2
170
0
171
1
172
0
173
0
174
0
175
0
176
0
177
0
178
0
270
2
179
2
271
2
272
2
273
2
274
2
275
0
280
0
281
0
282
0
283
1
284
8
285
0
286
0
287
3
288
0
340
11
278
46
341
215
342
215
343
215
344
215
  0
ENDTAB
  0
ENDSEC
  0
SECTION
  2
BLOCKS
  0
BLOCK
  5
20
100
AcDbEntity
  8
0
100
AcDbBlockBegin
  2
*Model_Space
 70
0
 10
0.0
 20
0.0
 30
0.0
  3
*Model_Space
  1

  0
ENDBLK
  5
21
100
AcDbEntity
  8
0
100
AcDbBlockEnd
  0
BLOCK
  5
1C
100
AcDbEntity
  8
0
100
AcDbBlockBegin
  2
*Paper_Space
 70
0
 10
0.0
 20
0.0
 30
0.0
  3
*Paper_Space
  1

  0
ENDBLK
  5
1D
100
AcDbEntity
  8
0
100
AcDbBlockEnd
  0
BLOCK
  5
217
100
AcDbEntity
  8
0
100
AcDbBlockBegin
  2
_FILLED
 70
64
 10
0.0
 20
0.0
  3
_FILLED
  1

  0
SOLID
  5
218
100
AcDbEntity
  8
0
  6
BYBLOCK
 62
0
100
AcDbTrace
 10
0.0
 20
0.0
 11
-1.0
 21
0.25
 12
-1.0
 22
-0.25
 13
-1.0
 23
-0.25
  0
ENDBLK
  5
219
100
AcDbEntity
  8
0
  6
BYBLOCK
 62
0
100
AcDbBlockEnd
  0
ENDSEC
  0
SECTION
  2
ENTITIES
  0
LINE
  5
21A
100
AcDbEntity
  8
PART
100
AcDbLine
 62
7
  6
CONTINUOUS
 10
158.8436911767
 20
660.3681248659
 11
157.9090340198
 21
659.6155187279
  0
LINE
  5
21B
100
AcDbEntity
  8
00_COMPONENTS_11
100
AcDbLine
 62
7
  6
CONTINUOUS
 10
312.4310632874
 20
58.5171536576
 11
312.4259932104
 21
58.5161103021
  0
LINE
  5
21C
100
AcDbEntity
  8
00_COMPONENTS_11
100
AcDbLine
 62
7
  6
CONTINUOUS
 10
312.4270128611
 20
58.5114342616
 11
312.4313497443
 21
58.5123099626
  0
LINE
  5
21D
100
AcDbEntity
  8
00_COMPONENTS_11
100
AcDbLine
 62
7
  6
CONTINUOUS
 10
312.4272229251
 20
58.5121470513
 11
312.4315526298
 21
58.5130001155
  0
LINE
  5
21E
100
AcDbEntity
  8
00_COMPONENTS_11
100
AcDbLine
 62
7
  6
CONTINUOUS
 10
312.4313917696
 20
58.5182839589
 11
312.4263365473
 21
58.5172882448
  0
LWPOLYLINE
  5
21F
100
AcDbEntity
  8
00_COMPONENTS_11
100
AcDbPolyline
 62
7
  6
CONTINUOUS
 90
3
 70
0
 10
314.1554737592
 20
58.849478537
 10
314.1853508275
 20
58.8525646891
 10
314.216315127
 20
58.8607436094
  0
LWPOLYLINE
  5
220
100
AcDbEntity
  8
00_COMPONENTS_11
100
AcDbPolyline
 62
7
  6
CONTINUOUS
 90
3
 70
0
 10
249.1554737592
 20
58.849478537
 10
249.1853508275
 20
58.8525646891
 10
249.216315127
 20
58.8607436094
  0
LINE
  5
221
100
AcDbEntity
  8
00_COMPONENTS_11
100
AcDbLine
 62
7
  6
CONTINUOUS
 10
312.2713407456
 20
58.4867532548
 11
312.3200927838
 21
58.4910396328
  0
LINE
  5
222
100
AcDbEntity
  8
00_COMPONENTS_11
100
AcDbLine
 62
7
  6
CONTINUOUS
 10
247.2713407456
 20
58.4867532548
 11
247.3200927838
 21
58.4910396328
  0
LINE
  5
223
100
AcDbEntity
  8
00_COMPONENTS_11
100
AcDbLine
 62
7
  6
CONTINUOUS
 10
312.2713402561
 20
58.4867590244
 11
312.2817210734
 21
58.4876401968
  0
LINE
  5
224
100
AcDbEntity
  8
00_COMPONENTS_11
100
AcDbLine
 62
7
  6
CONTINUOUS
 10
247.2713402561
 20
58.4867590244
 11
247.2817210734
 21
58.4876401968
  0
LINE
  5
225
100
AcDbEntity
  8
00_COMPONENTS_11
100
AcDbLine
 62
7
  6
CONTINUOUS
 10
314.1471397372
 20
58.8492395153
 11
314.1554737592
 21
58.849478537
  0
LINE
  5
226
100
AcDbEntity
  8
00_COMPONENTS_11
100
AcDbLine
 62
7
  6
CONTINUOUS
 10
314.122487173
 20
58.8485341265
 11
314.1554737592
 21
58.849478537
  0
LINE
  5
227
100
AcDbEntity
  8
00_COMPONENTS_11
100
AcDbLine
 62
7
  6
CONTINUOUS
 10
314.2163111137
 20
58.8607415977
 11
314.16026858
 21
58.8591385255
  0
LINE
  5
228
100
AcDbEntity
  8
00_COMPONENTS_11
100
AcDbLine
 62
7
  6
CONTINUOUS
 10
249.1224874211
 20
58.8485341961
 11
249.1554737592
 21
58.849478537
  0
LINE
  5
229
100
AcDbEntity
  8
00_COMPONENTS_11
100
AcDbLine
 62
7
  6
CONTINUOUS
 10
249.2163082381
 20
58.8607411809
 11
249.16026858
 21
58.8591385255
  0
LINE
  5
22A
100
AcDbEntity
  8
00_COMPONENTS_11
100
AcDbLine
 62
7
  6
CONTINUOUS
 10
184.1224874211
 20
58.8485341962
 11
184.1554737592
 21
58.849478537
  0
LINE
  5
22B
100
AcDbEntity
  8
00_COMPONENTS_11
100
AcDbLine
 62
7
  6
CONTINUOUS
 10
184.1471397372
 20
58.8492395153
 11
184.1554737592
 21
58.849478537
  0
LINE
  5
22C
100
AcDbEntity
  8
00_COMPONENTS_11
100
AcDbLine
 62
7
  6
CONTINUOUS
 10
184.2163082381
 20
58.8607411809
 11
184.16026858
 21
58.8591385255
  0
LINE
  5
22D
100
AcDbEntity
  8
00_COMPONENTS_11
100
AcDbLine
 62
7
  6
CONTINUOUS
 10
311.09507242
 20
58.8477503574
 11
311.4323847983
 21
58.8492068777
  0
LINE
  5
22E
100
AcDbEntity
  8
00_COMPONENTS_11
100
AcDbLine
 62
7
  6
CONTINUOUS
 10
246.09507242
 20
58.8477503574
 11
246.4323847983
 21
58.8492068777
  0
LINE
  5
22F
100
AcDbEntity
  8
00_COMPONENTS_11
100
AcDbLine
 62
7
  6
CONTINUOUS
 10
181.09507242
 20
58.8477503574
 11
181.4323847983
 21
58.8492068777
  0
LINE
  5
230
100
AcDbEntity
  8
00_COMPONENTS_11
100
AcDbLine
 62
7
  6
CONTINUOUS
 10
251.2790145247
 20
59.9547434458
 11
241.9411303161
 21
59.9547434458
  0
LINE
  5
231
100
AcDbEntity
  8
00_COMPONENTS_11
100
AcDbLine
 62
7
  6
CONTINUOUS
 10
186.2790145247
 20
59.9547434458
 11
176.9411303161
 21
59.9547434458
  0
LINE
  5
232
100
AcDbEntity
  8
00_COMPONENTS_11
100
AcDbLine
 62
7
  6
CONTINUOUS
 10
306.9411303161
 20
59.9547434458
 11
316.2790145247
 21
59.9547434458
  0
LINE
  5
233
100
AcDbEntity
  8
00_COMPONENTS_11
100
AcDbLine
 62
7
  6
CONTINUOUS
 10
176.86007242
 20
60.1155314292
 11
186.36007242
 21
60.1155314292
  0
LINE
  5
234
100
AcDbEntity
  8
00_COMPONENTS_11
100
AcDbLine
 62
7
  6
CONTINUOUS
 10
241.86007242
 20
60.1155314292
 11
251.36007242
 21
60.1155314292
  0
LINE
  5
235
100
AcDbEntity
  8
00_COMPONENTS_11
100
AcDbLine
 62
7
  6
CONTINUOUS
 10
306.86007242
 20
60.1155314292
 11
316.36007242
 21
60.1155314292
  0
LINE
  5
236
100
AcDbEntity
  8
00_COMPONENTS_11
100
AcDbLine
 62
7
  6
CONTINUOUS
 10
316.36007242
 20
60.4155187279
 11
316.1797715743
 21
60.4155187279
  0
LINE
  5
237
100
AcDbEntity
  8
00_COMPONENTS_11
100
AcDbLine
 62
7
  6
CONTINUOUS
 10
315.757948186
 20
60.4155187279
 11
313.924727174
 21
60.4155187279
  0
LINE
  5
238
100
AcDbEntity
  8
00_COMPONENTS_11
100
AcDbLine
 62
7
  6
CONTINUOUS
 10
312.906355429
 20
60.4155187279
 11
310.313789411
 21
60.4155187279
  0
LINE
  5
239
100
AcDbEntity
  8
00_COMPONENTS_11
100
AcDbLine
 62
7
  6
CONTINUOUS
 10
309.295417666
 20
60.4155187279
 11
307.462196654
 21
60.4155187279
  0
LINE
  5
23A
100
AcDbEntity
  8
00_COMPONENTS_11
100
AcDbLine
 62
7
  6
CONTINUOUS
 10
307.0403732657
 20
60.4155187279
 11
306.86007242
 21
60.4155187279
  0
LINE
  5
23B
100
AcDbEntity
  8
00_COMPONENTS_11
100
AcDbLine
 62
7
  6
CONTINUOUS
 10
251.36007242
 20
60.4155187279
 11
251.1797715743
 21
60.4155187279
  0
LINE
  5
23C
100
AcDbEntity
  8
00_COMPONENTS_11
100
AcDbLine
 62
7
  6
CONTINUOUS
 10
250.757948186
 20
60.4155187279
 11
248.924727174
 21
60.4155187279
  0
LINE
  5
23D
100
AcDbEntity
  8
00_COMPONENTS_11
100
AcDbLine
 62
7
  6
CONTINUOUS
 10
247.906355429
 20
60.4155187279
 11
245.313789411
 21
60.4155187279
  0
LINE
  5
23E
100
AcDbEntity
  8
00_COMPONENTS_11
100
AcDbLine
 62
7
  6
CONTINUOUS
 10
244.295417666
 20
60.4155187279
 11
242.462196654
 21
60.4155187279
  0
LINE
  5
23F
100
AcDbEntity
  8
00_COMPONENTS_11
100
AcDbLine
 62
7
  6
CONTINUOUS
 10
242.0403732657
 20
60.4155187279
 11
241.86007242
 21
60.4155187279
  0
LINE
  5
240
100
AcDbEntity
  8
00_COMPONENTS_11
100
AcDbLine
 62
7
  6
CONTINUOUS
 10
186.36007242
 20
60.4155187279
 11
186.1797715743
 21
60.4155187279
  0
LINE
  5
241
100
AcDbEntity
  8
00_COMPONENTS_11
100
AcDbLine
 62
7
  6
CONTINUOUS
 10
185.757948186
 20
60.4155187279
 11
183.924727174
 21
60.4155187279
  0
LINE
  5
242
100
AcDbEntity
  8
00_COMPONENTS_11
100
AcDbLine
 62
7
  6
CONTINUOUS
 10
182.906355429
 20
60.4155187279
 11
180.313789411
 21
60.4155187279
  0
LINE
  5
243
100
AcDbEntity
  8
00_COMPONENTS_11
100
AcDbLine
 62
7
  6
CONTINUOUS
 10
179.295417666
 20
60.4155187279
 11
177.462196654
 21
60.4155187279
  0
LINE
  5
244
100
AcDbEntity
  8
00_COMPONENTS_11
100
AcDbLine
 62
7
  6
CONTINUOUS
 10
177.0403732657
 20
60.4155187279
 11
176.86007242
 21
60.4155187279
  0
LINE
  5
245
100
AcDbEntity
  8
00_COMPONENTS_11
100
AcDbLine
 62
7
  6
CONTINUOUS
 10
177.412554689
 20
60.4981539101
 11
179.3867131548
 21
60.4981539101
  0
LINE
  5
246
100
AcDbEntity
  8
00_COMPONENTS_11
100
AcDbLine
 62
7
  6
CONTINUOUS
 10
180.2141331991
 20
60.4981539101
 11
183.0060116409
 21
60.4981539101
  0
LINE
  5
247
100
AcDbEntity
  8
00_COMPONENTS_11
100
AcDbLine
 62
7
  6
CONTINUOUS
 10
183.8334317029
 20
60.4981539101
 11
185.807590151
 21
60.4981539101
  0
LINE
  5
248
100
AcDbEntity
  8
00_COMPONENTS_11
100
AcDbLine
 62
7
  6
CONTINUOUS
 10
242.412554689
 20
60.4981539101
 11
244.3867131548
 21
60.4981539101
  0
LINE
  5
249
100
AcDbEntity
  8
00_COMPONENTS_11
100
AcDbLine
 62
7
  6
CONTINUOUS
 10
245.2141331991
 20
60.4981539101
 11
248.0060116409
 21
60.4981539101
  0
LINE
  5
24A
100
AcDbEntity
  8
00_COMPONENTS_11
100
AcDbLine
 62
7
  6
CONTINUOUS
 10
248.8334317029
 20
60.4981539101
 11
250.807590151
 21
60.4981539101
  0
LINE
  5
24B
100
AcDbEntity
  8
00_COMPONENTS_11
100
AcDbLine
 62
7
  6
CONTINUOUS
 10
307.412554689
 20
60.4981539101
 11
309.3867131548
 21
60.4981539101
  0
LINE
  5
24C
100
AcDbEntity
  8
00_COMPONENTS_11
100
AcDbLine
 62
7
  6
CONTINUOUS
 10
310.2141331991
 20
60.4981539101
 11
313.0060116409
 21
60.4981539101
  0
LINE
  5
24D
100
AcDbEntity
  8
00_COMPONENTS_11
100
AcDbLine
 62
7
  6
CONTINUOUS
 10
313.8334317029
 20
60.4981539101
 11
315.807590151
 21
60.4981539101
  0
LINE
  5
24E
100
AcDbEntity
  8
00_COMPONENTS_11
100
AcDbLine
 62
7
  6
CONTINUOUS
 10
176.4897115785
 20
60.8155187279
 11
316.7304332615
 21
60.8155187279
  0
LINE
  5
24F
100
AcDbEntity
  8
PART
100
AcDbLine
 62
7
  6
CONTINUOUS
 10
335.4201115992
 20
61.8155187278
 11
158.9621115992
 21
61.8155187278
  0
LINE
  5
250
100
AcDbEntity
  8
PART
100
AcDbLine
 62
7
  6
CONTINUOUS
 10
157.6204708127
 20
63.0155187279
 11
335.4201115992
 21
63.0155187279
  0
LINE
  5
251
100
AcDbEntity
  8
PART_1
100
AcDbLine
 62
7
  6
CONTINUOUS
 10
357.6201115992
 20
64.0155187279
 11
343.6201115992
 21
64.0155187279
  0
LINE
  5
252
100
AcDbEntity
  8
00_COMPONENTS_11
100
AcDbLine
 62
7
  6
CONTINUOUS
 10
181.4323847983
 20
58.8492068777
 11
181.7849316705
 21
58.849213004
  0
LINE
  5
253
100
AcDbEntity
  8
00_COMPONENTS_11
100
AcDbLine
 62
7
  6
CONTINUOUS
 10
246.4323847983
 20
58.8492068777
 11
246.7849316705
 21
58.849213004
  0
LINE
  5
254
100
AcDbEntity
  8
00_COMPONENTS_11
100
AcDbLine
 62
7
  6
CONTINUOUS
 10
311.4323847983
 20
58.8492068777
 11
311.7849316705
 21
58.849213004
  0
LINE
  5
255
100
AcDbEntity
  8
00_COMPONENTS_11
100
AcDbLine
 62
7
  6
CONTINUOUS
 10
181.7849316705
 20
58.849213004
 11
182.12507242
 21
58.8477503536
  0
LINE
  5
256
100
AcDbEntity
  8
00_COMPONENTS_11
100
AcDbLine
 62
7
  6
CONTINUOUS
 10
246.7849316705
 20
58.849213004
 11
247.12507242
 21
58.8477503535
  0
LINE
  5
257
100
AcDbEntity
  8
00_COMPONENTS_11
100
AcDbLine
 62
7
  6
CONTINUOUS
 10
311.7849316705
 20
58.849213004
 11
312.12507242
 21
58.8477503536
  0
LINE
  5
258
100
AcDbEntity
  8
00_COMPONENTS_11
100
AcDbLine
 62
7
  6
CONTINUOUS
 10
179.0646843683
 20
58.8494778634
 11
179.0943225598
 21
58.8486299051
  0
LINE
  5
259
100
AcDbEntity
  8
00_COMPONENTS_11
100
AcDbLine
 62
7
  6
CONTINUOUS
 10
179.0598778039
 20
58.859137994
 11
179.003826908
 21
58.8607445925
  0
LINE
  5
25A
100
AcDbEntity
  8
00_COMPONENTS_11
100
AcDbLine
 62
7
  6
CONTINUOUS
 10
244.0646843683
 20
58.8494778634
 11
244.0943225598
 21
58.8486299051
  0
LINE
  5
25B
100
AcDbEntity
  8
00_COMPONENTS_11
100
AcDbLine
 62
7
  6
CONTINUOUS
 10
244.0598778039
 20
58.859137994
 11
244.003826908
 21
58.8607445924
  0
LINE
  5
25C
100
AcDbEntity
  8
00_COMPONENTS_11
100
AcDbLine
 62
7
  6
CONTINUOUS
 10
309.0646843683
 20
58.8494778634
 11
309.0943225106
 21
58.8486299201
  0
LINE
  5
25D
100
AcDbEntity
  8
00_COMPONENTS_11
100
AcDbLine
 62
7
  6
CONTINUOUS
 10
309.0598778039
 20
58.859137994
 11
309.0038254568
 21
58.8607440551
  0
LINE
  5
25E
100
AcDbEntity
  8
00_COMPONENTS_11
100
AcDbLine
 62
7
  6
CONTINUOUS
 10
180.948803688
 20
58.4867532896
 11
180.9574803445
 21
58.4860225853
  0
LINE
  5
25F
100
AcDbEntity
  8
00_COMPONENTS_11
100
AcDbLine
 62
7
  6
CONTINUOUS
 10
245.948803688
 20
58.4867532896
 11
245.9574803445
 21
58.4860225853
  0
LINE
  5
260
100
AcDbEntity
  8
00_COMPONENTS_11
100
AcDbLine
 62
7
  6
CONTINUOUS
 10
310.948803688
 20
58.4867532896
 11
310.9574803445
 21
58.4860225853
  0
LINE
  5
261
100
AcDbEntity
  8
00_COMPONENTS_11
100
AcDbLine
 62
7
  6
CONTINUOUS
 10
179.0348040817
 20
58.8525633237
 11
179.0646843683
 21
58.8494778634
  0
LINE
  5
262
100
AcDbEntity
  8
00_COMPONENTS_11
100
AcDbLine
 62
7
  6
CONTINUOUS
 10
244.0348040817
 20
58.8525633237
 11
244.0646843683
 21
58.8494778634
  0
LINE
  5
263
100
AcDbEntity
  8
00_COMPONENTS_11
100
AcDbLine
 62
7
  6
CONTINUOUS
 10
180.792118326
 20
58.5123718404
 11
180.7886096057
 21
58.5130653099
  0
LINE
  5
264
100
AcDbEntity
  8
00_COMPONENTS_11
100
AcDbLine
 62
7
  6
CONTINUOUS
 10
245.792118326
 20
58.5123718404
 11
245.7886096057
 21
58.5130653099
  0
LINE
  5
265
100
AcDbEntity
  8
00_COMPONENTS_11
100
AcDbLine
 62
7
  6
CONTINUOUS
 10
180.7923483509
 20
58.5115909998
 11
180.788834379
 21
58.5123007499
  0
LINE
  5
266
100
AcDbEntity
  8
00_COMPONENTS_11
100
AcDbLine
 62
7
  6
CONTINUOUS
 10
245.7923483509
 20
58.5115909997
 11
245.788834379
 21
58.5123007499
  0
LINE
  5
267
100
AcDbEntity
  8
00_COMPONENTS_11
100
AcDbLine
 62
7
  6
CONTINUOUS
 10
179.003835102
 20
58.8607430444
 11
179.0348040817
 21
58.8525633237
  0
LINE
  5
268
100
AcDbEntity
  8
00_COMPONENTS_11
100
AcDbLine
 62
7
  6
CONTINUOUS
 10
244.003835102
 20
58.8607430444
 11
244.0348040817
 21
58.8525633237
  0
LINE
  5
269
100
AcDbEntity
  8
00_COMPONENTS_11
100
AcDbLine
 62
7
  6
CONTINUOUS
 10
247.4310632874
 20
58.5171536576
 11
247.4259932104
 21
58.5161103021
  0
LINE
  5
26A
100
AcDbEntity
  8
00_COMPONENTS_11
100
AcDbLine
 62
7
  6
CONTINUOUS
 10
182.4310632874
 20
58.5171536576
 11
182.4259932104
 21
58.5161103021
  0
LINE
  5
26B
100
AcDbEntity
  8
00_COMPONENTS_11
100
AcDbLine
 62
7
  6
CONTINUOUS
 10
247.4270128611
 20
58.5114342616
 11
247.4313497443
 21
58.5123099626
  0
LINE
  5
26C
100
AcDbEntity
  8
00_COMPONENTS_11
100
AcDbLine
 62
7
  6
CONTINUOUS
 10
182.4270128611
 20
58.5114342616
 11
182.4313497443
 21
58.5123099626
  0
LINE
  5
26D
100
AcDbEntity
  8
00_COMPONENTS_11
100
AcDbLine
 62
7
  6
CONTINUOUS
 10
247.4272229251
 20
58.5121470512
 11
247.4315526298
 21
58.5130001155
  0
LINE
  5
26E
100
AcDbEntity
  8
00_COMPONENTS_11
100
AcDbLine
 62
7
  6
CONTINUOUS
 10
247.4313917696
 20
58.5182839589
 11
247.4263365473
 21
58.5172882448
  0
LINE
  5
26F
100
AcDbEntity
  8
00_COMPONENTS_11
100
AcDbLine
 62
7
  6
CONTINUOUS
 10
182.4313917696
 20
58.5182839589
 11
182.4263365473
 21
58.5172882448
  0
LINE
  5
270
100
AcDbEntity
  8
00_COMPONENTS_11
100
AcDbLine
 62
7
  6
CONTINUOUS
 10
182.4272229251
 20
58.5121470513
 11
182.4315526298
 21
58.5130001155
  0
LWPOLYLINE
  5
271
100
AcDbEntity
  8
00_COMPONENTS_11
100
AcDbPolyline
 62
7
  6
CONTINUOUS
 90
3
 70
0
 10
184.1554737592
 20
58.849478537
 10
184.1853508275
 20
58.8525646891
 10
184.216315127
 20
58.8607436094
  0
LINE
  5
272
100
AcDbEntity
  8
00_COMPONENTS_11
100
AcDbLine
 62
7
  6
CONTINUOUS
 10
182.2713407456
 20
58.4867532548
 11
182.3200927838
 21
58.4910396328
  0
LINE
  5
273
100
AcDbEntity
  8
00_COMPONENTS_11
100
AcDbLine
 62
7
  6
CONTINUOUS
 10
182.2713402561
 20
58.4867590244
 11
182.2817210734
 21
58.4876401968
  0
LINE
  5
274
100
AcDbEntity
  8
PART_1
100
AcDbLine
 62
7
  6
CONTINUOUS
 10
343.6201115992
 20
70.0155187279
 11
360.1201115992
 21
70.0155187279
  0
LINE
  5
275
100
AcDbEntity
  8
PART
100
AcDbLine
 62
7
  6
CONTINUOUS
 10
343.6201115992
 20
82.1155187278
 11
338.6201115992
 21
82.1155187278
  0
LINE
  5
276
100
AcDbEntity
  8
PART
100
AcDbLine
 62
7
  6
CONTINUOUS
 10
343.6201115992
 20
83.3155187279
 11
338.6201115992
 21
83.3155187279
  0
LINE
  5
277
100
AcDbEntity
  8
00_COMPONENTS_11
100
AcDbLine
 62
7
  6
CONTINUOUS
 10
309.0348040817
 20
58.8525633237
 11
309.0646843683
 21
58.8494778634
  0
LINE
  5
278
100
AcDbEntity
  8
00_COMPONENTS_11
100
AcDbLine
 62
7
  6
CONTINUOUS
 10
310.792118326
 20
58.5123718404
 11
310.7886096057
 21
58.5130653099
  0
LINE
  5
279
100
AcDbEntity
  8
00_COMPONENTS_11
100
AcDbLine
 62
7
  6
CONTINUOUS
 10
310.7923483509
 20
58.5115909998
 11
310.788834379
 21
58.5123007499
  0
LINE
  5
27A
100
AcDbEntity
  8
00_COMPONENTS_11
100
AcDbLine
 62
7
  6
CONTINUOUS
 10
309.003835102
 20
58.8607430444
 11
309.0348040817
 21
58.8525633237
  0
LINE
  5
27B
100
AcDbEntity
  8
0
100
AcDbLine
 62
7
  6
CONTINUOUS
 10
360.9901115992
 20
158.3155187279
 11
360.1201115992
 21
158.3155187279
  0
LINE
  5
27C
100
AcDbEntity
  8
0
100
AcDbLine
 62
7
  6
CONTINUOUS
 10
360.1201115992
 20
198.3155187279
 11
360.9901115992
 21
198.3155187279
  0
LINE
  5
27D
100
AcDbEntity
  8
PART
100
AcDbLine
 62
7
  6
CONTINUOUS
 10
157.6204708127
 20
63.0155187279
 11
157.6121116615
 21
63.1661292976
  0
LINE
  5
27E
100
AcDbEntity
  8
PART
100
AcDbLine
 62
7
  6
CONTINUOUS
 10
157.5121115992
 20
642.7381684262
 11
157.5121115992
 21
630.8928690296
  0
LINE
  5
27F
100
AcDbEntity
  8
PART
100
AcDbLine
 62
7
  6
CONTINUOUS
 10
157.5121115992
 20
92.7381684262
 11
157.5121115992
 21
80.8928690296
  0
LINE
  5
280
100
AcDbEntity
  8
00_COMPONENTS_11
100
AcDbLine
 62
7
  6
CONTINUOUS
 10
182.4313917696
 20
58.5182839589
 11
182.4323518185
 21
58.4867488232
  0
LINE
  5
281
100
AcDbEntity
  8
PART
100
AcDbLine
 62
7
  6
CONTINUOUS
 10
157.6121115992
 20
63.1657183899
 11
157.6121115992
 21
659.6155187279
  0
LINE
  5
282
100
AcDbEntity
  8
PART
100
AcDbLine
 62
7
  6
CONTINUOUS
 10
158.9621115992
 20
661.8155187279
 11
158.9621115992
 21
63.0155187279
  0
LINE
  5
283
100
AcDbEntity
  8
00_COMPONENTS_11
100
AcDbLine
 62
7
  6
CONTINUOUS
 10
176.86007242
 20
60.4155187279
 11
176.86007242
 21
60.1155314295
  0
LINE
  5
284
100
AcDbEntity
  8
00_COMPONENTS_11
100
AcDbLine
 62
7
  6
CONTINUOUS
 10
181.09507242
 20
58.85913973
 11
181.09507242
 21
58.4914178384
  0
LINE
  5
285
100
AcDbEntity
  8
00_COMPONENTS_11
100
AcDbLine
 62
7
  6
CONTINUOUS
 10
181.6100724186
 20
58.8494015276
 11
181.6100724192
 21
58.8607442297
  0
LINE
  5
286
100
AcDbEntity
  8
00_COMPONENTS_11
100
AcDbLine
 62
7
  6
CONTINUOUS
 10
182.12507242
 20
58.4914178384
 11
182.12507242
 21
58.8591397422
  0
LINE
  5
287
100
AcDbEntity
  8
00_COMPONENTS_11
100
AcDbLine
 62
7
  6
CONTINUOUS
 10
186.36007242
 20
60.4155187279
 11
186.36007242
 21
60.1155314295
  0
LINE
  5
288
100
AcDbEntity
  8
00_COMPONENTS_11
100
AcDbLine
 62
7
  6
CONTINUOUS
 10
180.787774717
 20
58.4860225853
 11
180.7879021918
 21
58.4910396328
  0
LINE
  5
289
100
AcDbEntity
  8
00_COMPONENTS_11
100
AcDbLine
 62
7
  6
CONTINUOUS
 10
180.7885729574
 20
58.5130725532
 11
180.7879021918
 21
58.4910396328
  0
LINE
  5
28A
100
AcDbEntity
  8
00_COMPONENTS_11
100
AcDbLine
 62
7
  6
CONTINUOUS
 10
216.61007242
 20
61.8155187278
 11
216.61007242
 21
60.8155187279
  0
LINE
  5
28B
100
AcDbEntity
  8
00_COMPONENTS_11
100
AcDbLine
 62
7
  6
CONTINUOUS
 10
247.4313917696
 20
58.5182839589
 11
247.4323518185
 21
58.4867488232
  0
LINE
  5
28C
100
AcDbEntity
  8
00_COMPONENTS_11
100
AcDbLine
 62
7
  6
CONTINUOUS
 10
241.86007242
 20
60.4155187279
 11
241.86007242
 21
60.1155314295
  0
LINE
  5
28D
100
AcDbEntity
  8
00_COMPONENTS_11
100
AcDbLine
 62
7
  6
CONTINUOUS
 10
246.09507242
 20
58.85913973
 11
246.09507242
 21
58.4914178384
  0
LINE
  5
28E
100
AcDbEntity
  8
00_COMPONENTS_11
100
AcDbLine
 62
7
  6
CONTINUOUS
 10
246.6100724186
 20
58.8494015276
 11
246.6100724192
 21
58.8607442297
  0
LINE
  5
28F
100
AcDbEntity
  8
00_COMPONENTS_11
100
AcDbLine
 62
7
  6
CONTINUOUS
 10
247.12507242
 20
58.4914178384
 11
247.12507242
 21
58.8591397422
  0
LINE
  5
290
100
AcDbEntity
  8
00_COMPONENTS_11
100
AcDbLine
 62
7
  6
CONTINUOUS
 10
251.36007242
 20
60.4155187279
 11
251.36007242
 21
60.1155314295
  0
LINE
  5
291
100
AcDbEntity
  8
00_COMPONENTS_11
100
AcDbLine
 62
7
  6
CONTINUOUS
 10
245.787774717
 20
58.4860225853
 11
245.7879021918
 21
58.4910396328
  0
LINE
  5
292
100
AcDbEntity
  8
00_COMPONENTS_11
100
AcDbLine
 62
7
  6
CONTINUOUS
 10
245.7885729574
 20
58.5130725531
 11
245.7879021918
 21
58.4910396328
  0
LINE
  5
293
100
AcDbEntity
  8
00_COMPONENTS_11
100
AcDbLine
 62
7
  6
CONTINUOUS
 10
276.61007242
 20
60.8155187279
 11
276.61007242
 21
61.8155187278
  0
LINE
  5
294
100
AcDbEntity
  8
00_COMPONENTS_11
100
AcDbLine
 62
7
  6
CONTINUOUS
 10
312.4313917696
 20
58.5182839589
 11
312.4323518185
 21
58.4867488232
  0
LINE
  5
295
100
AcDbEntity
  8
00_COMPONENTS_11
100
AcDbLine
 62
7
  6
CONTINUOUS
 10
306.86007242
 20
60.4155187279
 11
306.86007242
 21
60.1155314295
  0
LINE
  5
296
100
AcDbEntity
  8
00_COMPONENTS_11
100
AcDbLine
 62
7
  6
CONTINUOUS
 10
311.09507242
 20
58.85913973
 11
311.09507242
 21
58.4914178384
  0
LINE
  5
297
100
AcDbEntity
  8
00_COMPONENTS_11
100
AcDbLine
 62
7
  6
CONTINUOUS
 10
311.6100724186
 20
58.8494015276
 11
311.6100724192
 21
58.8607442297
  0
LINE
  5
298
100
AcDbEntity
  8
00_COMPONENTS_11
100
AcDbLine
 62
7
  6
CONTINUOUS
 10
312.12507242
 20
58.4914178384
 11
312.12507242
 21
58.8591397422
  0
LINE
  5
299
100
AcDbEntity
  8
00_COMPONENTS_11
100
AcDbLine
 62
7
  6
CONTINUOUS
 10
316.36007242
 20
60.4155187279
 11
316.36007242
 21
60.1155314295
  0
LINE
  5
29A
100
AcDbEntity
  8
00_COMPONENTS_11
100
AcDbLine
 62
7
  6
CONTINUOUS
 10
310.787774717
 20
58.4860225853
 11
310.7879021918
 21
58.4910396328
  0
LINE
  5
29B
100
AcDbEntity
  8
00_COMPONENTS_11
100
AcDbLine
 62
7
  6
CONTINUOUS
 10
310.7885729574
 20
58.5130725532
 11
310.7879021918
 21
58.4910396328
  0
LINE
  5
29C
100
AcDbEntity
  8
0
100
AcDbLine
 62
7
  6
CONTINUOUS
 10
362.4205816498
 20
526.3641259564
 11
364.5505816498
 21
533.1141259564
  0
LINE
  5
29D
100
AcDbEntity
  8
0
100
AcDbLine
 62
7
  6
CONTINUOUS
 10
364.5505816498
 20
190.5169114994
 11
362.4205816498
 21
197.2669114994
  0
LINE
  5
29E
100
AcDbEntity
  8
PART
100
AcDbLine
 62
7
  6
CONTINUOUS
 10
335.4201115992
 20
61.8155187278
 11
335.4201115992
 21
661.8155187279
  0
LINE
  5
29F
100
AcDbEntity
  8
PART
100
AcDbLine
 62
7
  6
CONTINUOUS
 10
337.6201115992
 20
659.6155187279
 11
337.6201115992
 21
64.0155187279
  0
LINE
  5
2A0
100
AcDbEntity
  8
PART
100
AcDbLine
 62
7
  6
CONTINUOUS
 10
338.6201115992
 20
641.5155187279
 11
338.6201115992
 21
82.1155187278
  0
LINE
  5
2A1
100
AcDbEntity
  8
PART_1
100
AcDbLine
 62
7
  6
CONTINUOUS
 10
343.6201115992
 20
64.0155187279
 11
343.6201115992
 21
659.6155187279
  0
LINE
  5
2A2
100
AcDbEntity
  8
PART_1
100
AcDbLine
 62
7
  6
CONTINUOUS
 10
357.6201115992
 20
64.0155187279
 11
357.6201115992
 21
659.6155187279
  0
LINE
  5
2A3
100
AcDbEntity
  8
PART_1
100
AcDbLine
 62
7
  6
CONTINUOUS
 10
360.1201115992
 20
66.5155187279
 11
360.1201115992
 21
657.1155187279
  0
LINE
  5
2A4
100
AcDbEntity
  8
0
100
AcDbLine
 62
7
  6
CONTINUOUS
 10
364.6201115992
 20
166.5655187211
 11
364.6201115992
 21
190.0655187279
  0
LINE
  5
2A5
100
AcDbEntity
  8
0
100
AcDbLine
 62
7
  6
CONTINUOUS
 10
364.6201115992
 20
533.5655187211
 11
364.6201115992
 21
557.0655187279
  0
LINE
  5
2A6
100
AcDbEntity
  8
00_COMPONENTS_11
100
AcDbLine
 62
7
  6
CONTINUOUS
 10
182.3256844371
 20
58.4974630578
 11
182.3200927838
 21
58.4910396328
  0
LINE
  5
2A7
100
AcDbEntity
  8
0
100
AcDbLine
 62
7
  6
CONTINUOUS
 10
362.4205816498
 20
159.3641259564
 11
364.5505816498
 21
166.1141259564
  0
LINE
  5
2A8
100
AcDbEntity
  8
0
100
AcDbLine
 62
7
  6
CONTINUOUS
 10
360.9901115992
 20
525.3155187279
 11
360.1201115992
 21
525.3155187279
  0
LINE
  5
2A9
100
AcDbEntity
  8
0
100
AcDbLine
 62
7
  6
CONTINUOUS
 10
364.5505816498
 20
557.5169114994
 11
362.4205816498
 21
564.2669114994
  0
LINE
  5
2AA
100
AcDbEntity
  8
00_COMPONENTS_11
100
AcDbLine
 62
7
  6
CONTINUOUS
 10
247.3256844371
 20
58.4974630578
 11
247.3200927838
 21
58.4910396328
  0
LINE
  5
2AB
100
AcDbEntity
  8
0
100
AcDbLine
 62
7
  6
CONTINUOUS
 10
360.1201115992
 20
565.3155187279
 11
360.9901115992
 21
565.3155187279
  0
LINE
  5
2AC
100
AcDbEntity
  8
00_COMPONENTS_11
100
AcDbLine
 62
7
  6
CONTINUOUS
 10
312.3256844371
 20
58.4974630578
 11
312.3200927838
 21
58.4910396328
  0
LINE
  5
2AD
100
AcDbEntity
  8
PART
100
AcDbLine
 62
7
  6
CONTINUOUS
 10
343.6201115992
 20
640.3155187279
 11
338.6201115992
 21
640.3155187279
  0
LINE
  5
2AE
100
AcDbEntity
  8
PART
100
AcDbLine
 62
7
  6
CONTINUOUS
 10
343.6201115992
 20
641.5155187279
 11
338.6201115992
 21
641.5155187279
  0
LINE
  5
2AF
100
AcDbEntity
  8
PART_1
100
AcDbLine
 62
7
  6
CONTINUOUS
 10
360.1201115992
 20
653.6155187279
 11
343.6201115992
 21
653.6155187279
  0
LINE
  5
2B0
100
AcDbEntity
  8
PART
100
AcDbLine
 62
7
  6
CONTINUOUS
 10
337.6201115992
 20
659.6155187279
 11
157.6121115997
 21
659.6155187279
  0
LINE
  5
2B1
100
AcDbEntity
  8
PART_1
100
AcDbLine
 62
7
  6
CONTINUOUS
 10
343.6201115992
 20
659.6155187279
 11
357.6201115992
 21
659.6155187279
  0
LINE
  5
2B2
100
AcDbEntity
  8
PART
100
AcDbLine
 62
7
  6
CONTINUOUS
 10
158.9621115992
 20
661.8155187279
 11
335.4201115992
 21
661.8155187279
  0
ARC
  5
2B3
100
AcDbEntity
  8
00_COMPONENTS_11
100
AcDbCircle
 62
7
  6
CONTINUOUS
 10
61.2051860884
 20
71.2740794896
 40
125.0675020117
100
AcDbArc
 50
355.0572202911
 51
355.203132992
  0
ARC
  5
2B4
100
AcDbEntity
  8
00_COMPONENTS_11
100
AcDbCircle
 62
7
  6
CONTINUOUS
 10
181.6110709643
 20
-24.1349132392
 40
82.9956568562
100
AcDbArc
 50
90.0006893418
 51
90.3562201976
  0
ARC
  5
2B5
100
AcDbEntity
  8
00_COMPONENTS_11
100
AcDbCircle
 62
7
  6
CONTINUOUS
 10
181.6121989025
 20
-23.1323620833
 40
81.9931057218
100
AcDbArc
 50
89.6416079212
 51
90.00148596
  0
ARC
  5
2B6
100
AcDbEntity
  8
00_COMPONENTS_11
100
AcDbCircle
 62
7
  6
CONTINUOUS
 10
181.9045018863
 20
64.0149532728
 40
5.6146147485
100
AcDbArc
 50
254.0861344428
 51
258.5385976064
  0
ARC
  5
2B7
100
AcDbEntity
  8
00_COMPONENTS_11
100
AcDbCircle
 62
7
  6
CONTINUOUS
 10
181.3685219362
 20
63.6656464568
 40
5.2569923059
100
AcDbArc
 50
279.8882347386
 51
281.6045193927
  0
ARC
  5
2B8
100
AcDbEntity
  8
00_COMPONENTS_11
100
AcDbCircle
 62
7
  6
CONTINUOUS
 10
181.8273034799
 20
63.6429907236
 40
5.2347297203
100
AcDbArc
 50
258.5969587537
 51
259.7971010485
  0
ARC
  5
2B9
100
AcDbEntity
  8
00_COMPONENTS_11
100
AcDbCircle
 62
7
  6
CONTINUOUS
 10
181.3935531748
 20
63.6389444802
 40
5.2306213747
100
AcDbArc
 50
280.2030760859
 51
281.3954071109
  0
ARC
  5
2BA
100
AcDbEntity
  8
00_COMPONENTS_11
100
AcDbCircle
 62
7
  6
CONTINUOUS
 10
176.4897115785
 20
65.3155187279
 40
4.5
100
AcDbArc
 50
232.7886697418
 51
270.0
  0
ARC
  5
2BB
100
AcDbEntity
  8
00_COMPONENTS_11
100
AcDbCircle
 62
7
  6
CONTINUOUS
 10
180.8718687323
 20
62.4246929935
 40
3.9396031948
100
AcDbArc
 50
272.5861162527
 51
273.2479111092
  0
ARC
  5
2BC
100
AcDbEntity
  8
00_COMPONENTS_11
100
AcDbCircle
 62
7
  6
CONTINUOUS
 10
182.3482736514
 20
62.4246309525
 40
3.9395411143
100
AcDbArc
 50
266.7520734361
 51
267.4190714765
  0
ARC
  5
2BD
100
AcDbEntity
  8
00_COMPONENTS_11
100
AcDbCircle
 62
7
  6
CONTINUOUS
 10
180.872106917
 20
62.419503634
 40
3.9344083733
100
AcDbArc
 50
272.2516087454
 51
272.5860610095
  0
ARC
  5
2BE
100
AcDbEntity
  8
00_COMPONENTS_11
100
AcDbCircle
 62
7
  6
CONTINUOUS
 10
182.3479450763
 20
62.4173369766
 40
3.9322397413
100
AcDbArc
 50
267.4190684262
 51
268.0878842461
  0
ARC
  5
2BF
100
AcDbEntity
  8
00_COMPONENTS_11
100
AcDbCircle
 62
7
  6
CONTINUOUS
 10
180.872274908
 20
62.415234368
 40
3.9301358035
100
AcDbArc
 50
271.917354063
 51
272.2516068366
  0
ARC
  5
2C0
100
AcDbEntity
  8
00_COMPONENTS_11
100
AcDbCircle
 62
7
  6
CONTINUOUS
 10
182.3477215982
 20
62.4107066842
 40
3.9256056841
100
AcDbArc
 50
268.0879152445
 51
268.758460529
  0
ARC
  5
2C1
100
AcDbEntity
  8
00_COMPONENTS_11
100
AcDbCircle
 62
7
  6
CONTINUOUS
 10
180.8724241517
 20
62.4106968687
 40
3.9255958512
100
AcDbArc
 50
271.2415292977
 51
271.9173928144
  0
ARC
  5
2C2
100
AcDbEntity
  8
00_COMPONENTS_11
100
AcDbCircle
 62
7
  6
CONTINUOUS
 10
180.8725073761
 20
62.3908194299
 40
3.9057160702
100
AcDbArc
 50
268.0900379459
 51
268.7568976937
  0
ARC
  5
2C3
100
AcDbEntity
  8
00_COMPONENTS_11
100
AcDbCircle
 62
7
  6
CONTINUOUS
 10
182.3476405934
 20
62.3907418939
 40
3.9056384847
100
AcDbArc
 50
271.2430810842
 51
271.9159098014
  0
ARC
  5
2C4
100
AcDbEntity
  8
00_COMPONENTS_11
100
AcDbCircle
 62
7
  6
CONTINUOUS
 10
180.8724635884
 20
62.3894827522
 40
3.9043786757
100
AcDbArc
 50
267.7539199743
 51
268.0900264013
  0
ARC
  5
2C5
100
AcDbEntity
  8
00_COMPONENTS_11
100
AcDbCircle
 62
7
  6
CONTINUOUS
 10
182.3477005776
 20
62.3888837781
 40
3.9037794021
100
AcDbArc
 50
271.9159416665
 51
272.5880041571
  0
ARC
  5
2C6
100
AcDbEntity
  8
00_COMPONENTS_11
100
AcDbCircle
 62
7
  6
CONTINUOUS
 10
182.3477538421
 20
62.3877086833
 40
3.9026031007
100
AcDbArc
 50
272.5880019542
 51
273.2592020835
  0
ARC
  5
2C7
100
AcDbEntity
  8
00_COMPONENTS_11
100
AcDbCircle
 62
7
  6
CONTINUOUS
 10
180.8723901654
 20
62.3876682914
 40
3.9025627268
100
AcDbArc
 50
266.7407764046
 51
267.753918072
  0
ARC
  5
2C8
100
AcDbEntity
  8
00_COMPONENTS_11
100
AcDbCircle
 62
7
  6
CONTINUOUS
 10
181.8134313383
 20
61.4849166219
 40
3.0613841167
100
AcDbArc
 50
281.6638921523
 51
284.1908434786
  0
ARC
  5
2C9
100
AcDbEntity
  8
PART
100
AcDbCircle
 62
7
  6
CONTINUOUS
 10
158.9621115992
 20
63.167557907
 40
1.3520391791
100
AcDbArc
 50
177.3333979195
 51
270.0
  0
ARC
  5
2CA
100
AcDbEntity
  8
00_COMPONENTS_11
100
AcDbCircle
 62
7
  6
CONTINUOUS
 10
186.16007242
 20
60.1155314295
 40
0.2
100
AcDbArc
 50
306.4919987416
 51
360.0
  0
ARC
  5
2CB
100
AcDbEntity
  8
00_COMPONENTS_11
100
AcDbCircle
 62
7
  6
CONTINUOUS
 10
177.06007242
 20
60.1155314295
 40
0.2
100
AcDbArc
 50
180.0
 51
233.5080012584
  0
ARC
  5
2CC
100
AcDbEntity
  8
00_COMPONENTS_11
100
AcDbCircle
 62
7
  6
CONTINUOUS
 10
183.9248014052
 20
60.5022769032
 40
0.0867582071
100
AcDbArc
 50
257.2508912724
 51
269.9509771392
  0
ARC
  5
2CD
100
AcDbEntity
  8
00_COMPONENTS_11
100
AcDbCircle
 62
7
  6
CONTINUOUS
 10
179.2953416839
 20
60.5022509693
 40
0.0867322747
100
AcDbArc
 50
270.050194176
 51
282.7297754112
  0
ARC
  5
2CE
100
AcDbEntity
  8
00_COMPONENTS_11
100
AcDbCircle
 62
7
  6
CONTINUOUS
 10
191.2051860276
 20
71.2740794948
 40
125.0675020727
100
AcDbArc
 50
355.0572202911
 51
355.203132992
  0
ARC
  5
2CF
100
AcDbEntity
  8
00_COMPONENTS_11
100
AcDbCircle
 62
7
  6
CONTINUOUS
 10
181.61007242
 20
66.2662999779
 40
7.85078125
100
AcDbArc
 50
233.5080024173
 51
250.6115024233
  0
ARC
  5
2D0
100
AcDbEntity
  8
00_COMPONENTS_11
100
AcDbCircle
 62
7
  6
CONTINUOUS
 10
181.61007242
 20
66.2662999779
 40
7.85078125
100
AcDbArc
 50
289.3885360562
 51
306.4919975871
  0
ARC
  5
2D1
100
AcDbEntity
  8
00_COMPONENTS_11
100
AcDbCircle
 62
7
  6
CONTINUOUS
 10
181.61007242
 20
66.2662999779
 40
7.8338714079
100
AcDbArc
 50
277.035724314
 51
288.9980033473
  0
ARC
  5
2D2
100
AcDbEntity
  8
00_COMPONENTS_11
100
AcDbCircle
 62
7
  6
CONTINUOUS
 10
181.61007242
 20
66.2662999779
 40
7.8338714079
100
AcDbArc
 50
251.0020106811
 51
262.964275686
  0
ARC
  5
2D3
100
AcDbEntity
  8
00_COMPONENTS_11
100
AcDbCircle
 62
7
  6
CONTINUOUS
 10
181.6104621757
 20
66.2916528525
 40
7.832895323
100
AcDbArc
 50
264.7963671122
 51
265.1543500503
  0
ARC
  5
2D4
100
AcDbEntity
  8
00_COMPONENTS_11
100
AcDbCircle
 62
7
  6
CONTINUOUS
 10
245.8718687323
 20
62.4246929932
 40
3.9396031944
100
AcDbArc
 50
272.5861162526
 51
273.2479111092
  0
ARC
  5
2D5
100
AcDbEntity
  8
00_COMPONENTS_11
100
AcDbCircle
 62
7
  6
CONTINUOUS
 10
245.8721069169
 20
62.4195036366
 40
3.9344083759
100
AcDbArc
 50
272.2516087455
 51
272.5860610094
  0
ARC
  5
2D6
100
AcDbEntity
  8
00_COMPONENTS_11
100
AcDbCircle
 62
7
  6
CONTINUOUS
 10
245.8722749081
 20
62.4152343666
 40
3.930135802
100
AcDbArc
 50
271.917354063
 51
272.2516068366
  0
ARC
  5
2D7
100
AcDbEntity
  8
00_COMPONENTS_11
100
AcDbCircle
 62
7
  6
CONTINUOUS
 10
245.8724241517
 20
62.4106968686
 40
3.9255958511
100
AcDbArc
 50
271.2415292977
 51
271.9173928144
  0
ARC
  5
2D8
100
AcDbEntity
  8
00_COMPONENTS_11
100
AcDbCircle
 62
7
  6
CONTINUOUS
 10
245.8725073761
 20
62.3908194299
 40
3.9057160703
100
AcDbArc
 50
268.0900379459
 51
268.7568976937
  0
ARC
  5
2D9
100
AcDbEntity
  8
00_COMPONENTS_11
100
AcDbCircle
 62
7
  6
CONTINUOUS
 10
245.8724635884
 20
62.3894827526
 40
3.9043786762
100
AcDbArc
 50
267.7539199744
 51
268.0900264013
  0
ARC
  5
2DA
100
AcDbEntity
  8
00_COMPONENTS_11
100
AcDbCircle
 62
7
  6
CONTINUOUS
 10
245.8723901655
 20
62.3876682932
 40
3.9025627286
100
AcDbArc
 50
266.7407764048
 51
267.7539180719
  0
ARC
  5
2DB
100
AcDbEntity
  8
00_COMPONENTS_11
100
AcDbCircle
 62
7
  6
CONTINUOUS
 10
242.06007242
 20
60.1155314295
 40
0.2
100
AcDbArc
 50
180.0
 51
233.5080012584
  0
ARC
  5
2DC
100
AcDbEntity
  8
00_COMPONENTS_11
100
AcDbCircle
 62
7
  6
CONTINUOUS
 10
244.2953416839
 20
60.5022509693
 40
0.0867322747
100
AcDbArc
 50
270.050194176
 51
282.7297754112
  0
ARC
  5
2DD
100
AcDbEntity
  8
PART
100
AcDbCircle
 62
7
  6
CONTINUOUS
 10
158.9621115992
 20
660.4634795488
 40
1.3520391791
100
AcDbArc
 50
90.0
 51
218.8417685855
  0
ARC
  5
2DE
100
AcDbEntity
  8
PART
100
AcDbCircle
 62
7
  6
CONTINUOUS
 10
158.9621115992
 20
660.4634795488
 40
0.1520391791
100
AcDbArc
 50
115.5791157074
 51
230.7832344747
  0
ARC
  5
2DF
100
AcDbEntity
  8
00_COMPONENTS_11
100
AcDbCircle
 62
7
  6
CONTINUOUS
 10
246.6110709643
 20
-24.1349132392
 40
82.9956568562
100
AcDbArc
 50
90.0006893418
 51
90.3562201976
  0
ARC
  5
2E0
100
AcDbEntity
  8
00_COMPONENTS_11
100
AcDbCircle
 62
7
  6
CONTINUOUS
 10
246.6121989025
 20
-23.13236208
 40
81.9931057185
100
AcDbArc
 50
89.6416079212
 51
90.00148596
  0
ARC
  5
2E1
100
AcDbEntity
  8
00_COMPONENTS_11
100
AcDbCircle
 62
7
  6
CONTINUOUS
 10
246.61007242
 20
66.2662999779
 40
7.85078125
100
AcDbArc
 50
233.5080024173
 51
250.6115024233
  0
ARC
  5
2E2
100
AcDbEntity
  8
00_COMPONENTS_11
100
AcDbCircle
 62
7
  6
CONTINUOUS
 10
246.61007242
 20
66.2662999779
 40
7.85078125
100
AcDbArc
 50
289.3885360562
 51
306.4919975871
  0
ARC
  5
2E3
100
AcDbEntity
  8
00_COMPONENTS_11
100
AcDbCircle
 62
7
  6
CONTINUOUS
 10
246.61007242
 20
66.2662999779
 40
7.8338714079
100
AcDbArc
 50
277.035724314
 51
288.9980033473
  0
ARC
  5
2E4
100
AcDbEntity
  8
00_COMPONENTS_11
100
AcDbCircle
 62
7
  6
CONTINUOUS
 10
246.61007242
 20
66.2662999779
 40
7.8338714079
100
AcDbArc
 50
251.0020106811
 51
262.964275686
  0
ARC
  5
2E5
100
AcDbEntity
  8
00_COMPONENTS_11
100
AcDbCircle
 62
7
  6
CONTINUOUS
 10
246.6104621756
 20
66.2916528512
 40
7.8328953218
100
AcDbArc
 50
264.7963671121
 51
265.1543500504
  0
ARC
  5
2E6
100
AcDbEntity
  8
00_COMPONENTS_11
100
AcDbCircle
 62
7
  6
CONTINUOUS
 10
246.9045018863
 20
64.0149532728
 40
5.6146147485
100
AcDbArc
 50
254.0861344428
 51
258.5385976064
  0
ARC
  5
2E7
100
AcDbEntity
  8
00_COMPONENTS_11
100
AcDbCircle
 62
7
  6
CONTINUOUS
 10
246.3685219362
 20
63.6656464567
 40
5.2569923058
100
AcDbArc
 50
279.8882347386
 51
281.6045193927
  0
ARC
  5
2E8
100
AcDbEntity
  8
00_COMPONENTS_11
100
AcDbCircle
 62
7
  6
CONTINUOUS
 10
246.8273034799
 20
63.6429907236
 40
5.2347297203
100
AcDbArc
 50
258.5969587537
 51
259.7971010485
  0
ARC
  5
2E9
100
AcDbEntity
  8
00_COMPONENTS_11
100
AcDbCircle
 62
7
  6
CONTINUOUS
 10
246.3935531749
 20
63.63894448
 40
5.2306213745
100
AcDbArc
 50
280.2030760859
 51
281.3954071109
  0
ARC
  5
2EA
100
AcDbEntity
  8
00_COMPONENTS_11
100
AcDbCircle
 62
7
  6
CONTINUOUS
 10
247.3482736514
 20
62.4246309525
 40
3.9395411143
100
AcDbArc
 50
266.7520734361
 51
267.4190714765
  0
ARC
  5
2EB
100
AcDbEntity
  8
00_COMPONENTS_11
100
AcDbCircle
 62
7
  6
CONTINUOUS
 10
247.3479450763
 20
62.4173369773
 40
3.9322397421
100
AcDbArc
 50
267.4190684262
 51
268.087884246
  0
ARC
  5
2EC
100
AcDbEntity
  8
00_COMPONENTS_11
100
AcDbCircle
 62
7
  6
CONTINUOUS
 10
247.3477215982
 20
62.4107066842
 40
3.9256056841
100
AcDbArc
 50
268.0879152445
 51
268.758460529
  0
ARC
  5
2ED
100
AcDbEntity
  8
00_COMPONENTS_11
100
AcDbCircle
 62
7
  6
CONTINUOUS
 10
247.3476405934
 20
62.3907418939
 40
3.9056384847
100
AcDbArc
 50
271.2430810842
 51
271.9159098014
  0
ARC
  5
2EE
100
AcDbEntity
  8
00_COMPONENTS_11
100
AcDbCircle
 62
7
  6
CONTINUOUS
 10
247.3477005776
 20
62.388883778
 40
3.9037794021
100
AcDbArc
 50
271.9159416665
 51
272.5880041571
  0
ARC
  5
2EF
100
AcDbEntity
  8
00_COMPONENTS_11
100
AcDbCircle
 62
7
  6
CONTINUOUS
 10
247.3477538421
 20
62.3877086833
 40
3.9026031007
100
AcDbArc
 50
272.5880019542
 51
273.2592020835
  0
ARC
  5
2F0
100
AcDbEntity
  8
00_COMPONENTS_11
100
AcDbCircle
 62
7
  6
CONTINUOUS
 10
246.8134313383
 20
61.4849166218
 40
3.0613841167
100
AcDbArc
 50
281.6638921522
 51
284.1908434786
  0
ARC
  5
2F1
100
AcDbEntity
  8
00_COMPONENTS_11
100
AcDbCircle
 62
7
  6
CONTINUOUS
 10
251.16007242
 20
60.1155314295
 40
0.2
100
AcDbArc
 50
306.4919987416
 51
360.0
  0
ARC
  5
2F2
100
AcDbEntity
  8
00_COMPONENTS_11
100
AcDbCircle
 62
7
  6
CONTINUOUS
 10
248.9248014052
 20
60.5022769032
 40
0.0867582071
100
AcDbArc
 50
257.2508912724
 51
269.9509771393
  0
ARC
  5
2F3
100
AcDbEntity
  8
00_COMPONENTS_11
100
AcDbCircle
 62
7
  6
CONTINUOUS
 10
311.6110709643
 20
-24.1349132392
 40
82.9956568562
100
AcDbArc
 50
90.0006893418
 51
90.3562201976
  0
ARC
  5
2F4
100
AcDbEntity
  8
00_COMPONENTS_11
100
AcDbCircle
 62
7
  6
CONTINUOUS
 10
311.6121989025
 20
-23.13236208
 40
81.9931057185
100
AcDbArc
 50
89.6416079212
 51
90.00148596
  0
ARC
  5
2F5
100
AcDbEntity
  8
00_COMPONENTS_11
100
AcDbCircle
 62
7
  6
CONTINUOUS
 10
311.9045018862
 20
64.0149532727
 40
5.6146147485
100
AcDbArc
 50
254.0861344428
 51
258.5385976064
  0
ARC
  5
2F6
100
AcDbEntity
  8
00_COMPONENTS_11
100
AcDbCircle
 62
7
  6
CONTINUOUS
 10
311.3685219362
 20
63.6656464568
 40
5.2569923059
100
AcDbArc
 50
279.8882347386
 51
281.6045193927
  0
ARC
  5
2F7
100
AcDbEntity
  8
00_COMPONENTS_11
100
AcDbCircle
 62
7
  6
CONTINUOUS
 10
311.8273034799
 20
63.6429907234
 40
5.2347297202
100
AcDbArc
 50
258.5969587536
 51
259.7971010485
  0
ARC
  5
2F8
100
AcDbEntity
  8
00_COMPONENTS_11
100
AcDbCircle
 62
7
  6
CONTINUOUS
 10
311.3935531749
 20
63.63894448
 40
5.2306213744
100
AcDbArc
 50
280.2030760859
 51
281.3954071109
  0
ARC
  5
2F9
100
AcDbEntity
  8
00_COMPONENTS_11
100
AcDbCircle
 62
7
  6
CONTINUOUS
 10
316.7304332615
 20
65.3155187279
 40
4.5
100
AcDbArc
 50
270.0
 51
307.2113302582
  0
ARC
  5
2FA
100
AcDbEntity
  8
00_COMPONENTS_11
100
AcDbCircle
 62
7
  6
CONTINUOUS
 10
310.8718687323
 20
62.4246929936
 40
3.9396031949
100
AcDbArc
 50
272.5861162527
 51
273.2479111092
  0
ARC
  5
2FB
100
AcDbEntity
  8
00_COMPONENTS_11
100
AcDbCircle
 62
7
  6
CONTINUOUS
 10
312.3482736514
 20
62.4246309524
 40
3.9395411141
100
AcDbArc
 50
266.7520734361
 51
267.4190714765
  0
ARC
  5
2FC
100
AcDbEntity
  8
00_COMPONENTS_11
100
AcDbCircle
 62
7
  6
CONTINUOUS
 10
310.8721069168
 20
62.4195036376
 40
3.9344083769
100
AcDbArc
 50
272.2516087455
 51
272.5860610093
  0
ARC
  5
2FD
100
AcDbEntity
  8
00_COMPONENTS_11
100
AcDbCircle
 62
7
  6
CONTINUOUS
 10
312.3479450763
 20
62.4173369773
 40
3.932239742
100
AcDbArc
 50
267.4190684262
 51
268.087884246
  0
ARC
  5
2FE
100
AcDbEntity
  8
00_COMPONENTS_11
100
AcDbCircle
 62
7
  6
CONTINUOUS
 10
310.8722749081
 20
62.4152343646
 40
3.9301358001
100
AcDbArc
 50
271.9173540629
 51
272.2516068366
  0
ARC
  5
2FF
100
AcDbEntity
  8
00_COMPONENTS_11
100
AcDbCircle
 62
7
  6
CONTINUOUS
 10
312.3477215982
 20
62.4107066834
 40
3.9256056833
100
AcDbArc
 50
268.0879152445
 51
268.758460529
  0
ARC
  5
300
100
AcDbEntity
  8
00_COMPONENTS_11
100
AcDbCircle
 62
7
  6
CONTINUOUS
 10
310.8724241517
 20
62.4106968688
 40
3.9255958513
100
AcDbArc
 50
271.2415292977
 51
271.9173928144
  0
ARC
  5
301
100
AcDbEntity
  8
00_COMPONENTS_11
100
AcDbCircle
 62
7
  6
CONTINUOUS
 10
310.8725073761
 20
62.3908194302
 40
3.9057160705
100
AcDbArc
 50
268.0900379459
 51
268.7568976937
  0
ARC
  5
302
100
AcDbEntity
  8
00_COMPONENTS_11
100
AcDbCircle
 62
7
  6
CONTINUOUS
 10
312.3476405934
 20
62.3907418941
 40
3.9056384848
100
AcDbArc
 50
271.2430810842
 51
271.9159098014
  0
ARC
  5
303
100
AcDbEntity
  8
00_COMPONENTS_11
100
AcDbCircle
 62
7
  6
CONTINUOUS
 10
310.8724635884
 20
62.389482753
 40
3.9043786766
100
AcDbArc
 50
267.7539199743
 51
268.0900264013
  0
ARC
  5
304
100
AcDbEntity
  8
00_COMPONENTS_11
100
AcDbCircle
 62
7
  6
CONTINUOUS
 10
312.3477005777
 20
62.3888837778
 40
3.9037794018
100
AcDbArc
 50
271.9159416664
 51
272.5880041571
  0
ARC
  5
305
100
AcDbEntity
  8
00_COMPONENTS_11
100
AcDbCircle
 62
7
  6
CONTINUOUS
 10
312.3477538421
 20
62.3877086829
 40
3.9026031004
100
AcDbArc
 50
272.5880019542
 51
273.2592020835
  0
ARC
  5
306
100
AcDbEntity
  8
00_COMPONENTS_11
100
AcDbCircle
 62
7
  6
CONTINUOUS
 10
310.8723901655
 20
62.3876682924
 40
3.9025627278
100
AcDbArc
 50
266.7407764047
 51
267.753918072
  0
ARC
  5
307
100
AcDbEntity
  8
00_COMPONENTS_11
100
AcDbCircle
 62
7
  6
CONTINUOUS
 10
311.8134313383
 20
61.4849166218
 40
3.0613841166
100
AcDbArc
 50
281.6638921522
 51
284.1908434786
  0
ARC
  5
308
100
AcDbEntity
  8
00_COMPONENTS_11
100
AcDbCircle
 62
7
  6
CONTINUOUS
 10
316.16007242
 20
60.1155314295
 40
0.2
100
AcDbArc
 50
306.4919987416
 51
360.0
  0
ARC
  5
309
100
AcDbEntity
  8
00_COMPONENTS_11
100
AcDbCircle
 62
7
  6
CONTINUOUS
 10
307.06007242
 20
60.1155314295
 40
0.2
100
AcDbArc
 50
180.0
 51
233.5080012584
  0
ARC
  5
30A
100
AcDbEntity
  8
00_COMPONENTS_11
100
AcDbCircle
 62
7
  6
CONTINUOUS
 10
313.9248014052
 20
60.5022769032
 40
0.0867582071
100
AcDbArc
 50
257.2508912723
 51
269.9509771392
  0
ARC
  5
30B
100
AcDbEntity
  8
00_COMPONENTS_11
100
AcDbCircle
 62
7
  6
CONTINUOUS
 10
309.2953416839
 20
60.5022509693
 40
0.0867322747
100
AcDbArc
 50
270.0501941761
 51
282.7297754111
  0
ARC
  5
30C
100
AcDbEntity
  8
00_COMPONENTS_11
100
AcDbCircle
 62
7
  6
CONTINUOUS
 10
301.4990021001
 20
71.2303296934
 40
124.5496945629
100
AcDbArc
 50
184.7966598129
 51
184.9431791265
  0
ARC
  5
30D
100
AcDbEntity
  8
00_COMPONENTS_11
100
AcDbCircle
 62
7
  6
CONTINUOUS
 10
311.61007242
 20
66.2662999779
 40
7.85078125
100
AcDbArc
 50
233.5080024173
 51
250.6115024233
  0
ARC
  5
30E
100
AcDbEntity
  8
00_COMPONENTS_11
100
AcDbCircle
 62
7
  6
CONTINUOUS
 10
311.61007242
 20
66.2662999779
 40
7.85078125
100
AcDbArc
 50
289.3885360562
 51
306.4919975871
  0
ARC
  5
30F
100
AcDbEntity
  8
00_COMPONENTS_11
100
AcDbCircle
 62
7
  6
CONTINUOUS
 10
311.61007242
 20
66.2662999779
 40
7.8338714079
100
AcDbArc
 50
277.035724314
 51
288.9980033473
  0
ARC
  5
310
100
AcDbEntity
  8
00_COMPONENTS_11
100
AcDbCircle
 62
7
  6
CONTINUOUS
 10
311.61007242
 20
66.2662999779
 40
7.8338714079
100
AcDbArc
 50
251.0020106811
 51
262.964275686
  0
ARC
  5
311
100
AcDbEntity
  8
00_COMPONENTS_11
100
AcDbCircle
 62
7
  6
CONTINUOUS
 10
311.6104621755
 20
66.2916528508
 40
7.8328953214
100
AcDbArc
 50
264.7963671121
 51
265.1543500504
  0
ARC
  5
312
100
AcDbEntity
  8
PART
100
AcDbCircle
 62
7
  6
CONTINUOUS
 10
335.4201115992
 20
64.0155187278
 40
2.2
100
AcDbArc
 50
270.0
 51
360.0
  0
ARC
  5
313
100
AcDbEntity
  8
00_COMPONENTS_11
100
AcDbCircle
 62
7
  6
CONTINUOUS
 10
366.4990021899
 20
71.2303297011
 40
124.549694653
100
AcDbArc
 50
184.796659813
 51
184.9431791265
  0
ARC
  5
314
100
AcDbEntity
  8
00_COMPONENTS_11
100
AcDbCircle
 62
7
  6
CONTINUOUS
 10
431.4990020986
 20
71.2303296933
 40
124.5496945614
100
AcDbArc
 50
184.7966598129
 51
184.9431791265
  0
ARC
  5
315
100
AcDbEntity
  8
PART_1
100
AcDbCircle
 62
7
  6
CONTINUOUS
 10
357.6201115992
 20
66.5155187279
 40
2.5
100
AcDbArc
 50
270.0
 51
359.9999999998
  0
ARC
  5
316
100
AcDbEntity
  8
0
100
AcDbCircle
 62
7
  6
CONTINUOUS
 10
363.1201115992
 20
190.0655187279
 40
1.5
100
AcDbArc
 50
0.0
 51
17.5133803758
  0
ARC
  5
317
100
AcDbEntity
  8
0
100
AcDbCircle
 62
7
  6
CONTINUOUS
 10
363.1201115992
 20
166.5655187279
 40
1.5
100
AcDbArc
 50
342.4866196242
 51
359.9999998695
  0
ARC
  5
318
100
AcDbEntity
  8
0
100
AcDbCircle
 62
7
  6
CONTINUOUS
 10
360.9901115992
 20
159.8155187279
 40
1.5
100
AcDbArc
 50
270.0
 51
342.4866196243
  0
ARC
  5
319
100
AcDbEntity
  8
0
100
AcDbCircle
 62
7
  6
CONTINUOUS
 10
360.9901115992
 20
196.8155187279
 40
1.5
100
AcDbArc
 50
17.5133803758
 51
90.0
  0
ARC
  5
31A
100
AcDbEntity
  8
PART_1
100
AcDbCircle
 62
7
  6
CONTINUOUS
 10
357.6201115992
 20
657.1155187279
 40
2.5
100
AcDbArc
 50
0.0000000002
 51
90.0
  0
ARC
  5
31B
100
AcDbEntity
  8
PART
100
AcDbCircle
 62
7
  6
CONTINUOUS
 10
335.4201115992
 20
659.6155187279
 40
2.2
100
AcDbArc
 50
0.0000000002
 51
90.0
  0
ARC
  5
31C
100
AcDbEntity
  8
0
100
AcDbCircle
 62
7
  6
CONTINUOUS
 10
363.1201115992
 20
557.0655187279
 40
1.5
100
AcDbArc
 50
0.0
 51
17.5133803758
  0
ARC
  5
31D
100
AcDbEntity
  8
0
100
AcDbCircle
 62
7
  6
CONTINUOUS
 10
363.1201115992
 20
533.5655187279
 40
1.5
100
AcDbArc
 50
342.4866196242
 51
359.9999998695
  0
ARC
  5
31E
100
AcDbEntity
  8
0
100
AcDbCircle
 62
7
  6
CONTINUOUS
 10
360.9901115992
 20
526.8155187279
 40
1.5
100
AcDbArc
 50
270.0
 51
342.4866196243
  0
ARC
  5
31F
100
AcDbEntity
  8
0
100
AcDbCircle
 62
7
  6
CONTINUOUS
 10
360.9901115992
 20
563.8155187279
 40
1.5
100
AcDbArc
 50
17.5133803758
 51
90.0
  0
ARC
  5
320
100
AcDbEntity
  8
PART
100
AcDbCircle
 62
7
  6
CONTINUOUS
 10
335.4201115992
 20
659.6155187279
 40
1.0
100
AcDbArc
 50
0.0000000005
 51
90.0
  0
ARC
  5
321
100
AcDbEntity
  8
PART
100
AcDbCircle
 62
7
  6
CONTINUOUS
 10
338.6201115992
 20
642.5155187279
 40
1.0
100
AcDbArc
 50
180.0
 51
270.0
  0
SPLINE
  5
322
100
AcDbEntity
  8
00_COMPONENTS_11
100
AcDbSpline
 62
7
  6
CONTINUOUS
 70
0
 71
3
 72
9
 73
5
 74
0
 42
0.0000001
 43
0.0000001
 44
0.0000000001
 40
0.0
 40
0.0
 40
0.0
 40
0.0
 40
0.2550960217
 40
1.0
 40
1.0
 40
1.0
 40
1.0
 10
312.9998369009
 20
58.6655187279
 30
0.0
 10
312.9521385687
 20
58.6505429593
 30
0.0
 10
312.7644710564
 20
58.5940558245
 30
0.0
 10
312.5740400314
 20
58.5466481259
 30
0.0
 10
312.4310632874
 20
58.5171536576
 30
0.0
  0
LINE
  5
323
100
AcDbEntity
  8
00_COMPONENTS_11
100
AcDbLine
 62
7
  6
CONTINUOUS
 10
312.2712884645
 20
58.4867488232
 11
312.266922743
 21
58.4863851598
  0
LINE
  5
324
100
AcDbEntity
  8
00_COMPONENTS_11
100
AcDbLine
 62
7
  6
CONTINUOUS
 10
312.266922743
 20
58.4863851598
 11
312.2626644955
 21
58.4860225853
  0
SPLINE
  5
325
100
AcDbEntity
  8
00_COMPONENTS_11
100
AcDbSpline
 62
7
  6
CONTINUOUS
 70
0
 71
3
 72
12
 73
8
 74
0
 42
0.0000001
 43
0.0000001
 44
0.0000000001
 40
0.0
 40
0.0
 40
0.0
 40
0.0
 40
0.1237637414
 40
0.2165706651
 40
0.3331384703
 40
0.6331611196
 40
1.0
 40
1.0
 40
1.0
 40
1.0
 10
307.0403732657
 20
60.4155187279
 30
0.0
 10
307.0441539146
 20
60.4155187279
 30
0.0
 10
307.0501701049
 20
60.4203200109
 30
0.0
 10
307.0553187817
 20
60.4288711957
 30
0.0
 10
307.0615117092
 20
60.4432948612
 30
0.0
 10
307.0670163148
 20
60.466667184
 30
0.0
 10
307.0692174988
 20
60.4869718541
 30
0.0
 10
307.0698251988
 20
60.4981613037
 30
0.0
  0
LINE
  5
326
100
AcDbEntity
  8
00_COMPONENTS_11
100
AcDbLine
 62
7
  6
CONTINUOUS
 10
307.0698251988
 20
60.4981613037
 11
307.0873445862
 21
60.8155155006
  0
SPLINE
  5
327
100
AcDbEntity
  8
00_COMPONENTS_11
100
AcDbSpline
 62
7
  6
CONTINUOUS
 70
0
 71
3
 72
9
 73
5
 74
0
 42
0.0000001
 43
0.0000001
 44
0.0000000001
 40
0.0
 40
0.0
 40
0.0
 40
0.0
 40
0.4822216116
 40
1.0
 40
1.0
 40
1.0
 40
1.0
 10
309.314453413
 20
60.4176505598
 30
0.0
 10
309.3321879388
 20
60.4216532686
 30
0.0
 10
309.3668652584
 20
60.4424030207
 30
0.0
 10
309.383566881
 20
60.4788953381
 30
0.0
 10
309.3867131548
 20
60.4981613021
 30
0.0
  0
LINE
  5
328
100
AcDbEntity
  8
00_COMPONENTS_11
100
AcDbLine
 62
7
  6
CONTINUOUS
 10
309.3867131548
 20
60.4981613021
 11
309.4385277969
 21
60.8155155006
  0
LINE
  5
329
100
AcDbEntity
  8
00_COMPONENTS_11
100
AcDbLine
 62
7
  6
CONTINUOUS
 10
313.8334317029
 20
60.4981611931
 11
313.7816160507
 21
60.8155153236
  0
SPLINE
  5
32A
100
AcDbEntity
  8
00_COMPONENTS_11
100
AcDbSpline
 62
7
  6
CONTINUOUS
 70
0
 71
3
 72
9
 73
5
 74
0
 42
0.0000001
 43
0.0000001
 44
0.0000000001
 40
0.0
 40
0.0
 40
0.0
 40
0.0
 40
0.5178173237
 40
1.0
 40
1.0
 40
1.0
 40
1.0
 10
313.8334317029
 20
60.4981611931
 30
0.0
 10
313.8365772393
 20
60.4788997442
 30
0.0
 10
313.8532723017
 20
60.4424204089
 30
0.0
 10
313.8879292491
 20
60.421665204
 30
0.0
 10
313.9056554077
 20
60.4176576544
 30
0.0
  0
SPLINE
  5
32B
100
AcDbEntity
  8
00_COMPONENTS_11
100
AcDbSpline
 62
7
  6
CONTINUOUS
 70
0
 71
3
 72
12
 73
8
 74
0
 42
0.0000001
 43
0.0000001
 44
0.0000000001
 40
0.0
 40
0.0
 40
0.0
 40
0.0
 40
0.3668787521
 40
0.6669026771
 40
0.7834605754
 40
0.8762559009
 40
1.0
 40
1.0
 40
1.0
 40
1.0
 10
316.1503196471
 20
60.4981611946
 30
0.0
 10
316.1509274155
 20
60.4869704838
 30
0.0
 10
316.1531294424
 20
60.466664591
 30
0.0
 10
316.1586343753
 20
60.4432911424
 30
0.0
 10
316.164827431
 20
60.4288683216
 30
0.0
 10
316.1699751492
 20
60.4203175892
 30
0.0
 10
316.1759915102
 20
60.4155187279
 30
0.0
 10
316.1797715743
 20
60.4155187279
 30
0.0
  0
LINE
  5
32C
100
AcDbEntity
  8
00_COMPONENTS_11
100
AcDbLine
 62
7
  6
CONTINUOUS
 10
316.1503196471
 20
60.4981611946
 11
316.1327999206
 21
60.8155153236
  0
SPLINE
  5
32D
100
AcDbEntity
  8
00_COMPONENTS_11
100
AcDbSpline
 62
7
  6
CONTINUOUS
 70
0
 71
3
 72
9
 73
5
 74
0
 42
0.0000001
 43
0.0000001
 44
0.0000000001
 40
0.0
 40
0.0
 40
0.0
 40
0.0
 40
0.5052624746
 40
1.0
 40
1.0
 40
1.0
 40
1.0
 10
310.2141300446
 20
60.4981611931
 30
0.0
 10
310.2181681239
 20
60.4753008708
 30
0.0
 10
310.2435399668
 20
60.4315096818
 30
0.0
 10
310.2910587499
 20
60.4155187279
 30
0.0
 10
310.313789411
 20
60.4155187279
 30
0.0
  0
SPLINE
  5
32E
100
AcDbEntity
  8
00_COMPONENTS_11
100
AcDbSpline
 62
7
  6
CONTINUOUS
 70
0
 71
3
 72
9
 73
5
 74
0
 42
0.0000001
 43
0.0000001
 44
0.0000000001
 40
0.0
 40
0.0
 40
0.0
 40
0.0
 40
0.2461012378
 40
1.0
 40
1.0
 40
1.0
 40
1.0
 10
310.3650197103
 20
58.6155187279
 30
0.0
 10
310.3988267846
 20
58.6026250878
 30
0.0
 10
310.5372363856
 20
58.5529837265
 30
0.0
 10
310.6795324097
 20
58.5143094311
 30
0.0
 10
310.7879021918
 20
58.4910396328
 30
0.0
  0
LINE
  5
32F
100
AcDbEntity
  8
00_COMPONENTS_11
100
AcDbLine
 62
7
  6
CONTINUOUS
 10
310.2141300446
 20
60.4981611931
 11
310.1583713732
 21
60.8155153236
  0
SPLINE
  5
330
100
AcDbEntity
  8
00_COMPONENTS_11
100
AcDbSpline
 62
7
  6
CONTINUOUS
 70
0
 71
3
 72
12
 73
8
 74
0
 42
0.0000001
 43
0.0000001
 44
0.0000000001
 40
0.0
 40
0.0
 40
0.0
 40
0.0
 40
0.3270039792
 40
0.54176599
 40
0.7225688652
 40
0.8713760224
 40
1.0
 40
1.0
 40
1.0
 40
1.0
 10
307.4125524973
 20
60.4981611946
 30
0.0
 10
307.4135278917
 20
60.4868851287
 30
0.0
 10
307.416709727
 20
60.4682546562
 30
0.0
 10
307.425529788
 20
60.4447178901
 30
0.0
 10
307.4357423439
 20
60.428668435
 30
0.0
 10
307.4480491953
 20
60.4181246772
 30
0.0
 10
307.4577447555
 20
60.4155187279
 30
0.0
 10
307.462196654
 20
60.4155187279
 30
0.0
  0
SPLINE
  5
331
100
AcDbEntity
  8
00_COMPONENTS_11
100
AcDbSpline
 62
7
  6
CONTINUOUS
 70
0
 71
3
 72
9
 73
5
 74
0
 42
0.0000001
 43
0.0000001
 44
0.0000000001
 40
0.0
 40
0.0
 40
0.0
 40
0.0
 40
0.4947805499
 40
1.0
 40
1.0
 40
1.0
 40
1.0
 10
312.906355429
 20
60.4155187279
 30
0.0
 10
312.9290881025
 20
60.4155187279
 30
0.0
 10
312.9766074215
 20
60.4315114128
 30
0.0
 10
313.0019770727
 20
60.4753028907
 30
0.0
 10
313.0060148145
 20
60.4981613021
 30
0.0
  0
LINE
  5
332
100
AcDbEntity
  8
00_COMPONENTS_11
100
AcDbLine
 62
7
  6
CONTINUOUS
 10
313.0060148145
 20
60.4981613021
 11
313.0617723966
 21
60.8155155006
  0
SPLINE
  5
333
100
AcDbEntity
  8
00_COMPONENTS_11
100
AcDbSpline
 62
7
  6
CONTINUOUS
 70
0
 71
3
 72
11
 73
7
 74
0
 42
0.0000001
 43
0.0000001
 44
0.0000000001
 40
0.0
 40
0.0
 40
0.0
 40
0.0
 40
0.1744012102
 40
0.3334981697
 40
0.526315733
 40
1.0
 40
1.0
 40
1.0
 40
1.0
 10
315.757948186
 20
60.4155187279
 30
0.0
 10
315.7639699153
 20
60.4155187279
 30
0.0
 10
315.7755551501
 20
60.4199039399
 30
0.0
 10
315.7880219414
 20
60.4334529846
 30
0.0
 10
315.8015650928
 20
60.4587743337
 30
0.0
 10
315.8061828537
 20
60.4818667697
 30
0.0
 10
315.8075923521
 20
60.4981613037
 30
0.0
  0
SPLINE
  5
334
100
AcDbEntity
  8
00_COMPONENTS_11
100
AcDbSpline
 62
7
  6
CONTINUOUS
 70
0
 71
3
 72
9
 73
5
 74
0
 42
0.0000001
 43
0.0000001
 44
0.0000000001
 40
0.0
 40
0.0
 40
0.0
 40
0.0
 40
0.2542252921
 40
1.0
 40
1.0
 40
1.0
 40
1.0
 10
312.563937168
 20
58.5169520484
 30
0.0
 10
312.6017936217
 20
58.5265331109
 30
0.0
 10
312.749948647
 20
58.5671158319
 30
0.0
 10
312.8948993699
 20
58.6195757211
 30
0.0
 10
312.9998369009
 20
58.6655187279
 30
0.0
  0
SPLINE
  5
335
100
AcDbEntity
  8
00_COMPONENTS_11
100
AcDbSpline
 62
7
  6
CONTINUOUS
 70
0
 71
3
 72
9
 73
5
 74
0
 42
0.0000001
 43
0.0000001
 44
0.0000000001
 40
0.0
 40
0.0
 40
0.0
 40
0.0
 40
0.2550960217
 40
1.0
 40
1.0
 40
1.0
 40
1.0
 10
182.9998369009
 20
58.6655187279
 30
0.0
 10
182.9521385687
 20
58.6505429593
 30
0.0
 10
182.7644710564
 20
58.5940558245
 30
0.0
 10
182.5740400314
 20
58.5466481259
 30
0.0
 10
182.4310632874
 20
58.5171536576
 30
0.0
  0
LINE
  5
336
100
AcDbEntity
  8
00_COMPONENTS_11
100
AcDbLine
 62
7
  6
CONTINUOUS
 10
182.2712884645
 20
58.4867488232
 11
182.266922743
 21
58.4863851598
  0
LINE
  5
337
100
AcDbEntity
  8
00_COMPONENTS_11
100
AcDbLine
 62
7
  6
CONTINUOUS
 10
182.266922743
 20
58.4863851598
 11
182.2626644955
 21
58.4860225853
  0
SPLINE
  5
338
100
AcDbEntity
  8
00_COMPONENTS_11
100
AcDbSpline
 62
7
  6
CONTINUOUS
 70
0
 71
3
 72
12
 73
8
 74
0
 42
0.0000001
 43
0.0000001
 44
0.0000000001
 40
0.0
 40
0.0
 40
0.0
 40
0.0
 40
0.1237637414
 40
0.2165706651
 40
0.3331384703
 40
0.6331611196
 40
1.0
 40
1.0
 40
1.0
 40
1.0
 10
177.0403732657
 20
60.4155187279
 30
0.0
 10
177.0441539146
 20
60.4155187279
 30
0.0
 10
177.0501701049
 20
60.4203200109
 30
0.0
 10
177.0553187817
 20
60.4288711957
 30
0.0
 10
177.0615117092
 20
60.4432948612
 30
0.0
 10
177.0670163148
 20
60.466667184
 30
0.0
 10
177.0692174988
 20
60.4869718541
 30
0.0
 10
177.0698251988
 20
60.4981613037
 30
0.0
  0
LINE
  5
339
100
AcDbEntity
  8
00_COMPONENTS_11
100
AcDbLine
 62
7
  6
CONTINUOUS
 10
177.0698251988
 20
60.4981613037
 11
177.0873445862
 21
60.8155155006
  0
SPLINE
  5
33A
100
AcDbEntity
  8
00_COMPONENTS_11
100
AcDbSpline
 62
7
  6
CONTINUOUS
 70
0
 71
3
 72
9
 73
5
 74
0
 42
0.0000001
 43
0.0000001
 44
0.0000000001
 40
0.0
 40
0.0
 40
0.0
 40
0.0
 40
0.4822216116
 40
1.0
 40
1.0
 40
1.0
 40
1.0
 10
179.314453413
 20
60.4176505598
 30
0.0
 10
179.3321879388
 20
60.4216532686
 30
0.0
 10
179.3668652584
 20
60.4424030207
 30
0.0
 10
179.383566881
 20
60.4788953381
 30
0.0
 10
179.3867131548
 20
60.4981613021
 30
0.0
  0
LINE
  5
33B
100
AcDbEntity
  8
00_COMPONENTS_11
100
AcDbLine
 62
7
  6
CONTINUOUS
 10
179.3867131548
 20
60.4981613021
 11
179.4385277969
 21
60.8155155006
  0
LINE
  5
33C
100
AcDbEntity
  8
00_COMPONENTS_11
100
AcDbLine
 62
7
  6
CONTINUOUS
 10
183.8334317029
 20
60.4981611931
 11
183.7816160507
 21
60.8155153236
  0
SPLINE
  5
33D
100
AcDbEntity
  8
00_COMPONENTS_11
100
AcDbSpline
 62
7
  6
CONTINUOUS
 70
0
 71
3
 72
9
 73
5
 74
0
 42
0.0000001
 43
0.0000001
 44
0.0000000001
 40
0.0
 40
0.0
 40
0.0
 40
0.0
 40
0.5178173237
 40
1.0
 40
1.0
 40
1.0
 40
1.0
 10
183.8334317029
 20
60.4981611931
 30
0.0
 10
183.8365772393
 20
60.4788997442
 30
0.0
 10
183.8532723017
 20
60.4424204089
 30
0.0
 10
183.8879292491
 20
60.421665204
 30
0.0
 10
183.9056554077
 20
60.4176576544
 30
0.0
  0
SPLINE
  5
33E
100
AcDbEntity
  8
00_COMPONENTS_11
100
AcDbSpline
 62
7
  6
CONTINUOUS
 70
0
 71
3
 72
12
 73
8
 74
0
 42
0.0000001
 43
0.0000001
 44
0.0000000001
 40
0.0
 40
0.0
 40
0.0
 40
0.0
 40
0.3668787521
 40
0.6669026771
 40
0.7834605754
 40
0.8762559009
 40
1.0
 40
1.0
 40
1.0
 40
1.0
 10
186.1503196471
 20
60.4981611946
 30
0.0
 10
186.1509274155
 20
60.4869704838
 30
0.0
 10
186.1531294424
 20
60.466664591
 30
0.0
 10
186.1586343753
 20
60.4432911424
 30
0.0
 10
186.164827431
 20
60.4288683216
 30
0.0
 10
186.1699751492
 20
60.4203175892
 30
0.0
 10
186.1759915102
 20
60.4155187279
 30
0.0
 10
186.1797715743
 20
60.4155187279
 30
0.0
  0
LINE
  5
33F
100
AcDbEntity
  8
00_COMPONENTS_11
100
AcDbLine
 62
7
  6
CONTINUOUS
 10
186.1503196471
 20
60.4981611946
 11
186.1327999206
 21
60.8155153236
  0
SPLINE
  5
340
100
AcDbEntity
  8
00_COMPONENTS_11
100
AcDbSpline
 62
7
  6
CONTINUOUS
 70
0
 71
3
 72
9
 73
5
 74
0
 42
0.0000001
 43
0.0000001
 44
0.0000000001
 40
0.0
 40
0.0
 40
0.0
 40
0.0
 40
0.5052624746
 40
1.0
 40
1.0
 40
1.0
 40
1.0
 10
180.2141300446
 20
60.4981611931
 30
0.0
 10
180.2181681239
 20
60.4753008708
 30
0.0
 10
180.2435399668
 20
60.4315096818
 30
0.0
 10
180.2910587499
 20
60.4155187279
 30
0.0
 10
180.313789411
 20
60.4155187279
 30
0.0
  0
SPLINE
  5
341
100
AcDbEntity
  8
00_COMPONENTS_11
100
AcDbSpline
 62
7
  6
CONTINUOUS
 70
0
 71
3
 72
9
 73
5
 74
0
 42
0.0000001
 43
0.0000001
 44
0.0000000001
 40
0.0
 40
0.0
 40
0.0
 40
0.0
 40
0.2461012378
 40
1.0
 40
1.0
 40
1.0
 40
1.0
 10
180.3650197103
 20
58.6155187279
 30
0.0
 10
180.3988267846
 20
58.6026250878
 30
0.0
 10
180.5372363856
 20
58.5529837265
 30
0.0
 10
180.6795324097
 20
58.5143094311
 30
0.0
 10
180.7879021918
 20
58.4910396328
 30
0.0
  0
LINE
  5
342
100
AcDbEntity
  8
00_COMPONENTS_11
100
AcDbLine
 62
7
  6
CONTINUOUS
 10
180.2141300446
 20
60.4981611931
 11
180.1583713732
 21
60.8155153236
  0
SPLINE
  5
343
100
AcDbEntity
  8
00_COMPONENTS_11
100
AcDbSpline
 62
7
  6
CONTINUOUS
 70
0
 71
3
 72
12
 73
8
 74
0
 42
0.0000001
 43
0.0000001
 44
0.0000000001
 40
0.0
 40
0.0
 40
0.0
 40
0.0
 40
0.3270039792
 40
0.54176599
 40
0.7225688652
 40
0.8713760224
 40
1.0
 40
1.0
 40
1.0
 40
1.0
 10
177.4125524973
 20
60.4981611946
 30
0.0
 10
177.4135278917
 20
60.4868851287
 30
0.0
 10
177.416709727
 20
60.4682546562
 30
0.0
 10
177.425529788
 20
60.4447178901
 30
0.0
 10
177.4357423439
 20
60.428668435
 30
0.0
 10
177.4480491953
 20
60.4181246772
 30
0.0
 10
177.4577447555
 20
60.4155187279
 30
0.0
 10
177.462196654
 20
60.4155187279
 30
0.0
  0
SPLINE
  5
344
100
AcDbEntity
  8
00_COMPONENTS_11
100
AcDbSpline
 62
7
  6
CONTINUOUS
 70
0
 71
3
 72
9
 73
5
 74
0
 42
0.0000001
 43
0.0000001
 44
0.0000000001
 40
0.0
 40
0.0
 40
0.0
 40
0.0
 40
0.4947805499
 40
1.0
 40
1.0
 40
1.0
 40
1.0
 10
182.906355429
 20
60.4155187279
 30
0.0
 10
182.9290881025
 20
60.4155187279
 30
0.0
 10
182.9766074215
 20
60.4315114128
 30
0.0
 10
183.0019770727
 20
60.4753028907
 30
0.0
 10
183.0060148145
 20
60.4981613021
 30
0.0
  0
LINE
  5
345
100
AcDbEntity
  8
00_COMPONENTS_11
100
AcDbLine
 62
7
  6
CONTINUOUS
 10
183.0060148145
 20
60.4981613021
 11
183.0617723966
 21
60.8155155006
  0
SPLINE
  5
346
100
AcDbEntity
  8
00_COMPONENTS_11
100
AcDbSpline
 62
7
  6
CONTINUOUS
 70
0
 71
3
 72
11
 73
7
 74
0
 42
0.0000001
 43
0.0000001
 44
0.0000000001
 40
0.0
 40
0.0
 40
0.0
 40
0.0
 40
0.1744012102
 40
0.3334981697
 40
0.526315733
 40
1.0
 40
1.0
 40
1.0
 40
1.0
 10
185.757948186
 20
60.4155187279
 30
0.0
 10
185.7639699153
 20
60.4155187279
 30
0.0
 10
185.7755551501
 20
60.4199039399
 30
0.0
 10
185.7880219414
 20
60.4334529846
 30
0.0
 10
185.8015650928
 20
60.4587743337
 30
0.0
 10
185.8061828537
 20
60.4818667697
 30
0.0
 10
185.8075923521
 20
60.4981613037
 30
0.0
  0
SPLINE
  5
347
100
AcDbEntity
  8
00_COMPONENTS_11
100
AcDbSpline
 62
7
  6
CONTINUOUS
 70
0
 71
3
 72
9
 73
5
 74
0
 42
0.0000001
 43
0.0000001
 44
0.0000000001
 40
0.0
 40
0.0
 40
0.0
 40
0.0
 40
0.2542252921
 40
1.0
 40
1.0
 40
1.0
 40
1.0
 10
182.563937168
 20
58.5169520484
 30
0.0
 10
182.6017936217
 20
58.5265331109
 30
0.0
 10
182.749948647
 20
58.5671158319
 30
0.0
 10
182.8948993699
 20
58.6195757211
 30
0.0
 10
182.9998369009
 20
58.6655187279
 30
0.0
  0
SPLINE
  5
348
100
AcDbEntity
  8
00_COMPONENTS_11
100
AcDbSpline
 62
7
  6
CONTINUOUS
 70
0
 71
3
 72
9
 73
5
 74
0
 42
0.0000001
 43
0.0000001
 44
0.0000000001
 40
0.0
 40
0.0
 40
0.0
 40
0.0
 40
0.2550960217
 40
1.0
 40
1.0
 40
1.0
 40
1.0
 10
247.9998369009
 20
58.6655187279
 30
0.0
 10
247.9521385687
 20
58.6505429593
 30
0.0
 10
247.7644710564
 20
58.5940558245
 30
0.0
 10
247.5740400314
 20
58.5466481259
 30
0.0
 10
247.4310632874
 20
58.5171536576
 30
0.0
  0
LINE
  5
349
100
AcDbEntity
  8
00_COMPONENTS_11
100
AcDbLine
 62
7
  6
CONTINUOUS
 10
247.2712884645
 20
58.4867488232
 11
247.266922743
 21
58.4863851598
  0
LINE
  5
34A
100
AcDbEntity
  8
00_COMPONENTS_11
100
AcDbLine
 62
7
  6
CONTINUOUS
 10
247.266922743
 20
58.4863851598
 11
247.2626644955
 21
58.4860225853
  0
SPLINE
  5
34B
100
AcDbEntity
  8
00_COMPONENTS_11
100
AcDbSpline
 62
7
  6
CONTINUOUS
 70
0
 71
3
 72
12
 73
8
 74
0
 42
0.0000001
 43
0.0000001
 44
0.0000000001
 40
0.0
 40
0.0
 40
0.0
 40
0.0
 40
0.1237637414
 40
0.2165706651
 40
0.3331384703
 40
0.6331611196
 40
1.0
 40
1.0
 40
1.0
 40
1.0
 10
242.0403732657
 20
60.4155187279
 30
0.0
 10
242.0441539146
 20
60.4155187279
 30
0.0
 10
242.0501701049
 20
60.4203200109
 30
0.0
 10
242.0553187817
 20
60.4288711957
 30
0.0
 10
242.0615117092
 20
60.4432948612
 30
0.0
 10
242.0670163148
 20
60.466667184
 30
0.0
 10
242.0692174988
 20
60.4869718541
 30
0.0
 10
242.0698251988
 20
60.4981613037
 30
0.0
  0
SPLINE
  5
34C
100
AcDbEntity
  8
00_COMPONENTS_11
100
AcDbSpline
 62
7
  6
CONTINUOUS
 70
0
 71
3
 72
9
 73
5
 74
0
 42
0.0000001
 43
0.0000001
 44
0.0000000001
 40
0.0
 40
0.0
 40
0.0
 40
0.0
 40
0.4822216116
 40
1.0
 40
1.0
 40
1.0
 40
1.0
 10
244.314453413
 20
60.4176505598
 30
0.0
 10
244.3321879388
 20
60.4216532686
 30
0.0
 10
244.3668652584
 20
60.4424030207
 30
0.0
 10
244.383566881
 20
60.4788953381
 30
0.0
 10
244.3867131548
 20
60.4981613021
 30
0.0
  0
LINE
  5
34D
100
AcDbEntity
  8
00_COMPONENTS_11
100
AcDbLine
 62
7
  6
CONTINUOUS
 10
248.8334317029
 20
60.4981611931
 11
248.7816160507
 21
60.8155153236
  0
SPLINE
  5
34E
100
AcDbEntity
  8
00_COMPONENTS_11
100
AcDbSpline
 62
7
  6
CONTINUOUS
 70
0
 71
3
 72
9
 73
5
 74
0
 42
0.0000001
 43
0.0000001
 44
0.0000000001
 40
0.0
 40
0.0
 40
0.0
 40
0.0
 40
0.5178173237
 40
1.0
 40
1.0
 40
1.0
 40
1.0
 10
248.8334317029
 20
60.4981611931
 30
0.0
 10
248.8365772393
 20
60.4788997442
 30
0.0
 10
248.8532723017
 20
60.4424204089
 30
0.0
 10
248.8879292491
 20
60.421665204
 30
0.0
 10
248.9056554077
 20
60.4176576543
 30
0.0
  0
SPLINE
  5
34F
100
AcDbEntity
  8
00_COMPONENTS_11
100
AcDbSpline
 62
7
  6
CONTINUOUS
 70
0
 71
3
 72
12
 73
8
 74
0
 42
0.0000001
 43
0.0000001
 44
0.0000000001
 40
0.0
 40
0.0
 40
0.0
 40
0.0
 40
0.3668787521
 40
0.6669026771
 40
0.7834605754
 40
0.8762559009
 40
1.0
 40
1.0
 40
1.0
 40
1.0
 10
251.1503196471
 20
60.4981611946
 30
0.0
 10
251.1509274155
 20
60.4869704838
 30
0.0
 10
251.1531294424
 20
60.466664591
 30
0.0
 10
251.1586343753
 20
60.4432911424
 30
0.0
 10
251.164827431
 20
60.4288683216
 30
0.0
 10
251.1699751492
 20
60.4203175892
 30
0.0
 10
251.1759915102
 20
60.4155187279
 30
0.0
 10
251.1797715743
 20
60.4155187279
 30
0.0
  0
LINE
  5
350
100
AcDbEntity
  8
00_COMPONENTS_11
100
AcDbLine
 62
7
  6
CONTINUOUS
 10
251.1503196471
 20
60.4981611946
 11
251.1327999206
 21
60.8155153236
  0
SPLINE
  5
351
100
AcDbEntity
  8
00_COMPONENTS_11
100
AcDbSpline
 62
7
  6
CONTINUOUS
 70
0
 71
3
 72
9
 73
5
 74
0
 42
0.0000001
 43
0.0000001
 44
0.0000000001
 40
0.0
 40
0.0
 40
0.0
 40
0.0
 40
0.5052624746
 40
1.0
 40
1.0
 40
1.0
 40
1.0
 10
245.2141300446
 20
60.4981611931
 30
0.0
 10
245.2181681239
 20
60.4753008708
 30
0.0
 10
245.2435399668
 20
60.4315096818
 30
0.0
 10
245.2910587499
 20
60.4155187279
 30
0.0
 10
245.313789411
 20
60.4155187279
 30
0.0
  0
SPLINE
  5
352
100
AcDbEntity
  8
00_COMPONENTS_11
100
AcDbSpline
 62
7
  6
CONTINUOUS
 70
0
 71
3
 72
9
 73
5
 74
0
 42
0.0000001
 43
0.0000001
 44
0.0000000001
 40
0.0
 40
0.0
 40
0.0
 40
0.0
 40
0.2461012378
 40
1.0
 40
1.0
 40
1.0
 40
1.0
 10
245.3650197103
 20
58.6155187279
 30
0.0
 10
245.3988267846
 20
58.6026250878
 30
0.0
 10
245.5372363856
 20
58.5529837265
 30
0.0
 10
245.6795324097
 20
58.5143094311
 30
0.0
 10
245.7879021918
 20
58.4910396328
 30
0.0
  0
LINE
  5
353
100
AcDbEntity
  8
00_COMPONENTS_11
100
AcDbLine
 62
7
  6
CONTINUOUS
 10
245.2141300446
 20
60.4981611931
 11
245.1583713732
 21
60.8155153236
  0
SPLINE
  5
354
100
AcDbEntity
  8
00_COMPONENTS_11
100
AcDbSpline
 62
7
  6
CONTINUOUS
 70
0
 71
3
 72
12
 73
8
 74
0
 42
0.0000001
 43
0.0000001
 44
0.0000000001
 40
0.0
 40
0.0
 40
0.0
 40
0.0
 40
0.3270039792
 40
0.54176599
 40
0.7225688652
 40
0.8713760224
 40
1.0
 40
1.0
 40
1.0
 40
1.0
 10
242.4125524973
 20
60.4981611946
 30
0.0
 10
242.4135278917
 20
60.4868851287
 30
0.0
 10
242.416709727
 20
60.4682546562
 30
0.0
 10
242.425529788
 20
60.4447178901
 30
0.0
 10
242.4357423439
 20
60.428668435
 30
0.0
 10
242.4480491953
 20
60.4181246772
 30
0.0
 10
242.4577447555
 20
60.4155187279
 30
0.0
 10
242.462196654
 20
60.4155187279
 30
0.0
  0
SPLINE
  5
355
100
AcDbEntity
  8
00_COMPONENTS_11
100
AcDbSpline
 62
7
  6
CONTINUOUS
 70
0
 71
3
 72
9
 73
5
 74
0
 42
0.0000001
 43
0.0000001
 44
0.0000000001
 40
0.0
 40
0.0
 40
0.0
 40
0.0
 40
0.4947805499
 40
1.0
 40
1.0
 40
1.0
 40
1.0
 10
247.906355429
 20
60.4155187279
 30
0.0
 10
247.9290881025
 20
60.4155187279
 30
0.0
 10
247.9766074215
 20
60.4315114128
 30
0.0
 10
248.0019770727
 20
60.4753028907
 30
0.0
 10
248.0060148145
 20
60.4981613021
 30
0.0
  0
SPLINE
  5
356
100
AcDbEntity
  8
00_COMPONENTS_11
100
AcDbSpline
 62
7
  6
CONTINUOUS
 70
0
 71
3
 72
11
 73
7
 74
0
 42
0.0000001
 43
0.0000001
 44
0.0000000001
 40
0.0
 40
0.0
 40
0.0
 40
0.0
 40
0.1744012102
 40
0.3334981697
 40
0.526315733
 40
1.0
 40
1.0
 40
1.0
 40
1.0
 10
250.757948186
 20
60.4155187279
 30
0.0
 10
250.7639699153
 20
60.4155187279
 30
0.0
 10
250.7755551501
 20
60.4199039399
 30
0.0
 10
250.7880219414
 20
60.4334529846
 30
0.0
 10
250.8015650928
 20
60.4587743337
 30
0.0
 10
250.8061828537
 20
60.4818667697
 30
0.0
 10
250.8075923521
 20
60.4981613037
 30
0.0
  0
SPLINE
  5
357
100
AcDbEntity
  8
00_COMPONENTS_11
100
AcDbSpline
 62
7
  6
CONTINUOUS
 70
0
 71
3
 72
9
 73
5
 74
0
 42
0.0000001
 43
0.0000001
 44
0.0000000001
 40
0.0
 40
0.0
 40
0.0
 40
0.0
 40
0.2542252921
 40
1.0
 40
1.0
 40
1.0
 40
1.0
 10
247.563937168
 20
58.5169520484
 30
0.0
 10
247.6017936217
 20
58.5265331109
 30
0.0
 10
247.749948647
 20
58.5671158319
 30
0.0
 10
247.8948993699
 20
58.6195757211
 30
0.0
 10
247.9998369009
 20
58.6655187279
 30
0.0
  0
SPLINE
  5
358
100
AcDbEntity
  8
PART
100
AcDbSpline
 62
7
  6
CONTINUOUS
 70
0
 71
3
 72
9
 73
5
 74
0
 42
0.0000001
 43
0.0000001
 44
0.0000000001
 40
0.0
 40
0.0
 40
0.0
 40
0.0
 40
0.3432795376
 40
1.0
 40
1.0
 40
1.0
 40
1.0
 10
337.6201115992
 20
64.0155187279
 30
0.0
 10
337.6201115992
 20
63.884388849
 30
0.0
 10
337.2526651709
 20
63.601538022
 30
0.0
 10
336.9205406905
 20
63.4887740839
 30
0.0
 10
336.6840229839
 20
63.4051622006
 30
0.0
  0
SPLINE
  5
359
100
AcDbEntity
  8
PART
100
AcDbSpline
 62
7
  6
CONTINUOUS
 70
0
 71
3
 72
9
 73
5
 74
0
 42
0.0000001
 43
0.0000001
 44
0.0000000001
 40
0.0
 40
0.0
 40
0.0
 40
0.0
 40
0.2350996188
 40
1.0
 40
1.0
 40
1.0
 40
1.0
 10
336.6840229839
 20
63.4051622006
 30
0.0
 10
336.6309479498
 20
63.3863995311
 30
0.0
 10
336.4044174442
 20
63.3087799869
 30
0.0
 10
336.1756061659
 20
63.2380073985
 30
0.0
 10
336.0001758787
 20
63.1853841186
 30
0.0
  0
SPLINE
  5
35A
100
AcDbEntity
  8
PART
100
AcDbSpline
 62
7
  6
CONTINUOUS
 70
0
 71
3
 72
8
 73
4
 74
0
 42
0.0000001
 43
0.0000001
 44
0.0000000001
 40
0.0
 40
0.0
 40
0.0
 40
0.0
 40
1.0
 40
1.0
 40
1.0
 40
1.0
 10
336.0001758787
 20
63.1853841186
 30
0.0
 10
335.8071962711
 20
63.1274966235
 30
0.0
 10
335.6136463059
 20
63.0715223738
 30
0.0
 10
335.4201115992
 20
63.0155187279
 30
0.0
  0
SPLINE
  5
35B
100
AcDbEntity
  8
PART
100
AcDbSpline
 62
7
  6
CONTINUOUS
 70
0
 71
3
 72
9
 73
5
 74
0
 42
0.0000001
 43
0.0000001
 44
0.0000000001
 40
0.0
 40
0.0
 40
0.0
 40
0.0
 40
0.2353833766
 40
1.0
 40
1.0
 40
1.0
 40
1.0
 10
337.6201115992
 20
642.5155187279
 30
0.0
 10
337.6201115992
 20
642.392902987
 30
0.0
 10
337.6706552376
 20
641.8708044491
 30
0.0
 10
337.9106586203
 20
641.3876369677
 30
0.0
 10
338.1201114853
 20
641.0488520612
 30
0.0
  0
SPLINE
  5
35C
100
AcDbEntity
  8
PART
100
AcDbSpline
 62
7
  6
CONTINUOUS
 70
0
 71
3
 72
8
 73
4
 74
0
 42
0.0000001
 43
0.0000001
 44
0.0000000001
 40
0.0
 40
0.0
 40
0.0
 40
0.0
 40
1.0
 40
1.0
 40
1.0
 40
1.0
 10
338.1201114853
 20
641.0488520612
 30
0.0
 10
338.2756911284
 20
640.7972057787
 30
0.0
 10
338.4481945123
 20
640.5562995247
 30
0.0
 10
338.6201115992
 20
640.3155187279
 30
0.0
  0
SPLINE
  5
35D
100
AcDbEntity
  8
PART
100
AcDbSpline
 62
7
  6
CONTINUOUS
 70
0
 71
3
 72
9
 73
5
 74
0
 42
0.0000001
 43
0.0000001
 44
0.0000000001
 40
0.0
 40
0.0
 40
0.0
 40
0.0
 40
0.2628757777
 40
1.0
 40
1.0
 40
1.0
 40
1.0
 10
338.6201115992
 20
83.3155187279
 30
0.0
 10
338.5332834946
 20
83.193910454
 30
0.0
 10
338.2042104971
 20
82.7321245776
 30
0.0
 10
337.8947541441
 20
82.243531595
 30
0.0
 10
337.7540862611
 20
81.8488520612
 30
0.0
  0
ELLIPSE
  5
35E
100
AcDbEntity
  8
0
100
AcDbEllipse
 62
7
  6
CONTINUOUS
 10
371.5501639019
 20
564.3155187279
 30
0.0
 11
11.4300523028
 21
-0.0
 31
0.0
 40
0.0874886635
 41
2.5512328805
 42
3.1415918858
  0
ELLIPSE
  5
35F
100
AcDbEntity
  8
0
100
AcDbEllipse
 62
7
  6
CONTINUOUS
 10
371.5501639019
 20
526.3155187279
 30
0.0
 11
11.4300523028
 21
-0.0
 31
0.0
 40
0.0874886635
 41
3.1415926106
 42
3.7319524267
  0
ELLIPSE
  5
360
100
AcDbEntity
  8
0
100
AcDbEllipse
 62
7
  6
CONTINUOUS
 10
371.5501639019
 20
197.3155187279
 30
0.0
 11
11.4300523028
 21
-0.0
 31
0.0
 40
0.0874886635
 41
2.5512328805
 42
3.1415918858
  0
ELLIPSE
  5
361
100
AcDbEntity
  8
0
100
AcDbEllipse
 62
7
  6
CONTINUOUS
 10
371.5501639019
 20
159.3155187279
 30
0.0
 11
11.4300523028
 21
-0.0
 31
0.0
 40
0.0874886635
 41
3.1415926106
 42
3.7319524267
  0
ENDSEC
  0
SECTION
  2
OBJECTS
  0
DICTIONARY
  5
C
100
AcDbDictionary
280
0
281
1
  3
ACAD_GROUP
350
D
  3
ACAD_MLINESTYLE
350
17
  3
ACAD_LAYOUT
350
1A
  3
ACAD_PLOTSETTINGS
350
19
  3
ACAD_PLOTSTYLENAME
350
E
  0
DICTIONARY
  5
D
102
{ACAD_REACTORS
330
C
102
}
100
AcDbDictionary
280
0
281
1
  0
ACDBDICTIONARYWDFLT
  5
E
102
{ACAD_REACTORS
330
C
102
}
100
AcDbDictionary
281
1
  3
Normal
350
F
100
AcDbDictionaryWithDefault
340
F
  0
DICTIONARY
  5
17
102
{ACAD_REACTORS
330
C
102
}
100
AcDbDictionary
280
0
281
1
  3
Standard
350
18
  0
DICTIONARY
  5
19
102
{ACAD_REACTORS
330
C
102
}
100
AcDbDictionary
281
1
  0
DICTIONARY
  5
1A
102
{ACAD_REACTORS
330
C
102
}
100
AcDbDictionary
281
1
  3
Model
350
362
  3
Layout1
350
363
  0
ACDBPLACEHOLDER
  5
F
102
{ACAD_REACTORS
330
E
102
}
  0
MLINESTYLE
  5
18
102
{ACAD_REACTORS
330
17
102
}
100
AcDbMlineStyle
  2
STANDARD
 70
0
  3

 62
256
 51
90.0
 52
90.0
 71
2
 49
0.5
 62
256
  6
BYLAYER
 49
-0.5
 62
256
  6
BYLAYER
  0
LAYOUT
  5
362
102
{ACAD_REACTORS
330
1A
102
}
100
AcDbPlotSettings
  1

  2
none_device
  4

  6

 40
0.0
 41
0.0
 42
0.0
 43
0.0
 44
210.0
 45
297.0
 46
0.0
 47
0.0
 48
0.0
 49
0.0
140
0.0
141
0.0
142
1.0
143
1.0
 70
1024
 72
1
 73
0
 74
0
  7

 75
0
147
1.0
148
0.0
149
0.0
100
AcDbLayout
  1
Model
 70
0
 71
0
 10
0.0
 20
0.0
 11
210.0
 21
297.0
 12
0.0
 22
0.0
 32
0.0
 14
0.0
 24
0.0
 34
0.0
 15
0.0
 25
0.0
 35
0.0
146
0.0
 13
0.0
 23
0.0
 33
0.0
 16
1.0
 26
0.0
 36
0.0
 17
0.0
 27
1.0
 37
0.0
 76
0
330
213
345
0
346
0
  0
LAYOUT
  5
363
102
{ACAD_REACTORS
330
1A
102
}
100
AcDbPlotSettings
  1

  2
none_device
  4

  6

 40
0.0
 41
0.0
 42
0.0
 43
0.0
 44
210.0
 45
297.0
 46
0.0
 47
0.0
 48
0.0
 49
0.0
140
0.0
141
0.0
142
1.0
143
1.0
 70
0
 72
1
 73
0
 74
0
  7

 75
0
147
1.0
148
0.0
149
0.0
100
AcDbLayout
  1
Layout1
 70
0
 71
1
 10
0.0
 20
0.0
 11
210.0
 21
297.0
 12
0.0
 22
0.0
 32
0.0
 14
0.0
 24
0.0
 34
0.0
 15
0.0
 25
0.0
 35
0.0
146
0.0
 13
0.0
 23
0.0
 33
0.0
 16
1.0
 26
0.0
 36
0.0
 17
0.0
 27
1.0
 37
0.0
 76
0
330
214
345
0
346
0
  0
ENDSEC
  0
EOF
