999
DXF file: Y:\001_SCHNEIDER_PARIS\78_2020_429_Grey Project M580\TRAVAIL LUCAS SANTANA G2P1\CAD3D\2D views\BMXDAI0805_2D-rear.dxf
999
Pro/ENGINEER 2018260 by Parametric Technology Corporation
  0
SECTION
  2
HEADER
  9
$ACADVER
  1
AC1027
  9
$DWGCODEPAGE
  3
ANSI_1252
  9
$EXTMAX
 10
558.8
 20
431.8
 30
0.0
  9
$EXTMIN
 10
0.0
 20
0.0
 30
0.0
  9
$LIMMIN
 10
0.0
 20
0.0
  9
$LIMMAX
 10
558.8
 20
431.8
  9
$VIEWCTR
 10
279.4
 20
215.9
  9
$VIEWSIZE
 40
431.8
  9
$CLAYER
  8
0
  9
$LTSCALE
 40
30.734
  9
$CELTYPE
  6
BYLAYER
  9
$DIMSCALE
 40
1.0
  9
$DIMASZ
 40
3.5
  9
$DIMEXO
 40
1.0
  9
$DIMDLI
 40
21.2344
  9
$DIMEXE
 40
3.0
  9
$DIMCEN
 40
5.0292
  9
$DIMLFAC
 40
1.0
  9
$DIMBLK
  1
_FILLED
  9
$DIMALT
 70
0
  9
$DIMALTF
 40
0.0393700787
  9
$DIMTXT
 40
4.0
  9
$DIMTOL
 70
1
  9
$DIMLIM
 70
0
  9
$DIMTFAC
 40
1.0
  9
$DIMTP
 40
0.0001
  9
$DIMTM
 40
0.0001
  9
$DIMGAP
 40
0.625
  9
$DIMDSEP
 70
46
  9
$AUNITS
 70
0
  9
$PDMODE
 70
0
  9
$PDSIZE
 40
0.01
  9
$HANDSEED
  5
432
  9
$TILEMODE
 70
1
  9
$MEASUREMENT
 70
1
  9
$INSUNITS
 70
4
  0
ENDSEC
  0
SECTION
  2
CLASSES
  0
CLASS
  1
ACDBDICTIONARYWDFLT
  2
AcDbDictionaryWithDefault
  3
AutoCAD 2000
 90
0
 91
1
280
0
281
0
  0
CLASS
  1
ACDBPLACEHOLDER
  2
AcDbPlaceHolder
  3
AutoCAD 2000
 90
0
 91
1
280
0
281
0
  0
CLASS
  1
LAYOUT
  2
AcDbLayout
  3
AutoCAD 2000
 90
0
 91
0
280
0
281
0
  0
ENDSEC
  0
SECTION
  2
TABLES
  0
TABLE
  2
VPORT
  5
8
100
AcDbSymbolTable
 70
2
  0
VPORT
  5
1F4
100
AcDbSymbolTableRecord
100
AcDbViewportTableRecord
  2
*ACTIVE
 70
0
 10
0.0
 20
0.0
 11
1.0
 21
1.0
 12
279.4
 22
215.9
 13
0.0
 23
0.0
 14
1.0
 24
1.0
 15
0.0
 25
0.0
 16
0.0
 26
0.0
 36
1.0
 17
0.0
 27
0.0
 37
0.0
 40
431.8
 41
1.2941176471
 42
50.0
 43
0.0
 44
0.0
 50
0.0
 51
0.0
 71
0
 72
100
 73
1
 74
1
 75
0
 76
0
 77
0
 78
0
  0
ENDTAB
  0
TABLE
  2
LTYPE
  5
5
100
AcDbSymbolTable
 70
6
  0
LTYPE
  5
14
100
AcDbSymbolTableRecord
100
AcDbLinetypeTableRecord
  2
BYBLOCK
 70
0
  3

 72
65
 73
0
 40
0.0
  0
LTYPE
  5
15
100
AcDbSymbolTableRecord
100
AcDbLinetypeTableRecord
  2
BYLAYER
 70
0
  3

 72
65
 73
0
 40
0.0
  0
LTYPE
  5
16
100
AcDbSymbolTableRecord
100
AcDbLinetypeTableRecord
  2
CONTINUOUS
 70
64
  3
Solid line
 72
65
 73
0
 40
0.0
  0
LTYPE
  5
1F5
100
AcDbSymbolTableRecord
100
AcDbLinetypeTableRecord
  2
CENTER
 70
64
  3
____ _ ____ _ ____ _ ____ _ ____ _ ____ _ ____
 72
65
 73
4
 40
0.6
 49
0.375
 74
0
 49
-0.075
 74
0
 49
0.075
 74
0
 49
-0.075
 74
0
  0
LTYPE
  5
1F6
100
AcDbSymbolTableRecord
100
AcDbLinetypeTableRecord
  2
HIDDEN
 70
64
  3
- - - - - - - - - - - - - - - - - - - -
 72
65
 73
2
 40
0.2
 49
0.1
 74
0
 49
-0.1
 74
0
  0
LTYPE
  5
1F7
100
AcDbSymbolTableRecord
100
AcDbLinetypeTableRecord
  2
PHANTOM
 70
64
  3
_____ _ _ _____ _ _ _____ _ _ _____
 72
65
 73
6
 40
0.8
 49
0.45
 74
0
 49
-0.05
 74
0
 49
0.1
 74
0
 49
-0.05
 74
0
 49
0.1
 74
0
 49
-0.05
 74
0
  0
LTYPE
  5
1F8
100
AcDbSymbolTableRecord
100
AcDbLinetypeTableRecord
  2
DOT
 70
64
  3
. . . . . . . . . . . . . . . . . . . .
 72
65
 73
2
 40
0.2
 49
0.1
 74
0
 49
-0.1
 74
0
  0
LTYPE
  5
1F9
100
AcDbSymbolTableRecord
100
AcDbLinetypeTableRecord
  2
DASHED
 70
64
  3
- - - - - - - - - - - - - - - - - - - -
 72
65
 73
2
 40
0.2
 49
0.1
 74
0
 49
-0.1
 74
0
  0
ENDTAB
  0
TABLE
  2
LAYER
  5
2
100
AcDbSymbolTable
 70
36
  0
LAYER
  5
10
100
AcDbSymbolTableRecord
100
AcDbLayerTableRecord
  2
0
 70
0
 62
7
  6
CONTINUOUS
370
-3
390
F
  0
LAYER
  5
1FA
100
AcDbSymbolTableRecord
100
AcDbLayerTableRecord
  2
DEFAULT_1
 70
0
 62
7
  6
CENTER
370
-3
390
F
  0
LAYER
  5
1FB
100
AcDbSymbolTableRecord
100
AcDbLayerTableRecord
  2
DEFAULT_2
 70
0
 62
8
  6
HIDDEN
370
-3
390
F
  0
LAYER
  5
1FC
100
AcDbSymbolTableRecord
100
AcDbLayerTableRecord
  2
DEFAULT_3
 70
0
 62
7
  6
PHANTOM
370
-3
390
F
  0
LAYER
  5
1FD
100
AcDbSymbolTableRecord
100
AcDbLayerTableRecord
  2
01_ALL_DTM_PLN
 70
0
 62
7
  6
CONTINUOUS
370
-3
390
F
  0
LAYER
  5
1FE
100
AcDbSymbolTableRecord
100
AcDbLayerTableRecord
  2
01__ASM_ALL_DTM_PLN
 70
0
 62
7
  6
CONTINUOUS
370
-3
390
F
  0
LAYER
  5
1FF
100
AcDbSymbolTableRecord
100
AcDbLayerTableRecord
  2
01__ASM_DEF_DTM_PLN
 70
0
 62
7
  6
CONTINUOUS
370
-3
390
F
  0
LAYER
  5
200
100
AcDbSymbolTableRecord
100
AcDbLayerTableRecord
  2
01___PRT_ALL_DTM_PLN
 70
0
 62
7
  6
CONTINUOUS
370
-3
390
F
  0
LAYER
  5
201
100
AcDbSymbolTableRecord
100
AcDbLayerTableRecord
  2
01___PRT_DEF_DTM_PLN
 70
0
 62
7
  6
CONTINUOUS
370
-3
390
F
  0
LAYER
  5
202
100
AcDbSymbolTableRecord
100
AcDbLayerTableRecord
  2
02_ALL_AXES
 70
0
 62
7
  6
CONTINUOUS
370
-3
390
F
  0
LAYER
  5
203
100
AcDbSymbolTableRecord
100
AcDbLayerTableRecord
  2
02__ASM_ALL_AXES
 70
0
 62
7
  6
CONTINUOUS
370
-3
390
F
  0
LAYER
  5
204
100
AcDbSymbolTableRecord
100
AcDbLayerTableRecord
  2
02___PRT_ALL_AXES
 70
0
 62
7
  6
CONTINUOUS
370
-3
390
F
  0
LAYER
  5
205
100
AcDbSymbolTableRecord
100
AcDbLayerTableRecord
  2
03_ALL_CURVES
 70
0
 62
7
  6
CONTINUOUS
370
-3
390
F
  0
LAYER
  5
206
100
AcDbSymbolTableRecord
100
AcDbLayerTableRecord
  2
03__ASM_ALL_CURVES
 70
0
 62
7
  6
CONTINUOUS
370
-3
390
F
  0
LAYER
  5
207
100
AcDbSymbolTableRecord
100
AcDbLayerTableRecord
  2
03___PRT_ALL_CURVES
 70
0
 62
7
  6
CONTINUOUS
370
-3
390
F
  0
LAYER
  5
208
100
AcDbSymbolTableRecord
100
AcDbLayerTableRecord
  2
04_ALL_DTM_PNT
 70
0
 62
7
  6
CONTINUOUS
370
-3
390
F
  0
LAYER
  5
209
100
AcDbSymbolTableRecord
100
AcDbLayerTableRecord
  2
04__ASM_ALL_DTM_PNT
 70
0
 62
7
  6
CONTINUOUS
370
-3
390
F
  0
LAYER
  5
20A
100
AcDbSymbolTableRecord
100
AcDbLayerTableRecord
  2
04___PRT_ALL_DTM_PNT
 70
0
 62
7
  6
CONTINUOUS
370
-3
390
F
  0
LAYER
  5
20B
100
AcDbSymbolTableRecord
100
AcDbLayerTableRecord
  2
05_ALL_DTM_CSYS
 70
0
 62
7
  6
CONTINUOUS
370
-3
390
F
  0
LAYER
  5
20C
100
AcDbSymbolTableRecord
100
AcDbLayerTableRecord
  2
05__ASM_ALL_DTM_CSYS
 70
0
 62
7
  6
CONTINUOUS
370
-3
390
F
  0
LAYER
  5
20D
100
AcDbSymbolTableRecord
100
AcDbLayerTableRecord
  2
05__ASM_DEF_DTM_CSYS
 70
0
 62
7
  6
CONTINUOUS
370
-3
390
F
  0
LAYER
  5
20E
100
AcDbSymbolTableRecord
100
AcDbLayerTableRecord
  2
05___PRT_ALL_DTM_CSYS
 70
0
 62
7
  6
CONTINUOUS
370
-3
390
F
  0
LAYER
  5
20F
100
AcDbSymbolTableRecord
100
AcDbLayerTableRecord
  2
05___PRT_DEF_DTM_CSYS
 70
0
 62
7
  6
CONTINUOUS
370
-3
390
F
  0
LAYER
  5
210
100
AcDbSymbolTableRecord
100
AcDbLayerTableRecord
  2
06_ALL_SURFS
 70
0
 62
7
  6
CONTINUOUS
370
-3
390
F
  0
LAYER
  5
211
100
AcDbSymbolTableRecord
100
AcDbLayerTableRecord
  2
06__ASM_ALL_SURFS
 70
0
 62
7
  6
CONTINUOUS
370
-3
390
F
  0
LAYER
  5
212
100
AcDbSymbolTableRecord
100
AcDbLayerTableRecord
  2
06___PRT_ALL_SURFS
 70
0
 62
7
  6
CONTINUOUS
370
-3
390
F
  0
LAYER
  5
213
100
AcDbSymbolTableRecord
100
AcDbLayerTableRecord
  2
07__ASM_ALL_SKELETONS
 70
0
 62
7
  6
CONTINUOUS
370
-3
390
F
  0
ENDTAB
  0
TABLE
  2
STYLE
  5
3
100
AcDbSymbolTable
 70
1
  0
STYLE
  5
11
100
AcDbSymbolTableRecord
100
AcDbTextStyleTableRecord
  2
STANDARD
 70
0
 40
0.0
 41
0.6
 50
0.0
 71
0
 42
0.2
  3
txt
  4

  0
STYLE
  5
214
100
AcDbSymbolTableRecord
100
AcDbTextStyleTableRecord
  2
TEXTSTYLE_1
 70
0
 40
0.0
 41
0.8
 50
0.0
 71
0
 42
0.2
  3
gdt
  4

  0
ENDTAB
  0
TABLE
  2
VIEW
  5
6
100
AcDbSymbolTable
 70
0
  0
ENDTAB
  0
TABLE
  2
UCS
  5
7
100
AcDbSymbolTable
 70
0
  0
ENDTAB
  0
TABLE
  2
APPID
  5
9
100
AcDbSymbolTable
 70
1
  0
APPID
  5
215
100
AcDbSymbolTableRecord
100
AcDbRegAppTableRecord
  2
ACAD
 70
0
  0
ENDTAB
  0
TABLE
  2
BLOCK_RECORD
  5
1
100
AcDbSymbolTable
 70
0
  0
BLOCK_RECORD
  5
216
100
AcDbSymbolTableRecord
100
AcDbBlockTableRecord
  2
*Model_Space
  0
BLOCK_RECORD
  5
217
100
AcDbSymbolTableRecord
100
AcDbBlockTableRecord
  2
*Paper_Space
  0
BLOCK_RECORD
  5
218
100
AcDbSymbolTableRecord
100
AcDbBlockTableRecord
  2
_FILLED
  0
ENDTAB
  0
TABLE
  2
DIMSTYLE
  5
A
100
AcDbSymbolTable
 70
1
100
AcDbDimStyleTable
 71
0
  0
DIMSTYLE
105
219
100
AcDbSymbolTableRecord
100
AcDbDimStyleTableRecord
  2
STANDARD
 70
0
  3

  4

 40
1.0
 41
3.5
 42
1.0
 43
0.38
 44
3.0
 45
0.0
 46
0.0
 47
0.0001
 48
0.0001
140
4.0
141
0.09
142
0.0
143
25.4
144
1.0
145
0.0
146
1.0
147
0.625
 71
1.0
 72
0.0
 73
0
 74
0
 75
0
 76
0
 77
1
 78
8
 79
2
170
0
171
3
172
0
173
0
174
0
175
0
176
0
177
0
178
0
270
2
179
4
271
4
272
4
273
2
274
2
275
0
280
0
281
0
282
0
283
1
284
8
285
0
286
0
287
3
288
0
340
11
278
46
341
218
342
218
343
218
344
218
  0
ENDTAB
  0
ENDSEC
  0
SECTION
  2
BLOCKS
  0
BLOCK
  5
20
100
AcDbEntity
  8
0
100
AcDbBlockBegin
  2
*Model_Space
 70
0
 10
0.0
 20
0.0
 30
0.0
  3
*Model_Space
  1

  0
ENDBLK
  5
21
100
AcDbEntity
  8
0
100
AcDbBlockEnd
  0
BLOCK
  5
1C
100
AcDbEntity
  8
0
100
AcDbBlockBegin
  2
*Paper_Space
 70
0
 10
0.0
 20
0.0
 30
0.0
  3
*Paper_Space
  1

  0
ENDBLK
  5
1D
100
AcDbEntity
  8
0
100
AcDbBlockEnd
  0
BLOCK
  5
21A
100
AcDbEntity
  8
0
100
AcDbBlockBegin
  2
_FILLED
 70
64
 10
0.0
 20
0.0
  3
_FILLED
  1

  0
SOLID
  5
21B
100
AcDbEntity
  8
0
  6
BYBLOCK
 62
0
100
AcDbTrace
 10
0.0
 20
0.0
 11
-1.0
 21
0.2857142857
 12
-1.0
 22
-0.2857142857
 13
-1.0
 23
-0.2857142857
  0
ENDBLK
  5
21C
100
AcDbEntity
  8
0
  6
BYBLOCK
 62
0
100
AcDbBlockEnd
  0
ENDSEC
  0
SECTION
  2
ENTITIES
  0
LINE
  5
21D
100
AcDbEntity
  8
0
100
AcDbLine
 62
7
  6
CONTINUOUS
 10
397.2437769361
 20
252.5437831828
 11
429.2437769361
 21
252.5437831828
  0
LINE
  5
21E
100
AcDbEntity
  8
0
100
AcDbLine
 62
7
  6
CONTINUOUS
 10
403.0083940288
 20
352.5437831828
 11
409.2437769361
 21
356.1437831828
  0
LINE
  5
21F
100
AcDbEntity
  8
0
100
AcDbLine
 62
7
  6
CONTINUOUS
 10
402.6507107185
 20
254.4007169653
 11
405.3368431537
 21
254.4007169653
  0
LINE
  5
220
100
AcDbEntity
  8
0
100
AcDbLine
 62
7
  6
CONTINUOUS
 10
420.8007107185
 20
254.4007169653
 11
423.8868431537
 21
254.4007169653
  0
LINE
  5
221
100
AcDbEntity
  8
0
100
AcDbLine
 62
7
  6
CONTINUOUS
 10
402.7437769361
 20
254.4937831828
 11
405.2437769361
 21
254.4937831828
  0
LINE
  5
222
100
AcDbEntity
  8
0
100
AcDbLine
 62
7
  6
CONTINUOUS
 10
420.8937769361
 20
254.4937831828
 11
423.7937769361
 21
254.4937831828
  0
LINE
  5
223
100
AcDbEntity
  8
0
100
AcDbLine
 62
7
  6
CONTINUOUS
 10
397.2437769361
 20
254.9437831828
 11
401.9876153376
 21
254.9437831828
  0
LINE
  5
224
100
AcDbEntity
  8
0
100
AcDbLine
 62
7
  6
CONTINUOUS
 10
424.4999385346
 20
254.9437831828
 11
429.2437769361
 21
254.9437831828
  0
LINE
  5
225
100
AcDbEntity
  8
0
100
AcDbLine
 62
7
  6
CONTINUOUS
 10
420.7750824946
 20
256.9437831828
 11
405.3624713776
 21
256.9437831828
  0
LINE
  5
226
100
AcDbEntity
  8
0
100
AcDbLine
 62
7
  6
CONTINUOUS
 10
401.7188449549
 20
256.9437831828
 11
402.6250824946
 21
256.9437831828
  0
LINE
  5
227
100
AcDbEntity
  8
0
100
AcDbLine
 62
7
  6
CONTINUOUS
 10
423.9124713776
 20
256.9437831828
 11
424.7687089172
 21
256.9437831828
  0
LINE
  5
228
100
AcDbEntity
  8
0
100
AcDbLine
 62
7
  6
CONTINUOUS
 10
398.5954201836
 20
352.0437831828
 11
399.1029852641
 21
352.543781398
  0
LINE
  5
229
100
AcDbEntity
  8
0
100
AcDbLine
 62
7
  6
CONTINUOUS
 10
402.2437769361
 20
258.3344404819
 11
401.7214363418
 21
258.2823377622
  0
LINE
  5
22A
100
AcDbEntity
  8
0
100
AcDbLine
 62
7
  6
CONTINUOUS
 10
429.2437769361
 20
257.9437831828
 11
423.9937769361
 21
257.9437831828
  0
LINE
  5
22B
100
AcDbEntity
  8
0
100
AcDbLine
 62
7
  6
CONTINUOUS
 10
397.2437769361
 20
257.9437831828
 11
402.4937769361
 21
257.9437831828
  0
LINE
  5
22C
100
AcDbEntity
  8
0
100
AcDbLine
 62
7
  6
CONTINUOUS
 10
399.2323315155
 20
258.2823377622
 11
401.7214363418
 21
258.2823377622
  0
LINE
  5
22D
100
AcDbEntity
  8
0
100
AcDbLine
 62
7
  6
CONTINUOUS
 10
424.7661175304
 20
258.2823377622
 11
427.2552223567
 21
258.2823377622
  0
LINE
  5
22E
100
AcDbEntity
  8
0
100
AcDbLine
 62
7
  6
CONTINUOUS
 10
424.2437769361
 20
258.3344404819
 11
423.9124713776
 21
258.3344404819
  0
LINE
  5
22F
100
AcDbEntity
  8
0
100
AcDbLine
 62
7
  6
CONTINUOUS
 10
420.7750824946
 20
258.3344404819
 11
405.3624713776
 21
258.3344404819
  0
LINE
  5
230
100
AcDbEntity
  8
0
100
AcDbLine
 62
7
  6
CONTINUOUS
 10
402.6250824946
 20
258.3344404819
 11
402.2437769361
 21
258.3344404819
  0
LINE
  5
231
100
AcDbEntity
  8
0
100
AcDbLine
 62
7
  6
CONTINUOUS
 10
419.7937769361
 20
258.3720855124
 11
418.2437769361
 21
258.3720855124
  0
LINE
  5
232
100
AcDbEntity
  8
0
100
AcDbLine
 62
7
  6
CONTINUOUS
 10
408.2437769361
 20
258.3720855124
 11
406.3437769361
 21
258.3720855124
  0
LINE
  5
233
100
AcDbEntity
  8
0
100
AcDbLine
 62
7
  6
CONTINUOUS
 10
399.3437769361
 20
258.3937831828
 11
406.3437769361
 21
258.3937831828
  0
LINE
  5
234
100
AcDbEntity
  8
0
100
AcDbLine
 62
7
  6
CONTINUOUS
 10
419.7937769361
 20
258.3937831828
 11
427.1437769361
 21
258.3937831828
  0
LINE
  5
235
100
AcDbEntity
  8
0
100
AcDbLine
 62
7
  6
CONTINUOUS
 10
402.5437769361
 20
258.5437831828
 11
408.2437769361
 21
258.5437831828
  0
LINE
  5
236
100
AcDbEntity
  8
0
100
AcDbLine
 62
7
  6
CONTINUOUS
 10
418.2437769361
 20
258.5437831828
 11
418.5937769361
 21
258.5437831828
  0
LINE
  5
237
100
AcDbEntity
  8
0
100
AcDbLine
 62
7
  6
CONTINUOUS
 10
398.891104137
 20
259.1437831828
 11
427.5964497352
 21
259.1437831828
  0
LINE
  5
238
100
AcDbEntity
  8
0
100
AcDbLine
 62
7
  6
CONTINUOUS
 10
424.7661175304
 20
258.2823377622
 11
424.2437769361
 21
258.3344404819
  0
LINE
  5
239
100
AcDbEntity
  8
0
100
AcDbLine
 62
7
  6
CONTINUOUS
 10
405.2437769361
 20
258.3937831828
 11
405.3624713776
 21
258.3344404819
  0
LINE
  5
23A
100
AcDbEntity
  8
0
100
AcDbLine
 62
7
  6
CONTINUOUS
 10
405.3624713776
 20
348.3290496336
 11
405.2437769361
 21
348.2697069326
  0
LINE
  5
23B
100
AcDbEntity
  8
0
100
AcDbLine
 62
7
  6
CONTINUOUS
 10
426.9874713776
 20
262.5124776244
 11
425.6369167306
 21
262.4619229774
  0
LINE
  5
23C
100
AcDbEntity
  8
0
100
AcDbLine
 62
7
  6
CONTINUOUS
 10
399.5000824946
 20
263.5750887413
 11
400.8506371416
 21
263.6256433883
  0
LINE
  5
23D
100
AcDbEntity
  8
0
100
AcDbLine
 62
7
  6
CONTINUOUS
 10
399.000275984
 20
262.1937831828
 11
402.4437769361
 21
262.1937831828
  0
LINE
  5
23E
100
AcDbEntity
  8
0
100
AcDbLine
 62
7
  6
CONTINUOUS
 10
424.0437769361
 20
262.1937831828
 11
427.4872774881
 21
262.1937831828
  0
LINE
  5
23F
100
AcDbEntity
  8
0
100
AcDbLine
 62
7
  6
CONTINUOUS
 10
401.9437769361
 20
262.2937831828
 11
411.7437769361
 21
262.2937831828
  0
LINE
  5
240
100
AcDbEntity
  8
0
100
AcDbLine
 62
7
  6
CONTINUOUS
 10
414.7437769361
 20
262.2937831828
 11
424.5437769361
 21
262.2937831828
  0
LINE
  5
241
100
AcDbEntity
  8
0
100
AcDbLine
 62
7
  6
CONTINUOUS
 10
400.9187769361
 20
262.3937831828
 11
399.3437769361
 21
262.3937831828
  0
LINE
  5
242
100
AcDbEntity
  8
0
100
AcDbLine
 62
7
  6
CONTINUOUS
 10
425.5687769361
 20
262.3937831828
 11
427.1437769361
 21
262.3937831828
  0
LINE
  5
243
100
AcDbEntity
  8
0
100
AcDbLine
 62
7
  6
CONTINUOUS
 10
427.2031196371
 20
262.5124776244
 11
426.9874713776
 21
262.5124776244
  0
LINE
  5
244
100
AcDbEntity
  8
0
100
AcDbLine
 62
7
  6
CONTINUOUS
 10
399.5000824946
 20
262.5124776244
 11
399.2844342351
 21
262.5124776244
  0
LINE
  5
245
100
AcDbEntity
  8
0
100
AcDbLine
 62
7
  6
CONTINUOUS
 10
402.5437769361
 20
263.3837831828
 11
408.2437769361
 21
263.3837831828
  0
LINE
  5
246
100
AcDbEntity
  8
0
100
AcDbLine
 62
7
  6
CONTINUOUS
 10
399.2844342351
 20
263.5750887413
 11
399.5000824946
 21
263.5750887413
  0
LINE
  5
247
100
AcDbEntity
  8
0
100
AcDbLine
 62
7
  6
CONTINUOUS
 10
426.9874713776
 20
263.5750887413
 11
427.2031196371
 21
263.5750887413
  0
LINE
  5
248
100
AcDbEntity
  8
0
100
AcDbLine
 62
7
  6
CONTINUOUS
 10
399.3437769361
 20
263.6937831828
 11
400.9187769361
 21
263.6937831828
  0
LINE
  5
249
100
AcDbEntity
  8
0
100
AcDbLine
 62
7
  6
CONTINUOUS
 10
425.5687769361
 20
263.6937831828
 11
427.1437769361
 21
263.6937831828
  0
LINE
  5
24A
100
AcDbEntity
  8
0
100
AcDbLine
 62
7
  6
CONTINUOUS
 10
401.9437769361
 20
263.7937831828
 11
411.7437769361
 21
263.7937831828
  0
LINE
  5
24B
100
AcDbEntity
  8
0
100
AcDbLine
 62
7
  6
CONTINUOUS
 10
414.7437769361
 20
263.7937831828
 11
424.5437769361
 21
263.7937831828
  0
LINE
  5
24C
100
AcDbEntity
  8
0
100
AcDbLine
 62
7
  6
CONTINUOUS
 10
398.9462634282
 20
263.8937831828
 11
402.4437769361
 21
263.8937831828
  0
LINE
  5
24D
100
AcDbEntity
  8
0
100
AcDbLine
 62
7
  6
CONTINUOUS
 10
424.0437769361
 20
263.8937831828
 11
427.5412907497
 21
263.8937831828
  0
LINE
  5
24E
100
AcDbEntity
  8
0
100
AcDbLine
 62
7
  6
CONTINUOUS
 10
399.5000824946
 20
262.5124776244
 11
400.8506371416
 21
262.4619229774
  0
LINE
  5
24F
100
AcDbEntity
  8
0
100
AcDbLine
 62
7
  6
CONTINUOUS
 10
426.9874713776
 20
263.5750887413
 11
425.6369167306
 21
263.6256433883
  0
LINE
  5
250
100
AcDbEntity
  8
0
100
AcDbLine
 62
7
  6
CONTINUOUS
 10
405.3368431537
 20
254.4007169653
 11
405.2437769361
 21
254.4937831828
  0
LINE
  5
251
100
AcDbEntity
  8
0
100
AcDbLine
 62
7
  6
CONTINUOUS
 10
405.3624713776
 20
350.7124776244
 11
405.2437769361
 21
350.5937831828
  0
LINE
  5
252
100
AcDbEntity
  8
0
100
AcDbLine
 62
7
  6
CONTINUOUS
 10
400.9187769361
 20
344.1937831828
 11
400.8506371416
 21
344.1256433883
  0
LINE
  5
253
100
AcDbEntity
  8
0
100
AcDbLine
 62
7
  6
CONTINUOUS
 10
429.2437769361
 20
266.15771004
 11
427.2492094942
 21
266.15771004
  0
LINE
  5
254
100
AcDbEntity
  8
0
100
AcDbLine
 62
7
  6
CONTINUOUS
 10
399.2383443779
 20
266.15771004
 11
397.2437769361
 21
266.15771004
  0
LINE
  5
255
100
AcDbEntity
  8
0
100
AcDbLine
 62
7
  6
CONTINUOUS
 10
427.5307436281
 20
266.9437831828
 11
398.9568097112
 21
266.9437831828
  0
LINE
  5
256
100
AcDbEntity
  8
0
100
AcDbLine
 62
7
  6
CONTINUOUS
 10
397.2437769361
 20
267.7437831828
 11
399.2800708031
 21
267.7437831828
  0
LINE
  5
257
100
AcDbEntity
  8
0
100
AcDbLine
 62
7
  6
CONTINUOUS
 10
427.207483071
 20
267.7437831828
 11
429.2437769361
 21
267.7437831828
  0
LINE
  5
258
100
AcDbEntity
  8
0
100
AcDbLine
 62
7
  6
CONTINUOUS
 10
399.4060770491
 20
267.9099988712
 11
399.3437769361
 21
267.9099988712
  0
LINE
  5
259
100
AcDbEntity
  8
0
100
AcDbLine
 62
7
  6
CONTINUOUS
 10
427.0814768231
 20
267.9099988712
 11
427.1437769361
 21
267.9099988712
  0
LINE
  5
25A
100
AcDbEntity
  8
0
100
AcDbLine
 62
7
  6
CONTINUOUS
 10
427.0524164935
 20
267.9745826114
 11
418.2437769361
 21
267.9745826114
  0
LINE
  5
25B
100
AcDbEntity
  8
0
100
AcDbLine
 62
7
  6
CONTINUOUS
 10
408.2437769361
 20
267.9745826114
 11
399.4351373786
 21
267.9745826114
  0
LINE
  5
25C
100
AcDbEntity
  8
0
100
AcDbLine
 62
7
  6
CONTINUOUS
 10
418.2437769361
 20
268.0060017283
 11
408.2437769361
 21
268.0060017283
  0
LINE
  5
25D
100
AcDbEntity
  8
0
100
AcDbLine
 62
7
  6
CONTINUOUS
 10
399.2844342351
 20
268.0286933127
 11
427.2031196371
 21
268.0286933127
  0
LINE
  5
25E
100
AcDbEntity
  8
0
100
AcDbLine
 62
7
  6
CONTINUOUS
 10
423.7937769361
 20
258.3937831828
 11
423.9124713776
 21
258.3344404819
  0
LINE
  5
25F
100
AcDbEntity
  8
0
100
AcDbLine
 62
7
  6
CONTINUOUS
 10
400.8506371416
 20
262.4619229774
 11
400.9187769361
 21
262.3937831828
  0
LINE
  5
260
100
AcDbEntity
  8
0
100
AcDbLine
 62
7
  6
CONTINUOUS
 10
424.0124713776
 20
348.3290496336
 11
423.8937769361
 21
348.2697069326
  0
LINE
  5
261
100
AcDbEntity
  8
0
100
AcDbLine
 62
7
  6
CONTINUOUS
 10
401.1437769361
 20
336.4937831828
 11
401.1594992699
 21
336.5095055166
  0
LINE
  5
262
100
AcDbEntity
  8
0
100
AcDbLine
 62
7
  6
CONTINUOUS
 10
399.3437769361
 20
262.3937831828
 11
399.2844342351
 21
262.5124776244
  0
LINE
  5
263
100
AcDbEntity
  8
0
100
AcDbLine
 62
7
  6
CONTINUOUS
 10
399.3437769361
 20
267.9099988712
 11
399.2844342351
 21
268.0286933127
  0
LINE
  5
264
100
AcDbEntity
  8
0
100
AcDbLine
 62
7
  6
CONTINUOUS
 10
399.1085104853
 20
339.158873053
 11
399.1678531863
 21
339.2775674945
  0
LINE
  5
265
100
AcDbEntity
  8
0
100
AcDbLine
 62
7
  6
CONTINUOUS
 10
424.0124713776
 20
350.7124776244
 11
423.8937769361
 21
350.5937831828
  0
LINE
  5
266
100
AcDbEntity
  8
0
100
AcDbLine
 62
7
  6
CONTINUOUS
 10
423.8868431537
 20
254.4007169653
 11
423.7937769361
 21
254.4937831828
  0
LINE
  5
267
100
AcDbEntity
  8
0
100
AcDbLine
 62
7
  6
CONTINUOUS
 10
411.7729715027
 20
350.3604662878
 11
411.7184795991
 21
350.2539164494
  0
LINE
  5
268
100
AcDbEntity
  8
0
100
AcDbLine
 62
7
  6
CONTINUOUS
 10
427.1437769361
 20
258.3937831828
 11
427.2552223567
 21
258.2823377622
  0
LINE
  5
269
100
AcDbEntity
  8
0
100
AcDbLine
 62
7
  6
CONTINUOUS
 10
414.7619798067
 20
352.1450053085
 11
414.7737769361
 21
352.1687831828
  0
LINE
  5
26A
100
AcDbEntity
  8
0
100
AcDbLine
 62
7
  6
CONTINUOUS
 10
427.3790433868
 20
348.3290496336
 11
427.2437769361
 21
348.1937831828
  0
LINE
  5
26B
100
AcDbEntity
  8
0
100
AcDbLine
 62
7
  6
CONTINUOUS
 10
425.5687769361
 20
342.8937831828
 11
425.6369167306
 21
342.9619229774
  0
LINE
  5
26C
100
AcDbEntity
  8
0
100
AcDbLine
 62
7
  6
CONTINUOUS
 10
425.6369167306
 20
263.6256433883
 11
425.5687769361
 21
263.6937831828
  0
LINE
  5
26D
100
AcDbEntity
  8
0
100
AcDbLine
 62
7
  6
CONTINUOUS
 10
397.2437769361
 20
252.5437831828
 11
397.2437769361
 21
352.5437831828
  0
LINE
  5
26E
100
AcDbEntity
  8
0
100
AcDbLine
 62
7
  6
CONTINUOUS
 10
398.5954201836
 20
340.1937831828
 11
398.5954201836
 21
352.0437831828
  0
LINE
  5
26F
100
AcDbEntity
  8
0
100
AcDbLine
 62
7
  6
CONTINUOUS
 10
399.1018507127
 20
336.5357094063
 11
399.1018507127
 21
300.7263294473
  0
LINE
  5
270
100
AcDbEntity
  8
0
100
AcDbLine
 62
7
  6
CONTINUOUS
 10
399.1029775851
 20
340.1937831828
 11
399.102977729
 21
352.543781398
  0
LINE
  5
271
100
AcDbEntity
  8
0
100
AcDbLine
 62
7
  6
CONTINUOUS
 10
399.1085104853
 20
339.158873053
 11
399.1085104853
 21
340.1937831828
  0
LINE
  5
272
100
AcDbEntity
  8
0
100
AcDbLine
 62
7
  6
CONTINUOUS
 10
399.1085104853
 20
343.0124776244
 11
399.1085104853
 21
344.0750887413
  0
LINE
  5
273
100
AcDbEntity
  8
0
100
AcDbLine
 62
7
  6
CONTINUOUS
 10
399.1437769361
 20
336.4937831828
 11
399.1437769361
 21
300.7333109415
  0
LINE
  5
274
100
AcDbEntity
  8
0
100
AcDbLine
 62
7
  6
CONTINUOUS
 10
399.1678531863
 20
339.2775674945
 11
399.1678531863
 21
339.6437831828
  0
LINE
  5
275
100
AcDbEntity
  8
0
100
AcDbLine
 62
7
  6
CONTINUOUS
 10
399.1678531863
 20
342.6937831828
 11
399.1678531863
 21
342.8937831828
  0
LINE
  5
276
100
AcDbEntity
  8
0
100
AcDbLine
 62
7
  6
CONTINUOUS
 10
399.2437769361
 20
347.4437831828
 11
399.2437769361
 21
348.1937831828
  0
LINE
  5
277
100
AcDbEntity
  8
0
100
AcDbLine
 62
7
  6
CONTINUOUS
 10
399.2323315155
 20
258.2823377622
 11
399.2383443779
 21
266.15771004
  0
LINE
  5
278
100
AcDbEntity
  8
0
100
AcDbLine
 62
7
  6
CONTINUOUS
 10
402.6507107185
 20
254.4007169653
 11
402.6250824946
 21
256.9437831828
  0
LINE
  5
279
100
AcDbEntity
  8
0
100
AcDbLine
 62
7
  6
CONTINUOUS
 10
399.2844342351
 20
262.5124776244
 11
399.2844342351
 21
263.5750887413
  0
LINE
  5
27A
100
AcDbEntity
  8
0
100
AcDbLine
 62
7
  6
CONTINUOUS
 10
399.2844342351
 20
267.7437831828
 11
399.2844342351
 21
268.0286933127
  0
LINE
  5
27B
100
AcDbEntity
  8
0
100
AcDbLine
 62
7
  6
CONTINUOUS
 10
399.305580335
 20
344.3937831828
 11
399.305580335
 21
344.3456422477
  0
LINE
  5
27C
100
AcDbEntity
  8
0
100
AcDbLine
 62
7
  6
CONTINUOUS
 10
399.3377460038
 20
344.3456422477
 11
399.3377460038
 21
344.3937831828
  0
LINE
  5
27D
100
AcDbEntity
  8
0
100
AcDbLine
 62
7
  6
CONTINUOUS
 10
399.3377460038
 20
347.4437831828
 11
399.3377460038
 21
348.1937831828
  0
LINE
  5
27E
100
AcDbEntity
  8
0
100
AcDbLine
 62
7
  6
CONTINUOUS
 10
399.3437769361
 20
262.3937831828
 11
399.3437769361
 21
262.1937831828
  0
LINE
  5
27F
100
AcDbEntity
  8
0
100
AcDbLine
 62
7
  6
CONTINUOUS
 10
399.3437769361
 20
259.1437831828
 11
399.3437769361
 21
258.3937831828
  0
LINE
  5
280
100
AcDbEntity
  8
0
100
AcDbLine
 62
7
  6
CONTINUOUS
 10
399.3437769361
 20
263.6937831828
 11
399.3437769361
 21
263.8937831828
  0
LINE
  5
281
100
AcDbEntity
  8
0
100
AcDbLine
 62
7
  6
CONTINUOUS
 10
399.3437769361
 20
266.9437831828
 11
399.3437769361
 21
267.9099988712
  0
LINE
  5
282
100
AcDbEntity
  8
0
100
AcDbLine
 62
7
  6
CONTINUOUS
 10
399.4060770491
 20
258.3937831828
 11
399.4060770491
 21
259.1437831828
  0
LINE
  5
283
100
AcDbEntity
  8
0
100
AcDbLine
 62
7
  6
CONTINUOUS
 10
399.4060770491
 20
262.1937831828
 11
399.4060770491
 21
262.3937831828
  0
LINE
  5
284
100
AcDbEntity
  8
0
100
AcDbLine
 62
7
  6
CONTINUOUS
 10
399.4060770491
 20
263.6937831828
 11
399.4060770491
 21
263.8937831828
  0
LINE
  5
285
100
AcDbEntity
  8
0
100
AcDbLine
 62
7
  6
CONTINUOUS
 10
399.4060770491
 20
266.9437831828
 11
399.4060770491
 21
267.9099988712
  0
LINE
  5
286
100
AcDbEntity
  8
0
100
AcDbLine
 62
7
  6
CONTINUOUS
 10
399.4060770491
 20
339.2775674945
 11
399.4060770491
 21
339.6437831828
  0
LINE
  5
287
100
AcDbEntity
  8
0
100
AcDbLine
 62
7
  6
CONTINUOUS
 10
399.4060770491
 20
342.6937831828
 11
399.4060770491
 21
342.8937831828
  0
LINE
  5
288
100
AcDbEntity
  8
0
100
AcDbLine
 62
7
  6
CONTINUOUS
 10
399.5000824946
 20
263.5750887413
 11
399.5000824946
 21
262.5124776244
  0
LINE
  5
289
100
AcDbEntity
  8
0
100
AcDbLine
 62
7
  6
CONTINUOUS
 10
399.5000824946
 20
343.0124776244
 11
399.5000824946
 21
344.0750887413
  0
LINE
  5
28A
100
AcDbEntity
  8
0
100
AcDbLine
 62
7
  6
CONTINUOUS
 10
399.5937769361
 20
342.6937831828
 11
399.5937769361
 21
342.8937831828
  0
LINE
  5
28B
100
AcDbEntity
  8
0
100
AcDbLine
 62
7
  6
CONTINUOUS
 10
399.5937769361
 20
344.1937831828
 11
399.5937769361
 21
344.3937831828
  0
LINE
  5
28C
100
AcDbEntity
  8
0
100
AcDbLine
 62
7
  6
CONTINUOUS
 10
400.2137769361
 20
339.2077472348
 11
400.2137769361
 21
339.6437831828
  0
LINE
  5
28D
100
AcDbEntity
  8
0
100
AcDbLine
 62
7
  6
CONTINUOUS
 10
400.2137769361
 20
342.6937831828
 11
400.2137769361
 21
342.8937831828
  0
LINE
  5
28E
100
AcDbEntity
  8
0
100
AcDbLine
 62
7
  6
CONTINUOUS
 10
400.2137769361
 20
344.1937831828
 11
400.2137769361
 21
344.3937831828
  0
LINE
  5
28F
100
AcDbEntity
  8
0
100
AcDbLine
 62
7
  6
CONTINUOUS
 10
400.2137769361
 20
347.4437831828
 11
400.2137769361
 21
348.1937831828
  0
LINE
  5
290
100
AcDbEntity
  8
0
100
AcDbLine
 62
7
  6
CONTINUOUS
 10
400.8506371416
 20
263.6256433883
 11
400.8506371416
 21
262.4619229774
  0
LINE
  5
291
100
AcDbEntity
  8
0
100
AcDbLine
 62
7
  6
CONTINUOUS
 10
400.8506371416
 20
342.9619229774
 11
400.8506371416
 21
344.1256433883
  0
LINE
  5
292
100
AcDbEntity
  8
0
100
AcDbLine
 62
7
  6
CONTINUOUS
 10
400.9187769361
 20
263.6937831828
 11
400.9187769361
 21
262.3937831828
  0
LINE
  5
293
100
AcDbEntity
  8
0
100
AcDbLine
 62
7
  6
CONTINUOUS
 10
400.9187769361
 20
342.8937831828
 11
400.9187769361
 21
344.1937831828
  0
LINE
  5
294
100
AcDbEntity
  8
0
100
AcDbLine
 62
7
  6
CONTINUOUS
 10
401.1437769361
 20
336.4937831828
 11
401.1437769361
 21
300.7333109415
  0
LINE
  5
295
100
AcDbEntity
  8
0
100
AcDbLine
 62
7
  6
CONTINUOUS
 10
401.1594992699
 20
336.5095055166
 11
401.1594992699
 21
300.7306928812
  0
LINE
  5
296
100
AcDbEntity
  8
0
100
AcDbLine
 62
7
  6
CONTINUOUS
 10
401.2793825212
 20
342.6937831828
 11
401.2793825212
 21
339.6437831828
  0
LINE
  5
297
100
AcDbEntity
  8
0
100
AcDbLine
 62
7
  6
CONTINUOUS
 10
401.2793825212
 20
262.1937831828
 11
401.2793825212
 21
259.1437831828
  0
LINE
  5
298
100
AcDbEntity
  8
0
100
AcDbLine
 62
7
  6
CONTINUOUS
 10
401.2793825212
 20
263.8937831828
 11
401.2793825212
 21
266.9437831828
  0
LINE
  5
299
100
AcDbEntity
  8
0
100
AcDbLine
 62
7
  6
CONTINUOUS
 10
401.2793825212
 20
344.3937831828
 11
401.2793825212
 21
347.4437831828
  0
LINE
  5
29A
100
AcDbEntity
  8
0
100
AcDbLine
 62
7
  6
CONTINUOUS
 10
401.7188449549
 20
254.9437831828
 11
401.7188449549
 21
256.9437831828
  0
LINE
  5
29B
100
AcDbEntity
  8
0
100
AcDbLine
 62
7
  6
CONTINUOUS
 10
401.9437769361
 20
262.1937831828
 11
401.9437769361
 21
262.2937831828
  0
LINE
  5
29C
100
AcDbEntity
  8
0
100
AcDbLine
 62
7
  6
CONTINUOUS
 10
401.9437769361
 20
263.7937831828
 11
401.9437769361
 21
263.8937831828
  0
LINE
  5
29D
100
AcDbEntity
  8
0
100
AcDbLine
 62
7
  6
CONTINUOUS
 10
401.9437769361
 20
342.6937831828
 11
401.9437769361
 21
342.7937831828
  0
LINE
  5
29E
100
AcDbEntity
  8
0
100
AcDbLine
 62
7
  6
CONTINUOUS
 10
401.9437769361
 20
344.2937831828
 11
401.9437769361
 21
344.3937831828
  0
LINE
  5
29F
100
AcDbEntity
  8
0
100
AcDbLine
 62
7
  6
CONTINUOUS
 10
401.9688449549
 20
257.9437831828
 11
401.9688449549
 21
256.9437831828
  0
LINE
  5
2A0
100
AcDbEntity
  8
0
100
AcDbLine
 62
7
  6
CONTINUOUS
 10
402.1938321395
 20
342.7937831828
 11
402.1938321395
 21
342.6937831828
  0
LINE
  5
2A1
100
AcDbEntity
  8
0
100
AcDbLine
 62
7
  6
CONTINUOUS
 10
402.1938321395
 20
262.2937831828
 11
402.1938321395
 21
262.1937831828
  0
LINE
  5
2A2
100
AcDbEntity
  8
0
100
AcDbLine
 62
7
  6
CONTINUOUS
 10
402.1938321395
 20
263.7937831828
 11
402.1938321395
 21
263.8937831828
  0
LINE
  5
2A3
100
AcDbEntity
  8
0
100
AcDbLine
 62
7
  6
CONTINUOUS
 10
402.1938321395
 20
344.2937831828
 11
402.1938321395
 21
344.3937831828
  0
LINE
  5
2A4
100
AcDbEntity
  8
0
100
AcDbLine
 62
7
  6
CONTINUOUS
 10
402.2437769361
 20
257.9437831828
 11
402.2437769361
 21
258.3344404819
  0
LINE
  5
2A5
100
AcDbEntity
  8
0
100
AcDbLine
 62
7
  6
CONTINUOUS
 10
402.4437769361
 20
262.1937831828
 11
402.4437769361
 21
262.2937831828
  0
LINE
  5
2A6
100
AcDbEntity
  8
0
100
AcDbLine
 62
7
  6
CONTINUOUS
 10
402.4437769361
 20
263.7937831828
 11
402.4437769361
 21
263.8937831828
  0
LINE
  5
2A7
100
AcDbEntity
  8
0
100
AcDbLine
 62
7
  6
CONTINUOUS
 10
402.4437769361
 20
342.6937831828
 11
402.4437769361
 21
342.7937831828
  0
LINE
  5
2A8
100
AcDbEntity
  8
0
100
AcDbLine
 62
7
  6
CONTINUOUS
 10
402.4437769361
 20
344.2937831828
 11
402.4437769361
 21
344.3937831828
  0
LINE
  5
2A9
100
AcDbEntity
  8
0
100
AcDbLine
 62
7
  6
CONTINUOUS
 10
402.4937769361
 20
257.9437831828
 11
402.4937769361
 21
256.9437831828
  0
LINE
  5
2AA
100
AcDbEntity
  8
0
100
AcDbLine
 62
7
  6
CONTINUOUS
 10
402.5437769361
 20
258.3937831828
 11
402.5437769361
 21
258.5437831828
  0
LINE
  5
2AB
100
AcDbEntity
  8
0
100
AcDbLine
 62
7
  6
CONTINUOUS
 10
402.5437769361
 20
263.3837831828
 11
402.5437769361
 21
263.7937831828
  0
LINE
  5
2AC
100
AcDbEntity
  8
0
100
AcDbLine
 62
7
  6
CONTINUOUS
 10
402.6250824946
 20
350.7124776244
 11
402.6250824946
 21
348.3290496336
  0
LINE
  5
2AD
100
AcDbEntity
  8
0
100
AcDbLine
 62
7
  6
CONTINUOUS
 10
402.6250824946
 20
256.9437831828
 11
402.6250824946
 21
258.3344404819
  0
LINE
  5
2AE
100
AcDbEntity
  8
0
100
AcDbLine
 62
7
  6
CONTINUOUS
 10
402.7280546023
 20
336.5095055166
 11
402.7280546023
 21
300.7306928812
  0
LINE
  5
2AF
100
AcDbEntity
  8
0
100
AcDbLine
 62
7
  6
CONTINUOUS
 10
402.7437769361
 20
350.5937831828
 11
402.7437769361
 21
348.2697069326
  0
LINE
  5
2B0
100
AcDbEntity
  8
0
100
AcDbLine
 62
7
  6
CONTINUOUS
 10
402.7437769361
 20
347.4437831828
 11
402.7437769361
 21
344.2937831828
  0
LINE
  5
2B1
100
AcDbEntity
  8
0
100
AcDbLine
 62
7
  6
CONTINUOUS
 10
402.7437769361
 20
342.7937831828
 11
402.7437769361
 21
339.6437831828
  0
LINE
  5
2B2
100
AcDbEntity
  8
0
100
AcDbLine
 62
7
  6
CONTINUOUS
 10
402.7437769361
 20
336.4937831828
 11
402.7437769361
 21
300.7333109415
  0
LINE
  5
2B3
100
AcDbEntity
  8
0
100
AcDbLine
 62
7
  6
CONTINUOUS
 10
402.7437769361
 20
266.9437831828
 11
402.7437769361
 21
263.7937831828
  0
LINE
  5
2B4
100
AcDbEntity
  8
0
100
AcDbLine
 62
7
  6
CONTINUOUS
 10
402.7437769361
 20
262.2937831828
 11
402.7437769361
 21
259.1437831828
  0
LINE
  5
2B5
100
AcDbEntity
  8
0
100
AcDbLine
 62
7
  6
CONTINUOUS
 10
402.7437769361
 20
254.4937831828
 11
402.7437769361
 21
258.3937831828
  0
LINE
  5
2B6
100
AcDbEntity
  8
0
100
AcDbLine
 62
7
  6
CONTINUOUS
 10
401.7188449549
 20
257.9437831828
 11
401.7214363418
 21
258.2823377622
  0
LINE
  5
2B7
100
AcDbEntity
  8
0
100
AcDbLine
 62
7
  6
CONTINUOUS
 10
414.4687769361
 20
353.2304483343
 11
415.2437769361
 21
355.7653591136
  0
LINE
  5
2B8
100
AcDbEntity
  8
0
100
AcDbLine
 62
7
  6
CONTINUOUS
 10
427.1937769361
 20
336.4937831828
 11
427.2357031595
 21
336.5357094063
  0
LINE
  5
2B9
100
AcDbEntity
  8
0
100
AcDbLine
 62
7
  6
CONTINUOUS
 10
403.9937769361
 20
267.9745826114
 11
403.9937769361
 21
266.9437831828
  0
LINE
  5
2BA
100
AcDbEntity
  8
0
100
AcDbLine
 62
7
  6
CONTINUOUS
 10
403.9937769361
 20
263.3837831828
 11
403.9937769361
 21
262.2937831828
  0
LINE
  5
2BB
100
AcDbEntity
  8
0
100
AcDbLine
 62
7
  6
CONTINUOUS
 10
403.9937769361
 20
259.1437831828
 11
403.9937769361
 21
258.5437831828
  0
LINE
  5
2BC
100
AcDbEntity
  8
0
100
AcDbLine
 62
7
  6
CONTINUOUS
 10
404.1305840451
 20
347.4437831828
 11
404.1305840451
 21
344.2937831828
  0
LINE
  5
2BD
100
AcDbEntity
  8
0
100
AcDbLine
 62
7
  6
CONTINUOUS
 10
404.1305840451
 20
342.7937831828
 11
404.1305840451
 21
339.6437831828
  0
LINE
  5
2BE
100
AcDbEntity
  8
0
100
AcDbLine
 62
7
  6
CONTINUOUS
 10
404.1305840451
 20
266.9437831828
 11
404.1305840451
 21
263.7937831828
  0
LINE
  5
2BF
100
AcDbEntity
  8
0
100
AcDbLine
 62
7
  6
CONTINUOUS
 10
404.1305840451
 20
262.2937831828
 11
404.1305840451
 21
259.1437831828
  0
LINE
  5
2C0
100
AcDbEntity
  8
0
100
AcDbLine
 62
7
  6
CONTINUOUS
 10
404.1937769361
 20
267.9745826114
 11
404.1937769361
 21
266.9437831828
  0
LINE
  5
2C1
100
AcDbEntity
  8
0
100
AcDbLine
 62
7
  6
CONTINUOUS
 10
404.1937769361
 20
263.3837831828
 11
404.1937769361
 21
262.2937831828
  0
LINE
  5
2C2
100
AcDbEntity
  8
0
100
AcDbLine
 62
7
  6
CONTINUOUS
 10
404.1937769361
 20
259.1437831828
 11
404.1937769361
 21
258.5437831828
  0
LINE
  5
2C3
100
AcDbEntity
  8
0
100
AcDbLine
 62
7
  6
CONTINUOUS
 10
404.6263232005
 20
338.4437831828
 11
404.6263232005
 21
336.5357094063
  0
LINE
  5
2C4
100
AcDbEntity
  8
0
100
AcDbLine
 62
7
  6
CONTINUOUS
 10
404.6333046947
 20
300.7333109415
 11
404.6333046947
 21
336.4937831828
  0
LINE
  5
2C5
100
AcDbEntity
  8
0
100
AcDbLine
 62
7
  6
CONTINUOUS
 10
404.6437769361
 20
336.4937831828
 11
404.6437769361
 21
338.4437831828
  0
LINE
  5
2C6
100
AcDbEntity
  8
0
100
AcDbLine
 62
7
  6
CONTINUOUS
 10
404.7437769361
 20
267.9745826114
 11
404.7437769361
 21
266.9437831828
  0
LINE
  5
2C7
100
AcDbEntity
  8
0
100
AcDbLine
 62
7
  6
CONTINUOUS
 10
404.7437769361
 20
259.1437831828
 11
404.7437769361
 21
258.5437831828
  0
LINE
  5
2C8
100
AcDbEntity
  8
0
100
AcDbLine
 62
7
  6
CONTINUOUS
 10
404.7437769361
 20
262.2937831828
 11
404.7437769361
 21
263.3837831828
  0
LINE
  5
2C9
100
AcDbEntity
  8
0
100
AcDbLine
 62
7
  6
CONTINUOUS
 10
404.7437769361
 20
300.7437831828
 11
404.7437769361
 21
300.8837831828
  0
LINE
  5
2CA
100
AcDbEntity
  8
0
100
AcDbLine
 62
7
  6
CONTINUOUS
 10
404.7437769361
 20
301.7237831828
 11
404.7437769361
 21
336.4937831828
  0
LINE
  5
2CB
100
AcDbEntity
  8
0
100
AcDbLine
 62
7
  6
CONTINUOUS
 10
404.9437769361
 20
262.2937831828
 11
404.9437769361
 21
263.3837831828
  0
LINE
  5
2CC
100
AcDbEntity
  8
0
100
AcDbLine
 62
7
  6
CONTINUOUS
 10
404.9437769361
 20
300.7437831828
 11
404.9437769361
 21
300.8837831828
  0
LINE
  5
2CD
100
AcDbEntity
  8
0
100
AcDbLine
 62
7
  6
CONTINUOUS
 10
405.2437769361
 20
254.4937831828
 11
405.2437769361
 21
258.3937831828
  0
LINE
  5
2CE
100
AcDbEntity
  8
0
100
AcDbLine
 62
7
  6
CONTINUOUS
 10
405.2437769361
 20
305.8656161082
 11
405.2437769361
 21
332.9119502575
  0
LINE
  5
2CF
100
AcDbEntity
  8
0
100
AcDbLine
 62
7
  6
CONTINUOUS
 10
405.2437769361
 20
348.2697069326
 11
405.2437769361
 21
350.5937831828
  0
LINE
  5
2D0
100
AcDbEntity
  8
0
100
AcDbLine
 62
7
  6
CONTINUOUS
 10
405.3624713776
 20
256.9437831828
 11
405.3624713776
 21
258.3344404819
  0
LINE
  5
2D1
100
AcDbEntity
  8
0
100
AcDbLine
 62
7
  6
CONTINUOUS
 10
405.3624713776
 20
348.3290496336
 11
405.3624713776
 21
350.7124776244
  0
LINE
  5
2D2
100
AcDbEntity
  8
0
100
AcDbLine
 62
7
  6
CONTINUOUS
 10
406.0737769361
 20
306.3264966114
 11
406.0737769361
 21
332.4510697542
  0
LINE
  5
2D3
100
AcDbEntity
  8
0
100
AcDbLine
 62
7
  6
CONTINUOUS
 10
406.3437769361
 20
258.3720855124
 11
406.3437769361
 21
258.3937831828
  0
LINE
  5
2D4
100
AcDbEntity
  8
0
100
AcDbLine
 62
7
  6
CONTINUOUS
 10
405.3624713776
 20
256.9437831828
 11
405.3368431537
 21
254.4007169653
  0
LINE
  5
2D5
100
AcDbEntity
  8
0
100
AcDbLine
 62
7
  6
CONTINUOUS
 10
402.0513018763
 20
256.9437831828
 11
401.9876153376
 21
254.9437831828
  0
LINE
  5
2D6
100
AcDbEntity
  8
0
100
AcDbLine
 62
7
  6
CONTINUOUS
 10
407.9237769361
 20
332.2637831828
 11
407.9237769361
 21
306.5137831828
  0
LINE
  5
2D7
100
AcDbEntity
  8
0
100
AcDbLine
 62
7
  6
CONTINUOUS
 10
408.2437769361
 20
268.0060017283
 11
408.2437769361
 21
266.9437831828
  0
LINE
  5
2D8
100
AcDbEntity
  8
0
100
AcDbLine
 62
7
  6
CONTINUOUS
 10
408.2437769361
 20
263.7937831828
 11
408.2437769361
 21
262.2937831828
  0
LINE
  5
2D9
100
AcDbEntity
  8
0
100
AcDbLine
 62
7
  6
CONTINUOUS
 10
408.2437769361
 20
259.1437831828
 11
408.2437769361
 21
258.34578541
  0
LINE
  5
2DA
100
AcDbEntity
  8
0
100
AcDbLine
 62
7
  6
CONTINUOUS
 10
408.2437769361
 20
339.1815646374
 11
408.2437769361
 21
339.6437831828
  0
LINE
  5
2DB
100
AcDbEntity
  8
0
100
AcDbLine
 62
7
  6
CONTINUOUS
 10
408.2437769361
 20
342.7937831828
 11
408.2437769361
 21
344.2937831828
  0
LINE
  5
2DC
100
AcDbEntity
  8
0
100
AcDbLine
 62
7
  6
CONTINUOUS
 10
408.2437769361
 20
347.4437831828
 11
408.2437769361
 21
348.3177047055
  0
LINE
  5
2DD
100
AcDbEntity
  8
0
100
AcDbLine
 62
7
  6
CONTINUOUS
 10
409.091859865
 20
347.4437831828
 11
409.091859865
 21
344.2937831828
  0
LINE
  5
2DE
100
AcDbEntity
  8
0
100
AcDbLine
 62
7
  6
CONTINUOUS
 10
409.091859865
 20
342.7937831828
 11
409.091859865
 21
339.6437831828
  0
LINE
  5
2DF
100
AcDbEntity
  8
0
100
AcDbLine
 62
7
  6
CONTINUOUS
 10
409.091859865
 20
266.9437831828
 11
409.091859865
 21
263.7937831828
  0
LINE
  5
2E0
100
AcDbEntity
  8
0
100
AcDbLine
 62
7
  6
CONTINUOUS
 10
409.091859865
 20
262.2937831828
 11
409.091859865
 21
259.1437831828
  0
LINE
  5
2E1
100
AcDbEntity
  8
0
100
AcDbLine
 62
7
  6
CONTINUOUS
 10
409.0937769361
 20
300.8837831828
 11
409.0937769361
 21
301.7237831828
  0
LINE
  5
2E2
100
AcDbEntity
  8
0
100
AcDbLine
 62
7
  6
CONTINUOUS
 10
409.5237769361
 20
306.5137831828
 11
409.5237769361
 21
332.2637831828
  0
LINE
  5
2E3
100
AcDbEntity
  8
0
100
AcDbLine
 62
7
  6
CONTINUOUS
 10
409.7437769361
 20
301.7237831828
 11
409.7437769361
 21
300.7437831828
  0
LINE
  5
2E4
100
AcDbEntity
  8
0
100
AcDbLine
 62
7
  6
CONTINUOUS
 10
427.0814768231
 20
344.1937831828
 11
427.1498078683
 21
344.3456422477
  0
LINE
  5
2E5
100
AcDbEntity
  8
0
100
AcDbLine
 62
7
  6
CONTINUOUS
 10
427.3790433868
 20
343.0124776244
 11
427.3197006859
 21
342.8937831828
  0
LINE
  5
2E6
100
AcDbEntity
  8
0
100
AcDbLine
 62
7
  6
CONTINUOUS
 10
399.1018507127
 20
300.7263294473
 11
427.2357031595
 21
300.7263294473
  0
LINE
  5
2E7
100
AcDbEntity
  8
0
100
AcDbLine
 62
7
  6
CONTINUOUS
 10
423.6094992699
 20
300.7306928812
 11
425.1780546023
 21
300.7306928812
  0
LINE
  5
2E8
100
AcDbEntity
  8
0
100
AcDbLine
 62
7
  6
CONTINUOUS
 10
421.6937769361
 20
300.7437831828
 11
404.6437769361
 21
300.7437831828
  0
LINE
  5
2E9
100
AcDbEntity
  8
0
100
AcDbLine
 62
7
  6
CONTINUOUS
 10
404.6437769361
 20
300.8837831828
 11
409.0937769361
 21
300.8837831828
  0
LINE
  5
2EA
100
AcDbEntity
  8
0
100
AcDbLine
 62
7
  6
CONTINUOUS
 10
412.3437769361
 20
301.1317831828
 11
410.9437769361
 21
301.1317831828
  0
LINE
  5
2EB
100
AcDbEntity
  8
0
100
AcDbLine
 62
7
  6
CONTINUOUS
 10
427.1437769361
 20
263.6937831828
 11
427.2031196371
 21
263.5750887413
  0
LINE
  5
2EC
100
AcDbEntity
  8
0
100
AcDbLine
 62
7
  6
CONTINUOUS
 10
404.6333046947
 20
336.4937831828
 11
404.6263232005
 21
336.5357094063
  0
LINE
  5
2ED
100
AcDbEntity
  8
0
100
AcDbLine
 62
7
  6
CONTINUOUS
 10
410.9437769361
 20
301.7237831828
 11
410.9437769361
 21
300.7437831828
  0
LINE
  5
2EE
100
AcDbEntity
  8
0
100
AcDbLine
 62
7
  6
CONTINUOUS
 10
411.2437769361
 20
356.1437831828
 11
411.2437769361
 21
355.7653591136
  0
LINE
  5
2EF
100
AcDbEntity
  8
0
100
AcDbLine
 62
7
  6
CONTINUOUS
 10
411.3737769361
 20
333.3620970085
 11
411.3737769361
 21
305.4154693572
  0
LINE
  5
2F0
100
AcDbEntity
  8
0
100
AcDbLine
 62
7
  6
CONTINUOUS
 10
411.7137769361
 20
352.1687831828
 11
411.7137769361
 21
352.3137831828
  0
LINE
  5
2F1
100
AcDbEntity
  8
0
100
AcDbLine
 62
7
  6
CONTINUOUS
 10
411.7437769361
 20
262.2937831828
 11
411.7437769361
 21
263.7937831828
  0
LINE
  5
2F2
100
AcDbEntity
  8
0
100
AcDbLine
 62
7
  6
CONTINUOUS
 10
411.7437769361
 20
342.7937831828
 11
411.7437769361
 21
344.2937831828
  0
LINE
  5
2F3
100
AcDbEntity
  8
0
100
AcDbLine
 62
7
  6
CONTINUOUS
 10
412.2437769361
 20
349.215810817
 11
412.2437769361
 21
348.3290496336
  0
LINE
  5
2F4
100
AcDbEntity
  8
0
100
AcDbLine
 62
7
  6
CONTINUOUS
 10
412.2437769361
 20
301.7237831828
 11
412.2437769361
 21
336.4937831828
  0
LINE
  5
2F5
100
AcDbEntity
  8
0
100
AcDbLine
 62
7
  6
CONTINUOUS
 10
412.3437769361
 20
316.2477831828
 11
412.3437769361
 21
315.2477831828
  0
LINE
  5
2F6
100
AcDbEntity
  8
0
100
AcDbLine
 62
7
  6
CONTINUOUS
 10
412.3437769361
 20
301.1317831828
 11
412.3437769361
 21
300.7437831828
  0
LINE
  5
2F7
100
AcDbEntity
  8
0
100
AcDbLine
 62
7
  6
CONTINUOUS
 10
412.3437769361
 20
330.3637831828
 11
412.3437769361
 21
331.3637831828
  0
LINE
  5
2F8
100
AcDbEntity
  8
0
100
AcDbLine
 62
7
  6
CONTINUOUS
 10
427.0500602506
 20
339.2077472348
 11
427.0814768231
 21
339.2775674945
  0
LINE
  5
2F9
100
AcDbEntity
  8
0
100
AcDbLine
 62
7
  6
CONTINUOUS
 10
404.7437769361
 20
301.7237831828
 11
412.2437769361
 21
301.7237831828
  0
LINE
  5
2FA
100
AcDbEntity
  8
0
100
AcDbLine
 62
7
  6
CONTINUOUS
 10
404.7437769361
 20
301.8837831828
 11
404.6437769361
 21
301.8837831828
  0
LINE
  5
2FB
100
AcDbEntity
  8
0
100
AcDbLine
 62
7
  6
CONTINUOUS
 10
404.6437769361
 20
302.5437831828
 11
404.7437769361
 21
302.5437831828
  0
LINE
  5
2FC
100
AcDbEntity
  8
0
100
AcDbLine
 62
7
  6
CONTINUOUS
 10
412.2437769361
 20
302.5437831828
 11
418.5937769361
 21
302.5437831828
  0
LINE
  5
2FD
100
AcDbEntity
  8
0
100
AcDbLine
 62
7
  6
CONTINUOUS
 10
404.6437769361
 20
303.5437831828
 11
404.7437769361
 21
303.5437831828
  0
LINE
  5
2FE
100
AcDbEntity
  8
0
100
AcDbLine
 62
7
  6
CONTINUOUS
 10
412.2437769361
 20
303.5437831828
 11
418.5937769361
 21
303.5437831828
  0
LINE
  5
2FF
100
AcDbEntity
  8
0
100
AcDbLine
 62
7
  6
CONTINUOUS
 10
423.5937769361
 20
300.7333109415
 11
423.6094992699
 21
300.7306928812
  0
LINE
  5
300
100
AcDbEntity
  8
0
100
AcDbLine
 62
7
  6
CONTINUOUS
 10
409.977902655
 20
303.2159223666
 11
406.577902655
 21
304.1269496209
  0
LINE
  5
301
100
AcDbEntity
  8
0
100
AcDbLine
 62
7
  6
CONTINUOUS
 10
406.7778988432
 20
305.4088670765
 11
410.1778988434
 21
304.4978398222
  0
LINE
  5
302
100
AcDbEntity
  8
0
100
AcDbLine
 62
7
  6
CONTINUOUS
 10
427.0524164935
 20
267.9745826114
 11
427.0814768231
 21
267.9099988712
  0
LINE
  5
303
100
AcDbEntity
  8
0
100
AcDbLine
 62
7
  6
CONTINUOUS
 10
414.2437769361
 20
348.3290496336
 11
414.2437769361
 21
349.215810817
  0
LINE
  5
304
100
AcDbEntity
  8
0
100
AcDbLine
 62
7
  6
CONTINUOUS
 10
414.7437769361
 20
344.2937831828
 11
414.7437769361
 21
342.7937831828
  0
LINE
  5
305
100
AcDbEntity
  8
0
100
AcDbLine
 62
7
  6
CONTINUOUS
 10
414.7437769361
 20
263.7937831828
 11
414.7437769361
 21
262.2937831828
  0
LINE
  5
306
100
AcDbEntity
  8
0
100
AcDbLine
 62
7
  6
CONTINUOUS
 10
414.7737769361
 20
352.3137831828
 11
414.7737769361
 21
352.1687831828
  0
LINE
  5
307
100
AcDbEntity
  8
0
100
AcDbLine
 62
7
  6
CONTINUOUS
 10
415.2437769361
 20
356.1437831828
 11
415.2437769361
 21
355.7653591136
  0
LINE
  5
308
100
AcDbEntity
  8
0
100
AcDbLine
 62
7
  6
CONTINUOUS
 10
421.7112306717
 20
336.5357094063
 11
421.7042491774
 21
336.4937831828
  0
LINE
  5
309
100
AcDbEntity
  8
0
100
AcDbLine
 62
7
  6
CONTINUOUS
 10
399.4351373786
 20
267.9745826114
 11
399.4060770491
 21
267.9099988712
  0
LINE
  5
30A
100
AcDbEntity
  8
0
100
AcDbLine
 62
7
  6
CONTINUOUS
 10
407.9237769361
 20
306.5137831828
 11
409.5237769361
 21
306.5137831828
  0
LINE
  5
30B
100
AcDbEntity
  8
0
100
AcDbLine
 62
7
  6
CONTINUOUS
 10
404.6437769361
 20
307.0737831828
 11
404.7437769361
 21
307.0737831828
  0
LINE
  5
30C
100
AcDbEntity
  8
0
100
AcDbLine
 62
7
  6
CONTINUOUS
 10
404.6437769361
 20
307.5737831828
 11
404.7437769361
 21
307.5737831828
  0
LINE
  5
30D
100
AcDbEntity
  8
0
100
AcDbLine
 62
7
  6
CONTINUOUS
 10
404.6437769361
 20
308.3437831828
 11
404.7437769361
 21
308.3437831828
  0
LINE
  5
30E
100
AcDbEntity
  8
0
100
AcDbLine
 62
7
  6
CONTINUOUS
 10
399.4374936216
 20
339.2077472348
 11
399.4060770491
 21
339.2775674945
  0
LINE
  5
30F
100
AcDbEntity
  8
0
100
AcDbLine
 62
7
  6
CONTINUOUS
 10
399.4060770491
 20
344.1937831828
 11
399.3377460038
 21
344.3456422477
  0
LINE
  5
310
100
AcDbEntity
  8
0
100
AcDbLine
 62
7
  6
CONTINUOUS
 10
420.8007107185
 20
254.4007169653
 11
420.7750824946
 21
256.9437831828
  0
LINE
  5
311
100
AcDbEntity
  8
0
100
AcDbLine
 62
7
  6
CONTINUOUS
 10
417.3956940072
 20
347.4437831828
 11
417.3956940072
 21
344.2937831828
  0
LINE
  5
312
100
AcDbEntity
  8
0
100
AcDbLine
 62
7
  6
CONTINUOUS
 10
417.3956940072
 20
342.7937831828
 11
417.3956940072
 21
339.6437831828
  0
LINE
  5
313
100
AcDbEntity
  8
0
100
AcDbLine
 62
7
  6
CONTINUOUS
 10
417.3956940072
 20
266.9437831828
 11
417.3956940072
 21
263.7937831828
  0
LINE
  5
314
100
AcDbEntity
  8
0
100
AcDbLine
 62
7
  6
CONTINUOUS
 10
417.3956940072
 20
262.2937831828
 11
417.3956940072
 21
259.1437831828
  0
LINE
  5
315
100
AcDbEntity
  8
0
100
AcDbLine
 62
7
  6
CONTINUOUS
 10
418.2437769361
 20
268.0060017283
 11
418.2437769361
 21
266.9437831828
  0
LINE
  5
316
100
AcDbEntity
  8
0
100
AcDbLine
 62
7
  6
CONTINUOUS
 10
418.2437769361
 20
263.7937831828
 11
418.2437769361
 21
262.2937831828
  0
LINE
  5
317
100
AcDbEntity
  8
0
100
AcDbLine
 62
7
  6
CONTINUOUS
 10
418.2437769361
 20
259.1437831828
 11
418.2437769361
 21
258.34578541
  0
LINE
  5
318
100
AcDbEntity
  8
0
100
AcDbLine
 62
7
  6
CONTINUOUS
 10
418.2437769361
 20
339.1815646374
 11
418.2437769361
 21
339.6437831828
  0
LINE
  5
319
100
AcDbEntity
  8
0
100
AcDbLine
 62
7
  6
CONTINUOUS
 10
418.2437769361
 20
342.7937831828
 11
418.2437769361
 21
344.2937831828
  0
LINE
  5
31A
100
AcDbEntity
  8
0
100
AcDbLine
 62
7
  6
CONTINUOUS
 10
418.2437769361
 20
347.4437831828
 11
418.2437769361
 21
348.3177047055
  0
LINE
  5
31B
100
AcDbEntity
  8
0
100
AcDbLine
 62
7
  6
CONTINUOUS
 10
418.5937769361
 20
326.0437831828
 11
418.5937769361
 21
325.0437831828
  0
LINE
  5
31C
100
AcDbEntity
  8
0
100
AcDbLine
 62
7
  6
CONTINUOUS
 10
418.5937769361
 20
318.5437831828
 11
418.5937769361
 21
317.5437831828
  0
LINE
  5
31D
100
AcDbEntity
  8
0
100
AcDbLine
 62
7
  6
CONTINUOUS
 10
418.5937769361
 20
311.0437831828
 11
418.5937769361
 21
310.0437831828
  0
LINE
  5
31E
100
AcDbEntity
  8
0
100
AcDbLine
 62
7
  6
CONTINUOUS
 10
418.5937769361
 20
303.5437831828
 11
418.5937769361
 21
302.5437831828
  0
LINE
  5
31F
100
AcDbEntity
  8
0
100
AcDbLine
 62
7
  6
CONTINUOUS
 10
418.5937769361
 20
258.5437831828
 11
418.5937769361
 21
258.3720855124
  0
LINE
  5
320
100
AcDbEntity
  8
0
100
AcDbLine
 62
7
  6
CONTINUOUS
 10
418.9437769361
 20
336.4937831828
 11
418.9437769361
 21
336.326262382
  0
LINE
  5
321
100
AcDbEntity
  8
0
100
AcDbLine
 62
7
  6
CONTINUOUS
 10
419.7937769361
 20
258.3937831828
 11
419.7937769361
 21
258.3720855124
  0
LINE
  5
322
100
AcDbEntity
  8
0
100
AcDbLine
 62
7
  6
CONTINUOUS
 10
419.9437769364
 20
336.3577502808
 11
419.9437769363
 21
336.4937831828
  0
LINE
  5
323
100
AcDbEntity
  8
0
100
AcDbLine
 62
7
  6
CONTINUOUS
 10
420.7750824946
 20
350.7124776244
 11
420.7750824946
 21
348.3290496336
  0
LINE
  5
324
100
AcDbEntity
  8
0
100
AcDbLine
 62
7
  6
CONTINUOUS
 10
420.7750824946
 20
256.9437831828
 11
420.7750824946
 21
258.3344404819
  0
LINE
  5
325
100
AcDbEntity
  8
0
100
AcDbLine
 62
7
  6
CONTINUOUS
 10
420.8937769361
 20
350.5937831828
 11
420.8937769361
 21
348.2697069326
  0
LINE
  5
326
100
AcDbEntity
  8
0
100
AcDbLine
 62
7
  6
CONTINUOUS
 10
420.8937769361
 20
258.3937831828
 11
420.8937769361
 21
254.4937831828
  0
LINE
  5
327
100
AcDbEntity
  8
0
100
AcDbLine
 62
7
  6
CONTINUOUS
 10
399.2844342351
 20
263.5750887413
 11
399.3437769361
 21
263.6937831828
  0
LINE
  5
328
100
AcDbEntity
  8
0
100
AcDbLine
 62
7
  6
CONTINUOUS
 10
404.6437769361
 20
308.8437831828
 11
404.7437769361
 21
308.8437831828
  0
LINE
  5
329
100
AcDbEntity
  8
0
100
AcDbLine
 62
7
  6
CONTINUOUS
 10
404.7437769361
 20
309.3837831828
 11
404.6437769361
 21
309.3837831828
  0
LINE
  5
32A
100
AcDbEntity
  8
0
100
AcDbLine
 62
7
  6
CONTINUOUS
 10
404.6437769361
 20
309.6437831828
 11
404.7437769361
 21
309.6437831828
  0
LINE
  5
32B
100
AcDbEntity
  8
0
100
AcDbLine
 62
7
  6
CONTINUOUS
 10
404.6437769361
 20
310.0437831828
 11
404.7437769361
 21
310.0437831828
  0
LINE
  5
32C
100
AcDbEntity
  8
0
100
AcDbLine
 62
7
  6
CONTINUOUS
 10
412.2437769361
 20
310.0437831828
 11
418.5937769361
 21
310.0437831828
  0
LINE
  5
32D
100
AcDbEntity
  8
0
100
AcDbLine
 62
7
  6
CONTINUOUS
 10
404.6437769361
 20
311.0437831828
 11
404.7437769361
 21
311.0437831828
  0
LINE
  5
32E
100
AcDbEntity
  8
0
100
AcDbLine
 62
7
  6
CONTINUOUS
 10
412.2437769361
 20
311.0437831828
 11
418.5937769361
 21
311.0437831828
  0
LINE
  5
32F
100
AcDbEntity
  8
0
100
AcDbLine
 62
7
  6
CONTINUOUS
 10
399.1678531863
 20
342.8937831828
 11
399.1085104853
 21
343.0124776244
  0
LINE
  5
330
100
AcDbEntity
  8
0
100
AcDbLine
 62
7
  6
CONTINUOUS
 10
424.4999385346
 20
254.9437831828
 11
424.4362519958
 21
256.9437831828
  0
LINE
  5
331
100
AcDbEntity
  8
0
100
AcDbLine
 62
7
  6
CONTINUOUS
 10
424.7661175304
 20
258.2823377622
 11
424.7687089172
 21
257.9437831828
  0
LINE
  5
332
100
AcDbEntity
  8
0
100
AcDbLine
 62
7
  6
CONTINUOUS
 10
421.4675963327
 20
335.0699637862
 11
421.4675963327
 21
336.3997887712
  0
LINE
  5
333
100
AcDbEntity
  8
0
100
AcDbLine
 62
7
  6
CONTINUOUS
 10
421.4876681286
 20
335.0498919903
 11
421.4876681286
 21
336.4119832368
  0
LINE
  5
334
100
AcDbEntity
  8
0
100
AcDbLine
 62
7
  6
CONTINUOUS
 10
421.6937769361
 20
336.4937831828
 11
421.6937769361
 21
338.4437831828
  0
LINE
  5
335
100
AcDbEntity
  8
0
100
AcDbLine
 62
7
  6
CONTINUOUS
 10
421.7042491774
 20
336.4937831828
 11
421.7042491774
 21
300.7333109415
  0
LINE
  5
336
100
AcDbEntity
  8
0
100
AcDbLine
 62
7
  6
CONTINUOUS
 10
421.7112306717
 20
336.5357094063
 11
421.7112306717
 21
338.4437831828
  0
LINE
  5
337
100
AcDbEntity
  8
0
100
AcDbLine
 62
7
  6
CONTINUOUS
 10
421.9437769361
 20
258.3937831828
 11
421.9437769361
 21
259.1437831828
  0
LINE
  5
338
100
AcDbEntity
  8
0
100
AcDbLine
 62
7
  6
CONTINUOUS
 10
421.9437769361
 20
262.2937831828
 11
421.9437769361
 21
263.7937831828
  0
LINE
  5
339
100
AcDbEntity
  8
0
100
AcDbLine
 62
7
  6
CONTINUOUS
 10
421.9437769361
 20
266.9437831828
 11
421.9437769361
 21
267.9745826114
  0
LINE
  5
33A
100
AcDbEntity
  8
0
100
AcDbLine
 62
7
  6
CONTINUOUS
 10
422.2937769361
 20
267.9745826114
 11
422.2937769361
 21
266.9437831828
  0
LINE
  5
33B
100
AcDbEntity
  8
0
100
AcDbLine
 62
7
  6
CONTINUOUS
 10
422.2937769361
 20
263.7937831828
 11
422.2937769361
 21
262.2937831828
  0
LINE
  5
33C
100
AcDbEntity
  8
0
100
AcDbLine
 62
7
  6
CONTINUOUS
 10
422.2937769361
 20
259.1437831828
 11
422.2937769361
 21
258.3937831828
  0
LINE
  5
33D
100
AcDbEntity
  8
0
100
AcDbLine
 62
7
  6
CONTINUOUS
 10
422.3569698271
 20
347.4437831828
 11
422.3569698271
 21
344.2937831828
  0
LINE
  5
33E
100
AcDbEntity
  8
0
100
AcDbLine
 62
7
  6
CONTINUOUS
 10
422.3569698271
 20
342.7937831828
 11
422.3569698271
 21
339.6437831828
  0
LINE
  5
33F
100
AcDbEntity
  8
0
100
AcDbLine
 62
7
  6
CONTINUOUS
 10
422.3569698271
 20
266.9437831828
 11
422.3569698271
 21
263.7937831828
  0
LINE
  5
340
100
AcDbEntity
  8
0
100
AcDbLine
 62
7
  6
CONTINUOUS
 10
422.3569698271
 20
262.2937831828
 11
422.3569698271
 21
259.1437831828
  0
LINE
  5
341
100
AcDbEntity
  8
0
100
AcDbLine
 62
7
  6
CONTINUOUS
 10
422.4937769361
 20
267.9745826114
 11
422.4937769361
 21
266.9437831828
  0
LINE
  5
342
100
AcDbEntity
  8
0
100
AcDbLine
 62
7
  6
CONTINUOUS
 10
422.4937769361
 20
263.7937831828
 11
422.4937769361
 21
262.2937831828
  0
LINE
  5
343
100
AcDbEntity
  8
0
100
AcDbLine
 62
7
  6
CONTINUOUS
 10
422.4937769361
 20
259.1437831828
 11
422.4937769361
 21
258.3937831828
  0
LINE
  5
344
100
AcDbEntity
  8
0
100
AcDbLine
 62
7
  6
CONTINUOUS
 10
423.5937769361
 20
336.4937831828
 11
423.5937769361
 21
300.7333109415
  0
LINE
  5
345
100
AcDbEntity
  8
0
100
AcDbLine
 62
7
  6
CONTINUOUS
 10
423.6094992699
 20
336.5095055166
 11
423.6094992699
 21
300.7306928812
  0
LINE
  5
346
100
AcDbEntity
  8
0
100
AcDbLine
 62
7
  6
CONTINUOUS
 10
423.7437769361
 20
259.1437831828
 11
423.7437769361
 21
262.2937831828
  0
LINE
  5
347
100
AcDbEntity
  8
0
100
AcDbLine
 62
7
  6
CONTINUOUS
 10
423.7437769361
 20
263.7937831828
 11
423.7437769361
 21
266.9437831828
  0
LINE
  5
348
100
AcDbEntity
  8
0
100
AcDbLine
 62
7
  6
CONTINUOUS
 10
423.7437769361
 20
339.6437831828
 11
423.7437769361
 21
342.7937831828
  0
LINE
  5
349
100
AcDbEntity
  8
0
100
AcDbLine
 62
7
  6
CONTINUOUS
 10
423.7437769361
 20
344.2937831828
 11
423.7437769361
 21
347.4437831828
  0
LINE
  5
34A
100
AcDbEntity
  8
0
100
AcDbLine
 62
7
  6
CONTINUOUS
 10
423.7937769361
 20
254.4937831828
 11
423.7937769361
 21
258.3937831828
  0
LINE
  5
34B
100
AcDbEntity
  8
0
100
AcDbLine
 62
7
  6
CONTINUOUS
 10
423.8937769361
 20
348.2697069326
 11
423.8937769361
 21
350.5937831828
  0
LINE
  5
34C
100
AcDbEntity
  8
0
100
AcDbLine
 62
7
  6
CONTINUOUS
 10
423.9124713776
 20
258.3344404819
 11
423.9124713776
 21
256.9437831828
  0
LINE
  5
34D
100
AcDbEntity
  8
0
100
AcDbLine
 62
7
  6
CONTINUOUS
 10
423.9937769361
 20
256.9437831828
 11
423.9937769361
 21
257.9437831828
  0
LINE
  5
34E
100
AcDbEntity
  8
0
100
AcDbLine
 62
7
  6
CONTINUOUS
 10
424.0124713776
 20
348.3290496336
 11
424.0124713776
 21
350.7124776244
  0
LINE
  5
34F
100
AcDbEntity
  8
0
100
AcDbLine
 62
7
  6
CONTINUOUS
 10
424.0437769361
 20
344.3937831828
 11
424.0437769361
 21
344.2937831828
  0
LINE
  5
350
100
AcDbEntity
  8
0
100
AcDbLine
 62
7
  6
CONTINUOUS
 10
424.0437769361
 20
342.7937831828
 11
424.0437769361
 21
342.6937831828
  0
LINE
  5
351
100
AcDbEntity
  8
0
100
AcDbLine
 62
7
  6
CONTINUOUS
 10
424.0437769361
 20
263.8937831828
 11
424.0437769361
 21
263.7937831828
  0
LINE
  5
352
100
AcDbEntity
  8
0
100
AcDbLine
 62
7
  6
CONTINUOUS
 10
424.0437769361
 20
262.2937831828
 11
424.0437769361
 21
262.1937831828
  0
LINE
  5
353
100
AcDbEntity
  8
0
100
AcDbLine
 62
7
  6
CONTINUOUS
 10
424.2437769361
 20
257.9437831828
 11
424.2437769361
 21
258.3344404819
  0
LINE
  5
354
100
AcDbEntity
  8
0
100
AcDbLine
 62
7
  6
CONTINUOUS
 10
424.2937217326
 20
344.3937831828
 11
424.2937217326
 21
344.2937831828
  0
LINE
  5
355
100
AcDbEntity
  8
0
100
AcDbLine
 62
7
  6
CONTINUOUS
 10
424.2937217326
 20
263.8937831828
 11
424.2937217326
 21
263.7937831828
  0
LINE
  5
356
100
AcDbEntity
  8
0
100
AcDbLine
 62
7
  6
CONTINUOUS
 10
424.2937217326
 20
262.1937831828
 11
424.2937217326
 21
262.2937831828
  0
LINE
  5
357
100
AcDbEntity
  8
0
100
AcDbLine
 62
7
  6
CONTINUOUS
 10
424.2937217326
 20
342.6937831828
 11
424.2937217326
 21
342.7937831828
  0
LINE
  5
358
100
AcDbEntity
  8
0
100
AcDbLine
 62
7
  6
CONTINUOUS
 10
424.5187089172
 20
256.9437831828
 11
424.5187089172
 21
257.9437831828
  0
LINE
  5
359
100
AcDbEntity
  8
0
100
AcDbLine
 62
7
  6
CONTINUOUS
 10
424.5437769361
 20
344.3937831828
 11
424.5437769361
 21
344.2937831828
  0
LINE
  5
35A
100
AcDbEntity
  8
0
100
AcDbLine
 62
7
  6
CONTINUOUS
 10
424.5437769361
 20
342.7937831828
 11
424.5437769361
 21
342.6937831828
  0
LINE
  5
35B
100
AcDbEntity
  8
0
100
AcDbLine
 62
7
  6
CONTINUOUS
 10
424.5437769361
 20
263.8937831828
 11
424.5437769361
 21
263.7937831828
  0
LINE
  5
35C
100
AcDbEntity
  8
0
100
AcDbLine
 62
7
  6
CONTINUOUS
 10
424.5437769361
 20
262.2937831828
 11
424.5437769361
 21
262.1937831828
  0
LINE
  5
35D
100
AcDbEntity
  8
0
100
AcDbLine
 62
7
  6
CONTINUOUS
 10
423.9124713776
 20
256.9437831828
 11
423.8868431537
 21
254.4007169653
  0
LINE
  5
35E
100
AcDbEntity
  8
0
100
AcDbLine
 62
7
  6
CONTINUOUS
 10
412.2437769361
 20
315.2477831828
 11
412.3437769361
 21
315.2477831828
  0
LINE
  5
35F
100
AcDbEntity
  8
0
100
AcDbLine
 62
7
  6
CONTINUOUS
 10
427.2492094942
 20
266.15771004
 11
427.2552223567
 21
258.2823377622
  0
LINE
  5
360
100
AcDbEntity
  8
0
100
AcDbLine
 62
7
  6
CONTINUOUS
 10
424.7687089172
 20
256.9437831828
 11
424.7687089172
 21
254.9437831828
  0
LINE
  5
361
100
AcDbEntity
  8
0
100
AcDbLine
 62
7
  6
CONTINUOUS
 10
425.1780546023
 20
336.5095055166
 11
425.1780546023
 21
300.7306928812
  0
LINE
  5
362
100
AcDbEntity
  8
0
100
AcDbLine
 62
7
  6
CONTINUOUS
 10
425.1937769361
 20
336.4937831828
 11
425.1937769361
 21
300.7333109415
  0
LINE
  5
363
100
AcDbEntity
  8
0
100
AcDbLine
 62
7
  6
CONTINUOUS
 10
425.208171351
 20
347.4437831828
 11
425.208171351
 21
344.3937831828
  0
LINE
  5
364
100
AcDbEntity
  8
0
100
AcDbLine
 62
7
  6
CONTINUOUS
 10
425.208171351
 20
342.6937831828
 11
425.208171351
 21
339.6437831828
  0
LINE
  5
365
100
AcDbEntity
  8
0
100
AcDbLine
 62
7
  6
CONTINUOUS
 10
425.208171351
 20
266.9437831828
 11
425.208171351
 21
263.8937831828
  0
LINE
  5
366
100
AcDbEntity
  8
0
100
AcDbLine
 62
7
  6
CONTINUOUS
 10
425.208171351
 20
262.1937831828
 11
425.208171351
 21
259.1437831828
  0
LINE
  5
367
100
AcDbEntity
  8
0
100
AcDbLine
 62
7
  6
CONTINUOUS
 10
425.5687769361
 20
263.6937831828
 11
425.5687769361
 21
262.3937831828
  0
LINE
  5
368
100
AcDbEntity
  8
0
100
AcDbLine
 62
7
  6
CONTINUOUS
 10
425.5687769361
 20
342.8937831828
 11
425.5687769361
 21
344.1937831828
  0
LINE
  5
369
100
AcDbEntity
  8
0
100
AcDbLine
 62
7
  6
CONTINUOUS
 10
425.6369167306
 20
262.4619229774
 11
425.6369167306
 21
263.6256433883
  0
LINE
  5
36A
100
AcDbEntity
  8
0
100
AcDbLine
 62
7
  6
CONTINUOUS
 10
425.6369167306
 20
342.9619229774
 11
425.6369167306
 21
344.1256433883
  0
LINE
  5
36B
100
AcDbEntity
  8
0
100
AcDbLine
 62
7
  6
CONTINUOUS
 10
425.7137769361
 20
348.1937831828
 11
425.7137769361
 21
347.4437831828
  0
LINE
  5
36C
100
AcDbEntity
  8
0
100
AcDbLine
 62
7
  6
CONTINUOUS
 10
425.7137769361
 20
344.3937831828
 11
425.7137769361
 21
344.1937831828
  0
LINE
  5
36D
100
AcDbEntity
  8
0
100
AcDbLine
 62
7
  6
CONTINUOUS
 10
425.7137769361
 20
342.8937831828
 11
425.7137769361
 21
342.6937831828
  0
LINE
  5
36E
100
AcDbEntity
  8
0
100
AcDbLine
 62
7
  6
CONTINUOUS
 10
425.7137769361
 20
339.6437831828
 11
425.7137769361
 21
339.2077472348
  0
LINE
  5
36F
100
AcDbEntity
  8
0
100
AcDbLine
 62
7
  6
CONTINUOUS
 10
426.8937769361
 20
342.6937831828
 11
426.8937769361
 21
342.8937831828
  0
LINE
  5
370
100
AcDbEntity
  8
0
100
AcDbLine
 62
7
  6
CONTINUOUS
 10
426.8937769361
 20
344.1937831828
 11
426.8937769361
 21
344.3937831828
  0
LINE
  5
371
100
AcDbEntity
  8
0
100
AcDbLine
 62
7
  6
CONTINUOUS
 10
426.9874713776
 20
262.5124776244
 11
426.9874713776
 21
263.5750887413
  0
LINE
  5
372
100
AcDbEntity
  8
0
100
AcDbLine
 62
7
  6
CONTINUOUS
 10
426.9874713776
 20
343.0124776244
 11
426.9874713776
 21
344.0750887413
  0
LINE
  5
373
100
AcDbEntity
  8
0
100
AcDbLine
 62
7
  6
CONTINUOUS
 10
427.0814768231
 20
342.8937831828
 11
427.0814768231
 21
342.6937831828
  0
LINE
  5
374
100
AcDbEntity
  8
0
100
AcDbLine
 62
7
  6
CONTINUOUS
 10
427.0814768231
 20
339.6437831828
 11
427.0814768231
 21
339.2775674945
  0
LINE
  5
375
100
AcDbEntity
  8
0
100
AcDbLine
 62
7
  6
CONTINUOUS
 10
427.0814768231
 20
267.9099988712
 11
427.0814768231
 21
266.9437831828
  0
LINE
  5
376
100
AcDbEntity
  8
0
100
AcDbLine
 62
7
  6
CONTINUOUS
 10
427.0814768231
 20
263.8937831828
 11
427.0814768231
 21
263.6937831828
  0
LINE
  5
377
100
AcDbEntity
  8
0
100
AcDbLine
 62
7
  6
CONTINUOUS
 10
427.0814768231
 20
262.3937831828
 11
427.0814768231
 21
262.1937831828
  0
LINE
  5
378
100
AcDbEntity
  8
0
100
AcDbLine
 62
7
  6
CONTINUOUS
 10
427.0814768231
 20
259.1437831828
 11
427.0814768231
 21
258.3937831828
  0
LINE
  5
379
100
AcDbEntity
  8
0
100
AcDbLine
 62
7
  6
CONTINUOUS
 10
427.1437769361
 20
267.9099988712
 11
427.1437769361
 21
266.9437831828
  0
LINE
  5
37A
100
AcDbEntity
  8
0
100
AcDbLine
 62
7
  6
CONTINUOUS
 10
427.1437769361
 20
263.8937831828
 11
427.1437769361
 21
263.6937831828
  0
LINE
  5
37B
100
AcDbEntity
  8
0
100
AcDbLine
 62
7
  6
CONTINUOUS
 10
427.1437769361
 20
262.3937831828
 11
427.1437769361
 21
262.1937831828
  0
LINE
  5
37C
100
AcDbEntity
  8
0
100
AcDbLine
 62
7
  6
CONTINUOUS
 10
427.1437769361
 20
259.1437831828
 11
427.1437769361
 21
258.3937831828
  0
LINE
  5
37D
100
AcDbEntity
  8
0
100
AcDbLine
 62
7
  6
CONTINUOUS
 10
427.1498078683
 20
348.1937831828
 11
427.1498078683
 21
347.4437831828
  0
LINE
  5
37E
100
AcDbEntity
  8
0
100
AcDbLine
 62
7
  6
CONTINUOUS
 10
427.1498078683
 20
344.3937831828
 11
427.1498078683
 21
344.3456422477
  0
LINE
  5
37F
100
AcDbEntity
  8
0
100
AcDbLine
 62
7
  6
CONTINUOUS
 10
427.1819735372
 20
344.3937831828
 11
427.1819735372
 21
344.3456422477
  0
LINE
  5
380
100
AcDbEntity
  8
0
100
AcDbLine
 62
7
  6
CONTINUOUS
 10
427.1937769361
 20
336.4937831828
 11
427.1937769361
 21
300.7333109415
  0
LINE
  5
381
100
AcDbEntity
  8
0
100
AcDbLine
 62
7
  6
CONTINUOUS
 10
427.2031196371
 20
263.5750887413
 11
427.2031196371
 21
262.5124776244
  0
LINE
  5
382
100
AcDbEntity
  8
0
100
AcDbLine
 62
7
  6
CONTINUOUS
 10
427.2031196371
 20
267.7437831828
 11
427.2031196371
 21
268.0286933127
  0
LINE
  5
383
100
AcDbEntity
  8
0
100
AcDbLine
 62
7
  6
CONTINUOUS
 10
427.2357031595
 20
300.7263294473
 11
427.2357031595
 21
336.5357094063
  0
LINE
  5
384
100
AcDbEntity
  8
0
100
AcDbLine
 62
7
  6
CONTINUOUS
 10
427.2437769361
 20
348.1937831828
 11
427.2437769361
 21
347.4437831828
  0
LINE
  5
385
100
AcDbEntity
  8
0
100
AcDbLine
 62
7
  6
CONTINUOUS
 10
427.3197006859
 20
342.8937831828
 11
427.3197006859
 21
342.6937831828
  0
LINE
  5
386
100
AcDbEntity
  8
0
100
AcDbLine
 62
7
  6
CONTINUOUS
 10
427.3197006859
 20
339.6437831828
 11
427.3197006859
 21
339.2775674945
  0
LINE
  5
387
100
AcDbEntity
  8
0
100
AcDbLine
 62
7
  6
CONTINUOUS
 10
427.3790433868
 20
344.0750887413
 11
427.3790433868
 21
343.0124776244
  0
LINE
  5
388
100
AcDbEntity
  8
0
100
AcDbLine
 62
7
  6
CONTINUOUS
 10
427.3790433868
 20
339.158873053
 11
427.3790433868
 21
340.1937831828
  0
LINE
  5
389
100
AcDbEntity
  8
0
100
AcDbLine
 62
7
  6
CONTINUOUS
 10
427.3845762871
 20
340.1937831828
 11
427.3845686081
 21
352.543781398
  0
LINE
  5
38A
100
AcDbEntity
  8
0
100
AcDbLine
 62
7
  6
CONTINUOUS
 10
427.8921336885
 20
340.1937831828
 11
427.8921336885
 21
352.0437831828
  0
LINE
  5
38B
100
AcDbEntity
  8
0
100
AcDbLine
 62
7
  6
CONTINUOUS
 10
404.6437769361
 20
315.8837831828
 11
404.7437769361
 21
315.8837831828
  0
LINE
  5
38C
100
AcDbEntity
  8
0
100
AcDbLine
 62
7
  6
CONTINUOUS
 10
412.3437769361
 20
316.2477831828
 11
412.2437769361
 21
316.2477831828
  0
LINE
  5
38D
100
AcDbEntity
  8
0
100
AcDbLine
 62
7
  6
CONTINUOUS
 10
404.7437769361
 20
316.8837831828
 11
404.6437769361
 21
316.8837831828
  0
LINE
  5
38E
100
AcDbEntity
  8
0
100
AcDbLine
 62
7
  6
CONTINUOUS
 10
404.6437769361
 20
317.5437831828
 11
404.7437769361
 21
317.5437831828
  0
LINE
  5
38F
100
AcDbEntity
  8
0
100
AcDbLine
 62
7
  6
CONTINUOUS
 10
412.2437769361
 20
317.5437831828
 11
418.5937769361
 21
317.5437831828
  0
LINE
  5
390
100
AcDbEntity
  8
0
100
AcDbLine
 62
7
  6
CONTINUOUS
 10
404.6437769361
 20
318.5437831828
 11
404.7437769361
 21
318.5437831828
  0
LINE
  5
391
100
AcDbEntity
  8
0
100
AcDbLine
 62
7
  6
CONTINUOUS
 10
412.2437769361
 20
318.5437831828
 11
418.5937769361
 21
318.5437831828
  0
LINE
  5
392
100
AcDbEntity
  8
0
100
AcDbLine
 62
7
  6
CONTINUOUS
 10
399.1437769361
 20
336.4937831828
 11
399.1018507127
 21
336.5357094063
  0
LINE
  5
393
100
AcDbEntity
  8
0
100
AcDbLine
 62
7
  6
CONTINUOUS
 10
411.2437769361
 20
355.7653591136
 11
412.0187769361
 21
353.2304483343
  0
LINE
  5
394
100
AcDbEntity
  8
0
100
AcDbLine
 62
7
  6
CONTINUOUS
 10
429.2437769361
 20
252.5437831828
 11
429.2437769361
 21
352.5437831828
  0
LINE
  5
395
100
AcDbEntity
  8
0
100
AcDbLine
 62
7
  6
CONTINUOUS
 10
412.2437769361
 20
319.6337831828
 11
421.6937769361
 21
319.6337831828
  0
LINE
  5
396
100
AcDbEntity
  8
0
100
AcDbLine
 62
7
  6
CONTINUOUS
 10
421.6937769361
 20
320.6337831828
 11
412.2437769361
 21
320.6337831828
  0
LINE
  5
397
100
AcDbEntity
  8
0
100
AcDbLine
 62
7
  6
CONTINUOUS
 10
400.8506371416
 20
342.9619229774
 11
400.9187769361
 21
342.8937831828
  0
LINE
  5
398
100
AcDbEntity
  8
0
100
AcDbLine
 62
7
  6
CONTINUOUS
 10
400.9187769361
 20
263.6937831828
 11
400.8506371416
 21
263.6256433883
  0
LINE
  5
399
100
AcDbEntity
  8
0
100
AcDbLine
 62
7
  6
CONTINUOUS
 10
404.6437769361
 20
323.3837831828
 11
404.7437769361
 21
323.3837831828
  0
LINE
  5
39A
100
AcDbEntity
  8
0
100
AcDbLine
 62
7
  6
CONTINUOUS
 10
404.7437769361
 20
324.3837831828
 11
404.6437769361
 21
324.3837831828
  0
LINE
  5
39B
100
AcDbEntity
  8
0
100
AcDbLine
 62
7
  6
CONTINUOUS
 10
404.6437769361
 20
325.0437831828
 11
404.7437769361
 21
325.0437831828
  0
LINE
  5
39C
100
AcDbEntity
  8
0
100
AcDbLine
 62
7
  6
CONTINUOUS
 10
412.2437769361
 20
325.0437831828
 11
418.5937769361
 21
325.0437831828
  0
LINE
  5
39D
100
AcDbEntity
  8
0
100
AcDbLine
 62
7
  6
CONTINUOUS
 10
404.6437769361
 20
326.0437831828
 11
404.7437769361
 21
326.0437831828
  0
LINE
  5
39E
100
AcDbEntity
  8
0
100
AcDbLine
 62
7
  6
CONTINUOUS
 10
412.2437769361
 20
326.0437831828
 11
418.5937769361
 21
326.0437831828
  0
LINE
  5
39F
100
AcDbEntity
  8
0
100
AcDbLine
 62
7
  6
CONTINUOUS
 10
399.2437769361
 20
348.1937831828
 11
399.1085104853
 21
348.3290496336
  0
LINE
  5
3A0
100
AcDbEntity
  8
0
100
AcDbLine
 62
7
  6
CONTINUOUS
 10
411.7137769361
 20
352.1687831828
 11
411.7255740654
 21
352.1450053085
  0
LINE
  5
3A1
100
AcDbEntity
  8
0
100
AcDbLine
 62
7
  6
CONTINUOUS
 10
399.3437769361
 20
258.3937831828
 11
399.2323315155
 21
258.2823377622
  0
LINE
  5
3A2
100
AcDbEntity
  8
0
100
AcDbLine
 62
7
  6
CONTINUOUS
 10
404.6437769361
 20
329.9337831828
 11
404.7437769361
 21
329.9337831828
  0
LINE
  5
3A3
100
AcDbEntity
  8
0
100
AcDbLine
 62
7
  6
CONTINUOUS
 10
402.6250824946
 20
350.7124776244
 11
402.7437769361
 21
350.5937831828
  0
LINE
  5
3A4
100
AcDbEntity
  8
0
100
AcDbLine
 62
7
  6
CONTINUOUS
 10
414.7690742731
 20
350.2539164494
 11
414.7145823695
 21
350.3604662878
  0
LINE
  5
3A5
100
AcDbEntity
  8
0
100
AcDbLine
 62
7
  6
CONTINUOUS
 10
427.2031196371
 20
268.0286933127
 11
427.1437769361
 21
267.9099988712
  0
LINE
  5
3A6
100
AcDbEntity
  8
0
100
AcDbLine
 62
7
  6
CONTINUOUS
 10
402.6507107185
 20
254.4007169653
 11
402.7437769361
 21
254.4937831828
  0
LINE
  5
3A7
100
AcDbEntity
  8
0
100
AcDbLine
 62
7
  6
CONTINUOUS
 10
412.2437769361
 20
330.3637831828
 11
412.3437769361
 21
330.3637831828
  0
LINE
  5
3A8
100
AcDbEntity
  8
0
100
AcDbLine
 62
7
  6
CONTINUOUS
 10
404.6437769361
 20
330.4337831828
 11
404.7437769361
 21
330.4337831828
  0
LINE
  5
3A9
100
AcDbEntity
  8
0
100
AcDbLine
 62
7
  6
CONTINUOUS
 10
404.6437769361
 20
330.8837831828
 11
404.7437769361
 21
330.8837831828
  0
LINE
  5
3AA
100
AcDbEntity
  8
0
100
AcDbLine
 62
7
  6
CONTINUOUS
 10
404.6437769361
 20
331.2037831828
 11
404.7437769361
 21
331.2037831828
  0
LINE
  5
3AB
100
AcDbEntity
  8
0
100
AcDbLine
 62
7
  6
CONTINUOUS
 10
412.3437769361
 20
331.3637831828
 11
412.2437769361
 21
331.3637831828
  0
LINE
  5
3AC
100
AcDbEntity
  8
0
100
AcDbLine
 62
7
  6
CONTINUOUS
 10
404.6437769361
 20
331.7037831828
 11
404.7437769361
 21
331.7037831828
  0
LINE
  5
3AD
100
AcDbEntity
  8
0
100
AcDbLine
 62
7
  6
CONTINUOUS
 10
404.7437769361
 20
331.8837831828
 11
404.6437769361
 21
331.8837831828
  0
LINE
  5
3AE
100
AcDbEntity
  8
0
100
AcDbLine
 62
7
  6
CONTINUOUS
 10
409.5237769361
 20
332.2637831828
 11
407.9237769361
 21
332.2637831828
  0
LINE
  5
3AF
100
AcDbEntity
  8
0
100
AcDbLine
 62
7
  6
CONTINUOUS
 10
421.4675963327
 20
335.0699637862
 11
421.4876681286
 21
335.0498919903
  0
LINE
  5
3B0
100
AcDbEntity
  8
0
100
AcDbLine
 62
7
  6
CONTINUOUS
 10
427.3197006859
 20
339.2775674945
 11
427.3790433868
 21
339.158873053
  0
LINE
  5
3B1
100
AcDbEntity
  8
0
100
AcDbLine
 62
7
  6
CONTINUOUS
 10
427.2031196371
 20
262.5124776244
 11
427.1437769361
 21
262.3937831828
  0
LINE
  5
3B2
100
AcDbEntity
  8
0
100
AcDbLine
 62
7
  6
CONTINUOUS
 10
410.1778988433
 20
334.2797265435
 11
406.7778988431
 21
333.3686992892
  0
LINE
  5
3B3
100
AcDbEntity
  8
0
100
AcDbLine
 62
7
  6
CONTINUOUS
 10
406.5779026549
 20
334.6506167448
 11
409.977902655
 21
335.5616439991
  0
LINE
  5
3B4
100
AcDbEntity
  8
0
100
AcDbLine
 62
7
  6
CONTINUOUS
 10
421.6937769361
 20
334.6437831828
 11
412.2437769361
 21
334.6437831828
  0
LINE
  5
3B5
100
AcDbEntity
  8
0
100
AcDbLine
 62
7
  6
CONTINUOUS
 10
404.7437769361
 20
334.6437831828
 11
404.6437769361
 21
334.6437831828
  0
LINE
  5
3B6
100
AcDbEntity
  8
0
100
AcDbLine
 62
7
  6
CONTINUOUS
 10
421.6937769361
 20
335.0437831828
 11
412.2437769361
 21
335.0437831828
  0
LINE
  5
3B7
100
AcDbEntity
  8
0
100
AcDbLine
 62
7
  6
CONTINUOUS
 10
404.7437769361
 20
335.0437831828
 11
404.6437769361
 21
335.0437831828
  0
LINE
  5
3B8
100
AcDbEntity
  8
0
100
AcDbLine
 62
7
  6
CONTINUOUS
 10
404.6437769361
 20
335.0498919903
 11
404.7437769361
 21
335.0498919903
  0
LINE
  5
3B9
100
AcDbEntity
  8
0
100
AcDbLine
 62
7
  6
CONTINUOUS
 10
421.4876681286
 20
335.0498919903
 11
421.6937769361
 21
335.0498919903
  0
LINE
  5
3BA
100
AcDbEntity
  8
0
100
AcDbLine
 62
7
  6
CONTINUOUS
 10
412.2437769361
 20
335.0699637862
 11
421.4675963327
 21
335.0699637862
  0
LINE
  5
3BB
100
AcDbEntity
  8
0
100
AcDbLine
 62
7
  6
CONTINUOUS
 10
421.6937769361
 20
336.4937831828
 11
404.6437769361
 21
336.4937831828
  0
LINE
  5
3BC
100
AcDbEntity
  8
0
100
AcDbLine
 62
7
  6
CONTINUOUS
 10
401.1437769361
 20
336.4937831828
 11
399.1437769361
 21
336.4937831828
  0
LINE
  5
3BD
100
AcDbEntity
  8
0
100
AcDbLine
 62
7
  6
CONTINUOUS
 10
402.7437769361
 20
336.4937831828
 11
404.6333046947
 21
336.4937831828
  0
LINE
  5
3BE
100
AcDbEntity
  8
0
100
AcDbLine
 62
7
  6
CONTINUOUS
 10
421.7042491774
 20
336.4937831828
 11
423.5937769361
 21
336.4937831828
  0
LINE
  5
3BF
100
AcDbEntity
  8
0
100
AcDbLine
 62
7
  6
CONTINUOUS
 10
425.1937769361
 20
336.4937831828
 11
427.1937769361
 21
336.4937831828
  0
LINE
  5
3C0
100
AcDbEntity
  8
0
100
AcDbLine
 62
7
  6
CONTINUOUS
 10
401.1594992699
 20
336.5095055166
 11
402.7280546023
 21
336.5095055166
  0
LINE
  5
3C1
100
AcDbEntity
  8
0
100
AcDbLine
 62
7
  6
CONTINUOUS
 10
423.6094992699
 20
336.5095055166
 11
425.1780546023
 21
336.5095055166
  0
LINE
  5
3C2
100
AcDbEntity
  8
0
100
AcDbLine
 62
7
  6
CONTINUOUS
 10
427.2357031595
 20
336.5357094063
 11
421.7112306717
 21
336.5357094063
  0
LINE
  5
3C3
100
AcDbEntity
  8
0
100
AcDbLine
 62
7
  6
CONTINUOUS
 10
404.6263232005
 20
336.5357094063
 11
399.1018507127
 21
336.5357094063
  0
LINE
  5
3C4
100
AcDbEntity
  8
0
100
AcDbLine
 62
7
  6
CONTINUOUS
 10
425.1937769361
 20
336.4937831828
 11
425.1780546023
 21
336.5095055166
  0
LINE
  5
3C5
100
AcDbEntity
  8
0
100
AcDbLine
 62
7
  6
CONTINUOUS
 10
427.2437769361
 20
344.3456422477
 11
427.3790433868
 21
344.0750887413
  0
LINE
  5
3C6
100
AcDbEntity
  8
0
100
AcDbLine
 62
7
  6
CONTINUOUS
 10
402.6250824946
 20
258.3344404819
 11
402.7437769361
 21
258.3937831828
  0
LINE
  5
3C7
100
AcDbEntity
  8
0
100
AcDbLine
 62
7
  6
CONTINUOUS
 10
421.7112306717
 20
338.4437831828
 11
404.6263232005
 21
338.4437831828
  0
LINE
  5
3C8
100
AcDbEntity
  8
0
100
AcDbLine
 62
7
  6
CONTINUOUS
 10
427.3790433868
 20
339.158873053
 11
399.1085104853
 21
339.158873053
  0
LINE
  5
3C9
100
AcDbEntity
  8
0
100
AcDbLine
 62
7
  6
CONTINUOUS
 10
408.2437769361
 20
339.1815646374
 11
418.2437769361
 21
339.1815646374
  0
LINE
  5
3CA
100
AcDbEntity
  8
0
100
AcDbLine
 62
7
  6
CONTINUOUS
 10
399.4374936216
 20
339.2077472348
 11
408.2437769361
 21
339.2077472348
  0
LINE
  5
3CB
100
AcDbEntity
  8
0
100
AcDbLine
 62
7
  6
CONTINUOUS
 10
418.2437769361
 20
339.2077472348
 11
427.0500602506
 21
339.2077472348
  0
LINE
  5
3CC
100
AcDbEntity
  8
0
100
AcDbLine
 62
7
  6
CONTINUOUS
 10
399.4060770491
 20
339.2775674945
 11
399.1678531863
 21
339.2775674945
  0
LINE
  5
3CD
100
AcDbEntity
  8
0
100
AcDbLine
 62
7
  6
CONTINUOUS
 10
427.0814768231
 20
339.2775674945
 11
427.3197006859
 21
339.2775674945
  0
LINE
  5
3CE
100
AcDbEntity
  8
0
100
AcDbLine
 62
7
  6
CONTINUOUS
 10
398.891104137
 20
339.6437831828
 11
427.5964497352
 21
339.6437831828
  0
LINE
  5
3CF
100
AcDbEntity
  8
0
100
AcDbLine
 62
7
  6
CONTINUOUS
 10
397.2437769361
 20
340.1937831828
 11
399.1029775851
 21
340.1937831828
  0
LINE
  5
3D0
100
AcDbEntity
  8
0
100
AcDbLine
 62
7
  6
CONTINUOUS
 10
427.3845762871
 20
340.1937831828
 11
429.2437769361
 21
340.1937831828
  0
LINE
  5
3D1
100
AcDbEntity
  8
0
100
AcDbLine
 62
7
  6
CONTINUOUS
 10
402.6250824946
 20
348.3290496336
 11
402.7437769361
 21
348.2697069326
  0
LINE
  5
3D2
100
AcDbEntity
  8
0
100
AcDbLine
 62
7
  6
CONTINUOUS
 10
425.5687769361
 20
262.3937831828
 11
425.6369167306
 21
262.4619229774
  0
LINE
  5
3D3
100
AcDbEntity
  8
0
100
AcDbLine
 62
7
  6
CONTINUOUS
 10
426.9874713776
 20
343.0124776244
 11
425.6369167306
 21
342.9619229774
  0
LINE
  5
3D4
100
AcDbEntity
  8
0
100
AcDbLine
 62
7
  6
CONTINUOUS
 10
399.5000824946
 20
344.0750887413
 11
400.8506371416
 21
344.1256433883
  0
LINE
  5
3D5
100
AcDbEntity
  8
0
100
AcDbLine
 62
7
  6
CONTINUOUS
 10
399.000275984
 20
342.6937831828
 11
402.4437769361
 21
342.6937831828
  0
LINE
  5
3D6
100
AcDbEntity
  8
0
100
AcDbLine
 62
7
  6
CONTINUOUS
 10
424.0437769361
 20
342.6937831828
 11
427.4872774881
 21
342.6937831828
  0
LINE
  5
3D7
100
AcDbEntity
  8
0
100
AcDbLine
 62
7
  6
CONTINUOUS
 10
401.9437769361
 20
342.7937831828
 11
411.7437769361
 21
342.7937831828
  0
LINE
  5
3D8
100
AcDbEntity
  8
0
100
AcDbLine
 62
7
  6
CONTINUOUS
 10
414.7437769361
 20
342.7937831828
 11
424.5437769361
 21
342.7937831828
  0
LINE
  5
3D9
100
AcDbEntity
  8
0
100
AcDbLine
 62
7
  6
CONTINUOUS
 10
400.9187769361
 20
342.8937831828
 11
399.1678531863
 21
342.8937831828
  0
LINE
  5
3DA
100
AcDbEntity
  8
0
100
AcDbLine
 62
7
  6
CONTINUOUS
 10
425.5687769361
 20
342.8937831828
 11
427.3197006859
 21
342.8937831828
  0
LINE
  5
3DB
100
AcDbEntity
  8
0
100
AcDbLine
 62
7
  6
CONTINUOUS
 10
399.1085104853
 20
343.0124776244
 11
399.5000824946
 21
343.0124776244
  0
LINE
  5
3DC
100
AcDbEntity
  8
0
100
AcDbLine
 62
7
  6
CONTINUOUS
 10
426.9874713776
 20
343.0124776244
 11
427.3790433868
 21
343.0124776244
  0
LINE
  5
3DD
100
AcDbEntity
  8
0
100
AcDbLine
 62
7
  6
CONTINUOUS
 10
427.3790433868
 20
344.0750887413
 11
426.9874713776
 21
344.0750887413
  0
LINE
  5
3DE
100
AcDbEntity
  8
0
100
AcDbLine
 62
7
  6
CONTINUOUS
 10
399.5000824946
 20
344.0750887413
 11
399.1085104853
 21
344.0750887413
  0
LINE
  5
3DF
100
AcDbEntity
  8
0
100
AcDbLine
 62
7
  6
CONTINUOUS
 10
399.4060770491
 20
344.1937831828
 11
400.9187769361
 21
344.1937831828
  0
LINE
  5
3E0
100
AcDbEntity
  8
0
100
AcDbLine
 62
7
  6
CONTINUOUS
 10
425.5687769361
 20
344.1937831828
 11
427.0814768231
 21
344.1937831828
  0
LINE
  5
3E1
100
AcDbEntity
  8
0
100
AcDbLine
 62
7
  6
CONTINUOUS
 10
401.9437769361
 20
344.2937831828
 11
411.7437769361
 21
344.2937831828
  0
LINE
  5
3E2
100
AcDbEntity
  8
0
100
AcDbLine
 62
7
  6
CONTINUOUS
 10
414.7437769361
 20
344.2937831828
 11
424.5437769361
 21
344.2937831828
  0
LINE
  5
3E3
100
AcDbEntity
  8
0
100
AcDbLine
 62
7
  6
CONTINUOUS
 10
399.3377460038
 20
344.3456422477
 11
399.305580335
 21
344.3456422477
  0
LINE
  5
3E4
100
AcDbEntity
  8
0
100
AcDbLine
 62
7
  6
CONTINUOUS
 10
427.1498078683
 20
344.3456422477
 11
427.1819735372
 21
344.3456422477
  0
LINE
  5
3E5
100
AcDbEntity
  8
0
100
AcDbLine
 62
7
  6
CONTINUOUS
 10
398.9462634282
 20
344.3937831828
 11
402.4437769361
 21
344.3937831828
  0
LINE
  5
3E6
100
AcDbEntity
  8
0
100
AcDbLine
 62
7
  6
CONTINUOUS
 10
424.0437769361
 20
344.3937831828
 11
427.5412907497
 21
344.3937831828
  0
LINE
  5
3E7
100
AcDbEntity
  8
0
100
AcDbLine
 62
7
  6
CONTINUOUS
 10
399.5000824946
 20
343.0124776244
 11
400.8506371416
 21
342.9619229774
  0
LINE
  5
3E8
100
AcDbEntity
  8
0
100
AcDbLine
 62
7
  6
CONTINUOUS
 10
426.9874713776
 20
344.0750887413
 11
425.6369167306
 21
344.1256433883
  0
LINE
  5
3E9
100
AcDbEntity
  8
0
100
AcDbLine
 62
7
  6
CONTINUOUS
 10
425.6369167306
 20
344.1256433883
 11
425.5687769361
 21
344.1937831828
  0
LINE
  5
3EA
100
AcDbEntity
  8
0
100
AcDbLine
 62
7
  6
CONTINUOUS
 10
420.7750824946
 20
350.7124776244
 11
420.8937769361
 21
350.5937831828
  0
LINE
  5
3EB
100
AcDbEntity
  8
0
100
AcDbLine
 62
7
  6
CONTINUOUS
 10
420.8007107185
 20
254.4007169653
 11
420.8937769361
 21
254.4937831828
  0
LINE
  5
3EC
100
AcDbEntity
  8
0
100
AcDbLine
 62
7
  6
CONTINUOUS
 10
427.5307436281
 20
347.4437831828
 11
398.9568097112
 21
347.4437831828
  0
LINE
  5
3ED
100
AcDbEntity
  8
0
100
AcDbLine
 62
7
  6
CONTINUOUS
 10
408.2437769361
 20
348.1937831828
 11
399.2437769361
 21
348.1937831828
  0
LINE
  5
3EE
100
AcDbEntity
  8
0
100
AcDbLine
 62
7
  6
CONTINUOUS
 10
418.2437769361
 20
348.1937831828
 11
427.2437769361
 21
348.1937831828
  0
LINE
  5
3EF
100
AcDbEntity
  8
0
100
AcDbLine
 62
7
  6
CONTINUOUS
 10
420.7750824946
 20
348.3290496336
 11
420.8937769361
 21
348.2697069326
  0
LINE
  5
3F0
100
AcDbEntity
  8
0
100
AcDbLine
 62
7
  6
CONTINUOUS
 10
420.7750824946
 20
258.3344404819
 11
420.8937769361
 21
258.3937831828
  0
LINE
  5
3F1
100
AcDbEntity
  8
0
100
AcDbLine
 62
7
  6
CONTINUOUS
 10
423.8937769361
 20
348.2697069326
 11
420.8937769361
 21
348.2697069326
  0
LINE
  5
3F2
100
AcDbEntity
  8
0
100
AcDbLine
 62
7
  6
CONTINUOUS
 10
402.7437769361
 20
348.2697069326
 11
405.2437769361
 21
348.2697069326
  0
LINE
  5
3F3
100
AcDbEntity
  8
0
100
AcDbLine
 62
7
  6
CONTINUOUS
 10
399.1085104853
 20
348.3290496336
 11
402.6250824946
 21
348.3290496336
  0
LINE
  5
3F4
100
AcDbEntity
  8
0
100
AcDbLine
 62
7
  6
CONTINUOUS
 10
405.3624713776
 20
348.3290496336
 11
412.2437769361
 21
348.3290496336
  0
LINE
  5
3F5
100
AcDbEntity
  8
0
100
AcDbLine
 62
7
  6
CONTINUOUS
 10
414.2437769361
 20
348.3290496336
 11
420.7750824946
 21
348.3290496336
  0
LINE
  5
3F6
100
AcDbEntity
  8
0
100
AcDbLine
 62
7
  6
CONTINUOUS
 10
424.0124713776
 20
348.3290496336
 11
427.3790433868
 21
348.3290496336
  0
LINE
  5
3F7
100
AcDbEntity
  8
0
100
AcDbLine
 62
7
  6
CONTINUOUS
 10
423.8937769361
 20
350.5937831828
 11
420.8937769361
 21
350.5937831828
  0
LINE
  5
3F8
100
AcDbEntity
  8
0
100
AcDbLine
 62
7
  6
CONTINUOUS
 10
405.2437769361
 20
350.5937831828
 11
402.7437769361
 21
350.5937831828
  0
LINE
  5
3F9
100
AcDbEntity
  8
0
100
AcDbLine
 62
7
  6
CONTINUOUS
 10
424.0124713776
 20
350.7124776244
 11
420.7750824946
 21
350.7124776244
  0
LINE
  5
3FA
100
AcDbEntity
  8
0
100
AcDbLine
 62
7
  6
CONTINUOUS
 10
405.3624713776
 20
350.7124776244
 11
402.6250824946
 21
350.7124776244
  0
LINE
  5
3FB
100
AcDbEntity
  8
0
100
AcDbLine
 62
7
  6
CONTINUOUS
 10
417.2437769361
 20
356.1437831828
 11
423.4791598433
 21
352.5437831828
  0
LINE
  5
3FC
100
AcDbEntity
  8
0
100
AcDbLine
 62
7
  6
CONTINUOUS
 10
427.8921336885
 20
352.0437831828
 11
427.3845743718
 21
352.5437755939
  0
LINE
  5
3FD
100
AcDbEntity
  8
0
100
AcDbLine
 62
7
  6
CONTINUOUS
 10
429.2437769361
 20
352.0437831828
 11
427.8921336885
 21
352.0437831828
  0
LINE
  5
3FE
100
AcDbEntity
  8
0
100
AcDbLine
 62
7
  6
CONTINUOUS
 10
398.5954201836
 20
352.0437831828
 11
397.2437769361
 21
352.0437831828
  0
LINE
  5
3FF
100
AcDbEntity
  8
0
100
AcDbLine
 62
7
  6
CONTINUOUS
 10
397.2437769361
 20
352.5437831828
 11
399.1029795004
 21
352.5437755939
  0
LINE
  5
400
100
AcDbEntity
  8
0
100
AcDbLine
 62
7
  6
CONTINUOUS
 10
427.3845743718
 20
352.5437755939
 11
429.2437769361
 21
352.5437831828
  0
LINE
  5
401
100
AcDbEntity
  8
0
100
AcDbLine
 62
7
  6
CONTINUOUS
 10
399.1085104853
 20
352.5437831828
 11
403.0083940288
 21
352.5437831828
  0
LINE
  5
402
100
AcDbEntity
  8
0
100
AcDbLine
 62
7
  6
CONTINUOUS
 10
423.4791598433
 20
352.5437831828
 11
427.3790433868
 21
352.5437831828
  0
LINE
  5
403
100
AcDbEntity
  8
0
100
AcDbLine
 62
7
  6
CONTINUOUS
 10
417.2437769361
 20
356.1437831828
 11
415.2437769361
 21
356.1437831828
  0
LINE
  5
404
100
AcDbEntity
  8
0
100
AcDbLine
 62
7
  6
CONTINUOUS
 10
411.2437769361
 20
356.1437831828
 11
409.2437769361
 21
356.1437831828
  0
ARC
  5
405
100
AcDbEntity
  8
0
100
AcDbCircle
 62
7
  6
CONTINUOUS
 10
410.4437769361
 20
333.8229775117
 40
1.8
100
AcDbArc
 50
0.0
 51
104.9999999956
  0
ARC
  5
406
100
AcDbEntity
  8
0
100
AcDbCircle
 62
7
  6
CONTINUOUS
 10
407.0437769361
 20
332.9119502575
 40
1.8
100
AcDbArc
 50
104.9999999989
 51
180.0
  0
ARC
  5
407
100
AcDbEntity
  8
0
100
AcDbCircle
 62
7
  6
CONTINUOUS
 10
407.0437769361
 20
305.8656161082
 40
1.8
100
AcDbArc
 50
180.0
 51
255.0000000046
  0
ARC
  5
408
100
AcDbEntity
  8
0
100
AcDbCircle
 62
7
  6
CONTINUOUS
 10
410.4437769361
 20
304.954588854
 40
1.8
100
AcDbArc
 50
255.0000000027
 51
360.0
  0
ARC
  5
409
100
AcDbEntity
  8
0
100
AcDbCircle
 62
7
  6
CONTINUOUS
 10
410.4237769361
 20
305.4154693572
 40
0.95
100
AcDbArc
 50
255.0000000079
 51
360.0
  0
ARC
  5
40A
100
AcDbEntity
  8
0
100
AcDbCircle
 62
7
  6
CONTINUOUS
 10
407.0237769361
 20
306.3264966115
 40
0.95
100
AcDbArc
 50
180.0
 51
255.0000000001
  0
ARC
  5
40B
100
AcDbEntity
  8
0
100
AcDbCircle
 62
7
  6
CONTINUOUS
 10
407.0237769361
 20
332.4510697542
 40
0.95
100
AcDbArc
 50
105.0000000055
 51
180.0000000044
  0
ARC
  5
40C
100
AcDbEntity
  8
0
100
AcDbCircle
 62
7
  6
CONTINUOUS
 10
410.4237769361
 20
333.3620970085
 40
0.95
100
AcDbArc
 50
0.0
 51
104.9999999934
  0
CIRCLE
  5
40D
100
AcDbEntity
  8
0
100
AcDbCircle
 62
7
  6
CONTINUOUS
 10
410.2437769361
 20
263.0437831828
 40
0.6
  0
CIRCLE
  5
40E
100
AcDbEntity
  8
0
100
AcDbCircle
 62
7
  6
CONTINUOUS
 10
410.2437769361
 20
343.5437831828
 40
0.6
  0
CIRCLE
  5
40F
100
AcDbEntity
  8
0
100
AcDbCircle
 62
7
  6
CONTINUOUS
 10
410.2437769361
 20
263.0437831828
 40
0.5037624701
  0
CIRCLE
  5
410
100
AcDbEntity
  8
0
100
AcDbCircle
 62
7
  6
CONTINUOUS
 10
410.2437769361
 20
343.5437831828
 40
0.5037624701
  0
ARC
  5
411
100
AcDbEntity
  8
0
100
AcDbCircle
 62
7
  6
CONTINUOUS
 10
411.5437769361
 20
262.4937831828
 40
0.2
100
AcDbArc
 50
270.0
 51
360.0
  0
ARC
  5
412
100
AcDbEntity
  8
0
100
AcDbCircle
 62
7
  6
CONTINUOUS
 10
411.5437769361
 20
263.5937831828
 40
0.2
100
AcDbArc
 50
0.0
 51
90.0
  0
ARC
  5
413
100
AcDbEntity
  8
0
100
AcDbCircle
 62
7
  6
CONTINUOUS
 10
411.5437769361
 20
342.9937831828
 40
0.2
100
AcDbArc
 50
270.0
 51
360.0
  0
ARC
  5
414
100
AcDbEntity
  8
0
100
AcDbCircle
 62
7
  6
CONTINUOUS
 10
411.5437769361
 20
344.0937831828
 40
0.2
100
AcDbArc
 50
0.0
 51
90.0
  0
CIRCLE
  5
415
100
AcDbEntity
  8
0
100
AcDbCircle
 62
7
  6
CONTINUOUS
 10
413.2437769361
 20
293.5437831828
 40
5.0
  0
ARC
  5
416
100
AcDbEntity
  8
0
100
AcDbCircle
 62
7
  6
CONTINUOUS
 10
413.2437769361
 20
351.2937831828
 40
3.75
100
AcDbArc
 50
63.680379925
 51
116.3186009386
  0
CIRCLE
  5
417
100
AcDbEntity
  8
0
100
AcDbCircle
 62
7
  6
CONTINUOUS
 10
413.2437769361
 20
274.5937831828
 40
3.0
  0
CIRCLE
  5
418
100
AcDbEntity
  8
0
100
AcDbCircle
 62
7
  6
CONTINUOUS
 10
413.2437769361
 20
351.2937831828
 40
1.75
  0
ARC
  5
419
100
AcDbEntity
  8
0
100
AcDbCircle
 62
7
  6
CONTINUOUS
 10
413.2437769361
 20
352.3137831828
 40
1.53
100
AcDbArc
 50
0.0
 51
36.807438538
  0
ARC
  5
41A
100
AcDbEntity
  8
0
100
AcDbCircle
 62
7
  6
CONTINUOUS
 10
413.2437769361
 20
352.3137831828
 40
1.53
100
AcDbArc
 50
143.192561462
 51
180.0
  0
ARC
  5
41B
100
AcDbEntity
  8
0
100
AcDbCircle
 62
7
  6
CONTINUOUS
 10
413.2437769361
 20
350.3737831828
 40
1.53
100
AcDbArc
 50
184.4934006678
 51
355.5065993322
  0
CIRCLE
  5
41C
100
AcDbEntity
  8
0
100
AcDbCircle
 62
7
  6
CONTINUOUS
 10
413.2437769361
 20
351.2937831828
 40
1.45
  0
CIRCLE
  5
41D
100
AcDbEntity
  8
0
100
AcDbCircle
 62
7
  6
CONTINUOUS
 10
413.2437769361
 20
351.2937831828
 40
0.6
  0
CIRCLE
  5
41E
100
AcDbEntity
  8
0
100
AcDbCircle
 62
7
  6
CONTINUOUS
 10
416.2437769361
 20
263.0437831828
 40
0.6
  0
CIRCLE
  5
41F
100
AcDbEntity
  8
0
100
AcDbCircle
 62
7
  6
CONTINUOUS
 10
416.2437769361
 20
343.5437831828
 40
0.6
  0
CIRCLE
  5
420
100
AcDbEntity
  8
0
100
AcDbCircle
 62
7
  6
CONTINUOUS
 10
416.2437769361
 20
263.0437831828
 40
0.5037624701
  0
CIRCLE
  5
421
100
AcDbEntity
  8
0
100
AcDbCircle
 62
7
  6
CONTINUOUS
 10
416.2437769361
 20
343.5437831828
 40
0.5037624701
  0
CIRCLE
  5
422
100
AcDbEntity
  8
0
100
AcDbCircle
 62
7
  6
CONTINUOUS
 10
413.2437769361
 20
351.2937831828
 40
0.4
  0
ARC
  5
423
100
AcDbEntity
  8
0
100
AcDbCircle
 62
7
  6
CONTINUOUS
 10
414.9437769361
 20
263.5937831828
 40
0.2
100
AcDbArc
 50
90.0
 51
180.0
  0
ARC
  5
424
100
AcDbEntity
  8
0
100
AcDbCircle
 62
7
  6
CONTINUOUS
 10
414.9437769361
 20
262.4937831828
 40
0.2
100
AcDbArc
 50
180.0
 51
270.0
  0
ARC
  5
425
100
AcDbEntity
  8
0
100
AcDbCircle
 62
7
  6
CONTINUOUS
 10
414.9437769361
 20
344.0937831828
 40
0.2
100
AcDbArc
 50
90.0
 51
180.0
  0
ARC
  5
426
100
AcDbEntity
  8
0
100
AcDbCircle
 62
7
  6
CONTINUOUS
 10
414.9437769361
 20
342.9937831828
 40
0.2
100
AcDbArc
 50
180.0
 51
270.0
  0
ARC
  5
427
100
AcDbEntity
  8
0
100
AcDbCircle
 62
7
  6
CONTINUOUS
 10
413.2437769361
 20
533.2437831828
 40
197.015708362
100
AcDbArc
 50
269.7091558548
 51
272.3923325052
  0
ARC
  5
428
100
AcDbEntity
  8
0
100
AcDbCircle
 62
7
  6
CONTINUOUS
 10
413.2437769361
 20
533.2437831828
 40
197.0043634339
100
AcDbArc
 50
272.3983130408
 51
272.4592360504
  0
ARC
  5
429
100
AcDbEntity
  8
0
100
AcDbCircle
 62
7
  6
CONTINUOUS
 10
413.2437769361
 20
533.2437831828
 40
197.0043634339
100
AcDbArc
 50
267.4971883362
 51
267.5271320923
  0
ARC
  5
42A
100
AcDbEntity
  8
0
100
AcDbCircle
 62
7
  6
CONTINUOUS
 10
413.2437769361
 20
533.2437831828
 40
197.0
100
AcDbArc
 50
269.7091539469
 51
272.3976043887
  0
ARC
  5
42B
100
AcDbEntity
  8
0
100
AcDbCircle
 62
7
  6
CONTINUOUS
 10
413.2437769361
 20
531.3937831828
 40
195.0
100
AcDbArc
 50
269.7061095236
 51
271.6751231556
  0
ELLIPSE
  5
42C
100
AcDbEntity
  8
0
100
AcDbEllipse
 62
7
  6
CONTINUOUS
 10
428.8051324939
 20
336.3937831828
 30
0.0
 11
0.0
 21
96.4
 31
0.0
 40
0.0174550649
 41
1.4480779692
 42
1.4559008237
  0
ELLIPSE
  5
42D
100
AcDbEntity
  8
0
100
AcDbEllipse
 62
7
  6
CONTINUOUS
 10
397.6824213783
 20
336.3937831828
 30
0.0
 11
-0.0
 21
96.4
 31
0.0
 40
0.0174550649
 41
-1.4559008237
 42
-1.4480779692
  0
ELLIPSE
  5
42E
100
AcDbEntity
  8
0
100
AcDbEllipse
 62
7
  6
CONTINUOUS
 10
399.2800708012
 20
259.7437831828
 30
0.0
 11
0.0
 21
8.0
 31
0.0
 40
0.0087268678
 41
-0.0000000331
 42
0.6405940421
  0
ELLIPSE
  5
42F
100
AcDbEntity
  8
0
100
AcDbEllipse
 62
7
  6
CONTINUOUS
 10
427.207483071
 20
259.7437831828
 30
0.0
 11
0.0
 21
8.0
 31
0.0
 40
0.0087268678
 41
-0.6405940421
 42
0.0
  0
ENDSEC
  0
SECTION
  2
OBJECTS
  0
DICTIONARY
  5
C
100
AcDbDictionary
280
0
281
1
  3
ACAD_GROUP
350
D
  3
ACAD_MLINESTYLE
350
17
  3
ACAD_LAYOUT
350
1A
  3
ACAD_PLOTSETTINGS
350
19
  3
ACAD_PLOTSTYLENAME
350
E
  0
DICTIONARY
  5
D
102
{ACAD_REACTORS
330
C
102
}
100
AcDbDictionary
280
0
281
1
  0
ACDBDICTIONARYWDFLT
  5
E
102
{ACAD_REACTORS
330
C
102
}
100
AcDbDictionary
281
1
  3
Normal
350
F
100
AcDbDictionaryWithDefault
340
F
  0
DICTIONARY
  5
17
102
{ACAD_REACTORS
330
C
102
}
100
AcDbDictionary
280
0
281
1
  3
Standard
350
18
  0
DICTIONARY
  5
19
102
{ACAD_REACTORS
330
C
102
}
100
AcDbDictionary
281
1
  0
DICTIONARY
  5
1A
102
{ACAD_REACTORS
330
C
102
}
100
AcDbDictionary
281
1
  3
Model
350
430
  3
Layout1
350
431
  0
ACDBPLACEHOLDER
  5
F
102
{ACAD_REACTORS
330
E
102
}
  0
MLINESTYLE
  5
18
102
{ACAD_REACTORS
330
17
102
}
100
AcDbMlineStyle
  2
STANDARD
 70
0
  3

 62
256
 51
90.0
 52
90.0
 71
2
 49
0.5
 62
256
  6
BYLAYER
 49
-0.5
 62
256
  6
BYLAYER
  0
LAYOUT
  5
430
102
{ACAD_REACTORS
330
1A
102
}
100
AcDbPlotSettings
  1

  2
none_device
  4
ANSI_C_(22.00_x_17.00_Inches)
  6

 40
0.0
 41
0.0
 42
0.0
 43
0.0
 44
558.8
 45
431.8
 46
0.0
 47
0.0
 48
0.0
 49
0.0
140
0.0
141
0.0
142
1.0
143
1.0
 70
1024
 72
1
 73
0
 74
0
  7

 75
0
147
1.0
148
0.0
149
0.0
100
AcDbLayout
  1
Model
 70
0
 71
0
 10
0.0
 20
0.0
 11
558.8
 21
431.8
 12
0.0
 22
0.0
 32
0.0
 14
0.0
 24
0.0
 34
0.0
 15
0.0
 25
0.0
 35
0.0
146
0.0
 13
0.0
 23
0.0
 33
0.0
 16
1.0
 26
0.0
 36
0.0
 17
0.0
 27
1.0
 37
0.0
 76
0
330
216
345
0
346
0
  0
LAYOUT
  5
431
102
{ACAD_REACTORS
330
1A
102
}
100
AcDbPlotSettings
  1

  2
none_device
  4
ANSI_C_(22.00_x_17.00_Inches)
  6

 40
0.0
 41
0.0
 42
0.0
 43
0.0
 44
558.8
 45
431.8
 46
0.0
 47
0.0
 48
0.0
 49
0.0
140
0.0
141
0.0
142
1.0
143
1.0
 70
0
 72
1
 73
0
 74
0
  7

 75
0
147
1.0
148
0.0
149
0.0
100
AcDbLayout
  1
Layout1
 70
0
 71
1
 10
0.0
 20
0.0
 11
558.8
 21
431.8
 12
0.0
 22
0.0
 32
0.0
 14
0.0
 24
0.0
 34
0.0
 15
0.0
 25
0.0
 35
0.0
146
0.0
 13
0.0
 23
0.0
 33
0.0
 16
1.0
 26
0.0
 36
0.0
 17
0.0
 27
1.0
 37
0.0
 76
0
330
217
345
0
346
0
  0
ENDSEC
  0
EOF
