999
DXF file: C:\Users\sesa63760\Dev\_Creo\CAD\MCADID0004058_3D-CAD\drw0001_1.dxf
999
Pro/ENGINEER 2019471 by Parametric Technology Corporation
  0
SECTION
  2
HEADER
  9
$ACADVER
  1
AC1024
  9
$DWGCODEPAGE
  3
ANSI_1252
  9
$EXTMAX
 10
134.8633100262
 20
190.7352527514
 30
0.0
  9
$EXTMIN
 10
0.0
 20
0.0
 30
0.0
  9
$LIMMIN
 10
0.0
 20
0.0
  9
$LIMMAX
 10
134.8633100262
 20
190.7352527514
  9
$VIEWCTR
 10
67.4316550131
 20
95.3676263757
  9
$VIEWSIZE
 40
190.7352527514
  9
$CLAYER
  8
0
  9
$LTSCALE
 40
12.4331127719
  9
$CELTYPE
  6
BYLAYER
  9
$DIMSCALE
 40
1.0
  9
$DIMASZ
 40
1.6055155956
  9
$DIMEXO
 40
1.0
  9
$DIMDLI
 40
8.5901506424
  9
$DIMEXE
 40
1.0
  9
$DIMCEN
 40
2.0345093627
  9
$DIMLFAC
 40
1.0
  9
$DIMBLK
  1
_FILLED
  9
$DIMALT
 70
0
  9
$DIMALTF
 40
0.0393700787
  9
$DIMTXT
 40
2.2477218338
  9
$DIMTOL
 70
1
  9
$DIMLIM
 70
0
  9
$DIMTFAC
 40
1.0
  9
$DIMTP
 40
0.01
  9
$DIMTM
 40
0.01
  9
$DIMGAP
 40
0.625
  9
$DIMDSEP
 70
46
  9
$AUNITS
 70
0
  9
$PDMODE
 70
3
  9
$PDSIZE
 40
0.3125
  9
$HANDSEED
  5
321
  9
$TILEMODE
 70
1
  9
$MEASUREMENT
 70
1
  9
$INSUNITS
 70
4
  0
ENDSEC
  0
SECTION
  2
CLASSES
  0
CLASS
  1
ACDBDICTIONARYWDFLT
  2
AcDbDictionaryWithDefault
  3
AutoCAD 2000
 90
0
 91
1
280
0
281
0
  0
CLASS
  1
ACDBPLACEHOLDER
  2
AcDbPlaceHolder
  3
AutoCAD 2000
 90
0
 91
1
280
0
281
0
  0
CLASS
  1
LAYOUT
  2
AcDbLayout
  3
AutoCAD 2000
 90
0
 91
0
280
0
281
0
  0
ENDSEC
  0
SECTION
  2
TABLES
  0
TABLE
  2
VPORT
  5
8
100
AcDbSymbolTable
 70
2
  0
VPORT
  5
1F4
100
AcDbSymbolTableRecord
100
AcDbViewportTableRecord
  2
*ACTIVE
 70
0
 10
0.0
 20
0.0
 11
1.0
 21
1.0
 12
67.4316550131
 22
95.3676263757
 13
0.0
 23
0.0
 14
1.0
 24
1.0
 15
0.0
 25
0.0
 16
0.0
 26
0.0
 36
1.0
 17
0.0
 27
0.0
 37
0.0
 40
190.7352527514
 41
0.7070707071
 42
50.0
 43
0.0
 44
0.0
 50
0.0
 51
0.0
 71
0
 72
100
 73
1
 74
1
 75
0
 76
0
 77
0
 78
0
  0
ENDTAB
  0
TABLE
  2
LTYPE
  5
5
100
AcDbSymbolTable
 70
6
  0
LTYPE
  5
14
100
AcDbSymbolTableRecord
100
AcDbLinetypeTableRecord
  2
BYBLOCK
 70
0
  3

 72
65
 73
0
 40
0.0
  0
LTYPE
  5
15
100
AcDbSymbolTableRecord
100
AcDbLinetypeTableRecord
  2
BYLAYER
 70
0
  3

 72
65
 73
0
 40
0.0
  0
LTYPE
  5
16
100
AcDbSymbolTableRecord
100
AcDbLinetypeTableRecord
  2
CONTINUOUS
 70
64
  3
Solid line
 72
65
 73
0
 40
0.0
  0
LTYPE
  5
1F5
100
AcDbSymbolTableRecord
100
AcDbLinetypeTableRecord
  2
CENTER
 70
64
  3
____ _ ____ _ ____ _ ____ _ ____ _ ____ _ ____
 72
65
 73
4
 40
0.6
 49
0.375
 74
0
 49
-0.075
 74
0
 49
0.075
 74
0
 49
-0.075
 74
0
  0
LTYPE
  5
1F6
100
AcDbSymbolTableRecord
100
AcDbLinetypeTableRecord
  2
HIDDEN
 70
64
  3
- - - - - - - - - - - - - - - - - - - -
 72
65
 73
2
 40
0.2
 49
0.1
 74
0
 49
-0.1
 74
0
  0
LTYPE
  5
1F7
100
AcDbSymbolTableRecord
100
AcDbLinetypeTableRecord
  2
PHANTOM
 70
64
  3
_____ _ _ _____ _ _ _____ _ _ _____
 72
65
 73
6
 40
0.8
 49
0.45
 74
0
 49
-0.05
 74
0
 49
0.1
 74
0
 49
-0.05
 74
0
 49
0.1
 74
0
 49
-0.05
 74
0
  0
LTYPE
  5
1F8
100
AcDbSymbolTableRecord
100
AcDbLinetypeTableRecord
  2
DOT
 70
64
  3
. . . . . . . . . . . . . . . . . . . .
 72
65
 73
2
 40
0.2
 49
0.1
 74
0
 49
-0.1
 74
0
  0
LTYPE
  5
1F9
100
AcDbSymbolTableRecord
100
AcDbLinetypeTableRecord
  2
DASHED
 70
64
  3
- - - - - - - - - - - - - - - - - - - -
 72
65
 73
2
 40
0.2
 49
0.1
 74
0
 49
-0.1
 74
0
  0
ENDTAB
  0
TABLE
  2
LAYER
  5
2
100
AcDbSymbolTable
 70
36
  0
LAYER
  5
10
100
AcDbSymbolTableRecord
100
AcDbLayerTableRecord
  2
0
 70
0
 62
7
  6
CONTINUOUS
370
-3
390
F
  0
LAYER
  5
1FA
100
AcDbSymbolTableRecord
100
AcDbLayerTableRecord
  2
DEFAULT_1
 70
0
 62
7
  6
CENTER
370
-3
390
F
  0
LAYER
  5
1FB
100
AcDbSymbolTableRecord
100
AcDbLayerTableRecord
  2
DEFAULT_2
 70
0
 62
7
  6
HIDDEN
370
-3
390
F
  0
LAYER
  5
1FC
100
AcDbSymbolTableRecord
100
AcDbLayerTableRecord
  2
DEFAULT_3
 70
0
 62
7
  6
PHANTOM
370
-3
390
F
  0
LAYER
  5
1FD
100
AcDbSymbolTableRecord
100
AcDbLayerTableRecord
  2
00_COMPONENTS
 70
0
 62
7
  6
CONTINUOUS
370
-3
390
F
  0
LAYER
  5
1FE
100
AcDbSymbolTableRecord
100
AcDbLayerTableRecord
  2
01_1_DEFAULT_DATUMS
 70
0
 62
7
  6
CONTINUOUS
370
-3
390
F
  0
LAYER
  5
1FF
100
AcDbSymbolTableRecord
100
AcDbLayerTableRecord
  2
01_PLANES
 70
0
 62
7
  6
CONTINUOUS
370
-3
390
F
  0
LAYER
  5
200
100
AcDbSymbolTableRecord
100
AcDbLayerTableRecord
  2
02_COORD_SYS
 70
0
 62
7
  6
CONTINUOUS
370
-3
390
F
  0
LAYER
  5
201
100
AcDbSymbolTableRecord
100
AcDbLayerTableRecord
  2
03_AXES
 70
0
 62
7
  6
CONTINUOUS
370
-3
390
F
  0
LAYER
  5
202
100
AcDbSymbolTableRecord
100
AcDbLayerTableRecord
  2
04_POINTS
 70
0
 62
7
  6
CONTINUOUS
370
-3
390
F
  0
LAYER
  5
203
100
AcDbSymbolTableRecord
100
AcDbLayerTableRecord
  2
05_CURVES
 70
0
 62
7
  6
CONTINUOUS
370
-3
390
F
  0
LAYER
  5
204
100
AcDbSymbolTableRecord
100
AcDbLayerTableRecord
  2
06_SURFS
 70
0
 62
7
  6
CONTINUOUS
370
-3
390
F
  0
LAYER
  5
205
100
AcDbSymbolTableRecord
100
AcDbLayerTableRecord
  2
07_COSMETICS
 70
0
 62
7
  6
CONTINUOUS
370
-3
390
F
  0
LAYER
  5
206
100
AcDbSymbolTableRecord
100
AcDbLayerTableRecord
  2
10_NOTES
 70
0
 62
7
  6
CONTINUOUS
370
-3
390
F
  0
LAYER
  5
207
100
AcDbSymbolTableRecord
100
AcDbLayerTableRecord
  2
11_NOTES_PUB
 70
0
 62
7
  6
CONTINUOUS
370
-3
390
F
  0
LAYER
  5
208
100
AcDbSymbolTableRecord
100
AcDbLayerTableRecord
  2
13_REF_GTOL
 70
0
 62
7
  6
CONTINUOUS
370
-3
390
F
  0
LAYER
  5
209
100
AcDbSymbolTableRecord
100
AcDbLayerTableRecord
  2
16_MISC
 70
0
 62
7
  6
CONTINUOUS
370
-3
390
F
  0
LAYER
  5
20A
100
AcDbSymbolTableRecord
100
AcDbLayerTableRecord
  2
17_NO_PRINT
 70
0
 62
7
  6
CONTINUOUS
370
-3
390
F
  0
LAYER
  5
20B
100
AcDbSymbolTableRecord
100
AcDbLayerTableRecord
  2
18_DATUM_CAMS_JOINTS
 70
0
 62
7
  6
CONTINUOUS
370
-3
390
F
  0
LAYER
  5
20C
100
AcDbSymbolTableRecord
100
AcDbLayerTableRecord
  2
19_DATUM_FUNCTIONAL
 70
0
 62
7
  6
CONTINUOUS
370
-3
390
F
  0
LAYER
  5
20D
100
AcDbSymbolTableRecord
100
AcDbLayerTableRecord
  2
20_DATUM_KINEMATIC_SCHEME
 70
0
 62
7
  6
CONTINUOUS
370
-3
390
F
  0
ENDTAB
  0
TABLE
  2
STYLE
  5
3
100
AcDbSymbolTable
 70
1
  0
STYLE
  5
11
100
AcDbSymbolTableRecord
100
AcDbTextStyleTableRecord
  2
STANDARD
 70
0
 40
0.0
 41
1.0
 50
0.0
 71
0
 42
0.2
  3
ARIAL.TTF
  4

  0
STYLE
  5
20E
100
AcDbSymbolTableRecord
100
AcDbTextStyleTableRecord
  2
TEXTSTYLE_1
 70
0
 40
0.0
 41
0.8
 50
0.0
 71
0
 42
0.2
  3
gdt
  4

  0
ENDTAB
  0
TABLE
  2
VIEW
  5
6
100
AcDbSymbolTable
 70
0
  0
ENDTAB
  0
TABLE
  2
UCS
  5
7
100
AcDbSymbolTable
 70
0
  0
ENDTAB
  0
TABLE
  2
APPID
  5
9
100
AcDbSymbolTable
 70
1
  0
APPID
  5
20F
100
AcDbSymbolTableRecord
100
AcDbRegAppTableRecord
  2
ACAD
 70
0
  0
ENDTAB
  0
TABLE
  2
BLOCK_RECORD
  5
1
100
AcDbSymbolTable
 70
0
  0
BLOCK_RECORD
  5
210
100
AcDbSymbolTableRecord
100
AcDbBlockTableRecord
  2
*Model_Space
  0
BLOCK_RECORD
  5
211
100
AcDbSymbolTableRecord
100
AcDbBlockTableRecord
  2
*Paper_Space
  0
BLOCK_RECORD
  5
212
100
AcDbSymbolTableRecord
100
AcDbBlockTableRecord
  2
_FILLED
  0
ENDTAB
  0
TABLE
  2
DIMSTYLE
  5
A
100
AcDbSymbolTable
 70
1
100
AcDbDimStyleTable
 71
0
  0
DIMSTYLE
105
213
100
AcDbSymbolTableRecord
100
AcDbDimStyleTableRecord
  2
STANDARD
 70
0
  3

  4

 40
1.0
 41
1.6055155956
 42
1.0
 43
0.38
 44
1.0
 45
0.0
 46
0.0
 47
0.01
 48
0.01
140
2.2477218338
141
0.09
142
0.0
143
25.4
144
1.0
145
0.0
146
1.0
147
0.625
 71
1
 72
0
 73
0
 74
0
 75
0
 76
0
 77
1
 78
8
 79
2
170
0
171
1
172
0
173
0
174
0
175
0
176
0
177
0
178
0
270
2
179
2
271
2
272
2
273
2
274
2
275
0
280
0
281
0
282
0
283
1
284
8
285
0
286
0
287
3
288
0
340
11
278
46
341
212
342
212
343
212
344
212
  0
ENDTAB
  0
ENDSEC
  0
SECTION
  2
BLOCKS
  0
BLOCK
  5
20
100
AcDbEntity
  8
0
100
AcDbBlockBegin
  2
*Model_Space
 70
0
 10
0.0
 20
0.0
 30
0.0
  3
*Model_Space
  1

  0
ENDBLK
  5
21
100
AcDbEntity
  8
0
100
AcDbBlockEnd
  0
BLOCK
  5
1C
100
AcDbEntity
  8
0
100
AcDbBlockBegin
  2
*Paper_Space
 70
0
 10
0.0
 20
0.0
 30
0.0
  3
*Paper_Space
  1

  0
ENDBLK
  5
1D
100
AcDbEntity
  8
0
100
AcDbBlockEnd
  0
BLOCK
  5
214
100
AcDbEntity
  8
0
100
AcDbBlockBegin
  2
_FILLED
 70
64
 10
0.0
 20
0.0
  3
_FILLED
  1

  0
SOLID
  5
215
100
AcDbEntity
  8
0
  6
BYBLOCK
 62
0
100
AcDbTrace
 10
0.0
 20
0.0
 11
-1.0
 21
0.25
 12
-1.0
 22
-0.25
 13
-1.0
 23
-0.25
  0
ENDBLK
  5
216
100
AcDbEntity
  8
0
  6
BYBLOCK
 62
0
100
AcDbBlockEnd
  0
ENDSEC
  0
SECTION
  2
ENTITIES
  0
LINE
  5
217
100
AcDbEntity
  8
0
100
AcDbLine
 62
7
  6
BYLAYER
 10
15.6456956023
 20
68.1217038874
 11
15.6456956023
 21
96.8625889703
  0
LINE
  5
218
100
AcDbEntity
  8
0
100
AcDbLine
 62
7
  6
BYLAYER
 10
16.2314879278
 20
67.3052155796
 11
16.2314879278
 21
96.0461006626
  0
LINE
  5
219
100
AcDbEntity
  8
0
100
AcDbLine
 62
7
  6
BYLAYER
 10
42.1016626746
 20
51.6929761213
 11
16.6457125693
 21
66.389643284
  0
LINE
  5
21A
100
AcDbEntity
  8
0
100
AcDbLine
 62
7
  6
BYLAYER
 10
41.6874380331
 20
52.6085484169
 11
16.2314879278
 21
67.3052155796
  0
LINE
  5
21B
100
AcDbEntity
  8
0
100
AcDbLine
 62
7
  6
BYLAYER
 10
42.2671277897
 20
113.6576606553
 11
16.81138965
 21
98.9608711159
  0
LINE
  5
21C
100
AcDbEntity
  8
0
100
AcDbLine
 62
7
  6
BYLAYER
 10
58.8532198933
 20
122.8656786633
 11
84.2707593449
 21
137.5404143114
  0
LINE
  5
21D
100
AcDbEntity
  8
0
100
AcDbLine
 62
7
  6
BYLAYER
 10
18.2113833831
 20
98.8222031343
 11
43.6671215224
 21
113.5189926738
  0
LINE
  5
21E
100
AcDbEntity
  8
0
100
AcDbLine
 62
7
  6
BYLAYER
 10
60.2005247827
 20
122.9671480644
 11
84.4721492003
 21
136.9802933084
  0
LINE
  5
21F
100
AcDbEntity
  8
0
100
AcDbLine
 62
7
  6
BYLAYER
 10
41.6874380331
 20
81.3494334998
 11
41.6874380331
 21
52.6085484169
  0
LINE
  5
220
100
AcDbEntity
  8
0
100
AcDbLine
 62
7
  6
BYLAYER
 10
44.5158651578
 20
52.6085552156
 11
44.5158651578
 21
81.3494402978
  0
LWPOLYLINE
  5
221
100
AcDbEntity
  8
0
100
AcDbPolyline
 62
7
  6
BYLAYER
 90
3
 70
0
 10
58.8533927489
 20
122.8657868998
 10
58.1732635798
 20
122.164602339
 10
58.0037386069
 20
121.4997000601
  0
LINE
  5
222
100
AcDbEntity
  8
0
100
AcDbLine
 62
7
  6
BYLAYER
 10
16.7971757079
 20
96.3727099927
 11
41.121750253
 21
82.3292280372
  0
LINE
  5
223
100
AcDbEntity
  8
0
100
AcDbLine
 62
7
  6
BYLAYER
 10
69.6197089803
 20
66.4470114792
 11
71.0322561094
 21
65.6314954634
  0
LINE
  5
224
100
AcDbEntity
  8
0
100
AcDbLine
 62
7
  6
BYLAYER
 10
42.5359579272
 20
84.7787211793
 11
18.2113833831
 21
98.8222031343
  0
LINE
  5
225
100
AcDbEntity
  8
0
100
AcDbLine
 62
7
  6
BYLAYER
 10
51.1892990648
 20
111.1794318205
 11
63.1630215495
 21
118.0924224552
  0
LINE
  5
226
100
AcDbEntity
  8
0
100
AcDbLine
 62
7
  6
BYLAYER
 10
51.4392978727
 20
111.1546696389
 11
64.3837426179
 21
118.6281036867
  0
LINE
  5
227
100
AcDbEntity
  8
0
100
AcDbLine
 62
7
  6
BYLAYER
 10
92.2965070816
 20
134.274234364
 11
92.58488549
 21
134.4407287218
  0
LINE
  5
228
100
AcDbEntity
  8
0
100
AcDbLine
 62
7
  6
BYLAYER
 10
92.4360887667
 20
133.6784286102
 11
93.5848810132
 21
134.341680164
  0
LINE
  5
229
100
AcDbEntity
  8
0
100
AcDbLine
 62
7
  6
BYLAYER
 10
57.8378513433
 20
115.0179523553
 11
58.0036359451
 21
121.4991129414
  0
LINE
  5
22A
100
AcDbEntity
  8
0
100
AcDbLine
 62
7
  6
BYLAYER
 10
104.6234462507
 20
127.9687057286
 11
103.4742838982
 21
127.3052404955
  0
LINE
  5
22B
100
AcDbEntity
  8
0
100
AcDbLine
 62
7
  6
BYLAYER
 10
77.4064742893
 20
111.1095728579
 11
64.4621427388
 21
103.6360967426
  0
LINE
  5
22C
100
AcDbEntity
  8
0
100
AcDbLine
 62
7
  6
BYLAYER
 10
86.688004426
 20
86.7919842296
 11
86.3346557274
 21
86.7364015087
  0
LINE
  5
22D
100
AcDbEntity
  8
0
100
AcDbLine
 62
7
  6
BYLAYER
 10
86.3764120265
 20
86.2888614089
 11
86.3057013484
 21
86.2888612389
  0
LINE
  5
22E
100
AcDbEntity
  8
0
100
AcDbLine
 62
7
  6
BYLAYER
 10
105.8291542799
 20
126.368324744
 11
105.8685681384
 21
126.3911764518
  0
LINE
  5
22F
100
AcDbEntity
  8
0
100
AcDbLine
 62
7
  6
BYLAYER
 10
64.8156814425
 20
103.0272939909
 11
76.1141389688
 21
109.5504487804
  0
LINE
  5
230
100
AcDbEntity
  8
0
100
AcDbLine
 62
7
  6
BYLAYER
 10
109.6494606902
 20
127.2985118047
 11
111.0674924023
 21
128.1045545129
  0
LINE
  5
231
100
AcDbEntity
  8
0
100
AcDbLine
 62
7
  6
BYLAYER
 10
70.5573838472
 20
85.9099661091
 11
71.0322561094
 21
85.6358046831
  0
LINE
  5
232
100
AcDbEntity
  8
0
100
AcDbLine
 62
7
  6
BYLAYER
 10
78.4568493441
 20
81.8389989419
 11
78.527559139
 21
81.7981755463
  0
LINE
  5
233
100
AcDbEntity
  8
0
100
AcDbLine
 62
7
  6
BYLAYER
 10
71.385808028
 20
86.2481779686
 11
70.5573838472
 21
86.7264580722
  0
LINE
  5
234
100
AcDbEntity
  8
0
100
AcDbLine
 62
7
  6
BYLAYER
 10
78.4568493441
 20
84.9200386446
 11
78.5275587579
 21
84.8792154691
  0
LINE
  5
235
100
AcDbEntity
  8
0
100
AcDbLine
 62
7
  6
BYLAYER
 10
64.4669202374
 20
102.1868781367
 11
64.4652176541
 21
102.4131400608
  0
LINE
  5
236
100
AcDbEntity
  8
0
100
AcDbLine
 62
7
  6
BYLAYER
 10
110.9835681542
 20
124.4599331962
 11
109.9229123984
 21
123.8475669654
  0
LINE
  5
237
100
AcDbEntity
  8
0
100
AcDbLine
 62
7
  6
BYLAYER
 10
67.9916960667
 20
99.4755107188
 11
42.5359579272
 21
84.7787211793
  0
LINE
  5
238
100
AcDbEntity
  8
0
100
AcDbLine
 62
7
  6
BYLAYER
 10
109.1938165566
 20
122.7075745997
 11
84.9221750765
 21
108.6944195047
  0
LINE
  5
239
100
AcDbEntity
  8
0
100
AcDbLine
 62
7
  6
BYLAYER
 10
119.3594250931
 20
127.461749236
 11
115.6145059252
 21
125.2996320525
  0
LINE
  5
23A
100
AcDbEntity
  8
0
100
AcDbLine
 62
7
  6
BYLAYER
 10
119.3981173593
 20
127.440123338
 11
115.5073210978
 21
125.1937844779
  0
LINE
  5
23B
100
AcDbEntity
  8
0
100
AcDbLine
 62
7
  6
BYLAYER
 10
111.7430086855
 20
120.9421097008
 11
85.8459594861
 21
105.9905306148
  0
LINE
  5
23C
100
AcDbEntity
  8
0
100
AcDbLine
 62
7
  6
BYLAYER
 10
44.5158651578
 20
81.3494402978
 11
69.9716032975
 21
96.0462298375
  0
LINE
  5
23D
100
AcDbEntity
  8
0
100
AcDbLine
 62
7
  6
BYLAYER
 10
111.0935385751
 20
124.5591888447
 11
109.8178338993
 21
123.8265845418
  0
LINE
  5
23E
100
AcDbEntity
  8
0
100
AcDbLine
 62
7
  6
BYLAYER
 10
109.747551939
 20
123.7038625399
 11
109.8184509846
 21
123.7445780337
  0
LINE
  5
23F
100
AcDbEntity
  8
0
100
AcDbLine
 62
7
  6
BYLAYER
 10
78.4568493441
 20
85.7293434648
 11
78.5275558144
 21
85.6885219885
  0
LINE
  5
240
100
AcDbEntity
  8
0
100
AcDbLine
 62
7
  6
BYLAYER
 10
71.438788266
 20
93.5659240875
 11
77.7497425629
 21
89.9223753535
  0
LINE
  5
241
100
AcDbEntity
  8
0
100
AcDbLine
 62
7
  6
BYLAYER
 10
78.2497361611
 20
89.8028062408
 11
71.4387861843
 21
93.7350210847
  0
LINE
  5
242
100
AcDbEntity
  8
0
100
AcDbLine
 62
7
  6
BYLAYER
 10
58.0908458693
 20
121.2517776522
 11
58.0036359451
 21
121.4991129414
  0
LINE
  5
243
100
AcDbEntity
  8
0
100
AcDbLine
 62
7
  6
BYLAYER
 10
71.4387887404
 20
93.7299292811
 11
71.4385685197
 21
93.734895393
  0
LINE
  5
244
100
AcDbEntity
  8
0
100
AcDbLine
 62
7
  6
BYLAYER
 10
69.9716032975
 20
96.0462298375
 11
69.9716032975
 21
67.305344755
  0
LINE
  5
245
100
AcDbEntity
  8
0
100
AcDbLine
 62
7
  6
BYLAYER
 10
70.5573838472
 20
96.862711347
 11
70.5573838472
 21
68.121826264
  0
LINE
  5
246
100
AcDbEntity
  8
0
100
AcDbLine
 62
7
  6
BYLAYER
 10
71.0322561094
 20
85.6358046831
 11
71.0322561094
 21
65.6314954634
  0
LINE
  5
247
100
AcDbEntity
  8
0
100
AcDbLine
 62
7
  6
BYLAYER
 10
71.438788266
 20
93.5659240875
 11
71.4387780072
 21
93.7350335198
  0
LINE
  5
248
100
AcDbEntity
  8
0
100
AcDbLine
 62
7
  6
BYLAYER
 10
71.7393628906
 20
65.6314971631
 11
71.7393628906
 21
85.6358063828
  0
LINE
  5
249
100
AcDbEntity
  8
0
100
AcDbLine
 62
7
  6
BYLAYER
 10
70.5573838472
 20
93.2261462458
 11
71.4387861843
 21
93.7350210847
  0
LINE
  5
24A
100
AcDbEntity
  8
0
100
AcDbLine
 62
7
  6
BYLAYER
 10
70.5573838472
 20
93.0570480467
 11
71.438788266
 21
93.5659240875
  0
LINE
  5
24B
100
AcDbEntity
  8
0
100
AcDbLine
 62
7
  6
BYLAYER
 10
120.4471980908
 20
120.3023888442
 11
120.5179084737
 21
120.3432132601
  0
LINE
  5
24C
100
AcDbEntity
  8
0
100
AcDbLine
 62
7
  6
BYLAYER
 10
115.5073210978
 20
117.0287603066
 11
120.8123250337
 21
120.0915874744
  0
LINE
  5
24D
100
AcDbEntity
  8
0
100
AcDbLine
 62
7
  6
BYLAYER
 10
86.4117675128
 20
86.2684493712
 11
86.3764120265
 21
86.2888614089
  0
LINE
  5
24E
100
AcDbEntity
  8
0
100
AcDbLine
 62
7
  6
BYLAYER
 10
43.6671215224
 20
113.5189926738
 11
67.9916960667
 21
99.4755107188
  0
LINE
  5
24F
100
AcDbEntity
  8
0
100
AcDbLine
 62
7
  6
BYLAYER
 10
68.9916791001
 20
99.5745664877
 11
44.667104555
 21
113.6180484432
  0
LINE
  5
250
100
AcDbEntity
  8
0
100
AcDbLine
 62
7
  6
BYLAYER
 10
64.4621427388
 20
103.6360967426
 11
51.4392978727
 21
111.1546696389
  0
LINE
  5
251
100
AcDbEntity
  8
0
100
AcDbLine
 62
7
  6
BYLAYER
 10
78.1032974255
 20
69.7139457565
 11
78.1032974255
 21
69.305694548
  0
LINE
  5
252
100
AcDbEntity
  8
0
100
AcDbLine
 62
7
  6
BYLAYER
 10
75.7301466193
 20
92.1900800905
 11
75.8288314778
 21
108.1832004097
  0
LINE
  5
253
100
AcDbEntity
  8
0
100
AcDbLine
 62
7
  6
BYLAYER
 10
119.1859915073
 20
118.4177895029
 11
121.1658822515
 21
119.5608731338
  0
LINE
  5
254
100
AcDbEntity
  8
0
100
AcDbLine
 62
7
  6
BYLAYER
 10
75.7301466193
 20
92.1900800905
 11
74.9224773557
 21
91.7237565501
  0
LINE
  5
255
100
AcDbEntity
  8
0
100
AcDbLine
 62
7
  6
BYLAYER
 10
76.3679578312
 20
91.7454011497
 11
75.6264780788
 21
91.3173107381
  0
LINE
  5
256
100
AcDbEntity
  8
0
100
AcDbLine
 62
7
  6
BYLAYER
 10
74.0197593705
 20
89.2181481542
 11
72.6055516961
 21
88.4016598464
  0
LINE
  5
257
100
AcDbEntity
  8
0
100
AcDbLine
 62
7
  6
BYLAYER
 10
77.7497425629
 20
89.9223753535
 11
71.385808028
 21
86.2481779686
  0
LINE
  5
258
100
AcDbEntity
  8
0
100
AcDbLine
 62
7
  6
BYLAYER
 10
78.3961877004
 20
69.8830450262
 11
78.3961877004
 21
69.7139353025
  0
LINE
  5
259
100
AcDbEntity
  8
0
100
AcDbLine
 62
7
  6
BYLAYER
 10
78.4568493441
 20
81.6757026401
 11
78.4568493441
 21
89.5141258446
  0
LINE
  5
25A
100
AcDbEntity
  8
0
100
AcDbLine
 62
7
  6
BYLAYER
 10
78.5275558144
 20
85.6885219885
 11
78.527559139
 21
81.7981755463
  0
LINE
  5
25B
100
AcDbEntity
  8
0
100
AcDbLine
 62
7
  6
BYLAYER
 10
71.7393628906
 20
85.6358063828
 11
78.4568493441
 21
89.5141258446
  0
LINE
  5
25C
100
AcDbEntity
  8
0
100
AcDbLine
 62
7
  6
BYLAYER
 10
113.4584892862
 20
109.7222114612
 11
120.5295276583
 21
113.8046529999
  0
LINE
  5
25D
100
AcDbEntity
  8
0
100
AcDbLine
 62
7
  6
BYLAYER
 10
84.5835711463
 20
89.1849431998
 11
78.5275558144
 21
85.6885219885
  0
LINE
  5
25E
100
AcDbEntity
  8
0
100
AcDbLine
 62
7
  6
BYLAYER
 10
78.5275587579
 20
84.8792154691
 11
84.937072163
 21
88.5797282597
  0
LINE
  5
25F
100
AcDbEntity
  8
0
100
AcDbLine
 62
7
  6
BYLAYER
 10
51.4392979456
 20
111.154669681
 11
51.1893272905
 21
111.1794481128
  0
LINE
  5
260
100
AcDbEntity
  8
0
100
AcDbLine
 62
7
  6
BYLAYER
 10
86.3299550669
 20
87.0500779189
 11
86.3410565403
 21
86.3092734466
  0
LINE
  5
261
100
AcDbEntity
  8
0
100
AcDbLine
 62
7
  6
BYLAYER
 10
85.8459594861
 20
105.9905306148
 11
85.9205053413
 21
89.9637166853
  0
LINE
  5
262
100
AcDbEntity
  8
0
100
AcDbLine
 62
7
  6
BYLAYER
 10
86.3299550669
 20
87.0500779189
 11
113.0211976198
 21
112.0989397613
  0
LINE
  5
263
100
AcDbEntity
  8
0
100
AcDbLine
 62
7
  6
BYLAYER
 10
113.051297157
 20
112.0542122078
 11
104.0300476216
 21
103.6610383161
  0
LINE
  5
264
100
AcDbEntity
  8
0
100
AcDbLine
 62
7
  6
BYLAYER
 10
86.688004426
 20
86.7919842296
 11
113.2291198537
 21
111.4852593894
  0
LINE
  5
265
100
AcDbEntity
  8
0
100
AcDbLine
 62
7
  6
BYLAYER
 10
78.527559139
 20
81.7981755463
 11
86.3410565403
 21
86.3092734466
  0
LINE
  5
266
100
AcDbEntity
  8
0
100
AcDbLine
 62
7
  6
BYLAYER
 10
86.4117675128
 20
86.2684493712
 11
78.4568493441
 21
81.6757026401
  0
LINE
  5
267
100
AcDbEntity
  8
0
100
AcDbLine
 62
7
  6
BYLAYER
 10
86.5444305546
 20
87.251356179
 11
86.688004426
 21
86.7919842296
  0
LINE
  5
268
100
AcDbEntity
  8
0
100
AcDbLine
 62
7
  6
BYLAYER
 10
113.4584892862
 20
111.4321296521
 11
86.4117675128
 21
86.2684493712
  0
LINE
  5
269
100
AcDbEntity
  8
0
100
AcDbLine
 62
7
  6
BYLAYER
 10
120.6759727958
 20
99.6819674549
 11
121.1658822515
 21
99.9648151227
  0
LINE
  5
26A
100
AcDbEntity
  8
0
100
AcDbLine
 62
7
  6
BYLAYER
 10
69.9716032975
 20
67.305344755
 11
44.5158651578
 21
52.6085552156
  0
LINE
  5
26B
100
AcDbEntity
  8
0
100
AcDbLine
 62
7
  6
BYLAYER
 10
69.5573793704
 20
66.3897728717
 11
44.1016412307
 21
51.6929833323
  0
LINE
  5
26C
100
AcDbEntity
  8
0
100
AcDbLine
 62
7
  6
BYLAYER
 10
113.8120412048
 20
90.330275527
 11
78.1032974255
 21
69.7139457565
  0
LINE
  5
26D
100
AcDbEntity
  8
0
100
AcDbLine
 62
7
  6
BYLAYER
 10
71.7393628906
 20
65.6314971631
 11
78.1032974255
 21
69.305694548
  0
LINE
  5
26E
100
AcDbEntity
  8
0
100
AcDbLine
 62
7
  6
BYLAYER
 10
113.8120412048
 20
89.9220243185
 11
120.5295276583
 21
93.8003437802
  0
LINE
  5
26F
100
AcDbEntity
  8
0
100
AcDbLine
 62
7
  6
BYLAYER
 10
121.1658822515
 20
119.5608731338
 11
121.3123165424
 21
119.7649935111
  0
LINE
  5
270
100
AcDbEntity
  8
0
100
AcDbLine
 62
7
  6
BYLAYER
 10
120.5295276583
 20
113.8046529999
 11
120.6759619493
 21
114.0087733772
  0
LINE
  5
271
100
AcDbEntity
  8
0
100
AcDbLine
 62
7
  6
BYLAYER
 10
113.1988806087
 20
111.5820114012
 11
113.4584892862
 21
111.4321296521
  0
LINE
  5
272
100
AcDbEntity
  8
0
100
AcDbLine
 62
7
  6
BYLAYER
 10
113.0031544169
 20
112.082006803
 11
113.051297157
 21
112.0542122078
  0
LINE
  5
273
100
AcDbEntity
  8
0
100
AcDbLine
 62
7
  6
BYLAYER
 10
109.6807276954
 20
123.2972341611
 11
109.6494606938
 21
127.2985118033
  0
LINE
  5
274
100
AcDbEntity
  8
0
100
AcDbLine
 62
7
  6
BYLAYER
 10
109.8184509846
 20
123.7445780337
 11
109.8178338993
 21
123.8265845418
  0
LINE
  5
275
100
AcDbEntity
  8
0
100
AcDbLine
 62
7
  6
BYLAYER
 10
109.8529386672
 20
123.8063172531
 11
109.8529386672
 21
123.1496413873
  0
LINE
  5
276
100
AcDbEntity
  8
0
100
AcDbLine
 62
7
  6
BYLAYER
 10
109.9229123984
 20
123.0896706609
 11
109.9229123984
 21
123.8475669654
  0
LINE
  5
277
100
AcDbEntity
  8
0
100
AcDbLine
 62
7
  6
BYLAYER
 10
109.744094451
 20
123.2429259186
 11
109.747551939
 21
123.7038625399
  0
LINE
  5
278
100
AcDbEntity
  8
0
100
AcDbLine
 62
7
  6
BYLAYER
 10
121.3123165424
 20
100.1689354999
 11
121.1658822515
 21
99.9648151227
  0
LINE
  5
279
100
AcDbEntity
  8
0
100
AcDbLine
 62
7
  6
BYLAYER
 10
84.2707628781
 20
137.5404163513
 11
84.2906101251
 21
137.542235737
  0
LINE
  5
27A
100
AcDbEntity
  8
0
100
AcDbLine
 62
7
  6
BYLAYER
 10
111.0940987104
 20
124.5595105156
 11
111.0674924054
 21
128.1045545117
  0
LINE
  5
27B
100
AcDbEntity
  8
0
100
AcDbLine
 62
7
  6
BYLAYER
 10
110.9835681542
 20
124.4599331962
 11
110.9835681542
 21
122.1446732063
  0
LINE
  5
27C
100
AcDbEntity
  8
0
100
AcDbLine
 62
7
  6
BYLAYER
 10
113.4584892862
 20
109.7222114612
 11
113.4584892862
 21
111.4321296521
  0
LINE
  5
27D
100
AcDbEntity
  8
0
100
AcDbLine
 62
7
  6
BYLAYER
 10
113.8120412048
 20
89.9220243185
 11
113.8120412048
 21
90.330275527
  0
LINE
  5
27E
100
AcDbEntity
  8
0
100
AcDbLine
 62
7
  6
BYLAYER
 10
120.6759619493
 20
94.0044641575
 11
120.5295276583
 21
93.8003437802
  0
LINE
  5
27F
100
AcDbEntity
  8
0
100
AcDbLine
 62
7
  6
BYLAYER
 10
103.1495684903
 20
139.7675983681
 11
103.0909740744
 21
139.7709128293
  0
LINE
  5
280
100
AcDbEntity
  8
0
100
AcDbLine
 62
7
  6
BYLAYER
 10
92.3059334779
 20
134.2748152516
 11
88.6656362066
 21
135.8241330247
  0
LINE
  5
281
100
AcDbEntity
  8
0
100
AcDbLine
 62
7
  6
BYLAYER
 10
120.5295247144
 20
114.2128954541
 11
119.1860162366
 21
114.9885528877
  0
LINE
  5
282
100
AcDbEntity
  8
0
100
AcDbLine
 62
7
  6
BYLAYER
 10
109.8178338993
 20
123.8265845418
 11
109.8529386672
 21
123.8063172531
  0
LINE
  5
283
100
AcDbEntity
  8
0
100
AcDbLine
 62
7
  6
BYLAYER
 10
93.5848810132
 20
134.341680164
 11
104.6234462507
 21
127.9687057286
  0
LINE
  5
284
100
AcDbEntity
  8
0
100
AcDbLine
 62
7
  6
BYLAYER
 10
115.5073210978
 20
117.0287603066
 11
115.5073210978
 21
125.1937844779
  0
LINE
  5
285
100
AcDbEntity
  8
0
100
AcDbLine
 62
7
  6
BYLAYER
 10
119.1859915073
 20
114.9885528877
 11
119.1859915073
 21
118.4177895029
  0
LINE
  5
286
100
AcDbEntity
  8
0
100
AcDbLine
 62
7
  6
BYLAYER
 10
119.3981173593
 20
120.9081040009
 11
119.3981173593
 21
127.440123338
  0
LINE
  5
287
100
AcDbEntity
  8
0
100
AcDbLine
 62
7
  6
BYLAYER
 10
120.8123250337
 20
120.0915874744
 11
120.4471980908
 21
120.3023888442
  0
LINE
  5
288
100
AcDbEntity
  8
0
100
AcDbLine
 62
7
  6
BYLAYER
 10
120.5179084737
 20
120.3432132601
 11
121.1658793075
 21
119.969115588
  0
LWPOLYLINE
  5
289
100
AcDbEntity
  8
0
100
AcDbPolyline
 62
7
  6
BYLAYER
 90
3
 70
0
 10
108.0634201443
 20
124.6197234149
 10
106.8756771417
 20
125.5460397784
 10
105.4912672176
 20
126.6337923692
  0
LINE
  5
28A
100
AcDbEntity
  8
0
100
AcDbLine
 62
7
  6
BYLAYER
 10
113.2291198537
 20
111.4852593894
 11
113.051297157
 21
112.0542122078
  0
LINE
  5
28B
100
AcDbEntity
  8
0
100
AcDbLine
 62
7
  6
BYLAYER
 10
120.5295276583
 20
113.8046529999
 11
120.5295276583
 21
93.8003437802
  0
LINE
  5
28C
100
AcDbEntity
  8
0
100
AcDbLine
 62
7
  6
BYLAYER
 10
120.6759727958
 20
94.0044641575
 11
120.6759727958
 21
114.0087733772
  0
LINE
  5
28D
100
AcDbEntity
  8
0
100
AcDbLine
 62
7
  6
BYLAYER
 10
121.1658822515
 20
119.5608731338
 11
121.1658822515
 21
99.9648151227
  0
LINE
  5
28E
100
AcDbEntity
  8
0
100
AcDbLine
 62
7
  6
BYLAYER
 10
121.3123273889
 20
100.1689354999
 11
121.3123273889
 21
119.764993511
  0
LINE
  5
28F
100
AcDbEntity
  8
0
100
AcDbLine
 62
7
  6
BYLAYER
 10
119.3600422202
 20
127.4621055324
 11
119.3981173593
 21
127.440123338
  0
LINE
  5
290
100
AcDbEntity
  8
0
100
AcDbLine
 62
7
  6
BYLAYER
 10
115.5348065685
 20
132.258712922
 11
103.3018426626
 21
139.32125815
  0
LINE
  5
291
100
AcDbEntity
  8
0
100
AcDbLine
 62
7
  6
BYLAYER
 10
117.0677410175
 20
131.7321195005
 11
103.1495011716
 21
139.7676372345
  0
LINE
  5
292
100
AcDbEntity
  8
0
100
AcDbLine
 62
7
  6
BYLAYER
 10
120.6759619493
 20
114.0087733772
 11
120.5295247144
 21
114.2128954541
  0
LINE
  5
293
100
AcDbEntity
  8
0
100
AcDbLine
 62
7
  6
BYLAYER
 10
121.3123165424
 20
119.7649935111
 11
121.1658793075
 21
119.969115588
  0
LINE
  5
294
100
AcDbEntity
  8
0
100
AcDbLine
 62
7
  6
BYLAYER
 10
118.2319145604
 20
130.4118249558
 11
119.3588081539
 21
127.4613806134
  0
ARC
  5
295
100
AcDbEntity
  8
0
100
AcDbCircle
 62
7
  6
BYLAYER
 10
1888.0664595227
 20
373.1773695852
 40
1794.1425886264
100
AcDbArc
 50
188.081883711
 51
188.3672245521
  0
ARC
  5
296
100
AcDbEntity
  8
0
100
AcDbCircle
 62
7
  6
BYLAYER
 10
58.3630433705
 20
65.0847781994
 40
76.9566224789
100
AcDbArc
 50
66.8111394466
 51
70.3111868112
  0
ARC
  5
297
100
AcDbEntity
  8
0
100
AcDbCircle
 62
7
  6
BYLAYER
 10
59.0642757839
 20
68.4826774818
 40
73.0580824103
100
AcDbArc
 50
66.7728906469
 51
69.6486329305
  0
ARC
  5
298
100
AcDbEntity
  8
0
100
AcDbCircle
 62
7
  6
BYLAYER
 10
80.649539588
 20
90.8701361001
 40
42.7597735947
100
AcDbArc
 50
48.121764722
 51
52.2353290585
  0
ARC
  5
299
100
AcDbEntity
  8
0
100
AcDbCircle
 62
7
  6
BYLAYER
 10
112.1738383991
 20
119.9487782396
 40
4.501913081
100
AcDbArc
 50
119.9995511924
 51
120.3453567987
  0
ARC
  5
29A
100
AcDbEntity
  8
0
100
AcDbCircle
 62
7
  6
BYLAYER
 10
112.1501000851
 20
119.9893272278
 40
4.454926615
100
AcDbArc
 50
120.3453532702
 51
120.6935863966
  0
ARC
  5
29B
100
AcDbEntity
  8
0
100
AcDbCircle
 62
7
  6
BYLAYER
 10
112.126217631
 20
120.0295595897
 40
4.4081397091
100
AcDbArc
 50
120.693582858
 51
121.0442754059
  0
ARC
  5
29C
100
AcDbEntity
  8
0
100
AcDbCircle
 62
7
  6
BYLAYER
 10
122.9571865569
 20
123.7884426277
 40
4.2576827778
100
AcDbArc
 50
213.0126270696
 51
217.1877834173
  0
ARC
  5
29D
100
AcDbEntity
  8
0
100
AcDbCircle
 62
7
  6
BYLAYER
 10
122.8304180862
 20
123.7070538658
 40
4.1885096585
100
AcDbArc
 50
214.7706654624
 51
217.283173146
  0
ARC
  5
29E
100
AcDbEntity
  8
0
100
AcDbCircle
 62
7
  6
BYLAYER
 10
122.8044249229
 20
123.6749466912
 40
4.0673840617
100
AcDbArc
 50
217.2147743283
 51
218.8666083016
  0
ARC
  5
29F
100
AcDbEntity
  8
0
100
AcDbCircle
 62
7
  6
BYLAYER
 10
122.7263445902
 20
123.6282658832
 40
4.0579772544
100
AcDbArc
 50
217.2881889604
 51
219.1111479175
  0
ARC
  5
2A0
100
AcDbEntity
  8
0
100
AcDbCircle
 62
7
  6
BYLAYER
 10
65.7534238984
 20
116.5236207635
 40
3.56440774
100
AcDbArc
 50
159.9078935954
 51
161.8375193561
  0
ARC
  5
2A1
100
AcDbEntity
  8
0
100
AcDbCircle
 62
7
  6
BYLAYER
 10
60.2362595964
 20
120.506748877
 40
2.4411754595
100
AcDbArc
 50
116.5065952052
 51
119.2660504368
  0
ARC
  5
2A2
100
AcDbEntity
  8
0
100
AcDbCircle
 62
7
  6
BYLAYER
 10
17.6456956023
 20
68.1217038874
 40
2.0
100
AcDbArc
 50
180.0
 51
240.0005612632
  0
ARC
  5
2A3
100
AcDbEntity
  8
0
100
AcDbCircle
 62
7
  6
BYLAYER
 10
43.1016457076
 20
53.4250367246
 40
2.0
100
AcDbArc
 50
240.0005612632
 51
299.9998519061
  0
ARC
  5
2A4
100
AcDbEntity
  8
0
100
AcDbCircle
 62
7
  6
BYLAYER
 10
68.5573838472
 20
68.121826264
 40
2.0
100
AcDbArc
 50
299.9998519061
 51
360.0
  0
ARC
  5
2A5
100
AcDbEntity
  8
0
100
AcDbCircle
 62
7
  6
BYLAYER
 10
59.3703136229
 20
121.2232562369
 40
1.2797856329
100
AcDbArc
 50
169.8713492263
 51
178.7229935821
  0
ARC
  5
2A6
100
AcDbEntity
  8
0
100
AcDbCircle
 62
7
  6
BYLAYER
 10
84.3830878662
 20
89.538536065
 40
1.1073441239
100
AcDbArc
 50
300.0186565651
 51
302.9126484091
  0
ARC
  5
2A7
100
AcDbEntity
  8
0
100
AcDbCircle
 62
7
  6
BYLAYER
 10
84.3246874712
 20
90.0123276258
 40
0.8669503223
100
AcDbArc
 50
287.3746783264
 51
289.8128821061
  0
ARC
  5
2A8
100
AcDbEntity
  8
0
100
AcDbCircle
 62
7
  6
BYLAYER
 10
119.8121731177
 20
120.9182964124
 40
0.8085905416
100
AcDbArc
 50
263.6675101888
 51
267.04080476
  0
ARC
  5
2A9
100
AcDbEntity
  8
0
100
AcDbCircle
 62
7
  6
BYLAYER
 10
119.8069644192
 20
120.8725531139
 40
0.7625518453
100
AcDbArc
 50
258.4007317755
 51
263.6773927344
  0
SPLINE
  5
2AA
100
AcDbEntity
  8
0
100
AcDbSpline
 62
7
  6
BYLAYER
 70
0
 71
3
 72
11
 73
7
 74
0
 42
0.0000001
 43
0.0000001
 44
0.0000000001
 40
0.0
 40
0.0
 40
0.0
 40
0.0
 40
0.2505975751
 40
0.5008662624
 40
0.7505426409
 40
1.0
 40
1.0
 40
1.0
 40
1.0
 10
42.2671277897
 20
113.6576606553
 30
0.0
 10
42.4485682014
 20
113.7624147005
 30
0.0
 10
42.842641336
 20
113.9219294446
 30
0.0
 10
43.4739407439
 20
113.990407275
 30
0.0
 10
44.0994762444
 20
113.8904789171
 30
0.0
 10
44.4864889431
 20
113.7223245563
 30
0.0
 10
44.6671045551
 20
113.6180484432
 30
0.0
  0
SPLINE
  5
2AB
100
AcDbEntity
  8
0
100
AcDbSpline
 62
7
  6
BYLAYER
 70
0
 71
3
 72
11
 73
7
 74
0
 42
0.0000001
 43
0.0000001
 44
0.0000000001
 40
0.0
 40
0.0
 40
0.0
 40
0.0
 40
0.2177827477
 40
0.4509152641
 40
0.7103063952
 40
1.0
 40
1.0
 40
1.0
 40
1.0
 10
74.8178728404
 20
90.3306042413
 30
0.0
 10
74.817858659
 20
90.2268140091
 30
0.0
 10
74.779525691
 20
90.0104798308
 30
0.0
 10
74.6155142696
 20
89.7090554245
 30
0.0
 10
74.3562509651
 20
89.4365902787
 30
0.0
 10
74.1393241323
 20
89.2871784895
 30
0.0
 10
74.0197593705
 20
89.2181481542
 30
0.0
  0
SPLINE
  5
2AC
100
AcDbEntity
  8
0
100
AcDbSpline
 62
7
  6
BYLAYER
 70
0
 71
3
 72
9
 73
5
 74
0
 42
0.0000001
 43
0.0000001
 44
0.0000000001
 40
0.0
 40
0.0
 40
0.0
 40
0.0
 40
0.487719328
 40
1.0
 40
1.0
 40
1.0
 40
1.0
 10
78.3961317474
 20
69.7139353029
 30
0.0
 10
78.3961317403
 20
69.6822130828
 30
0.0
 10
78.386675099
 20
69.6168586155
 30
0.0
 10
78.3598359499
 20
69.5567471556
 30
0.0
 10
78.3429268677
 20
69.5280367415
 30
0.0
  0
SPLINE
  5
2AD
100
AcDbEntity
  8
0
100
AcDbSpline
 62
7
  6
BYLAYER
 70
0
 71
3
 72
9
 73
5
 74
0
 42
0.0000001
 43
0.0000001
 44
0.0000000001
 40
0.0
 40
0.0
 40
0.0
 40
0.0
 40
0.2271702616
 40
1.0
 40
1.0
 40
1.0
 40
1.0
 10
78.3429268677
 20
69.5280367415
 30
0.0
 10
78.3302829261
 20
69.5065682315
 30
0.0
 10
78.2665746674
 20
69.4167629338
 30
0.0
 10
78.176702765
 20
69.3480748875
 30
0.0
 10
78.1032974255
 20
69.305694548
 30
0.0
  0
SPLINE
  5
2AE
100
AcDbEntity
  8
0
100
AcDbSpline
 62
7
  6
BYLAYER
 70
0
 71
3
 72
11
 73
7
 74
0
 42
0.0000001
 43
0.0000001
 44
0.0000000001
 40
0.0
 40
0.0
 40
0.0
 40
0.0
 40
0.2177827477
 40
0.4509152641
 40
0.7103063952
 40
1.0
 40
1.0
 40
1.0
 40
1.0
 10
116.536999236
 20
114.0087581112
 30
0.0
 10
116.5369850546
 20
113.9049678789
 30
0.0
 10
116.4986520866
 20
113.6886337006
 30
0.0
 10
116.3346406652
 20
113.3872092943
 30
0.0
 10
116.0753773607
 20
113.1147441485
 30
0.0
 10
115.8584505279
 20
112.9653323594
 30
0.0
 10
115.7388857662
 20
112.896302024
 30
0.0
  0
SPLINE
  5
2AF
100
AcDbEntity
  8
0
100
AcDbSpline
 62
7
  6
BYLAYER
 70
0
 71
3
 72
11
 73
7
 74
0
 42
0.0000001
 43
0.0000001
 44
0.0000000001
 40
0.0
 40
0.0
 40
0.0
 40
0.0
 40
0.2177825102
 40
0.4509091639
 40
0.7102957096
 40
1.0
 40
1.0
 40
1.0
 40
1.0
 10
119.8123469905
 20
119.992540348
 30
0.0
 10
119.7463737079
 20
120.0306291865
 30
0.0
 10
119.6229402369
 20
120.1343984931
 30
0.0
 10
119.4915308523
 20
120.3492583835
 30
0.0
 10
119.4134814502
 20
120.6140464222
 30
0.0
 10
119.3981173593
 20
120.8067672547
 30
0.0
 10
119.3981173593
 20
120.9081040009
 30
0.0
  0
SPLINE
  5
2B0
100
AcDbEntity
  8
0
100
AcDbSpline
 62
7
  6
BYLAYER
 70
0
 71
3
 72
9
 73
5
 74
0
 42
0.0000001
 43
0.0000001
 44
0.0000000001
 40
0.0
 40
0.0
 40
0.0
 40
0.0
 40
0.2542591466
 40
1.0
 40
1.0
 40
1.0
 40
1.0
 10
108.0631520401
 20
124.6199316741
 30
0.0
 10
108.3424261214
 20
124.4030843477
 30
0.0
 10
109.4312828196
 20
123.5380600726
 30
0.0
 10
110.4810869892
 20
122.6236084975
 30
0.0
 10
111.2368980694
 20
121.9135370103
 30
0.0
  0
SPLINE
  5
2B1
100
AcDbEntity
  8
0
100
AcDbSpline
 62
7
  6
BYLAYER
 70
0
 71
3
 72
9
 73
5
 74
0
 42
0.0000001
 43
0.0000001
 44
0.0000000001
 40
0.0
 40
0.0
 40
0.0
 40
0.0
 40
0.2466714252
 40
1.0
 40
1.0
 40
1.0
 40
1.0
 10
118.0210659218
 20
130.8497594391
 30
0.0
 10
118.0415008677
 20
130.815381779
 30
0.0
 10
118.1211728694
 20
130.6741467027
 30
0.0
 10
118.1883359565
 20
130.525922445
 30
0.0
 10
118.2319145604
 20
130.411824956
 30
0.0
  0
SPLINE
  5
2B2
100
AcDbEntity
  8
0
100
AcDbSpline
 62
7
  6
BYLAYER
 70
0
 71
3
 72
11
 73
7
 74
0
 42
0.0000001
 43
0.0000001
 44
0.0000000001
 40
0.0
 40
0.0
 40
0.0
 40
0.0
 40
0.247405585
 40
0.4380605648
 40
0.6294544809
 40
1.0
 40
1.0
 40
1.0
 40
1.0
 10
50.5845132146
 20
110.1918551407
 30
0.0
 10
50.5904999165
 20
110.2904671294
 30
0.0
 10
50.6264359282
 20
110.4641203553
 30
0.0
 10
50.7272503708
 20
110.6955737096
 30
0.0
 10
50.8910247961
 20
110.9483038819
 30
0.0
 10
51.0611993254
 20
111.1054412286
 30
0.0
 10
51.1893506106
 20
111.1794078108
 30
0.0
  0
SPLINE
  5
2B3
100
AcDbEntity
  8
0
100
AcDbSpline
 62
7
  6
BYLAYER
 70
0
 71
3
 72
10
 73
6
 74
0
 42
0.0000001
 43
0.0000001
 44
0.0000000001
 40
0.0
 40
0.0
 40
0.0
 40
0.0
 40
0.5286563918
 40
0.7718793665
 40
1.0
 40
1.0
 40
1.0
 40
1.0
 10
92.5847490924
 20
134.440366073
 30
0.0
 10
94.383655414
 20
135.4788595932
 30
0.0
 10
97.0456307767
 20
136.9362389381
 30
0.0
 10
100.575151834
 20
138.6637283942
 30
0.0
 10
102.2657195218
 20
139.4211140831
 30
0.0
 10
103.0909487807
 20
139.7709244124
 30
0.0
  0
SPLINE
  5
2B4
100
AcDbEntity
  8
0
100
AcDbSpline
 62
7
  6
BYLAYER
 70
0
 71
3
 72
9
 73
5
 74
0
 42
0.0000001
 43
0.0000001
 44
0.0000000001
 40
0.0
 40
0.0
 40
0.0
 40
0.0
 40
0.5062637473
 40
1.0
 40
1.0
 40
1.0
 40
1.0
 10
117.0677434856
 20
131.7321168025
 30
0.0
 10
117.2590151135
 20
131.6216960357
 30
0.0
 10
117.6184274028
 20
131.3696119241
 30
0.0
 10
117.9107407193
 20
131.0353002771
 30
0.0
 10
118.0208366946
 20
130.8501724221
 30
0.0
  0
SPLINE
  5
2B5
100
AcDbEntity
  8
0
100
AcDbSpline
 62
7
  6
BYLAYER
 70
0
 71
3
 72
9
 73
5
 74
0
 42
0.0000001
 43
0.0000001
 44
0.0000000001
 40
0.0
 40
0.0
 40
0.0
 40
0.0
 40
0.5000243189
 40
1.0
 40
1.0
 40
1.0
 40
1.0
 10
68.9916791001
 20
99.5745664877
 30
0.0
 10
69.4584291043
 20
99.3050943434
 30
0.0
 10
70.2395783372
 20
98.4870981709
 30
0.0
 10
70.5573838473
 20
97.4016123556
 30
0.0
 10
70.5573838472
 20
96.862711347
 30
0.0
  0
SPLINE
  5
2B6
100
AcDbEntity
  8
0
100
AcDbSpline
 62
7
  6
BYLAYER
 70
0
 71
3
 72
11
 73
7
 74
0
 42
0.0000001
 43
0.0000001
 44
0.0000000001
 40
0.0
 40
0.0
 40
0.0
 40
0.0
 40
0.249446887
 40
0.4991041975
 40
0.749364707
 40
1.0
 40
1.0
 40
1.0
 40
1.0
 10
15.6456956023
 20
96.8625889703
 30
0.0
 10
15.6456956023
 20
97.0711394691
 30
0.0
 10
15.6935702052
 20
97.4903616308
 30
0.0
 10
15.919769348
 20
98.082042008
 30
0.0
 10
16.2947139587
 20
98.5945551052
 30
0.0
 10
16.6299188934
 20
98.8560995511
 30
0.0
 10
16.81138965
 20
98.9608711159
 30
0.0
  0
SPLINE
  5
2B7
100
AcDbEntity
  8
0
100
AcDbSpline
 62
7
  6
BYLAYER
 70
0
 71
3
 72
11
 73
7
 74
0
 42
0.0000001
 43
0.0000001
 44
0.0000000001
 40
0.0
 40
0.0
 40
0.0
 40
0.0
 40
0.2350234444
 40
0.4790400439
 40
0.734511655
 40
1.0
 40
1.0
 40
1.0
 40
1.0
 10
78.4568493441
 20
89.5141258446
 30
0.0
 10
78.4568493441
 20
89.5431852235
 30
0.0
 10
78.4451544403
 20
89.6027947143
 30
0.0
 10
78.3991146578
 20
89.6825261488
 30
0.0
 10
78.3316870119
 20
89.7499683004
 30
0.0
 10
78.2781674095
 20
89.7863905838
 30
0.0
 10
78.2497394144
 20
89.8028042503
 30
0.0
  0
SPLINE
  5
2B8
100
AcDbEntity
  8
0
100
AcDbSpline
 62
7
  6
BYLAYER
 70
0
 71
3
 72
10
 73
6
 74
0
 42
0.0000001
 43
0.0000001
 44
0.0000000001
 40
0.0
 40
0.0
 40
0.0
 40
0.0
 40
0.228180679
 40
0.4752507832
 40
1.0
 40
1.0
 40
1.0
 40
1.0
 10
72.6055516961
 20
88.4016598464
 30
0.0
 10
72.4656091282
 20
88.3208644495
 30
0.0
 10
72.1580478181
 20
88.1796439027
 30
0.0
 10
71.4766455506
 20
87.9814019212
 30
0.0
 10
70.9247536576
 20
87.9326290937
 30
0.0
 10
70.5532722102
 20
87.9425352613
 30
0.0
  0
SPLINE
  5
2B9
100
AcDbEntity
  8
0
100
AcDbSpline
 62
7
  6
BYLAYER
 70
0
 71
3
 72
9
 73
5
 74
0
 42
0.0000001
 43
0.0000001
 44
0.0000000001
 40
0.0
 40
0.0
 40
0.0
 40
0.0
 40
0.4846427532
 40
1.0
 40
1.0
 40
1.0
 40
1.0
 10
111.7097862581
 20
121.1305670768
 30
0.0
 10
111.6792790543
 20
121.276912481
 30
0.0
 10
111.5555272103
 20
121.5673908397
 30
0.0
 10
111.3527275235
 20
121.8046550043
 30
0.0
 10
111.2368839959
 20
121.9135140557
 30
0.0
  0
SPLINE
  5
2BA
100
AcDbEntity
  8
0
100
AcDbSpline
 62
7
  6
BYLAYER
 70
0
 71
3
 72
9
 73
5
 74
0
 42
0.0000001
 43
0.0000001
 44
0.0000000001
 40
0.0
 40
0.0
 40
0.0
 40
0.0
 40
0.2422649093
 40
1.0
 40
1.0
 40
1.0
 40
1.0
 10
111.7430450602
 20
120.9421306974
 30
0.0
 10
111.7408706387
 20
120.9574308592
 30
0.0
 10
111.73133169
 20
121.020504892
 30
0.0
 10
111.719649022
 20
121.0832486498
 30
0.0
 10
111.7097862581
 20
121.1305670768
 30
0.0
  0
SPLINE
  5
2BB
100
AcDbEntity
  8
0
100
AcDbSpline
 62
7
  6
BYLAYER
 70
0
 71
3
 72
11
 73
7
 74
0
 42
0.0000001
 43
0.0000001
 44
0.0000000001
 40
0.0
 40
0.0
 40
0.0
 40
0.0
 40
0.2372428732
 40
0.4999994739
 40
0.7627563609
 40
1.0
 40
1.0
 40
1.0
 40
1.0
 10
71.7393628906
 20
65.6314971631
 30
0.0
 10
71.6891678977
 20
65.6025172434
 30
0.0
 10
71.5724396488
 20
65.5602338797
 30
0.0
 10
71.3858100558
 20
65.5399736293
 30
0.0
 10
71.1991801812
 20
65.560233028
 30
0.0
 10
71.0824514733
 20
65.6025158122
 30
0.0
 10
71.0322561094
 20
65.6314954634
 30
0.0
  0
SPLINE
  5
2BC
100
AcDbEntity
  8
0
100
AcDbSpline
 62
7
  6
BYLAYER
 70
0
 71
3
 72
10
 73
6
 74
0
 42
0.0000001
 43
0.0000001
 44
0.0000000001
 40
0.0
 40
0.0
 40
0.0
 40
0.0
 40
0.2281929276
 40
0.4779872063
 40
1.0
 40
1.0
 40
1.0
 40
1.0
 10
113.8120412048
 20
89.9220243185
 30
0.0
 10
113.7476238458
 20
89.8848331609
 30
0.0
 10
113.6033917216
 20
89.822569099
 30
0.0
 10
113.2853810798
 20
89.7472416679
 30
0.0
 10
113.0286895771
 20
89.7459374427
 30
0.0
 10
112.8603095128
 20
89.7704662618
 30
0.0
  0
SPLINE
  5
2BD
100
AcDbEntity
  8
0
100
AcDbSpline
 62
7
  6
BYLAYER
 70
0
 71
3
 72
9
 73
5
 74
0
 42
0.0000001
 43
0.0000001
 44
0.0000000001
 40
0.0
 40
0.0
 40
0.0
 40
0.0
 40
0.5225743933
 40
1.0
 40
1.0
 40
1.0
 40
1.0
 10
119.6375231262
 20
121.1226249804
 30
0.0
 10
119.7665864676
 20
120.9624997366
 30
0.0
 10
120.0372010631
 20
120.6742242128
 30
0.0
 10
120.3551859347
 20
120.4371590364
 30
0.0
 10
120.5179084737
 20
120.3432132601
 30
0.0
  0
SPLINE
  5
2BE
100
AcDbEntity
  8
0
100
AcDbSpline
 62
7
  6
BYLAYER
 70
0
 71
3
 72
11
 73
7
 74
0
 42
0.0000001
 43
0.0000001
 44
0.0000000001
 40
0.0
 40
0.0
 40
0.0
 40
0.0
 40
0.2284009426
 40
0.4790755695
 40
0.7406728783
 40
1.0
 40
1.0
 40
1.0
 40
1.0
 10
115.7388857662
 20
112.896302024
 30
0.0
 10
115.5494992699
 20
112.7869603321
 30
0.0
 10
115.1230646188
 20
112.6071399897
 30
0.0
 10
114.4269998839
 20
112.4560105237
 30
0.0
 10
113.6862345261
 20
112.4175159098
 30
0.0
 10
113.187629769
 20
112.4701731863
 30
0.0
 10
112.9438857568
 20
112.5174934546
 30
0.0
  0
SPLINE
  5
2BF
100
AcDbEntity
  8
0
100
AcDbSpline
 62
7
  6
BYLAYER
 70
0
 71
3
 72
11
 73
7
 74
0
 42
0.0000001
 43
0.0000001
 44
0.0000000001
 40
0.0
 40
0.0
 40
0.0
 40
0.0
 40
0.2897781767
 40
0.5490726313
 40
0.7822276909
 40
1.0
 40
1.0
 40
1.0
 40
1.0
 10
119.1860162366
 20
114.9885528877
 30
0.0
 10
119.0016749313
 20
115.0949799822
 30
0.0
 10
118.6672772078
 20
115.3252031221
 30
0.0
 10
118.2677573065
 20
115.7452473323
 30
0.0
 10
118.014959987
 20
116.2097550024
 30
0.0
 10
117.9558832282
 20
116.5432127517
 30
0.0
 10
117.9558832262
 20
116.703178334
 30
0.0
  0
SPLINE
  5
2C0
100
AcDbEntity
  8
0
100
AcDbSpline
 62
7
  6
BYLAYER
 70
0
 71
3
 72
11
 73
7
 74
0
 42
0.0000001
 43
0.0000001
 44
0.0000000001
 40
0.0
 40
0.0
 40
0.0
 40
0.0
 40
0.2177620235
 40
0.4508710498
 40
0.7103052256
 40
1.0
 40
1.0
 40
1.0
 40
1.0
 10
92.5848830886
 20
134.440732881
 30
0.0
 10
92.6508464257
 20
134.478821584
 30
0.0
 10
92.8024101
 20
134.5338470555
 30
0.0
 10
93.0541895778
 20
134.5401842824
 30
0.0
 10
93.3225293648
 20
134.4753992427
 30
0.0
 10
93.4971249479
 20
134.3923450055
 30
0.0
 10
93.5848810131
 20
134.3416801638
 30
0.0
  0
SPLINE
  5
2C1
100
AcDbEntity
  8
0
100
AcDbSpline
 62
7
  6
BYLAYER
 70
0
 71
3
 72
9
 73
5
 74
0
 42
0.0000001
 43
0.0000001
 44
0.0000000001
 40
0.0
 40
0.0
 40
0.0
 40
0.0
 40
0.2253971397
 40
1.0
 40
1.0
 40
1.0
 40
1.0
 10
119.7704298399
 20
120.1107840826
 30
0.0
 10
119.8236376338
 20
120.1080194967
 30
0.0
 10
120.0610167127
 20
120.1185663106
 30
0.0
 10
120.2886274923
 20
120.2108386139
 30
0.0
 10
120.44719809
 20
120.3023888447
 30
0.0
  0
SPLINE
  5
2C2
100
AcDbEntity
  8
0
100
AcDbSpline
 62
7
  6
BYLAYER
 70
0
 71
3
 72
11
 73
7
 74
0
 42
0.0000001
 43
0.0000001
 44
0.0000000001
 40
0.0
 40
0.0
 40
0.0
 40
0.0
 40
0.2177639399
 40
0.4508783599
 40
0.710296301
 40
1.0
 40
1.0
 40
1.0
 40
1.0
 10
68.991678265
 20
99.5745650409
 30
0.0
 10
68.9257065848
 20
99.6126384692
 30
0.0
 10
68.774151232
 20
99.667666613
 30
0.0
 10
68.522374527
 20
99.6740383443
 30
0.0
 10
68.2540460748
 20
99.6092198984
 30
0.0
 10
68.0794532246
 20
99.5261770346
 30
0.0
 10
67.9916960671
 20
99.4755107185
 30
0.0
  0
SPLINE
  5
2C3
100
AcDbEntity
  8
0
100
AcDbSpline
 62
7
  6
BYLAYER
 70
0
 71
3
 72
11
 73
7
 74
0
 42
0.0000001
 43
0.0000001
 44
0.0000000001
 40
0.0
 40
0.0
 40
0.0
 40
0.0
 40
0.21776433
 40
0.4508789517
 40
0.7102967806
 40
1.0
 40
1.0
 40
1.0
 40
1.0
 10
42.2671289584
 20
113.6576586309
 30
0.0
 10
42.3594901691
 20
113.7109628181
 30
0.0
 10
42.5716697967
 20
113.7880048624
 30
0.0
 10
42.9241614554
 20
113.7969284072
 30
0.0
 10
43.2998262658
 20
113.7061847109
 30
0.0
 10
43.5442597583
 20
113.5899253418
 30
0.0
 10
43.6671215226
 20
113.5189926737
 30
0.0
  0
SPLINE
  5
2C4
100
AcDbEntity
  8
0
100
AcDbSpline
 62
7
  6
BYLAYER
 70
0
 71
3
 72
11
 73
7
 74
0
 42
0.0000001
 43
0.0000001
 44
0.0000000001
 40
0.0
 40
0.0
 40
0.0
 40
0.0
 40
0.2177617176
 40
0.450875123
 40
0.7102938231
 40
1.0
 40
1.0
 40
1.0
 40
1.0
 10
15.6456972695
 20
96.8625889704
 30
0.0
 10
15.6457097973
 20
96.7864187124
 30
0.0
 10
15.6738316147
 20
96.6276522286
 30
0.0
 10
15.7942052215
 20
96.4064195649
 30
0.0
 10
15.9845098468
 20
96.206448228
 30
0.0
 10
16.1437283062
 20
96.0967675575
 30
0.0
 10
16.2314879278
 20
96.0461006626
 30
0.0
  0
SPLINE
  5
2C5
100
AcDbEntity
  8
0
100
AcDbSpline
 62
7
  6
BYLAYER
 70
0
 71
3
 72
11
 73
7
 74
0
 42
0.0000001
 43
0.0000001
 44
0.0000000001
 40
0.0
 40
0.0
 40
0.0
 40
0.0
 40
0.2177850417
 40
0.4509143608
 40
0.710298685
 40
1.0
 40
1.0
 40
1.0
 40
1.0
 10
16.6457125693
 20
66.389643284
 30
0.0
 10
16.579738134
 20
66.4277327673
 30
0.0
 10
16.4563032888
 20
66.5315053127
 30
0.0
 10
16.3248968859
 20
66.7463698434
 30
0.0
 10
16.2468493276
 20
67.0111590278
 30
0.0
 10
16.2314879278
 20
67.2038792953
 30
0.0
 10
16.2314879278
 20
67.3052155796
 30
0.0
  0
SPLINE
  5
2C6
100
AcDbEntity
  8
0
100
AcDbSpline
 62
7
  6
BYLAYER
 70
0
 71
3
 72
10
 73
6
 74
0
 42
0.0000001
 43
0.0000001
 44
0.0000000001
 40
0.0
 40
0.0
 40
0.0
 40
0.0
 40
0.2429257694
 40
0.4933155006
 40
1.0
 40
1.0
 40
1.0
 40
1.0
 10
111.2368839959
 20
121.9135140557
 30
0.0
 10
111.1054138416
 20
122.0370575681
 30
0.0
 10
110.8061155613
 20
122.2546337269
 30
0.0
 10
110.1312067594
 20
122.5703783663
 30
0.0
 10
109.5693727656
 20
122.6843046169
 30
0.0
 10
109.193802905
 20
122.707566718
 30
0.0
  0
SPLINE
  5
2C7
100
AcDbEntity
  8
0
100
AcDbSpline
 62
7
  6
BYLAYER
 70
0
 71
3
 72
11
 73
7
 74
0
 42
0.0000001
 43
0.0000001
 44
0.0000000001
 40
0.0
 40
0.0
 40
0.0
 40
0.0
 40
0.2177858913
 40
0.4509156057
 40
0.7102996463
 40
1.0
 40
1.0
 40
1.0
 40
1.0
 10
44.1016412307
 20
51.6929833323
 30
0.0
 10
44.167615568
 20
51.7310733976
 30
0.0
 10
44.2910500592
 20
51.8348466115
 30
0.0
 10
44.4224562596
 20
52.0497112483
 30
0.0
 10
44.5005037423
 20
52.3144997881
 30
0.0
 10
44.5158651578
 20
52.5072193887
 30
0.0
 10
44.5158651578
 20
52.6085552156
 30
0.0
  0
SPLINE
  5
2C8
100
AcDbEntity
  8
0
100
AcDbSpline
 62
7
  6
BYLAYER
 70
0
 71
3
 72
12
 73
8
 74
0
 42
0.0000001
 43
0.0000001
 44
0.0000000001
 40
0.0
 40
0.0
 40
0.0
 40
0.0
 40
0.1157450575
 40
0.2334520911
 40
0.4775988867
 40
0.7346765471
 40
1.0
 40
1.0
 40
1.0
 40
1.0
 10
108.0628763296
 20
124.6195774936
 30
0.0
 10
108.0237902629
 20
124.6500950032
 30
0.0
 10
107.93941806
 20
124.7049784277
 30
0.0
 10
107.7500367184
 20
124.7846867539
 30
0.0
 10
107.4838248956
 20
124.8268512009
 30
0.0
 10
107.1546313892
 20
124.7892639581
 30
0.0
 10
106.9408927946
 20
124.7179993937
 30
0.0
 10
106.836437524
 20
124.6731600985
 30
0.0
  0
SPLINE
  5
2C9
100
AcDbEntity
  8
0
100
AcDbSpline
 62
7
  6
BYLAYER
 70
0
 71
3
 72
11
 73
7
 74
0
 42
0.0000001
 43
0.0000001
 44
0.0000000001
 40
0.0
 40
0.0
 40
0.0
 40
0.0
 40
0.217784692
 40
0.4509137851
 40
0.7102981701
 40
1.0
 40
1.0
 40
1.0
 40
1.0
 10
70.5573838472
 20
68.121826264
 30
0.0
 10
70.5573838436
 20
68.0456489364
 30
0.0
 10
70.5292312767
 20
67.8868713364
 30
0.0
 10
70.4088592322
 20
67.6656471057
 30
0.0
 10
70.2185747079
 20
67.4656698099
 30
0.0
 10
70.0593601224
 20
67.3560108789
 30
0.0
 10
69.9716032975
 20
67.305344755
 30
0.0
  0
SPLINE
  5
2CA
100
AcDbEntity
  8
0
100
AcDbSpline
 62
7
  6
BYLAYER
 70
0
 71
3
 72
11
 73
7
 74
0
 42
0.0000001
 43
0.0000001
 44
0.0000000001
 40
0.0
 40
0.0
 40
0.0
 40
0.0
 40
0.289701315
 40
0.5490856392
 40
0.7822149583
 40
1.0
 40
1.0
 40
1.0
 40
1.0
 10
41.6874380331
 20
52.6085484169
 30
0.0
 10
41.6874380331
 20
52.5072121326
 30
0.0
 10
41.7027994328
 20
52.314491865
 30
0.0
 10
41.7808469912
 20
52.0497026806
 30
0.0
 10
41.9122533941
 20
51.83483815
 30
0.0
 10
42.0356882393
 20
51.7310656046
 30
0.0
 10
42.1016626746
 20
51.6929761213
 30
0.0
  0
SPLINE
  5
2CB
100
AcDbEntity
  8
0
100
AcDbSpline
 62
7
  6
BYLAYER
 70
0
 71
3
 72
11
 73
7
 74
0
 42
0.0000001
 43
0.0000001
 44
0.0000000001
 40
0.0
 40
0.0
 40
0.0
 40
0.0
 40
0.2372367819
 40
0.4999994738
 40
0.7627624522
 40
1.0
 40
1.0
 40
1.0
 40
1.0
 10
44.5158651578
 20
52.6085552156
 30
0.0
 10
44.3150893455
 20
52.4926379382
 30
0.0
 10
43.8481839312
 20
52.3234805607
 30
0.0
 10
43.101653819
 20
52.242433531
 30
0.0
 10
42.3551225803
 20
52.3234771539
 30
0.0
 10
41.8882153296
 20
52.4926322131
 30
0.0
 10
41.6874380331
 20
52.6085484169
 30
0.0
  0
SPLINE
  5
2CC
100
AcDbEntity
  8
0
100
AcDbSpline
 62
7
  6
BYLAYER
 70
0
 71
3
 72
10
 73
6
 74
0
 42
0.0000001
 43
0.0000001
 44
0.0000000001
 40
0.0
 40
0.0
 40
0.0
 40
0.0
 40
0.138353504
 40
0.3488844612
 40
1.0
 40
1.0
 40
1.0
 40
1.0
 10
84.2906349815
 20
137.542249081
 30
0.0
 10
84.2995213482
 20
137.539073117
 30
0.0
 10
84.3175039211
 20
137.5214637007
 30
0.0
 10
84.3513088286
 20
137.4626608048
 30
0.0
 10
84.3703198885
 20
137.4062195234
 30
0.0
 10
84.3833962838
 20
137.363776768
 30
0.0
  0
SPLINE
  5
2CD
100
AcDbEntity
  8
0
100
AcDbSpline
 62
7
  6
BYLAYER
 70
0
 71
3
 72
9
 73
5
 74
0
 42
0.0000001
 43
0.0000001
 44
0.0000000001
 40
0.0
 40
0.0
 40
0.0
 40
0.0
 40
0.4424839716
 40
1.0
 40
1.0
 40
1.0
 40
1.0
 10
84.3833962838
 20
137.363776768
 30
0.0
 10
84.4004966193
 20
137.3082732945
 30
0.0
 10
84.4327708421
 20
137.180908673
 30
0.0
 10
84.4587861622
 20
137.0522406651
 30
0.0
 10
84.4721526111
 20
136.9802952776
 30
0.0
  0
SPLINE
  5
2CE
100
AcDbEntity
  8
0
100
AcDbSpline
 62
7
  6
BYLAYER
 70
0
 71
3
 72
11
 73
7
 74
0
 42
0.0000001
 43
0.0000001
 44
0.0000000001
 40
0.0
 40
0.0
 40
0.0
 40
0.0
 40
0.2897023113
 40
0.5490868678
 40
0.7822157677
 40
1.0
 40
1.0
 40
1.0
 40
1.0
 10
16.2314879278
 20
67.3052155796
 30
0.0
 10
16.1437294614
 20
67.3558818076
 30
0.0
 10
15.9845118542
 20
67.4655411568
 30
0.0
 10
15.794223464
 20
67.6655199346
 30
0.0
 10
15.6738488268
 20
67.8867463086
 30
0.0
 10
15.6456955986
 20
68.0455257392
 30
0.0
 10
15.6456956023
 20
68.1217038874
 30
0.0
  0
SPLINE
  5
2CF
100
AcDbEntity
  8
0
100
AcDbSpline
 62
7
  6
BYLAYER
 70
0
 71
3
 72
11
 73
7
 74
0
 42
0.0000001
 43
0.0000001
 44
0.0000000001
 40
0.0
 40
0.0
 40
0.0
 40
0.0
 40
0.2372166895
 40
0.4999418888
 40
0.7627157979
 40
1.0
 40
1.0
 40
1.0
 40
1.0
 10
41.6874380331
 20
81.3494334998
 30
0.0
 10
41.888197742
 20
81.23352745
 30
0.0
 10
42.355045068
 20
81.0643794043
 30
0.0
 10
43.1015272277
 20
80.9833256493
 30
0.0
 10
43.848081819
 20
81.0643326158
 30
0.0
 10
44.3150491482
 20
81.2334998134
 30
0.0
 10
44.5158651578
 20
81.3494402985
 30
0.0
  0
SPLINE
  5
2D0
100
AcDbEntity
  8
0
100
AcDbSpline
 62
7
  6
BYLAYER
 70
0
 71
3
 72
11
 73
7
 74
0
 42
0.0000001
 43
0.0000001
 44
0.0000000001
 40
0.0
 40
0.0
 40
0.0
 40
0.0
 40
0.2372153799
 40
0.4999397447
 40
0.7627139859
 40
1.0
 40
1.0
 40
1.0
 40
1.0
 10
42.5359579274
 20
84.7787211792
 30
0.0
 10
42.3351999258
 20
84.6628141847
 30
0.0
 10
41.9552881518
 20
84.3430902181
 30
0.0
 10
41.511851869
 20
83.7371458557
 30
0.0
 10
41.2087292035
 20
83.0501042835
 30
0.0
 10
41.121750253
 20
82.56111209
 30
0.0
 10
41.121750253
 20
82.3292280372
 30
0.0
  0
SPLINE
  5
2D1
100
AcDbEntity
  8
0
100
AcDbSpline
 62
7
  6
BYLAYER
 70
0
 71
3
 72
13
 73
9
 74
0
 42
0.0000001
 43
0.0000001
 44
0.0000000001
 40
0.0
 40
0.0
 40
0.0
 40
0.0
 40
0.1142252583
 40
0.2375359475
 40
0.4999424201
 40
0.7623972357
 40
0.8857582681
 40
1.0
 40
1.0
 40
1.0
 40
1.0
 10
44.5158651578
 20
81.349440298
 30
0.0
 10
44.5158651579
 20
81.5059048638
 30
0.0
 10
44.4871611223
 20
81.8316024699
 30
0.0
 10
44.3316055815
 20
82.5002016817
 30
0.0
 10
43.9700134058
 20
83.3202829147
 30
0.0
 10
43.4406127552
 20
84.0435764254
 30
0.0
 10
42.9392570389
 20
84.5127053284
 30
0.0
 10
42.6714805249
 20
84.7004789411
 30
0.0
 10
42.5359579274
 20
84.7787211792
 30
0.0
  0
SPLINE
  5
2D2
100
AcDbEntity
  8
0
100
AcDbSpline
 62
7
  6
BYLAYER
 70
0
 71
3
 72
11
 73
7
 74
0
 42
0.0000001
 43
0.0000001
 44
0.0000000001
 40
0.0
 40
0.0
 40
0.0
 40
0.0
 40
0.2897308852
 40
0.5491000791
 40
0.7822072118
 40
1.0
 40
1.0
 40
1.0
 40
1.0
 10
43.6671215221
 20
113.518992674
 30
0.0
 10
43.754886915
 20
113.5696637448
 30
0.0
 10
43.92946818
 20
113.6527115617
 30
0.0
 10
44.1977929381
 20
113.7175236438
 30
0.0
 10
44.4495485634
 20
113.7111305412
 30
0.0
 10
44.6011358337
 20
113.6561471786
 30
0.0
 10
44.6671037222
 20
113.6180470007
 30
0.0
  0
SPLINE
  5
2D3
100
AcDbEntity
  8
0
100
AcDbSpline
 62
7
  6
BYLAYER
 70
0
 71
3
 72
11
 73
7
 74
0
 42
0.0000001
 43
0.0000001
 44
0.0000000001
 40
0.0
 40
0.0
 40
0.0
 40
0.0
 40
0.2372539654
 40
0.5000012591
 40
0.7627478695
 40
1.0
 40
1.0
 40
1.0
 40
1.0
 10
41.6874380331
 20
81.3494334998
 30
0.0
 10
41.6874380331
 20
81.4421742063
 30
0.0
 10
41.6526666206
 20
81.637752626
 30
0.0
 10
41.5313820164
 20
81.9125336647
 30
0.0
 10
41.3540562259
 20
82.1549583043
 30
0.0
 10
41.2020658939
 20
82.2828588293
 30
0.0
 10
41.121750253
 20
82.3292280372
 30
0.0
  0
SPLINE
  5
2D4
100
AcDbEntity
  8
0
100
AcDbSpline
 62
7
  6
BYLAYER
 70
0
 71
3
 72
15
 73
11
 74
0
 42
0.0000001
 43
0.0000001
 44
0.0000000001
 40
0.0
 40
0.0
 40
0.0
 40
0.0
 40
0.1447692104
 40
0.2745569859
 40
0.3911255938
 40
0.4999981472
 40
0.6088710714
 40
0.7254405943
 40
0.8552294963
 40
1.0
 40
1.0
 40
1.0
 40
1.0
 10
16.7971757079
 20
96.3727099927
 30
0.0
 10
16.7620927263
 20
96.3929647034
 30
0.0
 10
16.6922376949
 20
96.4261458908
 30
0.0
 10
16.5849428542
 20
96.4521335146
 30
0.0
 10
16.484128373
 20
96.4495624475
 30
0.0
 10
16.3944948575
 20
96.4169673199
 30
0.0
 10
16.3214513093
 20
96.3556379254
 30
0.0
 10
16.2688189846
 20
96.2696138929
 30
0.0
 10
16.2376788395
 20
96.1636986949
 30
0.0
 10
16.2314879278
 20
96.0866111332
 30
0.0
 10
16.2314879278
 20
96.0461006626
 30
0.0
  0
SPLINE
  5
2D5
100
AcDbEntity
  8
0
100
AcDbSpline
 62
7
  6
BYLAYER
 70
0
 71
3
 72
11
 73
7
 74
0
 42
0.0000001
 43
0.0000001
 44
0.0000000001
 40
0.0
 40
0.0
 40
0.0
 40
0.0
 40
0.2372177352
 40
0.4999429808
 40
0.7627163418
 40
1.0
 40
1.0
 40
1.0
 40
1.0
 10
16.7971757079
 20
96.3727099927
 30
0.0
 10
16.7971757079
 20
96.6045273211
 30
0.0
 10
16.8841083178
 20
97.0934055814
 30
0.0
 10
17.1871507332
 20
97.780408548
 30
0.0
 10
17.6305803237
 20
98.3864417122
 30
0.0
 10
18.010567596
 20
98.7062627784
 30
0.0
 10
18.2113833824
 20
98.8222031347
 30
0.0
  0
SPLINE
  5
2D6
100
AcDbEntity
  8
0
100
AcDbSpline
 62
7
  6
BYLAYER
 70
0
 71
3
 72
11
 73
7
 74
0
 42
0.0000001
 43
0.0000001
 44
0.0000000001
 40
0.0
 40
0.0
 40
0.0
 40
0.0
 40
0.289730405
 40
0.5490994865
 40
0.7822068216
 40
1.0
 40
1.0
 40
1.0
 40
1.0
 10
18.2113833829
 20
98.8222031344
 30
0.0
 10
18.0885100889
 20
98.8931424589
 30
0.0
 10
17.8440928163
 20
99.0094087624
 30
0.0
 10
17.4684331782
 20
99.100143549
 30
0.0
 10
17.1159710306
 20
99.0911900871
 30
0.0
 10
16.9037467188
 20
99.0142107324
 30
0.0
 10
16.8113908166
 20
98.9608690956
 30
0.0
  0
SPLINE
  5
2D7
100
AcDbEntity
  8
0
100
AcDbSpline
 62
7
  6
BYLAYER
 70
0
 71
3
 72
9
 73
5
 74
0
 42
0.0000001
 43
0.0000001
 44
0.0000000001
 40
0.0
 40
0.0
 40
0.0
 40
0.0
 40
0.4722116281
 40
1.0
 40
1.0
 40
1.0
 40
1.0
 10
58.8533906683
 20
122.865786742
 30
0.0
 10
59.0411455567
 20
122.9741681782
 30
0.0
 10
59.5033861809
 20
123.0944975794
 30
0.0
 10
59.9670162853
 20
123.0318475096
 30
0.0
 10
60.2005252341
 20
122.9671486047
 30
0.0
  0
SPLINE
  5
2D8
100
AcDbEntity
  8
0
100
AcDbSpline
 62
7
  6
BYLAYER
 70
0
 71
3
 72
11
 73
7
 74
0
 42
0.0000001
 43
0.0000001
 44
0.0000000001
 40
0.0
 40
0.0
 40
0.0
 40
0.0
 40
0.2372185796
 40
0.5000005262
 40
0.7627821863
 40
1.0
 40
1.0
 40
1.0
 40
1.0
 10
71.0322561094
 20
85.6358046831
 30
0.0
 10
71.0824464336
 20
85.6068279415
 30
0.0
 10
71.1991722912
 20
85.5645372156
 30
0.0
 10
71.3858100559
 20
85.5442752748
 30
0.0
 10
71.5724475389
 20
85.5645380673
 30
0.0
 10
71.6891729374
 20
85.6068293728
 30
0.0
 10
71.7393628906
 20
85.6358063828
 30
0.0
  0
SPLINE
  5
2D9
100
AcDbEntity
  8
0
100
AcDbSpline
 62
7
  6
BYLAYER
 70
0
 71
3
 72
11
 73
7
 74
0
 42
0.0000001
 43
0.0000001
 44
0.0000000001
 40
0.0
 40
0.0
 40
0.0
 40
0.0
 40
0.2372193634
 40
0.5000010919
 40
0.762782226
 40
1.0
 40
1.0
 40
1.0
 40
1.0
 10
71.7393628906
 20
85.6358063828
 30
0.0
 10
71.7393628906
 20
85.6937611422
 30
0.0
 10
71.7176257631
 20
85.8159946568
 30
0.0
 10
71.6418545671
 20
85.9877592753
 30
0.0
 10
71.5309871866
 20
86.1392605484
 30
0.0
 10
71.4359982695
 20
86.2192012747
 30
0.0
 10
71.385808028
 20
86.2481779686
 30
0.0
  0
SPLINE
  5
2DA
100
AcDbEntity
  8
0
100
AcDbSpline
 62
7
  6
BYLAYER
 70
0
 71
3
 72
11
 73
7
 74
0
 42
0.0000001
 43
0.0000001
 44
0.0000000001
 40
0.0
 40
0.0
 40
0.0
 40
0.0
 40
0.23721727
 40
0.499998382
 40
0.7627803746
 40
1.0
 40
1.0
 40
1.0
 40
1.0
 10
71.385808028
 20
86.2481779686
 30
0.0
 10
71.3356181306
 20
86.2192009908
 30
0.0
 10
71.2406299572
 20
86.1392597095
 30
0.0
 10
71.1297635713
 20
85.9877579527
 30
0.0
 10
71.053993058
 20
85.8159930428
 30
0.0
 10
71.0322561094
 20
85.6937594736
 30
0.0
 10
71.0322561094
 20
85.6358046831
 30
0.0
  0
SPLINE
  5
2DB
100
AcDbEntity
  8
0
100
AcDbSpline
 62
7
  6
BYLAYER
 70
0
 71
3
 72
11
 73
7
 74
0
 42
0.0000001
 43
0.0000001
 44
0.0000000001
 40
0.0
 40
0.0
 40
0.0
 40
0.0
 40
0.2897328801
 40
0.5491026614
 40
0.7822089747
 40
1.0
 40
1.0
 40
1.0
 40
1.0
 10
69.9716032975
 20
96.0462298379
 30
0.0
 10
70.0593695126
 20
96.0969013833
 30
0.0
 10
70.2185834461
 20
96.2065691255
 30
0.0
 10
70.4088768473
 20
96.4065389626
 30
0.0
 10
70.5292188171
 20
96.6277619119
 30
0.0
 10
70.5573947093
 20
96.7865318185
 30
0.0
 10
70.55738218
 20
96.8627113469
 30
0.0
  0
SPLINE
  5
2DC
100
AcDbEntity
  8
0
100
AcDbSpline
 62
7
  6
BYLAYER
 70
0
 71
3
 72
11
 73
7
 74
0
 42
0.0000001
 43
0.0000001
 44
0.0000000001
 40
0.0
 40
0.0
 40
0.0
 40
0.0
 40
0.2424175634
 40
0.5000217085
 40
0.7576122532
 40
1.0
 40
1.0
 40
1.0
 40
1.0
 10
50.7412068372
 20
110.0847379329
 30
0.0
 10
50.7550398779
 20
110.1778098018
 30
0.0
 10
50.8056796745
 20
110.366778095
 30
0.0
 10
50.9322913645
 20
110.6337027659
 30
0.0
 10
51.1020306571
 20
110.8754909521
 30
0.0
 10
51.2414327637
 20
111.0127281777
 30
0.0
 10
51.3155672831
 20
111.0706558999
 30
0.0
  0
SPLINE
  5
2DD
100
AcDbEntity
  8
0
100
AcDbSpline
 62
7
  6
BYLAYER
 70
0
 71
3
 72
9
 73
5
 74
0
 42
0.0000001
 43
0.0000001
 44
0.0000000001
 40
0.0
 40
0.0
 40
0.0
 40
0.0
 40
0.2578884428
 40
1.0
 40
1.0
 40
1.0
 40
1.0
 10
51.3155672831
 20
111.0706558999
 30
0.0
 10
51.3257022885
 20
111.0785752576
 30
0.0
 10
51.3654864437
 20
111.1086536035
 30
0.0
 10
51.4072426275
 20
111.1361656166
 30
0.0
 10
51.4392978787
 20
111.154669636
 30
0.0
  0
SPLINE
  5
2DE
100
AcDbEntity
  8
0
100
AcDbSpline
 62
7
  6
BYLAYER
 70
0
 71
3
 72
17
 73
13
 74
0
 42
0.0000001
 43
0.0000001
 44
0.0000000001
 40
0.0
 40
0.0
 40
0.0
 40
0.0
 40
0.1363975986
 40
0.2815955719
 40
0.4287206771
 40
0.5705258648
 40
0.7006154961
 40
0.8147228362
 40
0.8656111126
 40
0.912802169
 40
0.9571685352
 40
1.0
 40
1.0
 40
1.0
 40
1.0
 10
70.5104147592
 20
91.6113431666
 30
0.0
 10
70.7226262588
 20
91.698769842
 30
0.0
 10
71.1803150746
 20
91.8333507119
 30
0.0
 10
71.8994245566
 20
91.9190098859
 30
0.0
 10
72.6324290232
 20
91.8922407116
 30
0.0
 10
73.327382777
 20
91.7545213066
 30
0.0
 10
73.9353953471
 20
91.5157134048
 30
0.0
 10
74.3517018306
 20
91.2331991712
 30
0.0
 10
74.59334416
 20
90.9682343038
 30
0.0
 10
74.7215004826
 20
90.7638653
 30
0.0
 10
74.8000149868
 20
90.5499433143
 30
0.0
 10
74.817882688
 20
90.4026763635
 30
0.0
 10
74.8178728404
 20
90.3306042413
 30
0.0
  0
SPLINE
  5
2DF
100
AcDbEntity
  8
0
100
AcDbSpline
 62
7
  6
BYLAYER
 70
0
 71
3
 72
9
 73
5
 74
0
 42
0.0000001
 43
0.0000001
 44
0.0000000001
 40
0.0
 40
0.0
 40
0.0
 40
0.0
 40
0.2488286264
 40
1.0
 40
1.0
 40
1.0
 40
1.0
 10
64.3837400691
 20
118.6281062423
 30
0.0
 10
64.2787285815
 20
118.5931804368
 30
0.0
 10
63.8596210917
 20
118.4446128451
 30
0.0
 10
63.4523613604
 20
118.2593972126
 30
0.0
 10
63.1629966581
 20
118.0924207533
 30
0.0
  0
SPLINE
  5
2E0
100
AcDbEntity
  8
0
100
AcDbSpline
 62
7
  6
BYLAYER
 70
0
 71
3
 72
9
 73
5
 74
0
 42
0.0000001
 43
0.0000001
 44
0.0000000001
 40
0.0
 40
0.0
 40
0.0
 40
0.0
 40
0.5023105038
 40
1.0
 40
1.0
 40
1.0
 40
1.0
 10
62.4059303363
 20
117.7481040164
 30
0.0
 10
62.4477082782
 20
117.8623144057
 30
0.0
 10
62.5763561866
 20
118.0748845934
 30
0.0
 10
62.7652243959
 20
118.2318523749
 30
0.0
 10
62.8663244544
 20
118.2974063889
 30
0.0
  0
SPLINE
  5
2E1
100
AcDbEntity
  8
0
100
AcDbSpline
 62
7
  6
BYLAYER
 70
0
 71
3
 72
9
 73
5
 74
0
 42
0.0000001
 43
0.0000001
 44
0.0000000001
 40
0.0
 40
0.0
 40
0.0
 40
0.0
 40
0.4942882006
 40
1.0
 40
1.0
 40
1.0
 40
1.0
 10
62.8663244544
 20
118.2974063889
 30
0.0
 10
63.0834092985
 20
118.4381657823
 30
0.0
 10
63.5933904476
 20
118.6117815379
 30
0.0
 10
64.1192981424
 20
118.639850774
 30
0.0
 10
64.3837426179
 20
118.6281036867
 30
0.0
  0
SPLINE
  5
2E2
100
AcDbEntity
  8
0
100
AcDbSpline
 62
7
  6
BYLAYER
 70
0
 71
3
 72
9
 73
5
 74
0
 42
0.0000001
 43
0.0000001
 44
0.0000000001
 40
0.0
 40
0.0
 40
0.0
 40
0.0
 40
0.2431024507
 40
1.0
 40
1.0
 40
1.0
 40
1.0
 10
58.0908458449
 20
121.251777696
 30
0.0
 10
58.359163228
 20
120.9060103483
 30
0.0
 10
59.4933251703
 20
119.5074358655
 30
0.0
 10
60.7436204985
 20
118.2042725528
 30
0.0
 10
61.7379392983
 20
117.2725125065
 30
0.0
  0
SPLINE
  5
2E3
100
AcDbEntity
  8
0
100
AcDbSpline
 62
7
  6
BYLAYER
 70
0
 71
3
 72
9
 73
5
 74
0
 42
0.0000001
 43
0.0000001
 44
0.0000000001
 40
0.0
 40
0.0
 40
0.0
 40
0.0
 40
0.5024814455
 40
1.0
 40
1.0
 40
1.0
 40
1.0
 10
60.2005247827
 20
122.9671480644
 30
0.0
 10
60.0174012637
 20
122.9575028203
 30
0.0
 10
59.6542845531
 20
122.8997093532
 30
0.0
 10
59.3092338655
 20
122.7723636493
 30
0.0
 10
59.1467609766
 20
122.6913152828
 30
0.0
  0
SPLINE
  5
2E4
100
AcDbEntity
  8
0
100
AcDbSpline
 62
7
  6
BYLAYER
 70
0
 71
3
 72
11
 73
7
 74
0
 42
0.0000001
 43
0.0000001
 44
0.0000000001
 40
0.0
 40
0.0
 40
0.0
 40
0.0
 40
0.265867976
 40
0.5214958019
 40
0.7658126721
 40
1.0
 40
1.0
 40
1.0
 40
1.0
 10
59.0428527999
 20
122.6363304889
 30
0.0
 10
58.9224962873
 20
122.5688673748
 30
0.0
 10
58.6970950949
 20
122.4159663809
 30
0.0
 10
58.4149908671
 20
122.1321475998
 30
0.0
 10
58.2097325923
 20
121.8072896901
 30
0.0
 10
58.1317605703
 20
121.5679727445
 30
0.0
 10
58.1104729824
 20
121.4483180652
 30
0.0
  0
SPLINE
  5
2E5
100
AcDbEntity
  8
0
100
AcDbSpline
 62
7
  6
BYLAYER
 70
0
 71
3
 72
13
 73
9
 74
0
 42
0.0000001
 43
0.0000001
 44
0.0000000001
 40
0.0
 40
0.0
 40
0.0
 40
0.0
 40
0.1142243765
 40
0.2375343722
 40
0.4999402512
 40
0.7623956601
 40
0.8857573862
 40
1.0
 40
1.0
 40
1.0
 40
1.0
 10
67.9916960671
 20
99.4755107185
 30
0.0
 10
68.1271980762
 20
99.3972803669
 30
0.0
 10
68.3949082655
 20
99.2095765559
 30
0.0
 10
68.8961552252
 20
98.7405670869
 30
0.0
 10
69.4255730948
 20
98.0173815384
 30
0.0
 10
69.7872673774
 20
97.1972612371
 30
0.0
 10
69.9428719736
 20
96.5285081226
 30
0.0
 10
69.9716032976
 20
96.2027181767
 30
0.0
 10
69.9716032975
 20
96.0462298373
 30
0.0
  0
SPLINE
  5
2E6
100
AcDbEntity
  8
0
100
AcDbSpline
 62
7
  6
BYLAYER
 70
0
 71
3
 72
8
 73
4
 74
0
 42
0.0000001
 43
0.0000001
 44
0.0000000001
 40
0.0
 40
0.0
 40
0.0
 40
0.0
 40
1.0
 40
1.0
 40
1.0
 40
1.0
 10
58.0908458693
 20
121.2517776522
 30
0.0
 10
58.0379102978
 20
119.1919583421
 30
0.0
 10
57.9846134408
 20
117.1321483049
 30
0.0
 10
57.9319110123
 20
115.0723230165
 30
0.0
  0
SPLINE
  5
2E7
100
AcDbEntity
  8
0
100
AcDbSpline
 62
7
  6
BYLAYER
 70
0
 71
3
 72
11
 73
7
 74
0
 42
0.0000001
 43
0.0000001
 44
0.0000000001
 40
0.0
 40
0.0
 40
0.0
 40
0.0
 40
0.2369711189
 40
0.4994507047
 40
0.7622293029
 40
1.0
 40
1.0
 40
1.0
 40
1.0
 10
64.8156814425
 20
103.0272939909
 30
0.0
 10
64.7655106456
 20
102.9983348418
 30
0.0
 10
64.6706780373
 20
102.918240023
 30
0.0
 10
64.5604371882
 20
102.7662800201
 30
0.0
 10
64.4856364406
 20
102.5938749755
 30
0.0
 10
64.464772375
 20
102.4712625756
 30
0.0
 10
64.4652176541
 20
102.4131400608
 30
0.0
  0
SPLINE
  5
2E8
100
AcDbEntity
  8
0
100
AcDbSpline
 62
7
  6
BYLAYER
 70
0
 71
3
 72
11
 73
7
 74
0
 42
0.0000001
 43
0.0000001
 44
0.0000000001
 40
0.0
 40
0.0
 40
0.0
 40
0.0
 40
0.260216953
 40
0.5198807658
 40
0.7671454981
 40
1.0
 40
1.0
 40
1.0
 40
1.0
 10
76.1141337896
 20
109.5504216862
 30
0.0
 10
76.2249450659
 20
109.6868835035
 30
0.0
 10
76.437087168
 20
109.9668652474
 30
0.0
 10
76.7548054605
 20
110.3763098429
 30
0.0
 10
77.0750665672
 20
110.760143092
 30
0.0
 10
77.2956588297
 20
110.9982535073
 30
0.0
 10
77.4067166638
 20
111.10965446
 30
0.0
  0
SPLINE
  5
2E9
100
AcDbEntity
  8
0
100
AcDbSpline
 62
7
  6
BYLAYER
 70
0
 71
3
 72
11
 73
7
 74
0
 42
0.0000001
 43
0.0000001
 44
0.0000000001
 40
0.0
 40
0.0
 40
0.0
 40
0.0
 40
0.1480687449
 40
0.2956773245
 40
0.5696077421
 40
1.0
 40
1.0
 40
1.0
 40
1.0
 10
77.2842804569
 20
109.158278895
 30
0.0
 10
77.3238962403
 20
109.2473800391
 30
0.0
 10
77.3852920169
 20
109.4333184668
 30
0.0
 10
77.4545350207
 20
109.8026106558
 30
0.0
 10
77.4835974031
 20
110.3648848176
 30
0.0
 10
77.4442164098
 20
110.8285447971
 30
0.0
 10
77.4067016317
 20
111.1094873632
 30
0.0
  0
SPLINE
  5
2EA
100
AcDbEntity
  8
0
100
AcDbSpline
 62
7
  6
BYLAYER
 70
0
 71
3
 72
11
 73
7
 74
0
 42
0.0000001
 43
0.0000001
 44
0.0000000001
 40
0.0
 40
0.0
 40
0.0
 40
0.0
 40
0.1963579922
 40
0.4571409501
 40
0.7414670302
 40
1.0
 40
1.0
 40
1.0
 40
1.0
 10
76.1141195737
 20
109.5504183472
 30
0.0
 10
76.1946714626
 20
109.5412521994
 30
0.0
 10
76.3801127728
 20
109.503039007
 30
0.0
 10
76.6736483225
 20
109.4155182914
 30
0.0
 10
76.9844490676
 20
109.2985626695
 30
0.0
 10
77.1888689945
 20
109.2061436589
 30
0.0
 10
77.2842794368
 20
109.1582815866
 30
0.0
  0
SPLINE
  5
2EB
100
AcDbEntity
  8
0
100
AcDbSpline
 62
7
  6
BYLAYER
 70
0
 71
3
 72
9
 73
5
 74
0
 42
0.0000001
 43
0.0000001
 44
0.0000000001
 40
0.0
 40
0.0
 40
0.0
 40
0.0
 40
0.5214843271
 40
1.0
 40
1.0
 40
1.0
 40
1.0
 10
77.2842910772
 20
109.1582774347
 30
0.0
 10
77.2184350411
 20
109.0100100997
 30
0.0
 10
77.116376358
 20
108.7142053254
 30
0.0
 10
77.0737880343
 20
108.4029506081
 30
0.0
 10
77.073216297
 20
108.254084285
 30
0.0
  0
SPLINE
  5
2EC
100
AcDbEntity
  8
0
100
AcDbSpline
 62
7
  6
BYLAYER
 70
0
 71
3
 72
10
 73
6
 74
0
 42
0.0000001
 43
0.0000001
 44
0.0000000001
 40
0.0
 40
0.0
 40
0.0
 40
0.0
 40
0.2599175544
 40
0.5406060714
 40
1.0
 40
1.0
 40
1.0
 40
1.0
 10
84.7301653934
 20
105.8719073221
 30
0.0
 10
84.7305576723
 20
106.1171675796
 30
0.0
 10
84.7426219259
 20
106.6273165946
 30
0.0
 10
84.7913905935
 20
107.5694904944
 30
0.0
 10
84.8542044042
 20
108.266293251
 30
0.0
 10
84.9221750765
 20
108.6944195047
 30
0.0
  0
SPLINE
  5
2ED
100
AcDbEntity
  8
0
100
AcDbSpline
 62
7
  6
BYLAYER
 70
0
 71
3
 72
9
 73
5
 74
0
 42
0.0000001
 43
0.0000001
 44
0.0000000001
 40
0.0
 40
0.0
 40
0.0
 40
0.0
 40
0.2454614555
 40
1.0
 40
1.0
 40
1.0
 40
1.0
 10
77.073197078
 20
108.2540750307
 30
0.0
 10
77.6891122225
 20
108.0274956966
 30
0.0
 10
80.2103944638
 20
107.1374400253
 30
0.0
 10
82.7770947047
 20
106.3770795062
 30
0.0
 10
84.7301653956
 20
105.8719073215
 30
0.0
  0
SPLINE
  5
2EE
100
AcDbEntity
  8
0
100
AcDbSpline
 62
7
  6
BYLAYER
 70
0
 71
3
 72
11
 73
7
 74
0
 42
0.0000001
 43
0.0000001
 44
0.0000000001
 40
0.0
 40
0.0
 40
0.0
 40
0.0
 40
0.2245961035
 40
0.4884683339
 40
0.7587773386
 40
1.0
 40
1.0
 40
1.0
 40
1.0
 10
75.8288442896
 20
108.1825895866
 30
0.0
 10
75.9123692274
 20
108.2292654138
 30
0.0
 10
76.1091781011
 20
108.3039989005
 30
0.0
 10
76.4307363732
 20
108.3527275336
 30
0.0
 10
76.7627307416
 20
108.3394721275
 30
0.0
 10
76.9766093785
 20
108.2891415787
 30
0.0
 10
77.0732106311
 20
108.2540860419
 30
0.0
  0
SPLINE
  5
2EF
100
AcDbEntity
  8
0
100
AcDbSpline
 62
7
  6
BYLAYER
 70
0
 71
3
 72
9
 73
5
 74
0
 42
0.0000001
 43
0.0000001
 44
0.0000000001
 40
0.0
 40
0.0
 40
0.0
 40
0.0
 40
0.5214649088
 40
1.0
 40
1.0
 40
1.0
 40
1.0
 10
76.1141389688
 20
109.5504487804
 30
0.0
 10
76.0254519957
 20
109.3233882496
 30
0.0
 10
75.8876267256
 20
108.8744562681
 30
0.0
 10
75.8302463186
 20
108.4068937991
 30
0.0
 10
75.8288314778
 20
108.1832004097
 30
0.0
  0
SPLINE
  5
2F0
100
AcDbEntity
  8
0
100
AcDbSpline
 62
7
  6
BYLAYER
 70
0
 71
3
 72
11
 73
7
 74
0
 42
0.0000001
 43
0.0000001
 44
0.0000000001
 40
0.0
 40
0.0
 40
0.0
 40
0.0
 40
0.2312185527
 40
0.4875460222
 40
0.750486505
 40
1.0
 40
1.0
 40
1.0
 40
1.0
 10
75.7298350891
 20
92.1903091841
 30
0.0
 10
75.8156510481
 20
92.2384850848
 30
0.0
 10
76.0121299788
 20
92.3127633158
 30
0.0
 10
76.3296419467
 20
92.3613090285
 30
0.0
 10
76.6584496802
 20
92.3503078594
 30
0.0
 10
76.8729912749
 20
92.3013995583
 30
0.0
 10
76.972939878
 20
92.2654984712
 30
0.0
  0
LINE
  5
2F1
100
AcDbEntity
  8
0
100
AcDbLine
 62
7
  6
BYLAYER
 10
77.0734376523
 20
108.2542857505
 11
76.972939878
 21
92.2654984712
  0
SPLINE
  5
2F2
100
AcDbEntity
  8
0
100
AcDbSpline
 62
7
  6
BYLAYER
 70
0
 71
3
 72
10
 73
6
 74
0
 42
0.0000001
 43
0.0000001
 44
0.0000000001
 40
0.0
 40
0.0
 40
0.0
 40
0.0
 40
0.2500086094
 40
0.6249917414
 40
1.0
 40
1.0
 40
1.0
 40
1.0
 10
84.8084387169
 20
89.8442159523
 30
0.0
 10
84.801915675
 20
91.1799029126
 30
0.0
 10
84.7842950005
 20
94.5189547392
 30
0.0
 10
84.7609030122
 20
99.8615316605
 30
0.0
 10
84.7399308347
 20
103.8684016992
 30
0.0
 10
84.7301654677
 20
105.8719073609
 30
0.0
  0
SPLINE
  5
2F3
100
AcDbEntity
  8
0
100
AcDbSpline
 62
7
  6
BYLAYER
 70
0
 71
3
 72
12
 73
8
 74
0
 42
0.0000001
 43
0.0000001
 44
0.0000000001
 40
0.0
 40
0.0
 40
0.0
 40
0.0
 40
0.1111599906
 40
0.2303016613
 40
0.4193265689
 40
0.6143599857
 40
1.0
 40
1.0
 40
1.0
 40
1.0
 10
76.9731616587
 20
92.2656612603
 30
0.0
 10
76.9723024837
 20
92.2341769885
 30
0.0
 10
76.959653308
 20
92.1690068873
 30
0.0
 10
76.9066631813
 20
92.0615387207
 30
0.0
 10
76.8108986179
 20
91.9532682014
 30
0.0
 10
76.6335925436
 20
91.824922284
 30
0.0
 10
76.4754654892
 20
91.764929937
 30
0.0
 10
76.3679578312
 20
91.7454011497
 30
0.0
  0
SPLINE
  5
2F4
100
AcDbEntity
  8
0
100
AcDbSpline
 62
7
  6
BYLAYER
 70
0
 71
3
 72
9
 73
5
 74
0
 42
0.0000001
 43
0.0000001
 44
0.0000000001
 40
0.0
 40
0.0
 40
0.0
 40
0.0
 40
0.2544757489
 40
1.0
 40
1.0
 40
1.0
 40
1.0
 10
84.8084483286
 20
89.8442282134
 30
0.0
 10
84.1343652427
 20
90.0167399131
 30
0.0
 10
81.4937136339
 20
90.7263213048
 30
0.0
 10
78.8871016022
 20
91.5640710666
 30
0.0
 10
76.9731686001
 20
92.2656587158
 30
0.0
  0
SPLINE
  5
2F5
100
AcDbEntity
  8
0
100
AcDbSpline
 62
7
  6
BYLAYER
 70
0
 71
3
 72
9
 73
5
 74
0
 42
0.0000001
 43
0.0000001
 44
0.0000000001
 40
0.0
 40
0.0
 40
0.0
 40
0.0
 40
0.2546942102
 40
1.0
 40
1.0
 40
1.0
 40
1.0
 10
84.5835711463
 20
89.1849431998
 30
0.0
 10
83.8756689189
 20
89.3663069447
 30
0.0
 10
81.1052959555
 20
90.1130157768
 30
0.0
 10
78.3722220509
 20
90.9998973886
 30
0.0
 10
76.3679578312
 20
91.7454011497
 30
0.0
  0
SPLINE
  5
2F6
100
AcDbEntity
  8
0
100
AcDbSpline
 62
7
  6
BYLAYER
 70
0
 71
3
 72
18
 73
14
 74
0
 42
0.0000001
 43
0.0000001
 44
0.0000000001
 40
0.0
 40
0.0
 40
0.0
 40
0.0
 40
0.110027454
 40
0.1666848206
 40
0.2257456907
 40
0.2863855306
 40
0.3475201077
 40
0.4098152724
 40
0.4735534739
 40
0.6034145807
 40
0.734934628
 40
0.8676218042
 40
1.0
 40
1.0
 40
1.0
 40
1.0
 10
75.7301496222
 20
92.1900380908
 30
0.0
 10
75.7298078328
 20
92.1590856542
 30
0.0
 10
75.7387395039
 20
92.1115369643
 30
0.0
 10
75.7667973742
 20
92.0544621305
 30
0.0
 10
75.7924950487
 20
92.0119705292
 30
0.0
 10
75.8226949126
 20
91.9708391138
 30
0.0
 10
75.8600614998
 20
91.9346300138
 30
0.0
 10
75.9026644912
 20
91.903545898
 30
0.0
 10
75.9629913464
 20
91.8643085169
 30
0.0
 10
76.0426204978
 20
91.8185985985
 30
0.0
 10
76.1477067167
 20
91.7817540738
 30
0.0
 10
76.2565665776
 20
91.7567440434
 30
0.0
 10
76.3307813861
 20
91.7476152498
 30
0.0
 10
76.3679578312
 20
91.7454011497
 30
0.0
  0
SPLINE
  5
2F7
100
AcDbEntity
  8
0
100
AcDbSpline
 62
7
  6
BYLAYER
 70
0
 71
3
 72
11
 73
7
 74
0
 42
0.0000001
 43
0.0000001
 44
0.0000000001
 40
0.0
 40
0.0
 40
0.0
 40
0.0
 40
0.2284071486
 40
0.5010916773
 40
0.7731366006
 40
1.0
 40
1.0
 40
1.0
 40
1.0
 10
84.9370807506
 20
88.5797215225
 30
0.0
 10
84.9362516766
 20
88.634979698
 30
0.0
 10
84.9143085915
 20
88.755994599
 30
0.0
 10
84.8378080388
 20
88.9283721196
 30
0.0
 10
84.7255075182
 20
89.0794192052
 30
0.0
 10
84.631107687
 20
89.1574933339
 30
0.0
 10
84.5835705156
 20
89.1849382897
 30
0.0
  0
SPLINE
  5
2F8
100
AcDbEntity
  8
0
100
AcDbSpline
 62
7
  6
BYLAYER
 70
0
 71
3
 72
11
 73
7
 74
0
 42
0.0000001
 43
0.0000001
 44
0.0000000001
 40
0.0
 40
0.0
 40
0.0
 40
0.0
 40
0.2254626877
 40
0.497204937
 40
0.7704964273
 40
1.0
 40
1.0
 40
1.0
 40
1.0
 10
84.9848083979
 20
88.6089227197
 30
0.0
 10
84.9811901984
 20
88.6624413392
 30
0.0
 10
84.9538294001
 20
88.7791792703
 30
0.0
 10
84.8725429122
 20
88.9449086477
 30
0.0
 10
84.7586010805
 20
89.0913495454
 30
0.0
 10
84.6653559374
 20
89.1685642174
 30
0.0
 10
84.6185497455
 20
89.1966814268
 30
0.0
  0
SPLINE
  5
2F9
100
AcDbEntity
  8
0
100
AcDbSpline
 62
7
  6
BYLAYER
 70
0
 71
3
 72
9
 73
5
 74
0
 42
0.0000001
 43
0.0000001
 44
0.0000000001
 40
0.0
 40
0.0
 40
0.0
 40
0.0
 40
0.2672175632
 40
1.0
 40
1.0
 40
1.0
 40
1.0
 10
64.1931441808
 20
102.3317905928
 30
0.0
 10
64.2184118076
 20
102.334305493
 30
0.0
 10
64.3123686588
 20
102.3479175987
 30
0.0
 10
64.4049136187
 20
102.3783245143
 30
0.0
 10
64.4652176481
 20
102.413140854
 30
0.0
  0
SPLINE
  5
2FA
100
AcDbEntity
  8
0
100
AcDbSpline
 62
7
  6
BYLAYER
 70
0
 71
3
 72
11
 73
7
 74
0
 42
0.0000001
 43
0.0000001
 44
0.0000000001
 40
0.0
 40
0.0
 40
0.0
 40
0.0
 40
0.2324699003
 40
0.4895550796
 40
0.752190502
 40
1.0
 40
1.0
 40
1.0
 40
1.0
 10
64.4621426595
 20
103.636096789
 30
0.0
 10
64.3739975409
 20
103.5852074215
 30
0.0
 10
64.2051329348
 20
103.4485850858
 30
0.0
 10
63.9993667783
 20
103.1888545125
 30
0.0
 10
63.8447693507
 20
102.8881998925
 30
0.0
 10
63.7842753871
 20
102.670672891
 30
0.0
 10
63.7691161206
 20
102.5632405258
 30
0.0
  0
SPLINE
  5
2FB
100
AcDbEntity
  8
0
100
AcDbSpline
 62
7
  6
BYLAYER
 70
0
 71
3
 72
11
 73
7
 74
0
 42
0.0000001
 43
0.0000001
 44
0.0000000001
 40
0.0
 40
0.0
 40
0.0
 40
0.0
 40
0.2377213835
 40
0.5004123443
 40
0.7629578574
 40
1.0
 40
1.0
 40
1.0
 40
1.0
 10
64.8156840393
 20
103.0273086068
 30
0.0
 10
64.815247562
 20
103.0851034787
 30
0.0
 10
64.7930060094
 20
103.2066913707
 30
0.0
 10
64.7170894108
 20
103.3774308372
 30
0.0
 10
64.6065606813
 20
103.5278864153
 30
0.0
 10
64.5120532572
 20
103.6072815417
 30
0.0
 10
64.4621427374
 20
103.6360967419
 30
0.0
  0
SPLINE
  5
2FC
100
AcDbEntity
  8
0
100
AcDbSpline
 62
7
  6
BYLAYER
 70
0
 71
3
 72
11
 73
7
 74
0
 42
0.0000001
 43
0.0000001
 44
0.0000000001
 40
0.0
 40
0.0
 40
0.0
 40
0.0
 40
0.261906109
 40
0.5199904757
 40
0.7689354777
 40
1.0
 40
1.0
 40
1.0
 40
1.0
 10
85.6531660883
 20
89.4012900322
 30
0.0
 10
85.6090775548
 20
89.32129874
 30
0.0
 10
85.5168431792
 20
89.1649550204
 30
0.0
 10
85.3589356936
 20
88.9474677497
 30
0.0
 10
85.1836335877
 20
88.7584167164
 30
0.0
 10
85.0532436842
 20
88.6514088313
 30
0.0
 10
84.9847741348
 20
88.6089207452
 30
0.0
  0
SPLINE
  5
2FD
100
AcDbEntity
  8
0
100
AcDbSpline
 62
7
  6
BYLAYER
 70
0
 71
3
 72
10
 73
6
 74
0
 42
0.0000001
 43
0.0000001
 44
0.0000000001
 40
0.0
 40
0.0
 40
0.0
 40
0.0
 40
0.2425273304
 40
0.4885629368
 40
1.0
 40
1.0
 40
1.0
 40
1.0
 10
85.9205411029
 20
89.9637092854
 30
0.0
 10
85.9009116476
 20
89.9173367516
 30
0.0
 10
85.8592125714
 20
89.8248468839
 30
0.0
 10
85.7739059186
 20
89.6355704002
 30
0.0
 10
85.7040383656
 20
89.4945013382
 30
0.0
 10
85.6531815465
 20
89.4012819351
 30
0.0
  0
SPLINE
  5
2FE
100
AcDbEntity
  8
0
100
AcDbSpline
 62
7
  6
BYLAYER
 70
0
 71
3
 72
9
 73
5
 74
0
 42
0.0000001
 43
0.0000001
 44
0.0000000001
 40
0.0
 40
0.0
 40
0.0
 40
0.0
 40
0.5010499993
 40
1.0
 40
1.0
 40
1.0
 40
1.0
 10
106.8364600797
 20
124.6731355524
 30
0.0
 10
106.2731640547
 20
125.1104879535
 30
0.0
 10
105.1521386134
 20
125.9874828098
 30
0.0
 10
104.0348858353
 20
126.8692902938
 30
0.0
 10
103.4742862457
 20
127.3052415017
 30
0.0
  0
SPLINE
  5
2FF
100
AcDbEntity
  8
0
100
AcDbSpline
 62
7
  6
BYLAYER
 70
0
 71
3
 72
9
 73
5
 74
0
 42
0.0000001
 43
0.0000001
 44
0.0000000001
 40
0.0
 40
0.0
 40
0.0
 40
0.0
 40
0.2452337322
 40
1.0
 40
1.0
 40
1.0
 40
1.0
 10
77.4064742893
 20
111.1095728579
 30
0.0
 10
78.009760129
 20
110.8800543973
 30
0.0
 10
80.4824751952
 20
109.9776539172
 30
0.0
 10
83.0028072043
 20
109.2068431631
 30
0.0
 10
84.9221750765
 20
108.6944195047
 30
0.0
  0
SPLINE
  5
300
100
AcDbEntity
  8
0
100
AcDbSpline
 62
7
  6
BYLAYER
 70
0
 71
3
 72
9
 73
5
 74
0
 42
0.0000001
 43
0.0000001
 44
0.0000000001
 40
0.0
 40
0.0
 40
0.0
 40
0.0
 40
0.2421145521
 40
1.0
 40
1.0
 40
1.0
 40
1.0
 10
60.2005247827
 20
122.9671480644
 30
0.0
 10
60.5048382933
 20
122.587214976
 30
0.0
 10
61.7996201754
 20
121.0484712676
 30
0.0
 10
63.2376310099
 20
119.63223066
 30
0.0
 10
64.3837426179
 20
118.6281036867
 30
0.0
  0
SPLINE
  5
301
100
AcDbEntity
  8
0
100
AcDbSpline
 62
7
  6
BYLAYER
 70
0
 71
3
 72
9
 73
5
 74
0
 42
0.0000001
 43
0.0000001
 44
0.0000000001
 40
0.0
 40
0.0
 40
0.0
 40
0.0
 40
0.249265737
 40
1.0
 40
1.0
 40
1.0
 40
1.0
 10
92.4360930988
 20
133.6784319861
 30
0.0
 10
92.0575378807
 20
133.8403511766
 30
0.0
 10
90.5377974173
 20
134.4874548875
 30
0.0
 10
89.016175726
 20
135.1301535408
 30
0.0
 10
87.8766953321
 20
135.6193258353
 30
0.0
  0
SPLINE
  5
302
100
AcDbEntity
  8
0
100
AcDbSpline
 62
7
  6
BYLAYER
 70
0
 71
3
 72
9
 73
5
 74
0
 42
0.0000001
 43
0.0000001
 44
0.0000000001
 40
0.0
 40
0.0
 40
0.0
 40
0.0
 40
0.5049930312
 40
1.0
 40
1.0
 40
1.0
 40
1.0
 10
104.623475216
 20
127.9686890058
 30
0.0
 10
106.3377817999
 20
128.9579976526
 30
0.0
 10
109.8787782296
 20
130.6757746983
 30
0.0
 10
113.6415184464
 20
131.8348814185
 30
0.0
 10
115.5348065685
 20
132.258712922
 30
0.0
  0
SPLINE
  5
303
100
AcDbEntity
  8
0
100
AcDbSpline
 62
7
  6
BYLAYER
 70
0
 71
3
 72
13
 73
9
 74
0
 42
0.0000001
 43
0.0000001
 44
0.0000000001
 40
0.0
 40
0.0
 40
0.0
 40
0.0
 40
0.100235177
 40
0.2134784048
 40
0.4712446235
 40
0.7459470166
 40
0.8781564495
 40
1.0
 40
1.0
 40
1.0
 40
1.0
 10
84.922177574
 20
108.6944202018
 30
0.0
 10
84.9842200071
 20
108.6200089066
 30
0.0
 10
85.1054341964
 20
108.4523365184
 30
0.0
 10
85.3341787184
 20
108.0578681487
 30
0.0
 10
85.5782494798
 20
107.4807999831
 30
0.0
 10
85.7492038468
 20
106.8592122733
 30
0.0
 10
85.8279026158
 20
106.353786807
 30
0.0
 10
85.8447584732
 20
106.1083211267
 30
0.0
 10
85.8459381511
 20
105.9905583841
 30
0.0
  0
SPLINE
  5
304
100
AcDbEntity
  8
0
100
AcDbSpline
 62
7
  6
BYLAYER
 70
0
 71
3
 72
11
 73
7
 74
0
 42
0.0000001
 43
0.0000001
 44
0.0000000001
 40
0.0
 40
0.0
 40
0.0
 40
0.0
 40
0.2497817957
 40
0.5182627286
 40
0.7767187796
 40
1.0
 40
1.0
 40
1.0
 40
1.0
 10
84.7302115074
 20
105.8719626549
 30
0.0
 10
84.822719806
 20
105.8490423501
 30
0.0
 10
85.0194441304
 20
105.8196548762
 30
0.0
 10
85.317127076
 20
105.8251400763
 30
0.0
 10
85.5996401933
 20
105.879437774
 30
0.0
 10
85.7717442936
 20
105.9487691234
 30
0.0
 10
85.8459725873
 20
105.9905803689
 30
0.0
  0
SPLINE
  5
305
100
AcDbEntity
  8
0
100
AcDbSpline
 62
7
  6
BYLAYER
 70
0
 71
3
 72
11
 73
7
 74
0
 42
0.0000001
 43
0.0000001
 44
0.0000000001
 40
0.0
 40
0.0
 40
0.0
 40
0.0
 40
0.2561466855
 40
0.517908502
 40
0.7702081876
 40
1.0
 40
1.0
 40
1.0
 40
1.0
 10
84.808451331
 20
89.8442362681
 30
0.0
 10
84.9028645897
 20
89.8195472417
 30
0.0
 10
85.099133946
 20
89.7891496485
 30
0.0
 10
85.3939549082
 20
89.7937877344
 30
0.0
 10
85.6733743934
 20
89.849054885
 30
0.0
 10
85.8450119122
 20
89.9196557842
 30
0.0
 10
85.9205899217
 20
89.9638425522
 30
0.0
  0
SPLINE
  5
306
100
AcDbEntity
  8
0
100
AcDbSpline
 62
7
  6
BYLAYER
 70
0
 71
3
 72
11
 73
7
 74
0
 42
0.0000001
 43
0.0000001
 44
0.0000000001
 40
0.0
 40
0.0
 40
0.0
 40
0.0
 40
0.2552757033
 40
0.5082945571
 40
0.7570957839
 40
1.0
 40
1.0
 40
1.0
 40
1.0
 10
85.3576428611
 20
89.5596820609
 30
0.0
 10
85.4096751442
 20
89.5877761931
 30
0.0
 10
85.5111977706
 20
89.6475854524
 30
0.0
 10
85.6577237626
 20
89.7440603014
 30
0.0
 10
85.795829361
 20
89.8477285537
 30
0.0
 10
85.8804054129
 20
89.9242921552
 30
0.0
 10
85.9205127979
 20
89.9637552019
 30
0.0
  0
SPLINE
  5
307
100
AcDbEntity
  8
0
100
AcDbSpline
 62
7
  6
BYLAYER
 70
0
 71
3
 72
9
 73
5
 74
0
 42
0.0000001
 43
0.0000001
 44
0.0000000001
 40
0.0
 40
0.0
 40
0.0
 40
0.0
 40
0.4954028732
 40
1.0
 40
1.0
 40
1.0
 40
1.0
 10
84.6185504871
 20
89.196697033
 30
0.0
 10
84.7461708417
 20
89.2438196743
 30
0.0
 10
84.9941417667
 20
89.3636586328
 30
0.0
 10
85.2362805601
 20
89.4928088106
 30
0.0
 10
85.3576428611
 20
89.5596820609
 30
0.0
  0
SPLINE
  5
308
100
AcDbEntity
  8
0
100
AcDbSpline
 62
7
  6
BYLAYER
 70
0
 71
3
 72
11
 73
7
 74
0
 42
0.0000001
 43
0.0000001
 44
0.0000000001
 40
0.0
 40
0.0
 40
0.0
 40
0.0
 40
0.2375883242
 40
0.5176936908
 40
0.787834034
 40
1.0
 40
1.0
 40
1.0
 40
1.0
 10
84.808379997
 20
89.8442501697
 30
0.0
 10
84.8079170974
 20
89.7902166295
 30
0.0
 10
84.7963018502
 20
89.6725653856
 30
0.0
 10
84.7566050663
 20
89.497397933
 30
0.0
 10
84.6978101523
 20
89.3338678439
 30
0.0
 10
84.646208506
 20
89.2362365442
 30
0.0
 10
84.6185500488
 20
89.1966964065
 30
0.0
  0
SPLINE
  5
309
100
AcDbEntity
  8
0
100
AcDbSpline
 62
7
  6
BYLAYER
 70
0
 71
3
 72
9
 73
5
 74
0
 42
0.0000001
 43
0.0000001
 44
0.0000000001
 40
0.0
 40
0.0
 40
0.0
 40
0.0
 40
0.1972537457
 40
1.0
 40
1.0
 40
1.0
 40
1.0
 10
85.6531567727
 20
89.4012743425
 30
0.0
 10
85.6336291913
 20
89.4115053818
 30
0.0
 10
85.5348323195
 20
89.4637547742
 30
0.0
 10
85.4364887605
 20
89.5168563137
 30
0.0
 10
85.3576585659
 20
89.5596910865
 30
0.0
  0
SPLINE
  5
30A
100
AcDbEntity
  8
0
100
AcDbSpline
 62
7
  6
BYLAYER
 70
0
 71
3
 72
10
 73
6
 74
0
 42
0.0000001
 43
0.0000001
 44
0.0000000001
 40
0.0
 40
0.0
 40
0.0
 40
0.0
 40
0.5065389382
 40
0.7564774381
 40
1.0
 40
1.0
 40
1.0
 40
1.0
 10
103.4742838982
 20
127.3052404955
 30
0.0
 10
103.8376601954
 20
127.2898177546
 30
0.0
 10
104.3818142567
 20
127.1978165033
 30
0.0
 10
105.0498875595
 20
126.9295317311
 30
0.0
 10
105.3537290514
 20
126.7417833507
 30
0.0
 10
105.4912266411
 20
126.6337644546
 30
0.0
  0
SPLINE
  5
30B
100
AcDbEntity
  8
0
100
AcDbSpline
 62
7
  6
BYLAYER
 70
0
 71
3
 72
10
 73
6
 74
0
 42
0.0000001
 43
0.0000001
 44
0.0000000001
 40
0.0
 40
0.0
 40
0.0
 40
0.0
 40
0.22798386
 40
0.4755149027
 40
1.0
 40
1.0
 40
1.0
 40
1.0
 10
104.6234462504
 20
127.9687057285
 30
0.0
 10
104.7321267151
 20
127.9059604525
 30
0.0
 10
104.9461660066
 20
127.752522478
 30
0.0
 10
105.3399149136
 20
127.3661253975
 30
0.0
 10
105.5806586909
 20
127.0082245828
 30
0.0
 10
105.7114062956
 20
126.7508279837
 30
0.0
  0
SPLINE
  5
30C
100
AcDbEntity
  8
0
100
AcDbSpline
 62
7
  6
BYLAYER
 70
0
 71
3
 72
9
 73
5
 74
0
 42
0.0000001
 43
0.0000001
 44
0.0000000001
 40
0.0
 40
0.0
 40
0.0
 40
0.0
 40
0.2525681154
 40
1.0
 40
1.0
 40
1.0
 40
1.0
 10
105.7114062956
 20
126.7508279837
 30
0.0
 10
105.7263823337
 20
126.7213453689
 30
0.0
 10
105.7839916068
 20
126.6037678799
 30
0.0
 10
105.8348771337
 20
126.4828759919
 30
0.0
 10
105.8686256053
 20
126.3910198249
 30
0.0
  0
SPLINE
  5
30D
100
AcDbEntity
  8
0
100
AcDbSpline
 62
7
  6
BYLAYER
 70
0
 71
3
 72
13
 73
9
 74
0
 42
0.0000001
 43
0.0000001
 44
0.0000000001
 40
0.0
 40
0.0
 40
0.0
 40
0.0
 40
0.1117966766
 40
0.228716339
 40
0.3504620688
 40
0.476114415
 40
0.7350843372
 40
1.0
 40
1.0
 40
1.0
 40
1.0
 10
109.6494606902
 20
127.2985118047
 30
0.0
 10
109.5432331581
 20
127.2381257763
 30
0.0
 10
109.3400963202
 20
127.0884079145
 30
0.0
 10
109.0819336621
 20
126.8028194217
 30
0.0
 10
108.8651096239
 20
126.4671547456
 30
0.0
 10
108.6264480329
 20
125.9665263708
 30
0.0
 10
108.421641854
 20
125.2828616433
 30
0.0
 10
108.3304859032
 20
124.7165080499
 30
0.0
 10
108.2978211112
 20
124.4288090306
 30
0.0
  0
SPLINE
  5
30E
100
AcDbEntity
  8
0
100
AcDbSpline
 62
7
  6
BYLAYER
 70
0
 71
3
 72
9
 73
5
 74
0
 42
0.0000001
 43
0.0000001
 44
0.0000000001
 40
0.0
 40
0.0
 40
0.0
 40
0.0
 40
0.5024163219
 40
1.0
 40
1.0
 40
1.0
 40
1.0
 10
115.5346927086
 20
132.2587786576
 30
0.0
 10
115.8039458845
 20
132.2163078355
 30
0.0
 10
116.3336808158
 20
132.087164365
 30
0.0
 10
116.8339457688
 20
131.867087804
 30
0.0
 10
117.0677434856
 20
131.7321168025
 30
0.0
  0
SPLINE
  5
30F
100
AcDbEntity
  8
0
100
AcDbSpline
 62
7
  6
BYLAYER
 70
0
 71
3
 72
11
 73
7
 74
0
 42
0.0000001
 43
0.0000001
 44
0.0000000001
 40
0.0
 40
0.0
 40
0.0
 40
0.0
 40
0.3547694538
 40
0.6394633923
 40
0.8526195306
 40
1.0
 40
1.0
 40
1.0
 40
1.0
 10
103.3019565029
 20
139.3211924257
 30
0.0
 10
103.2942326511
 20
139.3774844188
 30
0.0
 10
103.2767809208
 20
139.4784084018
 30
0.0
 10
103.2437278561
 20
139.6114029377
 30
0.0
 10
103.2067768652
 20
139.7075561035
 30
0.0
 10
103.1699248799
 20
139.7558391837
 30
0.0
 10
103.1494852213
 20
139.767645188
 30
0.0
  0
SPLINE
  5
310
100
AcDbEntity
  8
0
100
AcDbSpline
 62
7
  6
BYLAYER
 70
0
 71
3
 72
10
 73
6
 74
0
 42
0.0000001
 43
0.0000001
 44
0.0000000001
 40
0.0
 40
0.0
 40
0.0
 40
0.0
 40
0.5263995447
 40
0.7701645894
 40
1.0
 40
1.0
 40
1.0
 40
1.0
 10
93.5848520688
 20
134.3416968746
 30
0.0
 10
95.2447137257
 20
135.3000945002
 30
0.0
 10
97.704383553
 20
136.6502550755
 30
0.0
 10
100.967170639
 20
138.2672260262
 30
0.0
 10
102.535023315
 20
138.9861194901
 30
0.0
 10
103.3018426626
 20
139.32125815
 30
0.0
  0
SPLINE
  5
311
100
AcDbEntity
  8
0
100
AcDbSpline
 62
7
  6
BYLAYER
 70
0
 71
3
 72
9
 73
5
 74
0
 42
0.0000001
 43
0.0000001
 44
0.0000000001
 40
0.0
 40
0.0
 40
0.0
 40
0.0
 40
0.2336615993
 40
1.0
 40
1.0
 40
1.0
 40
1.0
 10
62.5042850657
 20
117.6741134391
 30
0.0
 10
62.4969612339
 20
117.6803011279
 30
0.0
 10
62.4651687725
 20
117.7062511776
 30
0.0
 10
62.4319017638
 20
117.7303565589
 30
0.0
 10
62.4059429667
 20
117.7481029019
 30
0.0
  0
SPLINE
  5
312
100
AcDbEntity
  8
0
100
AcDbSpline
 62
7
  6
BYLAYER
 70
0
 71
3
 72
11
 73
7
 74
0
 42
0.0000001
 43
0.0000001
 44
0.0000000001
 40
0.0
 40
0.0
 40
0.0
 40
0.0
 40
0.2177727701
 40
0.4509280213
 40
0.7102223029
 40
1.0
 40
1.0
 40
1.0
 40
1.0
 10
117.9558832262
 20
116.703178334
 30
0.0
 10
117.9558832241
 20
116.8631421941
 30
0.0
 10
118.0149586339
 20
117.196596096
 30
0.0
 10
118.2677504846
 20
117.6610992686
 30
0.0
 10
118.6672622719
 20
118.0811403653
 30
0.0
 10
119.0016536492
 20
118.3113626262
 30
0.0
 10
119.1859915073
 20
118.4177895029
 30
0.0
  0
SPLINE
  5
313
100
AcDbEntity
  8
0
100
AcDbSpline
 62
7
  6
BYLAYER
 70
0
 71
3
 72
9
 73
5
 74
0
 42
0.0000001
 43
0.0000001
 44
0.0000000001
 40
0.0
 40
0.0
 40
0.0
 40
0.0
 40
0.4927000759
 40
1.0
 40
1.0
 40
1.0
 40
1.0
 10
78.2497394144
 20
89.8028042503
 30
0.0
 10
78.1760317375
 20
89.8453613571
 30
0.0
 10
78.0104530468
 20
89.9042282553
 30
0.0
 10
77.8373758818
 20
89.9223755641
 30
0.0
 10
77.7497425629
 20
89.9223753535
 30
0.0
  0
SPLINE
  5
314
100
AcDbEntity
  8
0
100
AcDbSpline
 62
7
  6
BYLAYER
 70
0
 71
3
 72
16
 73
12
 74
0
 42
0.0000001
 43
0.0000001
 44
0.0000000001
 40
0.0
 40
0.0
 40
0.0
 40
0.0
 40
0.1412974009
 40
0.2886329455
 40
0.4355354765
 40
0.5756171402
 40
0.7034625103
 40
0.8157436369
 40
0.9126527189
 40
0.957018533
 40
1.0
 40
1.0
 40
1.0
 40
1.0
 10
112.5026126939
 20
115.3884884299
 30
0.0
 10
112.7162208285
 20
115.4560706424
 30
0.0
 10
113.1656145106
 20
115.5547738142
 30
0.0
 10
113.8571350199
 20
115.5989636381
 30
0.0
 10
114.5460308844
 20
115.5416613399
 30
0.0
 10
115.1882124376
 20
115.3865420321
 30
0.0
 10
115.7437518435
 20
115.1425633167
 30
0.0
 10
116.1790144961
 20
114.8236724173
 30
0.0
 10
116.4249244247
 20
114.4938834613
 30
0.0
 10
116.5210791718
 20
114.2158733501
 30
0.0
 10
116.537008548
 20
114.0769104409
 30
0.0
 10
116.536999236
 20
114.0087581112
 30
0.0
  0
SPLINE
  5
315
100
AcDbEntity
  8
0
100
AcDbSpline
 62
7
  6
BYLAYER
 70
0
 71
3
 72
9
 73
5
 74
0
 42
0.0000001
 43
0.0000001
 44
0.0000000001
 40
0.0
 40
0.0
 40
0.0
 40
0.0
 40
0.5059223657
 40
1.0
 40
1.0
 40
1.0
 40
1.0
 10
115.5073210978
 20
117.0287603066
 30
0.0
 10
114.969860271
 20
117.1038959406
 30
0.0
 10
113.8904178734
 20
117.1442756722
 30
0.0
 10
112.8220847655
 20
116.9773197966
 30
0.0
 10
112.3111258194
 20
116.8366013334
 30
0.0
  0
SPLINE
  5
316
100
AcDbEntity
  8
0
100
AcDbSpline
 62
7
  6
BYLAYER
 70
0
 71
3
 72
11
 73
7
 74
0
 42
0.0000001
 43
0.0000001
 44
0.0000000001
 40
0.0
 40
0.0
 40
0.0
 40
0.0
 40
0.289702809
 40
0.549088757
 40
0.7822160314
 40
1.0
 40
1.0
 40
1.0
 40
1.0
 10
120.8123250337
 20
120.0915874744
 30
0.0
 10
120.724568631
 20
120.0409215941
 30
0.0
 10
120.5499928722
 20
119.9578708359
 30
0.0
 10
120.2816661677
 20
119.893072366
 30
0.0
 10
120.029896935
 20
119.8994449654
 30
0.0
 10
119.8783181018
 20
119.9544527632
 30
0.0
 10
119.8123469905
 20
119.992540348
 30
0.0
  0
SPLINE
  5
317
100
AcDbEntity
  8
0
100
AcDbSpline
 62
7
  6
BYLAYER
 70
0
 71
3
 72
9
 73
5
 74
0
 42
0.0000001
 43
0.0000001
 44
0.0000000001
 40
0.0
 40
0.0
 40
0.0
 40
0.0
 40
0.4775794542
 40
1.0
 40
1.0
 40
1.0
 40
1.0
 10
120.4471980904
 20
120.3023888445
 30
0.0
 10
120.2867932024
 20
120.3949965546
 30
0.0
 10
119.9731216781
 20
120.6280608274
 30
0.0
 10
119.705484579
 20
120.911183457
 30
0.0
 10
119.5776639328
 20
121.0683851212
 30
0.0
  0
SPLINE
  5
318
100
AcDbEntity
  8
0
100
AcDbSpline
 62
7
  6
BYLAYER
 70
0
 71
3
 72
11
 73
7
 74
0
 42
0.0000001
 43
0.0000001
 44
0.0000000001
 40
0.0
 40
0.0
 40
0.0
 40
0.0
 40
0.2193010099
 40
0.4557128501
 40
0.7169087166
 40
1.0
 40
1.0
 40
1.0
 40
1.0
 10
88.6654374974
 20
135.8241726137
 30
0.0
 10
88.608180135
 20
135.8485620783
 30
0.0
 10
88.4778192947
 20
135.874638348
 30
0.0
 10
88.2736524767
 20
135.8443709674
 30
0.0
 10
88.0688975042
 20
135.7551673672
 30
0.0
 10
87.9401472344
 20
135.668592245
 30
0.0
 10
87.8766906877
 20
135.6193221608
 30
0.0
  0
SPLINE
  5
319
100
AcDbEntity
  8
0
100
AcDbSpline
 62
7
  6
BYLAYER
 70
0
 71
3
 72
14
 73
10
 74
0
 42
0.0000001
 43
0.0000001
 44
0.0000000001
 40
0.0
 40
0.0
 40
0.0
 40
0.0
 40
0.0356443909
 40
0.098177056
 40
0.1879167692
 40
0.3037800078
 40
0.4443148128
 40
0.608071803
 40
1.0
 40
1.0
 40
1.0
 40
1.0
 10
92.3059322926
 20
134.2748821574
 30
0.0
 10
92.3126640741
 20
134.2720345159
 30
0.0
 10
92.3246251568
 20
134.2536565198
 30
0.0
 10
92.3386918167
 20
134.2187797812
 30
0.0
 10
92.3541767438
 20
134.1654810215
 30
0.0
 10
92.3700999374
 20
134.0964791498
 30
0.0
 10
92.386534466
 20
134.0118237958
 30
0.0
 10
92.4102187531
 20
133.8710536496
 30
0.0
 10
92.4258679124
 20
133.7581455779
 30
0.0
 10
92.4360887667
 20
133.6784286102
 30
0.0
  0
SPLINE
  5
31A
100
AcDbEntity
  8
0
100
AcDbSpline
 62
7
  6
BYLAYER
 70
0
 71
3
 72
11
 73
7
 74
0
 42
0.0000001
 43
0.0000001
 44
0.0000000001
 40
0.0
 40
0.0
 40
0.0
 40
0.0
 40
0.2897003537
 40
0.5490843943
 40
0.7822141087
 40
1.0
 40
1.0
 40
1.0
 40
1.0
 10
69.9716032975
 20
67.305344755
 30
0.0
 10
69.9716032975
 20
67.2040089281
 30
0.0
 10
69.956241882
 20
67.0112893275
 30
0.0
 10
69.8781943993
 20
66.7465007877
 30
0.0
 10
69.7467881989
 20
66.5316361509
 30
0.0
 10
69.6233537077
 20
66.427862937
 30
0.0
 10
69.5573793704
 20
66.3897728717
 30
0.0
  0
SPLINE
  5
31B
100
AcDbEntity
  8
0
100
AcDbSpline
 62
7
  6
BYLAYER
 70
0
 71
3
 72
11
 73
7
 74
0
 42
0.0000001
 43
0.0000001
 44
0.0000000001
 40
0.0
 40
0.0
 40
0.0
 40
0.0
 40
0.261998486
 40
0.5229417048
 40
0.7720039946
 40
1.0
 40
1.0
 40
1.0
 40
1.0
 10
115.6145059252
 20
125.2996320525
 30
0.0
 10
115.2118252424
 20
125.3540311965
 30
0.0
 10
114.3987691359
 20
125.4017443535
 30
0.0
 10
113.2016528601
 20
125.2994405214
 30
0.0
 10
112.0844731979
 20
125.0310418039
 30
0.0
 10
111.4001801465
 20
124.7352749789
 30
0.0
 10
111.0935385751
 20
124.5591888447
 30
0.0
  0
SPLINE
  5
31C
100
AcDbEntity
  8
0
100
AcDbSpline
 62
7
  6
BYLAYER
 70
0
 71
3
 72
11
 73
7
 74
0
 42
0.0000001
 43
0.0000001
 44
0.0000000001
 40
0.0
 40
0.0
 40
0.0
 40
0.0
 40
0.2278737094
 40
0.4770382233
 40
0.7380991976
 40
1.0
 40
1.0
 40
1.0
 40
1.0
 10
110.9835681542
 20
124.4599331962
 30
0.0
 10
111.2898404757
 20
124.636758548
 30
0.0
 10
111.9744224086
 20
124.9333754058
 30
0.0
 10
113.0928278147
 20
125.2009864396
 30
0.0
 10
114.2912362841
 20
125.3007344843
 30
0.0
 10
115.1047744295
 20
125.2500594614
 30
0.0
 10
115.5073210978
 20
125.1937844779
 30
0.0
  0
SPLINE
  5
31D
100
AcDbEntity
  8
0
100
AcDbSpline
 62
7
  6
BYLAYER
 70
0
 71
3
 72
18
 73
14
 74
0
 42
0.0000001
 43
0.0000001
 44
0.0000000001
 40
0.0
 40
0.0
 40
0.0
 40
0.0
 40
0.058851108
 40
0.116485322
 40
0.1739772734
 40
0.2320652344
 40
0.2911312845
 40
0.3513107208
 40
0.4748415443
 40
0.6021560034
 40
0.7324740663
 40
0.8652265766
 40
1.0
 40
1.0
 40
1.0
 40
1.0
 10
111.0674924023
 20
128.1045545129
 30
0.0
 10
111.1662323232
 20
128.1606783865
 30
0.0
 10
111.3749676293
 20
128.2502374173
 30
0.0
 10
111.707967146
 20
128.3099667931
 30
0.0
 10
112.0441437079
 20
128.3007494266
 30
0.0
 10
112.3757930985
 20
128.2335019993
 30
0.0
 10
112.6991832186
 20
128.1187229479
 30
0.0
 10
113.1205510521
 20
127.9120140364
 30
0.0
 10
113.6188615675
 20
127.572348185
 30
0.0
 10
114.1702875018
 20
127.0837053579
 30
0.0
 10
114.6860672683
 20
126.5333375726
 30
0.0
 10
115.1691573189
 20
125.9359029663
 30
0.0
 10
115.4691002448
 20
125.5152839699
 30
0.0
 10
115.6145514585
 20
125.299658341
 30
0.0
  0
SPLINE
  5
31E
100
AcDbEntity
  8
0
100
AcDbSpline
 62
7
  6
BYLAYER
 70
0
 71
3
 72
9
 73
5
 74
0
 42
0.0000001
 43
0.0000001
 44
0.0000000001
 40
0.0
 40
0.0
 40
0.0
 40
0.0
 40
0.4949409225
 40
1.0
 40
1.0
 40
1.0
 40
1.0
 10
118.0210659218
 20
130.8497594391
 30
0.0
 10
115.9092199261
 20
130.480847562
 30
0.0
 10
111.7031168561
 20
129.3409943134
 30
0.0
 10
107.7634343756
 20
127.4844766229
 30
0.0
 10
105.8685681384
 20
126.3911764518
 30
0.0
  0
ENDSEC
  0
SECTION
  2
OBJECTS
  0
DICTIONARY
  5
C
100
AcDbDictionary
280
0
281
1
  3
ACAD_GROUP
350
D
  3
ACAD_MLINESTYLE
350
17
  3
ACAD_LAYOUT
350
1A
  3
ACAD_PLOTSETTINGS
350
19
  3
ACAD_PLOTSTYLENAME
350
E
  0
DICTIONARY
  5
D
102
{ACAD_REACTORS
330
C
102
}
100
AcDbDictionary
280
0
281
1
  0
ACDBDICTIONARYWDFLT
  5
E
102
{ACAD_REACTORS
330
C
102
}
100
AcDbDictionary
281
1
  3
Normal
350
F
100
AcDbDictionaryWithDefault
340
F
  0
DICTIONARY
  5
17
102
{ACAD_REACTORS
330
C
102
}
100
AcDbDictionary
280
0
281
1
  3
Standard
350
18
  0
DICTIONARY
  5
19
102
{ACAD_REACTORS
330
C
102
}
100
AcDbDictionary
281
1
  0
DICTIONARY
  5
1A
102
{ACAD_REACTORS
330
C
102
}
100
AcDbDictionary
281
1
  3
Model
350
31F
  3
Layout1
350
320
  0
ACDBPLACEHOLDER
  5
F
102
{ACAD_REACTORS
330
E
102
}
  0
MLINESTYLE
  5
18
102
{ACAD_REACTORS
330
17
102
}
100
AcDbMlineStyle
  2
STANDARD
 70
0
  3

 62
256
 51
90.0
 52
90.0
 71
2
 49
0.5
 62
256
  6
BYLAYER
 49
-0.5
 62
256
  6
BYLAYER
  0
LAYOUT
  5
31F
102
{ACAD_REACTORS
330
1A
102
}
100
AcDbPlotSettings
  1

  2
none_device
  4

  6

 40
0.0
 41
0.0
 42
0.0
 43
0.0
 44
210.0
 45
297.0
 46
0.0
 47
0.0
 48
0.0
 49
0.0
140
0.0
141
0.0
142
1.0
143
1.0
 70
1024
 72
1
 73
0
 74
0
  7

 75
0
147
1.0
148
0.0
149
0.0
100
AcDbLayout
  1
Model
 70
0
 71
0
 10
0.0
 20
0.0
 11
210.0
 21
297.0
 12
0.0
 22
0.0
 32
0.0
 14
0.0
 24
0.0
 34
0.0
 15
0.0
 25
0.0
 35
0.0
146
0.0
 13
0.0
 23
0.0
 33
0.0
 16
1.0
 26
0.0
 36
0.0
 17
0.0
 27
1.0
 37
0.0
 76
0
330
210
345
0
346
0
  0
LAYOUT
  5
320
102
{ACAD_REACTORS
330
1A
102
}
100
AcDbPlotSettings
  1

  2
none_device
  4

  6

 40
0.0
 41
0.0
 42
0.0
 43
0.0
 44
210.0
 45
297.0
 46
0.0
 47
0.0
 48
0.0
 49
0.0
140
0.0
141
0.0
142
1.0
143
1.0
 70
0
 72
1
 73
0
 74
0
  7

 75
0
147
1.0
148
0.0
149
0.0
100
AcDbLayout
  1
Layout1
 70
0
 71
1
 10
0.0
 20
0.0
 11
210.0
 21
297.0
 12
0.0
 22
0.0
 32
0.0
 14
0.0
 24
0.0
 34
0.0
 15
0.0
 25
0.0
 35
0.0
146
0.0
 13
0.0
 23
0.0
 33
0.0
 16
1.0
 26
0.0
 36
0.0
 17
0.0
 27
1.0
 37
0.0
 76
0
330
211
345
0
346
0
  0
ENDSEC
  0
EOF
