  0
SECTION
  2
HEADER
  9
$ACADVER
  1
AC1006
  9
$EXTMIN
 10
-1.944311
 20
-3.495650
  9
$EXTMAX
 10
1.941000
 20
3.503000
  9
$LTSCALE
 40
0.000394
  9
$PDMODE
 70
    35
  9
$PDSIZE
 40
0.000315
  0
ENDSEC
  0
SECTION
  2
TABLES
  0
TABLE
  2
LTYPE
 70
     9
  0
LTYPE
  2
CONTINUOUS
 70
    64
  3
Solid line
 72
    65
 73
     0
 40
0.000000
  0
LTYPE
  2
DASHED
 70
    64
  3
__ __ __ __ __ __ __ __ __ __ __ __ __ __ __
 72
    65
 73
     2
 40
0.000003
 49
0.000002
 49
-0.000001
  0
LTYPE
  2
HIDDEN
 70
    64
  3
 _ _ _ _ _ _ _ _ _ _ _ _ _ _ _ _ _ _ _ _ _ _
 72
    65
 73
     2
 40
0.000001
 49
0.000001
 49
-0.000000
  0
LTYPE
  2
CENTER
 70
    64
  3
____ _ ____ _ ____ _ ____ _ ____ _ ____ _ ____
 72
    65
 73
     4
 40
0.000008
 49
0.000005
 49
-0.000001
 49
0.000001
 49
-0.000001
  0
LTYPE
  2
PHANTOM
 70
    64
  3
_____ _ _ _____ _ _ _____ _ _ _____ _ _ ____
 72
    65
 73
     6
 40
0.000010
 49
0.000005
 49
-0.000001
 49
0.000001
 49
-0.000001
 49
0.000001
 49
-0.000001
  0
LTYPE
  2
DOT
 70
    64
  3
...............................................
 72
    65
 73
     2
 40
0.000001
 49
0.000000
 49
-0.000001
  0
LTYPE
  2
DASHDOT
 70
    64
  3
__ . __ . __ . __ . __ . __ . __ . __ . __ . __
 72
    65
 73
     4
 40
0.000004
 49
0.000002
 49
-0.000001
 49
0.000000
 49
-0.000001
  0
LTYPE
  2
BORDER
 70
    64
  3
__ __ . __ __ . __ __ . __ __ . __ __ . __ __
 72
    65
 73
     6
 40
0.000007
 49
0.000002
 49
-0.000001
 49
0.000002
 49
-0.000001
 49
0.000000
 49
-0.000001
  0
LTYPE
  2
DIVIDE
 70
    64
  3
__ . . __ . . __ . . __ . . __ . . __ . . __
 72
    65
 73
     6
 40
0.000005
 49
0.000002
 49
-0.000001
 49
0.000000
 49
-0.000001
 49
0.000000
 49
-0.000001
  0
LTYPE
  2
DOTDOT
 70
    64
  3
 . .  . .  . .  . .  . .  . . 
 72
    65
 73
     5
 40
0.000002
 49
-0.000001
 49
0.000000
 49
-0.000001
 49
0.000000
 49
-0.000001
  0
ENDTAB
  0
TABLE
  2
STYLE
 70
     0
  0
ENDTAB
  0
TABLE
  2
LAYER
 70
     3
  0
LAYER
  2
FOREGROUND
 70
    64
 62
     7
  6
CONTINUOUS
  0
LAYER
  2
BACKGROUND
 70
    65
 62
    -7
  6
CONTINUOUS
  0
LAYER
  2
PLAN_1
 70
    64
 62
     7
  6
CONTINUOUS
  0
ENDTAB
  0
ENDSEC
  0
SECTION
  2
ENTITIES
  0
POLYLINE
  8
PLAN_1
  6
CONTINUOUS
 66
     1
 40
0.003000
 41
0.003000
  0
VERTEX
  8
PLAN_1
  6
CONTINUOUS
 10
0.080673
 20
-3.490402
  0
VERTEX
  8
PLAN_1
  6
CONTINUOUS
 10
-0.075925
 20
-3.490402
  0
VERTEX
  8
PLAN_1
  6
CONTINUOUS
 10
-0.075925
 20
-3.468091
  0
VERTEX
  8
PLAN_1
  6
CONTINUOUS
 10
0.046114
 20
-3.314996
  0
VERTEX
  8
PLAN_1
  6
CONTINUOUS
 10
-0.066736
 20
-3.314996
  0
VERTEX
  8
PLAN_1
  6
CONTINUOUS
 10
-0.066736
 20
-3.290937
  0
VERTEX
  8
PLAN_1
  6
CONTINUOUS
 10
0.080673
 20
-3.290937
  0
VERTEX
  8
PLAN_1
  6
CONTINUOUS
 10
0.080673
 20
-3.314559
  0
VERTEX
  8
PLAN_1
  6
CONTINUOUS
 10
-0.041803
 20
-3.466343
  0
VERTEX
  8
PLAN_1
  6
CONTINUOUS
 10
0.080673
 20
-3.466343
  0
VERTEX
  8
PLAN_1
  6
CONTINUOUS
 10
0.080673
 20
-3.490402
  0
SEQEND
  8
0
  0
POLYLINE
  8
PLAN_1
  6
CONTINUOUS
 66
     1
 40
0.003000
 41
0.003000
  0
VERTEX
  8
PLAN_1
  6
CONTINUOUS
 10
0.248201
 20
-3.350866
  0
VERTEX
  8
PLAN_1
  6
CONTINUOUS
 10
0.246453
 20
-3.344740
  0
VERTEX
  8
PLAN_1
  6
CONTINUOUS
 10
0.244264
 20
-3.339055
  0
VERTEX
  8
PLAN_1
  6
CONTINUOUS
 10
0.241642
 20
-3.334244
  0
VERTEX
  8
PLAN_1
  6
CONTINUOUS
 10
0.239016
 20
-3.329870
  0
VERTEX
  8
PLAN_1
  6
CONTINUOUS
 10
0.235516
 20
-3.325933
  0
VERTEX
  8
PLAN_1
  6
CONTINUOUS
 10
0.232016
 20
-3.322433
  0
VERTEX
  8
PLAN_1
  6
CONTINUOUS
 10
0.228520
 20
-3.319807
  0
VERTEX
  8
PLAN_1
  6
CONTINUOUS
 10
0.224583
 20
-3.317185
  0
VERTEX
  8
PLAN_1
  6
CONTINUOUS
 10
0.220646
 20
-3.315433
  0
VERTEX
  8
PLAN_1
  6
CONTINUOUS
 10
0.216272
 20
-3.313685
  0
VERTEX
  8
PLAN_1
  6
CONTINUOUS
 10
0.212335
 20
-3.312374
  0
VERTEX
  8
PLAN_1
  6
CONTINUOUS
 10
0.207961
 20
-3.311496
  0
VERTEX
  8
PLAN_1
  6
CONTINUOUS
 10
0.200087
 20
-3.310185
  0
VERTEX
  8
PLAN_1
  6
CONTINUOUS
 10
0.192213
 20
-3.309748
  0
VERTEX
  8
PLAN_1
  6
CONTINUOUS
 10
0.185650
 20
-3.310185
  0
VERTEX
  8
PLAN_1
  6
CONTINUOUS
 10
0.179091
 20
-3.311059
  0
VERTEX
  8
PLAN_1
  6
CONTINUOUS
 10
0.172965
 20
-3.312374
  0
VERTEX
  8
PLAN_1
  6
CONTINUOUS
 10
0.166843
 20
-3.314559
  0
VERTEX
  8
PLAN_1
  6
CONTINUOUS
 10
0.161157
 20
-3.317622
  0
VERTEX
  8
PLAN_1
  6
CONTINUOUS
 10
0.155906
 20
-3.321122
  0
VERTEX
  8
PLAN_1
  6
CONTINUOUS
 10
0.150657
 20
-3.325059
  0
VERTEX
  8
PLAN_1
  6
CONTINUOUS
 10
0.146283
 20
-3.329433
  0
VERTEX
  8
PLAN_1
  6
CONTINUOUS
 10
0.141909
 20
-3.334681
  0
VERTEX
  8
PLAN_1
  6
CONTINUOUS
 10
0.138409
 20
-3.340803
  0
VERTEX
  8
PLAN_1
  6
CONTINUOUS
 10
0.134909
 20
-3.347366
  0
VERTEX
  8
PLAN_1
  6
CONTINUOUS
 10
0.132287
 20
-3.354362
  0
VERTEX
  8
PLAN_1
  6
CONTINUOUS
 10
0.130098
 20
-3.362236
  0
VERTEX
  8
PLAN_1
  6
CONTINUOUS
 10
0.128350
 20
-3.370547
  0
VERTEX
  8
PLAN_1
  6
CONTINUOUS
 10
0.127476
 20
-3.379295
  0
VERTEX
  8
PLAN_1
  6
CONTINUOUS
 10
0.127039
 20
-3.388921
  0
VERTEX
  8
PLAN_1
  6
CONTINUOUS
 10
0.127476
 20
-3.397669
  0
VERTEX
  8
PLAN_1
  6
CONTINUOUS
 10
0.127913
 20
-3.405980
  0
VERTEX
  8
PLAN_1
  6
CONTINUOUS
 10
0.128787
 20
-3.413854
  0
VERTEX
  8
PLAN_1
  6
CONTINUOUS
 10
0.130535
 20
-3.421724
  0
VERTEX
  8
PLAN_1
  6
CONTINUOUS
 10
0.132287
 20
-3.428724
  0
VERTEX
  8
PLAN_1
  6
CONTINUOUS
 10
0.134909
 20
-3.435724
  0
VERTEX
  8
PLAN_1
  6
CONTINUOUS
 10
0.137972
 20
-3.441846
  0
VERTEX
  8
PLAN_1
  6
CONTINUOUS
 10
0.141472
 20
-3.447972
  0
VERTEX
  8
PLAN_1
  6
CONTINUOUS
 10
0.145846
 20
-3.453220
  0
VERTEX
  8
PLAN_1
  6
CONTINUOUS
 10
0.150657
 20
-3.458031
  0
VERTEX
  8
PLAN_1
  6
CONTINUOUS
 10
0.153283
 20
-3.460220
  0
VERTEX
  8
PLAN_1
  6
CONTINUOUS
 10
0.155906
 20
-3.461969
  0
VERTEX
  8
PLAN_1
  6
CONTINUOUS
 10
0.158969
 20
-3.463717
  0
VERTEX
  8
PLAN_1
  6
CONTINUOUS
 10
0.162031
 20
-3.465469
  0
VERTEX
  8
PLAN_1
  6
CONTINUOUS
 10
0.165094
 20
-3.466780
  0
VERTEX
  8
PLAN_1
  6
CONTINUOUS
 10
0.168591
 20
-3.468091
  0
VERTEX
  8
PLAN_1
  6
CONTINUOUS
 10
0.172528
 20
-3.469406
  0
VERTEX
  8
PLAN_1
  6
CONTINUOUS
 10
0.176028
 20
-3.470280
  0
VERTEX
  8
PLAN_1
  6
CONTINUOUS
 10
0.179965
 20
-3.470717
  0
VERTEX
  8
PLAN_1
  6
CONTINUOUS
 10
0.184339
 20
-3.471154
  0
VERTEX
  8
PLAN_1
  6
CONTINUOUS
 10
0.188713
 20
-3.471591
  0
VERTEX
  8
PLAN_1
  6
CONTINUOUS
 10
0.193087
 20
-3.471591
  0
VERTEX
  8
PLAN_1
  6
CONTINUOUS
 10
0.196587
 20
-3.471591
  0
VERTEX
  8
PLAN_1
  6
CONTINUOUS
 10
0.200087
 20
-3.471154
  0
VERTEX
  8
PLAN_1
  6
CONTINUOUS
 10
0.204024
 20
-3.470717
  0
VERTEX
  8
PLAN_1
  6
CONTINUOUS
 10
0.207961
 20
-3.469843
  0
VERTEX
  8
PLAN_1
  6
CONTINUOUS
 10
0.212335
 20
-3.468528
  0
VERTEX
  8
PLAN_1
  6
CONTINUOUS
 10
0.216272
 20
-3.466780
  0
VERTEX
  8
PLAN_1
  6
CONTINUOUS
 10
0.220646
 20
-3.464594
  0
VERTEX
  8
PLAN_1
  6
CONTINUOUS
 10
0.224583
 20
-3.461969
  0
VERTEX
  8
PLAN_1
  6
CONTINUOUS
 10
0.228957
 20
-3.458469
  0
VERTEX
  8
PLAN_1
  6
CONTINUOUS
 10
0.232457
 20
-3.454969
  0
VERTEX
  8
PLAN_1
  6
CONTINUOUS
 10
0.236390
 20
-3.450157
  0
VERTEX
  8
PLAN_1
  6
CONTINUOUS
 10
0.239890
 20
-3.445346
  0
VERTEX
  8
PLAN_1
  6
CONTINUOUS
 10
0.242953
 20
-3.439224
  0
VERTEX
  8
PLAN_1
  6
CONTINUOUS
 10
0.245579
 20
-3.432661
  0
VERTEX
  8
PLAN_1
  6
CONTINUOUS
 10
0.248201
 20
-3.425224
  0
VERTEX
  8
PLAN_1
  6
CONTINUOUS
 10
0.249953
 20
-3.416913
  0
VERTEX
  8
PLAN_1
  6
CONTINUOUS
 10
0.276197
 20
-3.416913
  0
VERTEX
  8
PLAN_1
  6
CONTINUOUS
 10
0.274886
 20
-3.423913
  0
VERTEX
  8
PLAN_1
  6
CONTINUOUS
 10
0.273571
 20
-3.430472
  0
VERTEX
  8
PLAN_1
  6
CONTINUOUS
 10
0.271823
 20
-3.436598
  0
VERTEX
  8
PLAN_1
  6
CONTINUOUS
 10
0.269634
 20
-3.442283
  0
VERTEX
  8
PLAN_1
  6
CONTINUOUS
 10
0.267449
 20
-3.447535
  0
VERTEX
  8
PLAN_1
  6
CONTINUOUS
 10
0.265260
 20
-3.452346
  0
VERTEX
  8
PLAN_1
  6
CONTINUOUS
 10
0.262638
 20
-3.456720
  0
VERTEX
  8
PLAN_1
  6
CONTINUOUS
 10
0.260012
 20
-3.461094
  0
VERTEX
  8
PLAN_1
  6
CONTINUOUS
 10
0.256949
 20
-3.465031
  0
VERTEX
  8
PLAN_1
  6
CONTINUOUS
 10
0.253890
 20
-3.468528
  0
VERTEX
  8
PLAN_1
  6
CONTINUOUS
 10
0.250827
 20
-3.472028
  0
VERTEX
  8
PLAN_1
  6
CONTINUOUS
 10
0.247764
 20
-3.475091
  0
VERTEX
  8
PLAN_1
  6
CONTINUOUS
 10
0.244264
 20
-3.477717
  0
VERTEX
  8
PLAN_1
  6
CONTINUOUS
 10
0.240764
 20
-3.480339
  0
VERTEX
  8
PLAN_1
  6
CONTINUOUS
 10
0.237705
 20
-3.482528
  0
VERTEX
  8
PLAN_1
  6
CONTINUOUS
 10
0.234205
 20
-3.484713
  0
VERTEX
  8
PLAN_1
  6
CONTINUOUS
 10
0.227205
 20
-3.488213
  0
VERTEX
  8
PLAN_1
  6
CONTINUOUS
 10
0.220209
 20
-3.490839
  0
VERTEX
  8
PLAN_1
  6
CONTINUOUS
 10
0.213646
 20
-3.492587
  0
VERTEX
  8
PLAN_1
  6
CONTINUOUS
 10
0.207524
 20
-3.493898
  0
VERTEX
  8
PLAN_1
  6
CONTINUOUS
 10
0.196587
 20
-3.495213
  0
VERTEX
  8
PLAN_1
  6
CONTINUOUS
 10
0.189150
 20
-3.495650
  0
VERTEX
  8
PLAN_1
  6
CONTINUOUS
 10
0.180402
 20
-3.495213
  0
VERTEX
  8
PLAN_1
  6
CONTINUOUS
 10
0.172091
 20
-3.494339
  0
VERTEX
  8
PLAN_1
  6
CONTINUOUS
 10
0.163780
 20
-3.492587
  0
VERTEX
  8
PLAN_1
  6
CONTINUOUS
 10
0.155906
 20
-3.489965
  0
VERTEX
  8
PLAN_1
  6
CONTINUOUS
 10
0.151969
 20
-3.488213
  0
VERTEX
  8
PLAN_1
  6
CONTINUOUS
 10
0.148035
 20
-3.486465
  0
VERTEX
  8
PLAN_1
  6
CONTINUOUS
 10
0.144535
 20
-3.484713
  0
VERTEX
  8
PLAN_1
  6
CONTINUOUS
 10
0.140598
 20
-3.482528
  0
VERTEX
  8
PLAN_1
  6
CONTINUOUS
 10
0.137098
 20
-3.479902
  0
VERTEX
  8
PLAN_1
  6
CONTINUOUS
 10
0.133598
 20
-3.477280
  0
VERTEX
  8
PLAN_1
  6
CONTINUOUS
 10
0.130535
 20
-3.474654
  0
VERTEX
  8
PLAN_1
  6
CONTINUOUS
 10
0.127039
 20
-3.471591
  0
VERTEX
  8
PLAN_1
  6
CONTINUOUS
 10
0.123976
 20
-3.468091
  0
VERTEX
  8
PLAN_1
  6
CONTINUOUS
 10
0.121350
 20
-3.464594
  0
VERTEX
  8
PLAN_1
  6
CONTINUOUS
 10
0.118287
 20
-3.460657
  0
VERTEX
  8
PLAN_1
  6
CONTINUOUS
 10
0.115665
 20
-3.456720
  0
VERTEX
  8
PLAN_1
  6
CONTINUOUS
 10
0.113476
 20
-3.452783
  0
VERTEX
  8
PLAN_1
  6
CONTINUOUS
 10
0.110854
 20
-3.447972
  0
VERTEX
  8
PLAN_1
  6
CONTINUOUS
 10
0.109102
 20
-3.443598
  0
VERTEX
  8
PLAN_1
  6
CONTINUOUS
 10
0.106917
 20
-3.438346
  0
VERTEX
  8
PLAN_1
  6
CONTINUOUS
 10
0.105165
 20
-3.433535
  0
VERTEX
  8
PLAN_1
  6
CONTINUOUS
 10
0.103854
 20
-3.427850
  0
VERTEX
  8
PLAN_1
  6
CONTINUOUS
 10
0.102543
 20
-3.422165
  0
VERTEX
  8
PLAN_1
  6
CONTINUOUS
 10
0.101228
 20
-3.416039
  0
VERTEX
  8
PLAN_1
  6
CONTINUOUS
 10
0.100354
 20
-3.409917
  0
VERTEX
  8
PLAN_1
  6
CONTINUOUS
 10
0.099917
 20
-3.403354
  0
VERTEX
  8
PLAN_1
  6
CONTINUOUS
 10
0.099480
 20
-3.396795
  0
VERTEX
  8
PLAN_1
  6
CONTINUOUS
 10
0.099480
 20
-3.389795
  0
VERTEX
  8
PLAN_1
  6
CONTINUOUS
 10
0.099917
 20
-3.378421
  0
VERTEX
  8
PLAN_1
  6
CONTINUOUS
 10
0.100791
 20
-3.367488
  0
VERTEX
  8
PLAN_1
  6
CONTINUOUS
 10
0.102106
 20
-3.362236
  0
VERTEX
  8
PLAN_1
  6
CONTINUOUS
 10
0.102980
 20
-3.357425
  0
VERTEX
  8
PLAN_1
  6
CONTINUOUS
 10
0.104291
 20
-3.352177
  0
VERTEX
  8
PLAN_1
  6
CONTINUOUS
 10
0.105602
 20
-3.347366
  0
VERTEX
  8
PLAN_1
  6
CONTINUOUS
 10
0.107354
 20
-3.342992
  0
VERTEX
  8
PLAN_1
  6
CONTINUOUS
 10
0.109102
 20
-3.338618
  0
VERTEX
  8
PLAN_1
  6
CONTINUOUS
 10
0.111291
 20
-3.334244
  0
VERTEX
  8
PLAN_1
  6
CONTINUOUS
 10
0.113476
 20
-3.329870
  0
VERTEX
  8
PLAN_1
  6
CONTINUOUS
 10
0.116102
 20
-3.325933
  0
VERTEX
  8
PLAN_1
  6
CONTINUOUS
 10
0.118287
 20
-3.321996
  0
VERTEX
  8
PLAN_1
  6
CONTINUOUS
 10
0.121350
 20
-3.318496
  0
VERTEX
  8
PLAN_1
  6
CONTINUOUS
 10
0.123976
 20
-3.314559
  0
VERTEX
  8
PLAN_1
  6
CONTINUOUS
 10
0.127039
 20
-3.311496
  0
VERTEX
  8
PLAN_1
  6
CONTINUOUS
 10
0.130535
 20
-3.308437
  0
VERTEX
  8
PLAN_1
  6
CONTINUOUS
 10
0.134035
 20
-3.305374
  0
VERTEX
  8
PLAN_1
  6
CONTINUOUS
 10
0.137535
 20
-3.302748
  0
VERTEX
  8
PLAN_1
  6
CONTINUOUS
 10
0.141035
 20
-3.300126
  0
VERTEX
  8
PLAN_1
  6
CONTINUOUS
 10
0.144972
 20
-3.297500
  0
VERTEX
  8
PLAN_1
  6
CONTINUOUS
 10
0.149346
 20
-3.295311
  0
VERTEX
  8
PLAN_1
  6
CONTINUOUS
 10
0.153283
 20
-3.293563
  0
VERTEX
  8
PLAN_1
  6
CONTINUOUS
 10
0.157657
 20
-3.291815
  0
VERTEX
  8
PLAN_1
  6
CONTINUOUS
 10
0.162031
 20
-3.290063
  0
VERTEX
  8
PLAN_1
  6
CONTINUOUS
 10
0.166843
 20
-3.288752
  0
VERTEX
  8
PLAN_1
  6
CONTINUOUS
 10
0.171654
 20
-3.287878
  0
VERTEX
  8
PLAN_1
  6
CONTINUOUS
 10
0.176465
 20
-3.287004
  0
VERTEX
  8
PLAN_1
  6
CONTINUOUS
 10
0.181713
 20
-3.286563
  0
VERTEX
  8
PLAN_1
  6
CONTINUOUS
 10
0.186965
 20
-3.286126
  0
VERTEX
  8
PLAN_1
  6
CONTINUOUS
 10
0.192213
 20
-3.285689
  0
VERTEX
  8
PLAN_1
  6
CONTINUOUS
 10
0.201835
 20
-3.286126
  0
VERTEX
  8
PLAN_1
  6
CONTINUOUS
 10
0.210583
 20
-3.287441
  0
VERTEX
  8
PLAN_1
  6
CONTINUOUS
 10
0.218457
 20
-3.289189
  0
VERTEX
  8
PLAN_1
  6
CONTINUOUS
 10
0.226331
 20
-3.291378
  0
VERTEX
  8
PLAN_1
  6
CONTINUOUS
 10
0.233331
 20
-3.294437
  0
VERTEX
  8
PLAN_1
  6
CONTINUOUS
 10
0.239890
 20
-3.297937
  0
VERTEX
  8
PLAN_1
  6
CONTINUOUS
 10
0.245579
 20
-3.301437
  0
VERTEX
  8
PLAN_1
  6
CONTINUOUS
 10
0.251264
 20
-3.305811
  0
VERTEX
  8
PLAN_1
  6
CONTINUOUS
 10
0.256075
 20
-3.310622
  0
VERTEX
  8
PLAN_1
  6
CONTINUOUS
 10
0.260012
 20
-3.315870
  0
VERTEX
  8
PLAN_1
  6
CONTINUOUS
 10
0.263949
 20
-3.321122
  0
VERTEX
  8
PLAN_1
  6
CONTINUOUS
 10
0.267012
 20
-3.326807
  0
VERTEX
  8
PLAN_1
  6
CONTINUOUS
 10
0.269634
 20
-3.332492
  0
VERTEX
  8
PLAN_1
  6
CONTINUOUS
 10
0.271823
 20
-3.338618
  0
VERTEX
  8
PLAN_1
  6
CONTINUOUS
 10
0.273134
 20
-3.344740
  0
VERTEX
  8
PLAN_1
  6
CONTINUOUS
 10
0.274008
 20
-3.350866
  0
VERTEX
  8
PLAN_1
  6
CONTINUOUS
 10
0.248201
 20
-3.350866
  0
SEQEND
  8
0
  0
POLYLINE
  8
PLAN_1
  6
CONTINUOUS
 66
     1
 40
0.003000
 41
0.003000
  0
VERTEX
  8
PLAN_1
  6
CONTINUOUS
 10
0.335685
 20
-3.490402
  0
VERTEX
  8
PLAN_1
  6
CONTINUOUS
 10
0.308567
 20
-3.490402
  0
VERTEX
  8
PLAN_1
  6
CONTINUOUS
 10
0.308567
 20
-3.290937
  0
VERTEX
  8
PLAN_1
  6
CONTINUOUS
 10
0.335685
 20
-3.290937
  0
VERTEX
  8
PLAN_1
  6
CONTINUOUS
 10
0.335685
 20
-3.387606
  0
VERTEX
  8
PLAN_1
  6
CONTINUOUS
 10
0.432354
 20
-3.290937
  0
VERTEX
  8
PLAN_1
  6
CONTINUOUS
 10
0.469535
 20
-3.290937
  0
VERTEX
  8
PLAN_1
  6
CONTINUOUS
 10
0.386425
 20
-3.371425
  0
VERTEX
  8
PLAN_1
  6
CONTINUOUS
 10
0.471720
 20
-3.490402
  0
VERTEX
  8
PLAN_1
  6
CONTINUOUS
 10
0.436728
 20
-3.490402
  0
VERTEX
  8
PLAN_1
  6
CONTINUOUS
 10
0.367177
 20
-3.390669
  0
VERTEX
  8
PLAN_1
  6
CONTINUOUS
 10
0.335685
 20
-3.420413
  0
VERTEX
  8
PLAN_1
  6
CONTINUOUS
 10
0.335685
 20
-3.490402
  0
SEQEND
  8
0
  0
POLYLINE
  8
PLAN_1
  6
CONTINUOUS
 66
     1
 40
0.003000
 41
0.003000
  0
VERTEX
  8
PLAN_1
  6
CONTINUOUS
 10
0.643626
 20
-3.490402
  0
VERTEX
  8
PLAN_1
  6
CONTINUOUS
 10
0.496654
 20
-3.490402
  0
VERTEX
  8
PLAN_1
  6
CONTINUOUS
 10
0.496654
 20
-3.290937
  0
VERTEX
  8
PLAN_1
  6
CONTINUOUS
 10
0.641874
 20
-3.290937
  0
VERTEX
  8
PLAN_1
  6
CONTINUOUS
 10
0.641874
 20
-3.314996
  0
VERTEX
  8
PLAN_1
  6
CONTINUOUS
 10
0.523772
 20
-3.314996
  0
VERTEX
  8
PLAN_1
  6
CONTINUOUS
 10
0.523772
 20
-3.376236
  0
VERTEX
  8
PLAN_1
  6
CONTINUOUS
 10
0.632689
 20
-3.376236
  0
VERTEX
  8
PLAN_1
  6
CONTINUOUS
 10
0.632689
 20
-3.399854
  0
VERTEX
  8
PLAN_1
  6
CONTINUOUS
 10
0.523772
 20
-3.399854
  0
VERTEX
  8
PLAN_1
  6
CONTINUOUS
 10
0.523772
 20
-3.466343
  0
VERTEX
  8
PLAN_1
  6
CONTINUOUS
 10
0.643626
 20
-3.466343
  0
VERTEX
  8
PLAN_1
  6
CONTINUOUS
 10
0.643626
 20
-3.490402
  0
SEQEND
  8
0
  0
POLYLINE
  8
PLAN_1
  6
CONTINUOUS
 66
     1
 40
0.003000
 41
0.003000
  0
VERTEX
  8
PLAN_1
  6
CONTINUOUS
 10
0.773539
 20
-3.347366
  0
VERTEX
  8
PLAN_1
  6
CONTINUOUS
 10
0.772224
 20
-3.340803
  0
VERTEX
  8
PLAN_1
  6
CONTINUOUS
 10
0.770039
 20
-3.335118
  0
VERTEX
  8
PLAN_1
  6
CONTINUOUS
 10
0.768724
 20
-3.332492
  0
VERTEX
  8
PLAN_1
  6
CONTINUOUS
 10
0.767413
 20
-3.330307
  0
VERTEX
  8
PLAN_1
  6
CONTINUOUS
 10
0.765665
 20
-3.327681
  0
VERTEX
  8
PLAN_1
  6
CONTINUOUS
 10
0.763476
 20
-3.325933
  0
VERTEX
  8
PLAN_1
  6
CONTINUOUS
 10
0.761728
 20
-3.323744
  0
VERTEX
  8
PLAN_1
  6
CONTINUOUS
 10
0.759102
 20
-3.321996
  0
VERTEX
  8
PLAN_1
  6
CONTINUOUS
 10
0.756480
 20
-3.320681
  0
VERTEX
  8
PLAN_1
  6
CONTINUOUS
 10
0.753854
 20
-3.319370
  0
VERTEX
  8
PLAN_1
  6
CONTINUOUS
 10
0.750791
 20
-3.318496
  0
VERTEX
  8
PLAN_1
  6
CONTINUOUS
 10
0.747291
 20
-3.317622
  0
VERTEX
  8
PLAN_1
  6
CONTINUOUS
 10
0.743795
 20
-3.317185
  0
VERTEX
  8
PLAN_1
  6
CONTINUOUS
 10
0.740295
 20
-3.317185
  0
VERTEX
  8
PLAN_1
  6
CONTINUOUS
 10
0.736795
 20
-3.317185
  0
VERTEX
  8
PLAN_1
  6
CONTINUOUS
 10
0.733295
 20
-3.317622
  0
VERTEX
  8
PLAN_1
  6
CONTINUOUS
 10
0.730232
 20
-3.318496
  0
VERTEX
  8
PLAN_1
  6
CONTINUOUS
 10
0.727173
 20
-3.319370
  0
VERTEX
  8
PLAN_1
  6
CONTINUOUS
 10
0.724110
 20
-3.320681
  0
VERTEX
  8
PLAN_1
  6
CONTINUOUS
 10
0.721484
 20
-3.321996
  0
VERTEX
  8
PLAN_1
  6
CONTINUOUS
 10
0.719299
 20
-3.323744
  0
VERTEX
  8
PLAN_1
  6
CONTINUOUS
 10
0.716673
 20
-3.325496
  0
VERTEX
  8
PLAN_1
  6
CONTINUOUS
 10
0.712299
 20
-3.329870
  0
VERTEX
  8
PLAN_1
  6
CONTINUOUS
 10
0.708799
 20
-3.334681
  0
VERTEX
  8
PLAN_1
  6
CONTINUOUS
 10
0.705299
 20
-3.339929
  0
VERTEX
  8
PLAN_1
  6
CONTINUOUS
 10
0.702677
 20
-3.345614
  0
VERTEX
  8
PLAN_1
  6
CONTINUOUS
 10
0.700051
 20
-3.351303
  0
VERTEX
  8
PLAN_1
  6
CONTINUOUS
 10
0.698303
 20
-3.357425
  0
VERTEX
  8
PLAN_1
  6
CONTINUOUS
 10
0.696988
 20
-3.363551
  0
VERTEX
  8
PLAN_1
  6
CONTINUOUS
 10
0.695677
 20
-3.369236
  0
VERTEX
  8
PLAN_1
  6
CONTINUOUS
 10
0.694366
 20
-3.380173
  0
VERTEX
  8
PLAN_1
  6
CONTINUOUS
 10
0.693929
 20
-3.389358
  0
VERTEX
  8
PLAN_1
  6
CONTINUOUS
 10
0.694366
 20
-3.389795
  0
VERTEX
  8
PLAN_1
  6
CONTINUOUS
 10
0.696988
 20
-3.385858
  0
VERTEX
  8
PLAN_1
  6
CONTINUOUS
 10
0.700488
 20
-3.381921
  0
VERTEX
  8
PLAN_1
  6
CONTINUOUS
 10
0.704862
 20
-3.377547
  0
VERTEX
  8
PLAN_1
  6
CONTINUOUS
 10
0.709673
 20
-3.374047
  0
VERTEX
  8
PLAN_1
  6
CONTINUOUS
 10
0.712736
 20
-3.372299
  0
VERTEX
  8
PLAN_1
  6
CONTINUOUS
 10
0.715799
 20
-3.370984
  0
VERTEX
  8
PLAN_1
  6
CONTINUOUS
 10
0.719299
 20
-3.369673
  0
VERTEX
  8
PLAN_1
  6
CONTINUOUS
 10
0.723236
 20
-3.368362
  0
VERTEX
  8
PLAN_1
  6
CONTINUOUS
 10
0.727173
 20
-3.367488
  0
VERTEX
  8
PLAN_1
  6
CONTINUOUS
 10
0.731110
 20
-3.366610
  0
VERTEX
  8
PLAN_1
  6
CONTINUOUS
 10
0.735921
 20
-3.366173
  0
VERTEX
  8
PLAN_1
  6
CONTINUOUS
 10
0.740732
 20
-3.366173
  0
VERTEX
  8
PLAN_1
  6
CONTINUOUS
 10
0.745106
 20
-3.366173
  0
VERTEX
  8
PLAN_1
  6
CONTINUOUS
 10
0.750354
 20
-3.366610
  0
VERTEX
  8
PLAN_1
  6
CONTINUOUS
 10
0.755165
 20
-3.367925
  0
VERTEX
  8
PLAN_1
  6
CONTINUOUS
 10
0.760413
 20
-3.369236
  0
VERTEX
  8
PLAN_1
  6
CONTINUOUS
 10
0.765228
 20
-3.370984
  0
VERTEX
  8
PLAN_1
  6
CONTINUOUS
 10
0.770476
 20
-3.373173
  0
VERTEX
  8
PLAN_1
  6
CONTINUOUS
 10
0.775287
 20
-3.376236
  0
VERTEX
  8
PLAN_1
  6
CONTINUOUS
 10
0.780098
 20
-3.379732
  0
VERTEX
  8
PLAN_1
  6
CONTINUOUS
 10
0.784472
 20
-3.383232
  0
VERTEX
  8
PLAN_1
  6
CONTINUOUS
 10
0.788846
 20
-3.388043
  0
VERTEX
  8
PLAN_1
  6
CONTINUOUS
 10
0.792346
 20
-3.392858
  0
VERTEX
  8
PLAN_1
  6
CONTINUOUS
 10
0.795409
 20
-3.398543
  0
VERTEX
  8
PLAN_1
  6
CONTINUOUS
 10
0.798031
 20
-3.405102
  0
VERTEX
  8
PLAN_1
  6
CONTINUOUS
 10
0.800220
 20
-3.412102
  0
VERTEX
  8
PLAN_1
  6
CONTINUOUS
 10
0.801094
 20
-3.419539
  0
VERTEX
  8
PLAN_1
  6
CONTINUOUS
 10
0.801531
 20
-3.427850
  0
VERTEX
  8
PLAN_1
  6
CONTINUOUS
 10
0.801531
 20
-3.435287
  0
VERTEX
  8
PLAN_1
  6
CONTINUOUS
 10
0.800657
 20
-3.441846
  0
VERTEX
  8
PLAN_1
  6
CONTINUOUS
 10
0.799346
 20
-3.448409
  0
VERTEX
  8
PLAN_1
  6
CONTINUOUS
 10
0.797594
 20
-3.454531
  0
VERTEX
  8
PLAN_1
  6
CONTINUOUS
 10
0.794972
 20
-3.460220
  0
VERTEX
  8
PLAN_1
  6
CONTINUOUS
 10
0.791472
 20
-3.465906
  0
VERTEX
  8
PLAN_1
  6
CONTINUOUS
 10
0.787972
 20
-3.471154
  0
VERTEX
  8
PLAN_1
  6
CONTINUOUS
 10
0.783161
 20
-3.476839
  0
VERTEX
  8
PLAN_1
  6
CONTINUOUS
 10
0.779224
 20
-3.480776
  0
VERTEX
  8
PLAN_1
  6
CONTINUOUS
 10
0.774850
 20
-3.484713
  0
VERTEX
  8
PLAN_1
  6
CONTINUOUS
 10
0.770039
 20
-3.487776
  0
VERTEX
  8
PLAN_1
  6
CONTINUOUS
 10
0.764791
 20
-3.490402
  0
VERTEX
  8
PLAN_1
  6
CONTINUOUS
 10
0.758665
 20
-3.492587
  0
VERTEX
  8
PLAN_1
  6
CONTINUOUS
 10
0.751665
 20
-3.494339
  0
VERTEX
  8
PLAN_1
  6
CONTINUOUS
 10
0.743354
 20
-3.495213
  0
VERTEX
  8
PLAN_1
  6
CONTINUOUS
 10
0.733732
 20
-3.495650
  0
VERTEX
  8
PLAN_1
  6
CONTINUOUS
 10
0.728047
 20
-3.495213
  0
VERTEX
  8
PLAN_1
  6
CONTINUOUS
 10
0.721484
 20
-3.494339
  0
VERTEX
  8
PLAN_1
  6
CONTINUOUS
 10
0.714925
 20
-3.492587
  0
VERTEX
  8
PLAN_1
  6
CONTINUOUS
 10
0.708362
 20
-3.489524
  0
VERTEX
  8
PLAN_1
  6
CONTINUOUS
 10
0.704862
 20
-3.487776
  0
VERTEX
  8
PLAN_1
  6
CONTINUOUS
 10
0.701366
 20
-3.486028
  0
VERTEX
  8
PLAN_1
  6
CONTINUOUS
 10
0.698303
 20
-3.483402
  0
VERTEX
  8
PLAN_1
  6
CONTINUOUS
 10
0.695240
 20
-3.480776
  0
VERTEX
  8
PLAN_1
  6
CONTINUOUS
 10
0.692177
 20
-3.478154
  0
VERTEX
  8
PLAN_1
  6
CONTINUOUS
 10
0.689118
 20
-3.474654
  0
VERTEX
  8
PLAN_1
  6
CONTINUOUS
 10
0.686055
 20
-3.471154
  0
VERTEX
  8
PLAN_1
  6
CONTINUOUS
 10
0.683429
 20
-3.467217
  0
VERTEX
  8
PLAN_1
  6
CONTINUOUS
 10
0.679492
 20
-3.460220
  0
VERTEX
  8
PLAN_1
  6
CONTINUOUS
 10
0.676433
 20
-3.452783
  0
VERTEX
  8
PLAN_1
  6
CONTINUOUS
 10
0.673807
 20
-3.444472
  0
VERTEX
  8
PLAN_1
  6
CONTINUOUS
 10
0.671618
 20
-3.436161
  0
VERTEX
  8
PLAN_1
  6
CONTINUOUS
 10
0.670307
 20
-3.427413
  0
VERTEX
  8
PLAN_1
  6
CONTINUOUS
 10
0.669433
 20
-3.418228
  0
VERTEX
  8
PLAN_1
  6
CONTINUOUS
 10
0.668559
 20
-3.409039
  0
VERTEX
  8
PLAN_1
  6
CONTINUOUS
 10
0.668559
 20
-3.399417
  0
VERTEX
  8
PLAN_1
  6
CONTINUOUS
 10
0.668559
 20
-3.391543
  0
VERTEX
  8
PLAN_1
  6
CONTINUOUS
 10
0.669433
 20
-3.382795
  0
VERTEX
  8
PLAN_1
  6
CONTINUOUS
 10
0.670307
 20
-3.374047
  0
VERTEX
  8
PLAN_1
  6
CONTINUOUS
 10
0.671618
 20
-3.365299
  0
VERTEX
  8
PLAN_1
  6
CONTINUOUS
 10
0.673370
 20
-3.356551
  0
VERTEX
  8
PLAN_1
  6
CONTINUOUS
 10
0.675996
 20
-3.347803
  0
VERTEX
  8
PLAN_1
  6
CONTINUOUS
 10
0.679055
 20
-3.339492
  0
VERTEX
  8
PLAN_1
  6
CONTINUOUS
 10
0.682555
 20
-3.331618
  0
VERTEX
  8
PLAN_1
  6
CONTINUOUS
 10
0.684744
 20
-3.327681
  0
VERTEX
  8
PLAN_1
  6
CONTINUOUS
 10
0.686929
 20
-3.323744
  0
VERTEX
  8
PLAN_1
  6
CONTINUOUS
 10
0.689555
 20
-3.320244
  0
VERTEX
  8
PLAN_1
  6
CONTINUOUS
 10
0.692177
 20
-3.317185
  0
VERTEX
  8
PLAN_1
  6
CONTINUOUS
 10
0.695240
 20
-3.313685
  0
VERTEX
  8
PLAN_1
  6
CONTINUOUS
 10
0.698303
 20
-3.311059
  0
VERTEX
  8
PLAN_1
  6
CONTINUOUS
 10
0.701366
 20
-3.307996
  0
VERTEX
  8
PLAN_1
  6
CONTINUOUS
 10
0.704862
 20
-3.305811
  0
VERTEX
  8
PLAN_1
  6
CONTINUOUS
 10
0.708362
 20
-3.303185
  0
VERTEX
  8
PLAN_1
  6
CONTINUOUS
 10
0.712299
 20
-3.301437
  0
VERTEX
  8
PLAN_1
  6
CONTINUOUS
 10
0.716673
 20
-3.299689
  0
VERTEX
  8
PLAN_1
  6
CONTINUOUS
 10
0.721047
 20
-3.297937
  0
VERTEX
  8
PLAN_1
  6
CONTINUOUS
 10
0.725421
 20
-3.297063
  0
VERTEX
  8
PLAN_1
  6
CONTINUOUS
 10
0.730232
 20
-3.296189
  0
VERTEX
  8
PLAN_1
  6
CONTINUOUS
 10
0.735484
 20
-3.295311
  0
VERTEX
  8
PLAN_1
  6
CONTINUOUS
 10
0.740732
 20
-3.295311
  0
VERTEX
  8
PLAN_1
  6
CONTINUOUS
 10
0.745106
 20
-3.295311
  0
VERTEX
  8
PLAN_1
  6
CONTINUOUS
 10
0.749480
 20
-3.295752
  0
VERTEX
  8
PLAN_1
  6
CONTINUOUS
 10
0.753854
 20
-3.296626
  0
VERTEX
  8
PLAN_1
  6
CONTINUOUS
 10
0.758665
 20
-3.297937
  0
VERTEX
  8
PLAN_1
  6
CONTINUOUS
 10
0.763476
 20
-3.299248
  0
VERTEX
  8
PLAN_1
  6
CONTINUOUS
 10
0.767850
 20
-3.301437
  0
VERTEX
  8
PLAN_1
  6
CONTINUOUS
 10
0.772224
 20
-3.303622
  0
VERTEX
  8
PLAN_1
  6
CONTINUOUS
 10
0.776598
 20
-3.306248
  0
VERTEX
  8
PLAN_1
  6
CONTINUOUS
 10
0.780535
 20
-3.309748
  0
VERTEX
  8
PLAN_1
  6
CONTINUOUS
 10
0.784472
 20
-3.313248
  0
VERTEX
  8
PLAN_1
  6
CONTINUOUS
 10
0.787972
 20
-3.317622
  0
VERTEX
  8
PLAN_1
  6
CONTINUOUS
 10
0.790598
 20
-3.322433
  0
VERTEX
  8
PLAN_1
  6
CONTINUOUS
 10
0.793220
 20
-3.327681
  0
VERTEX
  8
PLAN_1
  6
CONTINUOUS
 10
0.795409
 20
-3.333366
  0
VERTEX
  8
PLAN_1
  6
CONTINUOUS
 10
0.796720
 20
-3.339929
  0
VERTEX
  8
PLAN_1
  6
CONTINUOUS
 10
0.797594
 20
-3.347366
  0
VERTEX
  8
PLAN_1
  6
CONTINUOUS
 10
0.773539
 20
-3.347366
  0
SEQEND
  8
0
  0
POLYLINE
  8
PLAN_1
  6
CONTINUOUS
 66
     1
 40
0.003000
 41
0.003000
  0
VERTEX
  8
PLAN_1
  6
CONTINUOUS
 10
0.738106
 20
-3.473780
  0
VERTEX
  8
PLAN_1
  6
CONTINUOUS
 10
0.742480
 20
-3.473343
  0
VERTEX
  8
PLAN_1
  6
CONTINUOUS
 10
0.746417
 20
-3.472906
  0
VERTEX
  8
PLAN_1
  6
CONTINUOUS
 10
0.750354
 20
-3.472028
  0
VERTEX
  8
PLAN_1
  6
CONTINUOUS
 10
0.753854
 20
-3.470280
  0
VERTEX
  8
PLAN_1
  6
CONTINUOUS
 10
0.757354
 20
-3.468528
  0
VERTEX
  8
PLAN_1
  6
CONTINUOUS
 10
0.760413
 20
-3.466343
  0
VERTEX
  8
PLAN_1
  6
CONTINUOUS
 10
0.763476
 20
-3.464154
  0
VERTEX
  8
PLAN_1
  6
CONTINUOUS
 10
0.766102
 20
-3.461094
  0
VERTEX
  8
PLAN_1
  6
CONTINUOUS
 10
0.768287
 20
-3.458031
  0
VERTEX
  8
PLAN_1
  6
CONTINUOUS
 10
0.770476
 20
-3.454969
  0
VERTEX
  8
PLAN_1
  6
CONTINUOUS
 10
0.772224
 20
-3.451031
  0
VERTEX
  8
PLAN_1
  6
CONTINUOUS
 10
0.773976
 20
-3.447094
  0
VERTEX
  8
PLAN_1
  6
CONTINUOUS
 10
0.774850
 20
-3.443157
  0
VERTEX
  8
PLAN_1
  6
CONTINUOUS
 10
0.775724
 20
-3.438346
  0
VERTEX
  8
PLAN_1
  6
CONTINUOUS
 10
0.776161
 20
-3.433972
  0
VERTEX
  8
PLAN_1
  6
CONTINUOUS
 10
0.776598
 20
-3.429161
  0
VERTEX
  8
PLAN_1
  6
CONTINUOUS
 10
0.776161
 20
-3.425661
  0
VERTEX
  8
PLAN_1
  6
CONTINUOUS
 10
0.776161
 20
-3.422165
  0
VERTEX
  8
PLAN_1
  6
CONTINUOUS
 10
0.775287
 20
-3.418665
  0
VERTEX
  8
PLAN_1
  6
CONTINUOUS
 10
0.774413
 20
-3.415165
  0
VERTEX
  8
PLAN_1
  6
CONTINUOUS
 10
0.773539
 20
-3.412102
  0
VERTEX
  8
PLAN_1
  6
CONTINUOUS
 10
0.771787
 20
-3.408602
  0
VERTEX
  8
PLAN_1
  6
CONTINUOUS
 10
0.770039
 20
-3.405102
  0
VERTEX
  8
PLAN_1
  6
CONTINUOUS
 10
0.768287
 20
-3.402043
  0
VERTEX
  8
PLAN_1
  6
CONTINUOUS
 10
0.765665
 20
-3.398980
  0
VERTEX
  8
PLAN_1
  6
CONTINUOUS
 10
0.762602
 20
-3.396354
  0
VERTEX
  8
PLAN_1
  6
CONTINUOUS
 10
0.759539
 20
-3.394169
  0
VERTEX
  8
PLAN_1
  6
CONTINUOUS
 10
0.756039
 20
-3.391980
  0
VERTEX
  8
PLAN_1
  6
CONTINUOUS
 10
0.752106
 20
-3.390232
  0
VERTEX
  8
PLAN_1
  6
CONTINUOUS
 10
0.747291
 20
-3.388921
  0
VERTEX
  8
PLAN_1
  6
CONTINUOUS
 10
0.742480
 20
-3.388043
  0
VERTEX
  8
PLAN_1
  6
CONTINUOUS
 10
0.737232
 20
-3.388043
  0
VERTEX
  8
PLAN_1
  6
CONTINUOUS
 10
0.731984
 20
-3.388043
  0
VERTEX
  8
PLAN_1
  6
CONTINUOUS
 10
0.727610
 20
-3.388921
  0
VERTEX
  8
PLAN_1
  6
CONTINUOUS
 10
0.723236
 20
-3.389795
  0
VERTEX
  8
PLAN_1
  6
CONTINUOUS
 10
0.719299
 20
-3.391543
  0
VERTEX
  8
PLAN_1
  6
CONTINUOUS
 10
0.715799
 20
-3.393295
  0
VERTEX
  8
PLAN_1
  6
CONTINUOUS
 10
0.712736
 20
-3.395480
  0
VERTEX
  8
PLAN_1
  6
CONTINUOUS
 10
0.709673
 20
-3.397669
  0
VERTEX
  8
PLAN_1
  6
CONTINUOUS
 10
0.707051
 20
-3.400728
  0
VERTEX
  8
PLAN_1
  6
CONTINUOUS
 10
0.704862
 20
-3.403791
  0
VERTEX
  8
PLAN_1
  6
CONTINUOUS
 10
0.702677
 20
-3.406854
  0
VERTEX
  8
PLAN_1
  6
CONTINUOUS
 10
0.700925
 20
-3.410354
  0
VERTEX
  8
PLAN_1
  6
CONTINUOUS
 10
0.699614
 20
-3.414291
  0
VERTEX
  8
PLAN_1
  6
CONTINUOUS
 10
0.698303
 20
-3.417787
  0
VERTEX
  8
PLAN_1
  6
CONTINUOUS
 10
0.697866
 20
-3.422165
  0
VERTEX
  8
PLAN_1
  6
CONTINUOUS
 10
0.697429
 20
-3.426098
  0
VERTEX
  8
PLAN_1
  6
CONTINUOUS
 10
0.696988
 20
-3.430472
  0
VERTEX
  8
PLAN_1
  6
CONTINUOUS
 10
0.697429
 20
-3.434409
  0
VERTEX
  8
PLAN_1
  6
CONTINUOUS
 10
0.697866
 20
-3.438346
  0
VERTEX
  8
PLAN_1
  6
CONTINUOUS
 10
0.698303
 20
-3.442283
  0
VERTEX
  8
PLAN_1
  6
CONTINUOUS
 10
0.699614
 20
-3.445783
  0
VERTEX
  8
PLAN_1
  6
CONTINUOUS
 10
0.700925
 20
-3.449720
  0
VERTEX
  8
PLAN_1
  6
CONTINUOUS
 10
0.702677
 20
-3.453220
  0
VERTEX
  8
PLAN_1
  6
CONTINUOUS
 10
0.704425
 20
-3.456720
  0
VERTEX
  8
PLAN_1
  6
CONTINUOUS
 10
0.707051
 20
-3.459780
  0
VERTEX
  8
PLAN_1
  6
CONTINUOUS
 10
0.709673
 20
-3.462843
  0
VERTEX
  8
PLAN_1
  6
CONTINUOUS
 10
0.712736
 20
-3.465469
  0
VERTEX
  8
PLAN_1
  6
CONTINUOUS
 10
0.715799
 20
-3.468091
  0
VERTEX
  8
PLAN_1
  6
CONTINUOUS
 10
0.719736
 20
-3.469843
  0
VERTEX
  8
PLAN_1
  6
CONTINUOUS
 10
0.723673
 20
-3.471591
  0
VERTEX
  8
PLAN_1
  6
CONTINUOUS
 10
0.728047
 20
-3.472906
  0
VERTEX
  8
PLAN_1
  6
CONTINUOUS
 10
0.732858
 20
-3.473343
  0
VERTEX
  8
PLAN_1
  6
CONTINUOUS
 10
0.738106
 20
-3.473780
  0
SEQEND
  8
0
  0
POLYLINE
  8
PLAN_1
  6
CONTINUOUS
 66
     1
 40
0.003000
 41
0.003000
  0
VERTEX
  8
PLAN_1
  6
CONTINUOUS
 10
0.824717
 20
-3.365299
  0
VERTEX
  8
PLAN_1
  6
CONTINUOUS
 10
0.824717
 20
-3.359614
  0
VERTEX
  8
PLAN_1
  6
CONTINUOUS
 10
0.825154
 20
-3.353925
  0
VERTEX
  8
PLAN_1
  6
CONTINUOUS
 10
0.825591
 20
-3.348677
  0
VERTEX
  8
PLAN_1
  6
CONTINUOUS
 10
0.826465
 20
-3.343866
  0
VERTEX
  8
PLAN_1
  6
CONTINUOUS
 10
0.827776
 20
-3.339492
  0
VERTEX
  8
PLAN_1
  6
CONTINUOUS
 10
0.829091
 20
-3.335118
  0
VERTEX
  8
PLAN_1
  6
CONTINUOUS
 10
0.830402
 20
-3.331181
  0
VERTEX
  8
PLAN_1
  6
CONTINUOUS
 10
0.832150
 20
-3.327681
  0
VERTEX
  8
PLAN_1
  6
CONTINUOUS
 10
0.833902
 20
-3.324181
  0
VERTEX
  8
PLAN_1
  6
CONTINUOUS
 10
0.836087
 20
-3.320681
  0
VERTEX
  8
PLAN_1
  6
CONTINUOUS
 10
0.837839
 20
-3.318059
  0
VERTEX
  8
PLAN_1
  6
CONTINUOUS
 10
0.840461
 20
-3.314996
  0
VERTEX
  8
PLAN_1
  6
CONTINUOUS
 10
0.845276
 20
-3.310622
  0
VERTEX
  8
PLAN_1
  6
CONTINUOUS
 10
0.850524
 20
-3.306248
  0
VERTEX
  8
PLAN_1
  6
CONTINUOUS
 10
0.855772
 20
-3.303185
  0
VERTEX
  8
PLAN_1
  6
CONTINUOUS
 10
0.861457
 20
-3.300563
  0
VERTEX
  8
PLAN_1
  6
CONTINUOUS
 10
0.867146
 20
-3.298811
  0
VERTEX
  8
PLAN_1
  6
CONTINUOUS
 10
0.872394
 20
-3.297500
  0
VERTEX
  8
PLAN_1
  6
CONTINUOUS
 10
0.878079
 20
-3.296189
  0
VERTEX
  8
PLAN_1
  6
CONTINUOUS
 10
0.882890
 20
-3.295752
  0
VERTEX
  8
PLAN_1
  6
CONTINUOUS
 10
0.887705
 20
-3.295311
  0
VERTEX
  8
PLAN_1
  6
CONTINUOUS
 10
0.892079
 20
-3.295311
  0
VERTEX
  8
PLAN_1
  6
CONTINUOUS
 10
0.898201
 20
-3.295752
  0
VERTEX
  8
PLAN_1
  6
CONTINUOUS
 10
0.904327
 20
-3.296189
  0
VERTEX
  8
PLAN_1
  6
CONTINUOUS
 10
0.910012
 20
-3.297500
  0
VERTEX
  8
PLAN_1
  6
CONTINUOUS
 10
0.915697
 20
-3.299248
  0
VERTEX
  8
PLAN_1
  6
CONTINUOUS
 10
0.920949
 20
-3.301437
  0
VERTEX
  8
PLAN_1
  6
CONTINUOUS
 10
0.926197
 20
-3.304063
  0
VERTEX
  8
PLAN_1
  6
CONTINUOUS
 10
0.931008
 20
-3.307122
  0
VERTEX
  8
PLAN_1
  6
CONTINUOUS
 10
0.935382
 20
-3.310622
  0
VERTEX
  8
PLAN_1
  6
CONTINUOUS
 10
0.939319
 20
-3.314996
  0
VERTEX
  8
PLAN_1
  6
CONTINUOUS
 10
0.942819
 20
-3.319370
  0
VERTEX
  8
PLAN_1
  6
CONTINUOUS
 10
0.945878
 20
-3.323744
  0
VERTEX
  8
PLAN_1
  6
CONTINUOUS
 10
0.948067
 20
-3.328992
  0
VERTEX
  8
PLAN_1
  6
CONTINUOUS
 10
0.950252
 20
-3.334681
  0
VERTEX
  8
PLAN_1
  6
CONTINUOUS
 10
0.951567
 20
-3.340803
  0
VERTEX
  8
PLAN_1
  6
CONTINUOUS
 10
0.952878
 20
-3.346929
  0
VERTEX
  8
PLAN_1
  6
CONTINUOUS
 10
0.952878
 20
-3.353488
  0
VERTEX
  8
PLAN_1
  6
CONTINUOUS
 10
0.952878
 20
-3.360051
  0
VERTEX
  8
PLAN_1
  6
CONTINUOUS
 10
0.952004
 20
-3.365736
  0
VERTEX
  8
PLAN_1
  6
CONTINUOUS
 10
0.950693
 20
-3.371425
  0
VERTEX
  8
PLAN_1
  6
CONTINUOUS
 10
0.948941
 20
-3.376236
  0
VERTEX
  8
PLAN_1
  6
CONTINUOUS
 10
0.946756
 20
-3.381047
  0
VERTEX
  8
PLAN_1
  6
CONTINUOUS
 10
0.944130
 20
-3.385421
  0
VERTEX
  8
PLAN_1
  6
CONTINUOUS
 10
0.941067
 20
-3.389795
  0
VERTEX
  8
PLAN_1
  6
CONTINUOUS
 10
0.938008
 20
-3.393295
  0
VERTEX
  8
PLAN_1
  6
CONTINUOUS
 10
0.934071
 20
-3.397232
  0
VERTEX
  8
PLAN_1
  6
CONTINUOUS
 10
0.930134
 20
-3.400728
  0
VERTEX
  8
PLAN_1
  6
CONTINUOUS
 10
0.925760
 20
-3.403791
  0
VERTEX
  8
PLAN_1
  6
CONTINUOUS
 10
0.921386
 20
-3.406854
  0
VERTEX
  8
PLAN_1
  6
CONTINUOUS
 10
0.911323
 20
-3.412976
  0
VERTEX
  8
PLAN_1
  6
CONTINUOUS
 10
0.900827
 20
-3.418665
  0
VERTEX
  8
PLAN_1
  6
CONTINUOUS
 10
0.880705
 20
-3.430035
  0
VERTEX
  8
PLAN_1
  6
CONTINUOUS
 10
0.875894
 20
-3.432661
  0
VERTEX
  8
PLAN_1
  6
CONTINUOUS
 10
0.871520
 20
-3.435287
  0
VERTEX
  8
PLAN_1
  6
CONTINUOUS
 10
0.867583
 20
-3.438346
  0
VERTEX
  8
PLAN_1
  6
CONTINUOUS
 10
0.864083
 20
-3.440972
  0
VERTEX
  8
PLAN_1
  6
CONTINUOUS
 10
0.858398
 20
-3.446220
  0
VERTEX
  8
PLAN_1
  6
CONTINUOUS
 10
0.854024
 20
-3.451469
  0
VERTEX
  8
PLAN_1
  6
CONTINUOUS
 10
0.850961
 20
-3.456283
  0
VERTEX
  8
PLAN_1
  6
CONTINUOUS
 10
0.848772
 20
-3.460220
  0
VERTEX
  8
PLAN_1
  6
CONTINUOUS
 10
0.847461
 20
-3.464154
  0
VERTEX
  8
PLAN_1
  6
CONTINUOUS
 10
0.847024
 20
-3.467217
  0
VERTEX
  8
PLAN_1
  6
CONTINUOUS
 10
0.952878
 20
-3.467217
  0
VERTEX
  8
PLAN_1
  6
CONTINUOUS
 10
0.952878
 20
-3.490402
  0
VERTEX
  8
PLAN_1
  6
CONTINUOUS
 10
0.819465
 20
-3.490402
  0
VERTEX
  8
PLAN_1
  6
CONTINUOUS
 10
0.819906
 20
-3.482965
  0
VERTEX
  8
PLAN_1
  6
CONTINUOUS
 10
0.820780
 20
-3.475965
  0
VERTEX
  8
PLAN_1
  6
CONTINUOUS
 10
0.822091
 20
-3.469406
  0
VERTEX
  8
PLAN_1
  6
CONTINUOUS
 10
0.823402
 20
-3.463280
  0
VERTEX
  8
PLAN_1
  6
CONTINUOUS
 10
0.825591
 20
-3.457594
  0
VERTEX
  8
PLAN_1
  6
CONTINUOUS
 10
0.827776
 20
-3.451909
  0
VERTEX
  8
PLAN_1
  6
CONTINUOUS
 10
0.830402
 20
-3.447094
  0
VERTEX
  8
PLAN_1
  6
CONTINUOUS
 10
0.833028
 20
-3.442283
  0
VERTEX
  8
PLAN_1
  6
CONTINUOUS
 10
0.836528
 20
-3.437909
  0
VERTEX
  8
PLAN_1
  6
CONTINUOUS
 10
0.839587
 20
-3.433535
  0
VERTEX
  8
PLAN_1
  6
CONTINUOUS
 10
0.843524
 20
-3.429598
  0
VERTEX
  8
PLAN_1
  6
CONTINUOUS
 10
0.847461
 20
-3.425661
  0
VERTEX
  8
PLAN_1
  6
CONTINUOUS
 10
0.851398
 20
-3.422165
  0
VERTEX
  8
PLAN_1
  6
CONTINUOUS
 10
0.855772
 20
-3.419102
  0
VERTEX
  8
PLAN_1
  6
CONTINUOUS
 10
0.860583
 20
-3.416039
  0
VERTEX
  8
PLAN_1
  6
CONTINUOUS
 10
0.865394
 20
-3.412976
  0
VERTEX
  8
PLAN_1
  6
CONTINUOUS
 10
0.891201
 20
-3.398106
  0
VERTEX
  8
PLAN_1
  6
CONTINUOUS
 10
0.898638
 20
-3.393732
  0
VERTEX
  8
PLAN_1
  6
CONTINUOUS
 10
0.905638
 20
-3.389358
  0
VERTEX
  8
PLAN_1
  6
CONTINUOUS
 10
0.911760
 20
-3.384984
  0
VERTEX
  8
PLAN_1
  6
CONTINUOUS
 10
0.917012
 20
-3.380173
  0
VERTEX
  8
PLAN_1
  6
CONTINUOUS
 10
0.919197
 20
-3.377547
  0
VERTEX
  8
PLAN_1
  6
CONTINUOUS
 10
0.920949
 20
-3.374921
  0
VERTEX
  8
PLAN_1
  6
CONTINUOUS
 10
0.922697
 20
-3.371862
  0
VERTEX
  8
PLAN_1
  6
CONTINUOUS
 10
0.924445
 20
-3.368799
  0
VERTEX
  8
PLAN_1
  6
CONTINUOUS
 10
0.925323
 20
-3.365299
  0
VERTEX
  8
PLAN_1
  6
CONTINUOUS
 10
0.926197
 20
-3.361362
  0
VERTEX
  8
PLAN_1
  6
CONTINUOUS
 10
0.926634
 20
-3.356988
  0
VERTEX
  8
PLAN_1
  6
CONTINUOUS
 10
0.927071
 20
-3.352614
  0
VERTEX
  8
PLAN_1
  6
CONTINUOUS
 10
0.926634
 20
-3.349551
  0
VERTEX
  8
PLAN_1
  6
CONTINUOUS
 10
0.926634
 20
-3.346492
  0
VERTEX
  8
PLAN_1
  6
CONTINUOUS
 10
0.925760
 20
-3.343429
  0
VERTEX
  8
PLAN_1
  6
CONTINUOUS
 10
0.924882
 20
-3.340366
  0
VERTEX
  8
PLAN_1
  6
CONTINUOUS
 10
0.923571
 20
-3.337303
  0
VERTEX
  8
PLAN_1
  6
CONTINUOUS
 10
0.922260
 20
-3.334681
  0
VERTEX
  8
PLAN_1
  6
CONTINUOUS
 10
0.920508
 20
-3.331618
  0
VERTEX
  8
PLAN_1
  6
CONTINUOUS
 10
0.918323
 20
-3.328992
  0
VERTEX
  8
PLAN_1
  6
CONTINUOUS
 10
0.916134
 20
-3.326370
  0
VERTEX
  8
PLAN_1
  6
CONTINUOUS
 10
0.913075
 20
-3.324181
  0
VERTEX
  8
PLAN_1
  6
CONTINUOUS
 10
0.910012
 20
-3.322433
  0
VERTEX
  8
PLAN_1
  6
CONTINUOUS
 10
0.906512
 20
-3.320681
  0
VERTEX
  8
PLAN_1
  6
CONTINUOUS
 10
0.902575
 20
-3.318933
  0
VERTEX
  8
PLAN_1
  6
CONTINUOUS
 10
0.898201
 20
-3.318059
  0
VERTEX
  8
PLAN_1
  6
CONTINUOUS
 10
0.893390
 20
-3.317622
  0
VERTEX
  8
PLAN_1
  6
CONTINUOUS
 10
0.888579
 20
-3.317185
  0
VERTEX
  8
PLAN_1
  6
CONTINUOUS
 10
0.882016
 20
-3.317622
  0
VERTEX
  8
PLAN_1
  6
CONTINUOUS
 10
0.875894
 20
-3.318933
  0
VERTEX
  8
PLAN_1
  6
CONTINUOUS
 10
0.871083
 20
-3.320681
  0
VERTEX
  8
PLAN_1
  6
CONTINUOUS
 10
0.866709
 20
-3.322870
  0
VERTEX
  8
PLAN_1
  6
CONTINUOUS
 10
0.863209
 20
-3.325496
  0
VERTEX
  8
PLAN_1
  6
CONTINUOUS
 10
0.859709
 20
-3.328992
  0
VERTEX
  8
PLAN_1
  6
CONTINUOUS
 10
0.857083
 20
-3.332492
  0
VERTEX
  8
PLAN_1
  6
CONTINUOUS
 10
0.855335
 20
-3.335992
  0
VERTEX
  8
PLAN_1
  6
CONTINUOUS
 10
0.853587
 20
-3.339929
  0
VERTEX
  8
PLAN_1
  6
CONTINUOUS
 10
0.851835
 20
-3.343866
  0
VERTEX
  8
PLAN_1
  6
CONTINUOUS
 10
0.850961
 20
-3.348240
  0
VERTEX
  8
PLAN_1
  6
CONTINUOUS
 10
0.850087
 20
-3.352177
  0
VERTEX
  8
PLAN_1
  6
CONTINUOUS
 10
0.849213
 20
-3.359177
  0
VERTEX
  8
PLAN_1
  6
CONTINUOUS
 10
0.848772
 20
-3.365299
  0
VERTEX
  8
PLAN_1
  6
CONTINUOUS
 10
0.824717
 20
-3.365299
  0
SEQEND
  8
0
  0
POLYLINE
  8
PLAN_1
  6
CONTINUOUS
 66
     1
 40
0.003000
 41
0.003000
  0
VERTEX
  8
PLAN_1
  6
CONTINUOUS
 10
0.978248
 20
-3.362236
  0
VERTEX
  8
PLAN_1
  6
CONTINUOUS
 10
0.978685
 20
-3.355677
  0
VERTEX
  8
PLAN_1
  6
CONTINUOUS
 10
0.979122
 20
-3.349114
  0
VERTEX
  8
PLAN_1
  6
CONTINUOUS
 10
0.980437
 20
-3.342992
  0
VERTEX
  8
PLAN_1
  6
CONTINUOUS
 10
0.982185
 20
-3.336866
  0
VERTEX
  8
PLAN_1
  6
CONTINUOUS
 10
0.984374
 20
-3.330744
  0
VERTEX
  8
PLAN_1
  6
CONTINUOUS
 10
0.987433
 20
-3.325496
  0
VERTEX
  8
PLAN_1
  6
CONTINUOUS
 10
0.990496
 20
-3.320244
  0
VERTEX
  8
PLAN_1
  6
CONTINUOUS
 10
0.994433
 20
-3.315433
  0
VERTEX
  8
PLAN_1
  6
CONTINUOUS
 10
0.998370
 20
-3.311059
  0
VERTEX
  8
PLAN_1
  6
CONTINUOUS
 10
1.003181
 20
-3.307122
  0
VERTEX
  8
PLAN_1
  6
CONTINUOUS
 10
1.008429
 20
-3.303622
  0
VERTEX
  8
PLAN_1
  6
CONTINUOUS
 10
1.014118
 20
-3.300563
  0
VERTEX
  8
PLAN_1
  6
CONTINUOUS
 10
1.019803
 20
-3.298374
  0
VERTEX
  8
PLAN_1
  6
CONTINUOUS
 10
1.026362
 20
-3.296626
  0
VERTEX
  8
PLAN_1
  6
CONTINUOUS
 10
1.033362
 20
-3.295752
  0
VERTEX
  8
PLAN_1
  6
CONTINUOUS
 10
1.041236
 20
-3.295311
  0
VERTEX
  8
PLAN_1
  6
CONTINUOUS
 10
1.046484
 20
-3.295311
  0
VERTEX
  8
PLAN_1
  6
CONTINUOUS
 10
1.052173
 20
-3.296189
  0
VERTEX
  8
PLAN_1
  6
CONTINUOUS
 10
1.056984
 20
-3.296626
  0
VERTEX
  8
PLAN_1
  6
CONTINUOUS
 10
1.061795
 20
-3.297937
  0
VERTEX
  8
PLAN_1
  6
CONTINUOUS
 10
1.066169
 20
-3.299248
  0
VERTEX
  8
PLAN_1
  6
CONTINUOUS
 10
1.070543
 20
-3.301000
  0
VERTEX
  8
PLAN_1
  6
CONTINUOUS
 10
1.074480
 20
-3.302748
  0
VERTEX
  8
PLAN_1
  6
CONTINUOUS
 10
1.077980
 20
-3.304937
  0
VERTEX
  8
PLAN_1
  6
CONTINUOUS
 10
1.081480
 20
-3.307559
  0
VERTEX
  8
PLAN_1
  6
CONTINUOUS
 10
1.084539
 20
-3.309748
  0
VERTEX
  8
PLAN_1
  6
CONTINUOUS
 10
1.087165
 20
-3.312811
  0
VERTEX
  8
PLAN_1
  6
CONTINUOUS
 10
1.089787
 20
-3.315433
  0
VERTEX
  8
PLAN_1
  6
CONTINUOUS
 10
1.092413
 20
-3.318496
  0
VERTEX
  8
PLAN_1
  6
CONTINUOUS
 10
1.094602
 20
-3.321996
  0
VERTEX
  8
PLAN_1
  6
CONTINUOUS
 10
1.096787
 20
-3.325059
  0
VERTEX
  8
PLAN_1
  6
CONTINUOUS
 10
1.098539
 20
-3.328555
  0
VERTEX
  8
PLAN_1
  6
CONTINUOUS
 10
1.101598
 20
-3.335992
  0
VERTEX
  8
PLAN_1
  6
CONTINUOUS
 10
1.104224
 20
-3.343429
  0
VERTEX
  8
PLAN_1
  6
CONTINUOUS
 10
1.105972
 20
-3.350866
  0
VERTEX
  8
PLAN_1
  6
CONTINUOUS
 10
1.107287
 20
-3.358299
  0
VERTEX
  8
PLAN_1
  6
CONTINUOUS
 10
1.108161
 20
-3.365736
  0
VERTEX
  8
PLAN_1
  6
CONTINUOUS
 10
1.109035
 20
-3.372736
  0
VERTEX
  8
PLAN_1
  6
CONTINUOUS
 10
1.109035
 20
-3.379732
  0
VERTEX
  8
PLAN_1
  6
CONTINUOUS
 10
1.109472
 20
-3.385858
  0
VERTEX
  8
PLAN_1
  6
CONTINUOUS
 10
1.109035
 20
-3.396354
  0
VERTEX
  8
PLAN_1
  6
CONTINUOUS
 10
1.107724
 20
-3.411665
  0
VERTEX
  8
PLAN_1
  6
CONTINUOUS
 10
1.106409
 20
-3.420413
  0
VERTEX
  8
PLAN_1
  6
CONTINUOUS
 10
1.104661
 20
-3.429598
  0
VERTEX
  8
PLAN_1
  6
CONTINUOUS
 10
1.102035
 20
-3.439224
  0
VERTEX
  8
PLAN_1
  6
CONTINUOUS
 10
1.098976
 20
-3.448409
  0
VERTEX
  8
PLAN_1
  6
CONTINUOUS
 10
1.097224
 20
-3.453220
  0
VERTEX
  8
PLAN_1
  6
CONTINUOUS
 10
1.095039
 20
-3.457594
  0
VERTEX
  8
PLAN_1
  6
CONTINUOUS
 10
1.092850
 20
-3.461969
  0
VERTEX
  8
PLAN_1
  6
CONTINUOUS
 10
1.090228
 20
-3.466343
  0
VERTEX
  8
PLAN_1
  6
CONTINUOUS
 10
1.087602
 20
-3.470280
  0
VERTEX
  8
PLAN_1
  6
CONTINUOUS
 10
1.084539
 20
-3.474217
  0
VERTEX
  8
PLAN_1
  6
CONTINUOUS
 10
1.081480
 20
-3.478154
  0
VERTEX
  8
PLAN_1
  6
CONTINUOUS
 10
1.077980
 20
-3.481213
  0
VERTEX
  8
PLAN_1
  6
CONTINUOUS
 10
1.074043
 20
-3.484713
  0
VERTEX
  8
PLAN_1
  6
CONTINUOUS
 10
1.070106
 20
-3.487339
  0
VERTEX
  8
PLAN_1
  6
CONTINUOUS
 10
1.065732
 20
-3.489524
  0
VERTEX
  8
PLAN_1
  6
CONTINUOUS
 10
1.060921
 20
-3.491713
  0
VERTEX
  8
PLAN_1
  6
CONTINUOUS
 10
1.055669
 20
-3.493461
  0
VERTEX
  8
PLAN_1
  6
CONTINUOUS
 10
1.050421
 20
-3.494776
  0
VERTEX
  8
PLAN_1
  6
CONTINUOUS
 10
1.044736
 20
-3.495213
  0
VERTEX
  8
PLAN_1
  6
CONTINUOUS
 10
1.038610
 20
-3.495650
  0
VERTEX
  8
PLAN_1
  6
CONTINUOUS
 10
1.030299
 20
-3.495213
  0
VERTEX
  8
PLAN_1
  6
CONTINUOUS
 10
1.022866
 20
-3.494339
  0
VERTEX
  8
PLAN_1
  6
CONTINUOUS
 10
1.016303
 20
-3.492587
  0
VERTEX
  8
PLAN_1
  6
CONTINUOUS
 10
1.010181
 20
-3.489965
  0
VERTEX
  8
PLAN_1
  6
CONTINUOUS
 10
1.004929
 20
-3.487339
  0
VERTEX
  8
PLAN_1
  6
CONTINUOUS
 10
1.000118
 20
-3.484276
  0
VERTEX
  8
PLAN_1
  6
CONTINUOUS
 10
0.995744
 20
-3.480339
  0
VERTEX
  8
PLAN_1
  6
CONTINUOUS
 10
0.992244
 20
-3.476839
  0
VERTEX
  8
PLAN_1
  6
CONTINUOUS
 10
0.989185
 20
-3.472465
  0
VERTEX
  8
PLAN_1
  6
CONTINUOUS
 10
0.986996
 20
-3.468091
  0
VERTEX
  8
PLAN_1
  6
CONTINUOUS
 10
0.984811
 20
-3.464154
  0
VERTEX
  8
PLAN_1
  6
CONTINUOUS
 10
0.983059
 20
-3.459780
  0
VERTEX
  8
PLAN_1
  6
CONTINUOUS
 10
0.982185
 20
-3.455406
  0
VERTEX
  8
PLAN_1
  6
CONTINUOUS
 10
0.981311
 20
-3.451031
  0
VERTEX
  8
PLAN_1
  6
CONTINUOUS
 10
0.980874
 20
-3.447094
  0
VERTEX
  8
PLAN_1
  6
CONTINUOUS
 10
0.980437
 20
-3.443598
  0
VERTEX
  8
PLAN_1
  6
CONTINUOUS
 10
1.004929
 20
-3.443598
  0
VERTEX
  8
PLAN_1
  6
CONTINUOUS
 10
1.005366
 20
-3.447094
  0
VERTEX
  8
PLAN_1
  6
CONTINUOUS
 10
1.005807
 20
-3.450594
  0
VERTEX
  8
PLAN_1
  6
CONTINUOUS
 10
1.006681
 20
-3.453657
  0
VERTEX
  8
PLAN_1
  6
CONTINUOUS
 10
1.007992
 20
-3.456720
  0
VERTEX
  8
PLAN_1
  6
CONTINUOUS
 10
1.009303
 20
-3.459780
  0
VERTEX
  8
PLAN_1
  6
CONTINUOUS
 10
1.010618
 20
-3.462406
  0
VERTEX
  8
PLAN_1
  6
CONTINUOUS
 10
1.012366
 20
-3.464594
  0
VERTEX
  8
PLAN_1
  6
CONTINUOUS
 10
1.014555
 20
-3.466780
  0
VERTEX
  8
PLAN_1
  6
CONTINUOUS
 10
1.016740
 20
-3.468969
  0
VERTEX
  8
PLAN_1
  6
CONTINUOUS
 10
1.018929
 20
-3.470280
  0
VERTEX
  8
PLAN_1
  6
CONTINUOUS
 10
1.021551
 20
-3.472028
  0
VERTEX
  8
PLAN_1
  6
CONTINUOUS
 10
1.024614
 20
-3.473343
  0
VERTEX
  8
PLAN_1
  6
CONTINUOUS
 10
1.027677
 20
-3.474217
  0
VERTEX
  8
PLAN_1
  6
CONTINUOUS
 10
1.030736
 20
-3.474654
  0
VERTEX
  8
PLAN_1
  6
CONTINUOUS
 10
1.034236
 20
-3.475091
  0
VERTEX
  8
PLAN_1
  6
CONTINUOUS
 10
1.038173
 20
-3.475528
  0
VERTEX
  8
PLAN_1
  6
CONTINUOUS
 10
1.042984
 20
-3.475091
  0
VERTEX
  8
PLAN_1
  6
CONTINUOUS
 10
1.047358
 20
-3.474217
  0
VERTEX
  8
PLAN_1
  6
CONTINUOUS
 10
1.051732
 20
-3.472906
  0
VERTEX
  8
PLAN_1
  6
CONTINUOUS
 10
1.055669
 20
-3.471154
  0
VERTEX
  8
PLAN_1
  6
CONTINUOUS
 10
1.059606
 20
-3.468528
  0
VERTEX
  8
PLAN_1
  6
CONTINUOUS
 10
1.063106
 20
-3.465469
  0
VERTEX
  8
PLAN_1
  6
CONTINUOUS
 10
1.066169
 20
-3.461969
  0
VERTEX
  8
PLAN_1
  6
CONTINUOUS
 10
1.069232
 20
-3.458031
  0
VERTEX
  8
PLAN_1
  6
CONTINUOUS
 10
1.071854
 20
-3.453220
  0
VERTEX
  8
PLAN_1
  6
CONTINUOUS
 10
1.074480
 20
-3.447535
  0
VERTEX
  8
PLAN_1
  6
CONTINUOUS
 10
1.076665
 20
-3.441846
  0
VERTEX
  8
PLAN_1
  6
CONTINUOUS
 10
1.078854
 20
-3.435287
  0
VERTEX
  8
PLAN_1
  6
CONTINUOUS
 10
1.080602
 20
-3.427850
  0
VERTEX
  8
PLAN_1
  6
CONTINUOUS
 10
1.082354
 20
-3.419976
  0
VERTEX
  8
PLAN_1
  6
CONTINUOUS
 10
1.083665
 20
-3.411665
  0
VERTEX
  8
PLAN_1
  6
CONTINUOUS
 10
1.084976
 20
-3.402480
  0
VERTEX
  8
PLAN_1
  6
CONTINUOUS
 10
1.084539
 20
-3.402043
  0
VERTEX
  8
PLAN_1
  6
CONTINUOUS
 10
1.082791
 20
-3.404665
  0
VERTEX
  8
PLAN_1
  6
CONTINUOUS
 10
1.081039
 20
-3.407291
  0
VERTEX
  8
PLAN_1
  6
CONTINUOUS
 10
1.078854
 20
-3.409480
  0
VERTEX
  8
PLAN_1
  6
CONTINUOUS
 10
1.076665
 20
-3.411665
  0
VERTEX
  8
PLAN_1
  6
CONTINUOUS
 10
1.074480
 20
-3.413854
  0
VERTEX
  8
PLAN_1
  6
CONTINUOUS
 10
1.071854
 20
-3.416039
  0
VERTEX
  8
PLAN_1
  6
CONTINUOUS
 10
1.068795
 20
-3.417350
  0
VERTEX
  8
PLAN_1
  6
CONTINUOUS
 10
1.066169
 20
-3.419102
  0
VERTEX
  8
PLAN_1
  6
CONTINUOUS
 10
1.059606
 20
-3.421724
  0
VERTEX
  8
PLAN_1
  6
CONTINUOUS
 10
1.053047
 20
-3.423476
  0
VERTEX
  8
PLAN_1
  6
CONTINUOUS
 10
1.046484
 20
-3.424787
  0
VERTEX
  8
PLAN_1
  6
CONTINUOUS
 10
1.039488
 20
-3.425224
  0
VERTEX
  8
PLAN_1
  6
CONTINUOUS
 10
1.032925
 20
-3.424787
  0
VERTEX
  8
PLAN_1
  6
CONTINUOUS
 10
1.026803
 20
-3.423913
  0
VERTEX
  8
PLAN_1
  6
CONTINUOUS
 10
1.020677
 20
-3.422602
  0
VERTEX
  8
PLAN_1
  6
CONTINUOUS
 10
1.014992
 20
-3.420850
  0
VERTEX
  8
PLAN_1
  6
CONTINUOUS
 10
1.009303
 20
-3.418228
  0
VERTEX
  8
PLAN_1
  6
CONTINUOUS
 10
1.004492
 20
-3.415602
  0
VERTEX
  8
PLAN_1
  6
CONTINUOUS
 10
0.999681
 20
-3.412102
  0
VERTEX
  8
PLAN_1
  6
CONTINUOUS
 10
0.995307
 20
-3.408165
  0
VERTEX
  8
PLAN_1
  6
CONTINUOUS
 10
0.991807
 20
-3.403791
  0
VERTEX
  8
PLAN_1
  6
CONTINUOUS
 10
0.988307
 20
-3.398980
  0
VERTEX
  8
PLAN_1
  6
CONTINUOUS
 10
0.985248
 20
-3.394169
  0
VERTEX
  8
PLAN_1
  6
CONTINUOUS
 10
0.982622
 20
-3.388484
  0
VERTEX
  8
PLAN_1
  6
CONTINUOUS
 10
0.980874
 20
-3.382358
  0
VERTEX
  8
PLAN_1
  6
CONTINUOUS
 10
0.979559
 20
-3.376236
  0
VERTEX
  8
PLAN_1
  6
CONTINUOUS
 10
0.978685
 20
-3.369236
  0
VERTEX
  8
PLAN_1
  6
CONTINUOUS
 10
0.978248
 20
-3.362236
  0
SEQEND
  8
0
  0
POLYLINE
  8
PLAN_1
  6
CONTINUOUS
 66
     1
 40
0.003000
 41
0.003000
  0
VERTEX
  8
PLAN_1
  6
CONTINUOUS
 10
1.080602
 20
-3.358736
  0
VERTEX
  8
PLAN_1
  6
CONTINUOUS
 10
1.080602
 20
-3.354803
  0
VERTEX
  8
PLAN_1
  6
CONTINUOUS
 10
1.080165
 20
-3.350866
  0
VERTEX
  8
PLAN_1
  6
CONTINUOUS
 10
1.079291
 20
-3.346929
  0
VERTEX
  8
PLAN_1
  6
CONTINUOUS
 10
1.078417
 20
-3.342992
  0
VERTEX
  8
PLAN_1
  6
CONTINUOUS
 10
1.077102
 20
-3.339492
  0
VERTEX
  8
PLAN_1
  6
CONTINUOUS
 10
1.075791
 20
-3.335992
  0
VERTEX
  8
PLAN_1
  6
CONTINUOUS
 10
1.073606
 20
-3.332929
  0
VERTEX
  8
PLAN_1
  6
CONTINUOUS
 10
1.071417
 20
-3.329870
  0
VERTEX
  8
PLAN_1
  6
CONTINUOUS
 10
1.068795
 20
-3.326807
  0
VERTEX
  8
PLAN_1
  6
CONTINUOUS
 10
1.066169
 20
-3.324618
  0
VERTEX
  8
PLAN_1
  6
CONTINUOUS
 10
1.062669
 20
-3.322433
  0
VERTEX
  8
PLAN_1
  6
CONTINUOUS
 10
1.059169
 20
-3.320681
  0
VERTEX
  8
PLAN_1
  6
CONTINUOUS
 10
1.055232
 20
-3.319370
  0
VERTEX
  8
PLAN_1
  6
CONTINUOUS
 10
1.050858
 20
-3.318059
  0
VERTEX
  8
PLAN_1
  6
CONTINUOUS
 10
1.046484
 20
-3.317622
  0
VERTEX
  8
PLAN_1
  6
CONTINUOUS
 10
1.041236
 20
-3.317185
  0
VERTEX
  8
PLAN_1
  6
CONTINUOUS
 10
1.037299
 20
-3.317622
  0
VERTEX
  8
PLAN_1
  6
CONTINUOUS
 10
1.033362
 20
-3.318059
  0
VERTEX
  8
PLAN_1
  6
CONTINUOUS
 10
1.029425
 20
-3.318933
  0
VERTEX
  8
PLAN_1
  6
CONTINUOUS
 10
1.025925
 20
-3.320244
  0
VERTEX
  8
PLAN_1
  6
CONTINUOUS
 10
1.022429
 20
-3.321996
  0
VERTEX
  8
PLAN_1
  6
CONTINUOUS
 10
1.019366
 20
-3.324181
  0
VERTEX
  8
PLAN_1
  6
CONTINUOUS
 10
1.016303
 20
-3.326807
  0
VERTEX
  8
PLAN_1
  6
CONTINUOUS
 10
1.014118
 20
-3.329433
  0
VERTEX
  8
PLAN_1
  6
CONTINUOUS
 10
1.011492
 20
-3.332492
  0
VERTEX
  8
PLAN_1
  6
CONTINUOUS
 10
1.009303
 20
-3.335555
  0
VERTEX
  8
PLAN_1
  6
CONTINUOUS
 10
1.007555
 20
-3.339492
  0
VERTEX
  8
PLAN_1
  6
CONTINUOUS
 10
1.006244
 20
-3.343429
  0
VERTEX
  8
PLAN_1
  6
CONTINUOUS
 10
1.004929
 20
-3.347366
  0
VERTEX
  8
PLAN_1
  6
CONTINUOUS
 10
1.004055
 20
-3.351740
  0
VERTEX
  8
PLAN_1
  6
CONTINUOUS
 10
1.003618
 20
-3.356114
  0
VERTEX
  8
PLAN_1
  6
CONTINUOUS
 10
1.003618
 20
-3.360925
  0
VERTEX
  8
PLAN_1
  6
CONTINUOUS
 10
1.004055
 20
-3.367925
  0
VERTEX
  8
PLAN_1
  6
CONTINUOUS
 10
1.004492
 20
-3.373610
  0
VERTEX
  8
PLAN_1
  6
CONTINUOUS
 10
1.005807
 20
-3.378858
  0
VERTEX
  8
PLAN_1
  6
CONTINUOUS
 10
1.007555
 20
-3.383669
  0
VERTEX
  8
PLAN_1
  6
CONTINUOUS
 10
1.009303
 20
-3.387606
  0
VERTEX
  8
PLAN_1
  6
CONTINUOUS
 10
1.011929
 20
-3.390669
  0
VERTEX
  8
PLAN_1
  6
CONTINUOUS
 10
1.014555
 20
-3.393732
  0
VERTEX
  8
PLAN_1
  6
CONTINUOUS
 10
1.017177
 20
-3.396354
  0
VERTEX
  8
PLAN_1
  6
CONTINUOUS
 10
1.020240
 20
-3.398106
  0
VERTEX
  8
PLAN_1
  6
CONTINUOUS
 10
1.023303
 20
-3.399854
  0
VERTEX
  8
PLAN_1
  6
CONTINUOUS
 10
1.026803
 20
-3.401169
  0
VERTEX
  8
PLAN_1
  6
CONTINUOUS
 10
1.030299
 20
-3.402043
  0
VERTEX
  8
PLAN_1
  6
CONTINUOUS
 10
1.036862
 20
-3.402917
  0
VERTEX
  8
PLAN_1
  6
CONTINUOUS
 10
1.043425
 20
-3.403354
  0
VERTEX
  8
PLAN_1
  6
CONTINUOUS
 10
1.048673
 20
-3.402917
  0
VERTEX
  8
PLAN_1
  6
CONTINUOUS
 10
1.054358
 20
-3.401606
  0
VERTEX
  8
PLAN_1
  6
CONTINUOUS
 10
1.057421
 20
-3.400728
  0
VERTEX
  8
PLAN_1
  6
CONTINUOUS
 10
1.060921
 20
-3.399417
  0
VERTEX
  8
PLAN_1
  6
CONTINUOUS
 10
1.063980
 20
-3.397669
  0
VERTEX
  8
PLAN_1
  6
CONTINUOUS
 10
1.066606
 20
-3.395480
  0
VERTEX
  8
PLAN_1
  6
CONTINUOUS
 10
1.069669
 20
-3.392858
  0
VERTEX
  8
PLAN_1
  6
CONTINUOUS
 10
1.072291
 20
-3.389795
  0
VERTEX
  8
PLAN_1
  6
CONTINUOUS
 10
1.074480
 20
-3.386295
  0
VERTEX
  8
PLAN_1
  6
CONTINUOUS
 10
1.076665
 20
-3.381921
  0
VERTEX
  8
PLAN_1
  6
CONTINUOUS
 10
1.078417
 20
-3.377110
  0
VERTEX
  8
PLAN_1
  6
CONTINUOUS
 10
1.079728
 20
-3.371862
  0
VERTEX
  8
PLAN_1
  6
CONTINUOUS
 10
1.080602
 20
-3.365736
  0
VERTEX
  8
PLAN_1
  6
CONTINUOUS
 10
1.080602
 20
-3.358736
  0
SEQEND
  8
0
  0
POLYLINE
  8
PLAN_1
  6
CONTINUOUS
 66
     1
 40
0.003000
 41
0.003000
  0
VERTEX
  8
PLAN_1
  6
CONTINUOUS
 10
1.172461
 20
-3.490402
  0
VERTEX
  8
PLAN_1
  6
CONTINUOUS
 10
1.145343
 20
-3.490402
  0
VERTEX
  8
PLAN_1
  6
CONTINUOUS
 10
1.145343
 20
-3.290937
  0
VERTEX
  8
PLAN_1
  6
CONTINUOUS
 10
1.237634
 20
-3.290937
  0
VERTEX
  8
PLAN_1
  6
CONTINUOUS
 10
1.243760
 20
-3.291378
  0
VERTEX
  8
PLAN_1
  6
CONTINUOUS
 10
1.249882
 20
-3.291815
  0
VERTEX
  8
PLAN_1
  6
CONTINUOUS
 10
1.255571
 20
-3.292689
  0
VERTEX
  8
PLAN_1
  6
CONTINUOUS
 10
1.261693
 20
-3.293563
  0
VERTEX
  8
PLAN_1
  6
CONTINUOUS
 10
1.267382
 20
-3.294874
  0
VERTEX
  8
PLAN_1
  6
CONTINUOUS
 10
1.272630
 20
-3.297063
  0
VERTEX
  8
PLAN_1
  6
CONTINUOUS
 10
1.277878
 20
-3.299248
  0
VERTEX
  8
PLAN_1
  6
CONTINUOUS
 10
1.282689
 20
-3.302311
  0
VERTEX
  8
PLAN_1
  6
CONTINUOUS
 10
1.287063
 20
-3.305374
  0
VERTEX
  8
PLAN_1
  6
CONTINUOUS
 10
1.291000
 20
-3.309311
  0
VERTEX
  8
PLAN_1
  6
CONTINUOUS
 10
1.294500
 20
-3.313685
  0
VERTEX
  8
PLAN_1
  6
CONTINUOUS
 10
1.297563
 20
-3.318496
  0
VERTEX
  8
PLAN_1
  6
CONTINUOUS
 10
1.299748
 20
-3.324181
  0
VERTEX
  8
PLAN_1
  6
CONTINUOUS
 10
1.301500
 20
-3.330307
  0
VERTEX
  8
PLAN_1
  6
CONTINUOUS
 10
1.302811
 20
-3.337303
  0
VERTEX
  8
PLAN_1
  6
CONTINUOUS
 10
1.303248
 20
-3.344740
  0
VERTEX
  8
PLAN_1
  6
CONTINUOUS
 10
1.302811
 20
-3.349988
  0
VERTEX
  8
PLAN_1
  6
CONTINUOUS
 10
1.302374
 20
-3.354803
  0
VERTEX
  8
PLAN_1
  6
CONTINUOUS
 10
1.301500
 20
-3.359177
  0
VERTEX
  8
PLAN_1
  6
CONTINUOUS
 10
1.300622
 20
-3.363551
  0
VERTEX
  8
PLAN_1
  6
CONTINUOUS
 10
1.299311
 20
-3.367488
  0
VERTEX
  8
PLAN_1
  6
CONTINUOUS
 10
1.297563
 20
-3.370547
  0
VERTEX
  8
PLAN_1
  6
CONTINUOUS
 10
1.295811
 20
-3.374047
  0
VERTEX
  8
PLAN_1
  6
CONTINUOUS
 10
1.294063
 20
-3.376673
  0
VERTEX
  8
PLAN_1
  6
CONTINUOUS
 10
1.289689
 20
-3.381921
  0
VERTEX
  8
PLAN_1
  6
CONTINUOUS
 10
1.284878
 20
-3.385858
  0
VERTEX
  8
PLAN_1
  6
CONTINUOUS
 10
1.280067
 20
-3.389358
  0
VERTEX
  8
PLAN_1
  6
CONTINUOUS
 10
1.275252
 20
-3.392417
  0
VERTEX
  8
PLAN_1
  6
CONTINUOUS
 10
1.279626
 20
-3.394169
  0
VERTEX
  8
PLAN_1
  6
CONTINUOUS
 10
1.283563
 20
-3.396354
  0
VERTEX
  8
PLAN_1
  6
CONTINUOUS
 10
1.287500
 20
-3.398980
  0
VERTEX
  8
PLAN_1
  6
CONTINUOUS
 10
1.291000
 20
-3.402480
  0
VERTEX
  8
PLAN_1
  6
CONTINUOUS
 10
1.292752
 20
-3.404665
  0
VERTEX
  8
PLAN_1
  6
CONTINUOUS
 10
1.294063
 20
-3.407291
  0
VERTEX
  8
PLAN_1
  6
CONTINUOUS
 10
1.295374
 20
-3.409917
  0
VERTEX
  8
PLAN_1
  6
CONTINUOUS
 10
1.296685
 20
-3.412976
  0
VERTEX
  8
PLAN_1
  6
CONTINUOUS
 10
1.297563
 20
-3.416476
  0
VERTEX
  8
PLAN_1
  6
CONTINUOUS
 10
1.298437
 20
-3.420413
  0
VERTEX
  8
PLAN_1
  6
CONTINUOUS
 10
1.298874
 20
-3.424787
  0
VERTEX
  8
PLAN_1
  6
CONTINUOUS
 10
1.299311
 20
-3.430035
  0
VERTEX
  8
PLAN_1
  6
CONTINUOUS
 10
1.300622
 20
-3.465906
  0
VERTEX
  8
PLAN_1
  6
CONTINUOUS
 10
1.301059
 20
-3.469843
  0
VERTEX
  8
PLAN_1
  6
CONTINUOUS
 10
1.301500
 20
-3.472906
  0
VERTEX
  8
PLAN_1
  6
CONTINUOUS
 10
1.301937
 20
-3.475965
  0
VERTEX
  8
PLAN_1
  6
CONTINUOUS
 10
1.302811
 20
-3.478154
  0
VERTEX
  8
PLAN_1
  6
CONTINUOUS
 10
1.304122
 20
-3.480339
  0
VERTEX
  8
PLAN_1
  6
CONTINUOUS
 10
1.305874
 20
-3.482528
  0
VERTEX
  8
PLAN_1
  6
CONTINUOUS
 10
1.308059
 20
-3.484276
  0
VERTEX
  8
PLAN_1
  6
CONTINUOUS
 10
1.310685
 20
-3.486028
  0
VERTEX
  8
PLAN_1
  6
CONTINUOUS
 10
1.310685
 20
-3.490402
  0
VERTEX
  8
PLAN_1
  6
CONTINUOUS
 10
1.277878
 20
-3.490402
  0
VERTEX
  8
PLAN_1
  6
CONTINUOUS
 10
1.276567
 20
-3.485150
  0
VERTEX
  8
PLAN_1
  6
CONTINUOUS
 10
1.275252
 20
-3.478591
  0
VERTEX
  8
PLAN_1
  6
CONTINUOUS
 10
1.274378
 20
-3.471154
  0
VERTEX
  8
PLAN_1
  6
CONTINUOUS
 10
1.273941
 20
-3.463717
  0
VERTEX
  8
PLAN_1
  6
CONTINUOUS
 10
1.273504
 20
-3.456283
  0
VERTEX
  8
PLAN_1
  6
CONTINUOUS
 10
1.273067
 20
-3.449720
  0
VERTEX
  8
PLAN_1
  6
CONTINUOUS
 10
1.273067
 20
-3.444035
  0
VERTEX
  8
PLAN_1
  6
CONTINUOUS
 10
1.273067
 20
-3.440535
  0
VERTEX
  8
PLAN_1
  6
CONTINUOUS
 10
1.273067
 20
-3.434409
  0
VERTEX
  8
PLAN_1
  6
CONTINUOUS
 10
1.272193
 20
-3.427850
  0
VERTEX
  8
PLAN_1
  6
CONTINUOUS
 10
1.271315
 20
-3.424787
  0
VERTEX
  8
PLAN_1
  6
CONTINUOUS
 10
1.270441
 20
-3.422165
  0
VERTEX
  8
PLAN_1
  6
CONTINUOUS
 10
1.269130
 20
-3.419102
  0
VERTEX
  8
PLAN_1
  6
CONTINUOUS
 10
1.267382
 20
-3.416476
  0
VERTEX
  8
PLAN_1
  6
CONTINUOUS
 10
1.265193
 20
-3.414291
  0
VERTEX
  8
PLAN_1
  6
CONTINUOUS
 10
1.263004
 20
-3.411665
  0
VERTEX
  8
PLAN_1
  6
CONTINUOUS
 10
1.259945
 20
-3.409917
  0
VERTEX
  8
PLAN_1
  6
CONTINUOUS
 10
1.256882
 20
-3.408165
  0
VERTEX
  8
PLAN_1
  6
CONTINUOUS
 10
1.252945
 20
-3.406854
  0
VERTEX
  8
PLAN_1
  6
CONTINUOUS
 10
1.248134
 20
-3.405980
  0
VERTEX
  8
PLAN_1
  6
CONTINUOUS
 10
1.243323
 20
-3.405102
  0
VERTEX
  8
PLAN_1
  6
CONTINUOUS
 10
1.237634
 20
-3.405102
  0
VERTEX
  8
PLAN_1
  6
CONTINUOUS
 10
1.172461
 20
-3.405102
  0
VERTEX
  8
PLAN_1
  6
CONTINUOUS
 10
1.172461
 20
-3.490402
  0
SEQEND
  8
0
  0
POLYLINE
  8
PLAN_1
  6
CONTINUOUS
 66
     1
 40
0.003000
 41
0.003000
  0
VERTEX
  8
PLAN_1
  6
CONTINUOUS
 10
1.172461
 20
-3.381921
  0
VERTEX
  8
PLAN_1
  6
CONTINUOUS
 10
1.234575
 20
-3.381921
  0
VERTEX
  8
PLAN_1
  6
CONTINUOUS
 10
1.242012
 20
-3.381484
  0
VERTEX
  8
PLAN_1
  6
CONTINUOUS
 10
1.249445
 20
-3.380610
  0
VERTEX
  8
PLAN_1
  6
CONTINUOUS
 10
1.252945
 20
-3.379732
  0
VERTEX
  8
PLAN_1
  6
CONTINUOUS
 10
1.256445
 20
-3.378858
  0
VERTEX
  8
PLAN_1
  6
CONTINUOUS
 10
1.259508
 20
-3.377547
  0
VERTEX
  8
PLAN_1
  6
CONTINUOUS
 10
1.262567
 20
-3.375799
  0
VERTEX
  8
PLAN_1
  6
CONTINUOUS
 10
1.265193
 20
-3.373610
  0
VERTEX
  8
PLAN_1
  6
CONTINUOUS
 10
1.267819
 20
-3.371425
  0
VERTEX
  8
PLAN_1
  6
CONTINUOUS
 10
1.270004
 20
-3.368362
  0
VERTEX
  8
PLAN_1
  6
CONTINUOUS
 10
1.271756
 20
-3.365299
  0
VERTEX
  8
PLAN_1
  6
CONTINUOUS
 10
1.273067
 20
-3.361362
  0
VERTEX
  8
PLAN_1
  6
CONTINUOUS
 10
1.274378
 20
-3.357425
  0
VERTEX
  8
PLAN_1
  6
CONTINUOUS
 10
1.275252
 20
-3.352614
  0
VERTEX
  8
PLAN_1
  6
CONTINUOUS
 10
1.275252
 20
-3.347366
  0
VERTEX
  8
PLAN_1
  6
CONTINUOUS
 10
1.275252
 20
-3.342118
  0
VERTEX
  8
PLAN_1
  6
CONTINUOUS
 10
1.274378
 20
-3.337303
  0
VERTEX
  8
PLAN_1
  6
CONTINUOUS
 10
1.273067
 20
-3.332929
  0
VERTEX
  8
PLAN_1
  6
CONTINUOUS
 10
1.271756
 20
-3.329433
  0
VERTEX
  8
PLAN_1
  6
CONTINUOUS
 10
1.269567
 20
-3.325933
  0
VERTEX
  8
PLAN_1
  6
CONTINUOUS
 10
1.267382
 20
-3.323307
  0
VERTEX
  8
PLAN_1
  6
CONTINUOUS
 10
1.265193
 20
-3.321122
  0
VERTEX
  8
PLAN_1
  6
CONTINUOUS
 10
1.262567
 20
-3.319370
  0
VERTEX
  8
PLAN_1
  6
CONTINUOUS
 10
1.259508
 20
-3.317622
  0
VERTEX
  8
PLAN_1
  6
CONTINUOUS
 10
1.256882
 20
-3.316748
  0
VERTEX
  8
PLAN_1
  6
CONTINUOUS
 10
1.253819
 20
-3.315870
  0
VERTEX
  8
PLAN_1
  6
CONTINUOUS
 10
1.250760
 20
-3.314996
  0
VERTEX
  8
PLAN_1
  6
CONTINUOUS
 10
1.245071
 20
-3.314559
  0
VERTEX
  8
PLAN_1
  6
CONTINUOUS
 10
1.239386
 20
-3.314122
  0
VERTEX
  8
PLAN_1
  6
CONTINUOUS
 10
1.172461
 20
-3.314122
  0
VERTEX
  8
PLAN_1
  6
CONTINUOUS
 10
1.172461
 20
-3.381921
  0
SEQEND
  8
0
  0
SOLID
  8
PLAN_1
 10
1.374547
 20
-3.490402
 11
1.345677
 21
-3.490402
 12
1.374547
 22
-3.461094
 13
1.345677
 23
-3.461094
  0
POLYLINE
  8
PLAN_1
  6
CONTINUOUS
 66
     1
 40
0.003000
 41
0.003000
  0
VERTEX
  8
PLAN_1
  6
CONTINUOUS
 10
1.374547
 20
-3.490402
  0
VERTEX
  8
PLAN_1
  6
CONTINUOUS
 10
1.345677
 20
-3.490402
  0
VERTEX
  8
PLAN_1
  6
CONTINUOUS
 10
1.345677
 20
-3.461094
  0
VERTEX
  8
PLAN_1
  6
CONTINUOUS
 10
1.374547
 20
-3.461094
  0
VERTEX
  8
PLAN_1
  6
CONTINUOUS
 10
1.374547
 20
-3.490402
  0
SEQEND
  8
0
  0
POLYLINE
  8
PLAN_1
  6
CONTINUOUS
 66
     1
 40
0.003000
 41
0.003000
  0
VERTEX
  8
PLAN_1
  6
CONTINUOUS
 10
1.569634
 20
-3.490402
  0
VERTEX
  8
PLAN_1
  6
CONTINUOUS
 10
1.422661
 20
-3.490402
  0
VERTEX
  8
PLAN_1
  6
CONTINUOUS
 10
1.422661
 20
-3.290937
  0
VERTEX
  8
PLAN_1
  6
CONTINUOUS
 10
1.567449
 20
-3.290937
  0
VERTEX
  8
PLAN_1
  6
CONTINUOUS
 10
1.567449
 20
-3.314996
  0
VERTEX
  8
PLAN_1
  6
CONTINUOUS
 10
1.449346
 20
-3.314996
  0
VERTEX
  8
PLAN_1
  6
CONTINUOUS
 10
1.449346
 20
-3.376236
  0
VERTEX
  8
PLAN_1
  6
CONTINUOUS
 10
1.558260
 20
-3.376236
  0
VERTEX
  8
PLAN_1
  6
CONTINUOUS
 10
1.558260
 20
-3.399854
  0
VERTEX
  8
PLAN_1
  6
CONTINUOUS
 10
1.449346
 20
-3.399854
  0
VERTEX
  8
PLAN_1
  6
CONTINUOUS
 10
1.449346
 20
-3.466343
  0
VERTEX
  8
PLAN_1
  6
CONTINUOUS
 10
1.569634
 20
-3.466343
  0
VERTEX
  8
PLAN_1
  6
CONTINUOUS
 10
1.569634
 20
-3.490402
  0
SEQEND
  8
0
  0
POLYLINE
  8
PLAN_1
  6
CONTINUOUS
 66
     1
 40
0.003000
 41
0.003000
  0
VERTEX
  8
PLAN_1
  6
CONTINUOUS
 10
1.634370
 20
-3.490402
  0
VERTEX
  8
PLAN_1
  6
CONTINUOUS
 10
1.607689
 20
-3.490402
  0
VERTEX
  8
PLAN_1
  6
CONTINUOUS
 10
1.607689
 20
-3.290937
  0
VERTEX
  8
PLAN_1
  6
CONTINUOUS
 10
1.697358
 20
-3.290937
  0
VERTEX
  8
PLAN_1
  6
CONTINUOUS
 10
1.703921
 20
-3.291378
  0
VERTEX
  8
PLAN_1
  6
CONTINUOUS
 10
1.710480
 20
-3.292252
  0
VERTEX
  8
PLAN_1
  6
CONTINUOUS
 10
1.716606
 20
-3.293563
  0
VERTEX
  8
PLAN_1
  6
CONTINUOUS
 10
1.721854
 20
-3.295311
  0
VERTEX
  8
PLAN_1
  6
CONTINUOUS
 10
1.727102
 20
-3.297500
  0
VERTEX
  8
PLAN_1
  6
CONTINUOUS
 10
1.732354
 20
-3.300563
  0
VERTEX
  8
PLAN_1
  6
CONTINUOUS
 10
1.736728
 20
-3.303622
  0
VERTEX
  8
PLAN_1
  6
CONTINUOUS
 10
1.740665
 20
-3.307122
  0
VERTEX
  8
PLAN_1
  6
CONTINUOUS
 10
1.744161
 20
-3.311059
  0
VERTEX
  8
PLAN_1
  6
CONTINUOUS
 10
1.747224
 20
-3.315433
  0
VERTEX
  8
PLAN_1
  6
CONTINUOUS
 10
1.750287
 20
-3.319807
  0
VERTEX
  8
PLAN_1
  6
CONTINUOUS
 10
1.752472
 20
-3.325059
  0
VERTEX
  8
PLAN_1
  6
CONTINUOUS
 10
1.754224
 20
-3.329870
  0
VERTEX
  8
PLAN_1
  6
CONTINUOUS
 10
1.755535
 20
-3.335555
  0
VERTEX
  8
PLAN_1
  6
CONTINUOUS
 10
1.755972
 20
-3.341240
  0
VERTEX
  8
PLAN_1
  6
CONTINUOUS
 10
1.756409
 20
-3.347366
  0
VERTEX
  8
PLAN_1
  6
CONTINUOUS
 10
1.755972
 20
-3.352614
  0
VERTEX
  8
PLAN_1
  6
CONTINUOUS
 10
1.755535
 20
-3.357862
  0
VERTEX
  8
PLAN_1
  6
CONTINUOUS
 10
1.754661
 20
-3.363114
  0
VERTEX
  8
PLAN_1
  6
CONTINUOUS
 10
1.753350
 20
-3.367925
  0
VERTEX
  8
PLAN_1
  6
CONTINUOUS
 10
1.751161
 20
-3.373173
  0
VERTEX
  8
PLAN_1
  6
CONTINUOUS
 10
1.748976
 20
-3.377984
  0
VERTEX
  8
PLAN_1
  6
CONTINUOUS
 10
1.746350
 20
-3.382795
  0
VERTEX
  8
PLAN_1
  6
CONTINUOUS
 10
1.742850
 20
-3.387169
  0
VERTEX
  8
PLAN_1
  6
CONTINUOUS
 10
1.739350
 20
-3.391106
  0
VERTEX
  8
PLAN_1
  6
CONTINUOUS
 10
1.734976
 20
-3.395043
  0
VERTEX
  8
PLAN_1
  6
CONTINUOUS
 10
1.730165
 20
-3.398106
  0
VERTEX
  8
PLAN_1
  6
CONTINUOUS
 10
1.724917
 20
-3.401169
  0
VERTEX
  8
PLAN_1
  6
CONTINUOUS
 10
1.718791
 20
-3.403354
  0
VERTEX
  8
PLAN_1
  6
CONTINUOUS
 10
1.712232
 20
-3.405102
  0
VERTEX
  8
PLAN_1
  6
CONTINUOUS
 10
1.705232
 20
-3.405980
  0
VERTEX
  8
PLAN_1
  6
CONTINUOUS
 10
1.697358
 20
-3.406417
  0
VERTEX
  8
PLAN_1
  6
CONTINUOUS
 10
1.634370
 20
-3.406417
  0
VERTEX
  8
PLAN_1
  6
CONTINUOUS
 10
1.634370
 20
-3.490402
  0
SEQEND
  8
0
  0
POLYLINE
  8
PLAN_1
  6
CONTINUOUS
 66
     1
 40
0.003000
 41
0.003000
  0
VERTEX
  8
PLAN_1
  6
CONTINUOUS
 10
1.634370
 20
-3.383232
  0
VERTEX
  8
PLAN_1
  6
CONTINUOUS
 10
1.688173
 20
-3.383232
  0
VERTEX
  8
PLAN_1
  6
CONTINUOUS
 10
1.692547
 20
-3.383232
  0
VERTEX
  8
PLAN_1
  6
CONTINUOUS
 10
1.696921
 20
-3.382795
  0
VERTEX
  8
PLAN_1
  6
CONTINUOUS
 10
1.700858
 20
-3.382358
  0
VERTEX
  8
PLAN_1
  6
CONTINUOUS
 10
1.704795
 20
-3.381484
  0
VERTEX
  8
PLAN_1
  6
CONTINUOUS
 10
1.708295
 20
-3.380610
  0
VERTEX
  8
PLAN_1
  6
CONTINUOUS
 10
1.711358
 20
-3.378858
  0
VERTEX
  8
PLAN_1
  6
CONTINUOUS
 10
1.714417
 20
-3.377547
  0
VERTEX
  8
PLAN_1
  6
CONTINUOUS
 10
1.717480
 20
-3.375358
  0
VERTEX
  8
PLAN_1
  6
CONTINUOUS
 10
1.720106
 20
-3.373173
  0
VERTEX
  8
PLAN_1
  6
CONTINUOUS
 10
1.722291
 20
-3.370547
  0
VERTEX
  8
PLAN_1
  6
CONTINUOUS
 10
1.724043
 20
-3.367925
  0
VERTEX
  8
PLAN_1
  6
CONTINUOUS
 10
1.725791
 20
-3.364425
  0
VERTEX
  8
PLAN_1
  6
CONTINUOUS
 10
1.727102
 20
-3.360925
  0
VERTEX
  8
PLAN_1
  6
CONTINUOUS
 10
1.727980
 20
-3.356551
  0
VERTEX
  8
PLAN_1
  6
CONTINUOUS
 10
1.728417
 20
-3.352177
  0
VERTEX
  8
PLAN_1
  6
CONTINUOUS
 10
1.728417
 20
-3.347366
  0
VERTEX
  8
PLAN_1
  6
CONTINUOUS
 10
1.728417
 20
-3.342992
  0
VERTEX
  8
PLAN_1
  6
CONTINUOUS
 10
1.727980
 20
-3.338618
  0
VERTEX
  8
PLAN_1
  6
CONTINUOUS
 10
1.726665
 20
-3.335118
  0
VERTEX
  8
PLAN_1
  6
CONTINUOUS
 10
1.725791
 20
-3.331618
  0
VERTEX
  8
PLAN_1
  6
CONTINUOUS
 10
1.724043
 20
-3.328555
  0
VERTEX
  8
PLAN_1
  6
CONTINUOUS
 10
1.721854
 20
-3.325933
  0
VERTEX
  8
PLAN_1
  6
CONTINUOUS
 10
1.719669
 20
-3.323307
  0
VERTEX
  8
PLAN_1
  6
CONTINUOUS
 10
1.717043
 20
-3.321559
  0
VERTEX
  8
PLAN_1
  6
CONTINUOUS
 10
1.714417
 20
-3.319370
  0
VERTEX
  8
PLAN_1
  6
CONTINUOUS
 10
1.711358
 20
-3.318059
  0
VERTEX
  8
PLAN_1
  6
CONTINUOUS
 10
1.708295
 20
-3.316748
  0
VERTEX
  8
PLAN_1
  6
CONTINUOUS
 10
1.704795
 20
-3.315870
  0
VERTEX
  8
PLAN_1
  6
CONTINUOUS
 10
1.701295
 20
-3.314996
  0
VERTEX
  8
PLAN_1
  6
CONTINUOUS
 10
1.697358
 20
-3.314559
  0
VERTEX
  8
PLAN_1
  6
CONTINUOUS
 10
1.693421
 20
-3.314122
  0
VERTEX
  8
PLAN_1
  6
CONTINUOUS
 10
1.689047
 20
-3.314122
  0
VERTEX
  8
PLAN_1
  6
CONTINUOUS
 10
1.634370
 20
-3.314122
  0
VERTEX
  8
PLAN_1
  6
CONTINUOUS
 10
1.634370
 20
-3.383232
  0
SEQEND
  8
0
  0
POLYLINE
  8
PLAN_1
  6
CONTINUOUS
 66
     1
 40
0.003000
 41
0.003000
  0
VERTEX
  8
PLAN_1
  6
CONTINUOUS
 10
1.910382
 20
-3.349551
  0
VERTEX
  8
PLAN_1
  6
CONTINUOUS
 10
1.909508
 20
-3.343866
  0
VERTEX
  8
PLAN_1
  6
CONTINUOUS
 10
1.908630
 20
-3.338618
  0
VERTEX
  8
PLAN_1
  6
CONTINUOUS
 10
1.906882
 20
-3.334244
  0
VERTEX
  8
PLAN_1
  6
CONTINUOUS
 10
1.905134
 20
-3.330307
  0
VERTEX
  8
PLAN_1
  6
CONTINUOUS
 10
1.902508
 20
-3.326370
  0
VERTEX
  8
PLAN_1
  6
CONTINUOUS
 10
1.899882
 20
-3.322870
  0
VERTEX
  8
PLAN_1
  6
CONTINUOUS
 10
1.896823
 20
-3.320244
  0
VERTEX
  8
PLAN_1
  6
CONTINUOUS
 10
1.893323
 20
-3.317622
  0
VERTEX
  8
PLAN_1
  6
CONTINUOUS
 10
1.889823
 20
-3.315433
  0
VERTEX
  8
PLAN_1
  6
CONTINUOUS
 10
1.885886
 20
-3.313685
  0
VERTEX
  8
PLAN_1
  6
CONTINUOUS
 10
1.881949
 20
-3.311933
  0
VERTEX
  8
PLAN_1
  6
CONTINUOUS
 10
1.878012
 20
-3.311059
  0
VERTEX
  8
PLAN_1
  6
CONTINUOUS
 10
1.873638
 20
-3.310185
  0
VERTEX
  8
PLAN_1
  6
CONTINUOUS
 10
1.869264
 20
-3.309311
  0
VERTEX
  8
PLAN_1
  6
CONTINUOUS
 10
1.864890
 20
-3.308874
  0
VERTEX
  8
PLAN_1
  6
CONTINUOUS
 10
1.860953
 20
-3.308874
  0
VERTEX
  8
PLAN_1
  6
CONTINUOUS
 10
1.853953
 20
-3.309311
  0
VERTEX
  8
PLAN_1
  6
CONTINUOUS
 10
1.846520
 20
-3.310185
  0
VERTEX
  8
PLAN_1
  6
CONTINUOUS
 10
1.842583
 20
-3.311059
  0
VERTEX
  8
PLAN_1
  6
CONTINUOUS
 10
1.839083
 20
-3.311933
  0
VERTEX
  8
PLAN_1
  6
CONTINUOUS
 10
1.835146
 20
-3.313248
  0
VERTEX
  8
PLAN_1
  6
CONTINUOUS
 10
1.831646
 20
-3.314996
  0
VERTEX
  8
PLAN_1
  6
CONTINUOUS
 10
1.828146
 20
-3.317185
  0
VERTEX
  8
PLAN_1
  6
CONTINUOUS
 10
1.825087
 20
-3.319370
  0
VERTEX
  8
PLAN_1
  6
CONTINUOUS
 10
1.822461
 20
-3.322433
  0
VERTEX
  8
PLAN_1
  6
CONTINUOUS
 10
1.819835
 20
-3.325496
  0
VERTEX
  8
PLAN_1
  6
CONTINUOUS
 10
1.818087
 20
-3.329433
  0
VERTEX
  8
PLAN_1
  6
CONTINUOUS
 10
1.816335
 20
-3.333807
  0
VERTEX
  8
PLAN_1
  6
CONTINUOUS
 10
1.815461
 20
-3.338618
  0
VERTEX
  8
PLAN_1
  6
CONTINUOUS
 10
1.815461
 20
-3.343866
  0
VERTEX
  8
PLAN_1
  6
CONTINUOUS
 10
1.815461
 20
-3.346929
  0
VERTEX
  8
PLAN_1
  6
CONTINUOUS
 10
1.815898
 20
-3.349551
  0
VERTEX
  8
PLAN_1
  6
CONTINUOUS
 10
1.816335
 20
-3.352177
  0
VERTEX
  8
PLAN_1
  6
CONTINUOUS
 10
1.817213
 20
-3.354362
  0
VERTEX
  8
PLAN_1
  6
CONTINUOUS
 10
1.818524
 20
-3.356551
  0
VERTEX
  8
PLAN_1
  6
CONTINUOUS
 10
1.819835
 20
-3.358736
  0
VERTEX
  8
PLAN_1
  6
CONTINUOUS
 10
1.821150
 20
-3.360488
  0
VERTEX
  8
PLAN_1
  6
CONTINUOUS
 10
1.822898
 20
-3.361799
  0
VERTEX
  8
PLAN_1
  6
CONTINUOUS
 10
1.826398
 20
-3.364425
  0
VERTEX
  8
PLAN_1
  6
CONTINUOUS
 10
1.830335
 20
-3.366173
  0
VERTEX
  8
PLAN_1
  6
CONTINUOUS
 10
1.834709
 20
-3.367925
  0
VERTEX
  8
PLAN_1
  6
CONTINUOUS
 10
1.839083
 20
-3.369236
  0
VERTEX
  8
PLAN_1
  6
CONTINUOUS
 10
1.895945
 20
-3.382358
  0
VERTEX
  8
PLAN_1
  6
CONTINUOUS
 10
1.900319
 20
-3.383232
  0
VERTEX
  8
PLAN_1
  6
CONTINUOUS
 10
1.905134
 20
-3.384984
  0
VERTEX
  8
PLAN_1
  6
CONTINUOUS
 10
1.909508
 20
-3.386732
  0
VERTEX
  8
PLAN_1
  6
CONTINUOUS
 10
1.913882
 20
-3.388484
  0
VERTEX
  8
PLAN_1
  6
CONTINUOUS
 10
1.917819
 20
-3.390669
  0
VERTEX
  8
PLAN_1
  6
CONTINUOUS
 10
1.921315
 20
-3.393295
  0
VERTEX
  8
PLAN_1
  6
CONTINUOUS
 10
1.924815
 20
-3.396354
  0
VERTEX
  8
PLAN_1
  6
CONTINUOUS
 10
1.927878
 20
-3.399417
  0
VERTEX
  8
PLAN_1
  6
CONTINUOUS
 10
1.930941
 20
-3.402480
  0
VERTEX
  8
PLAN_1
  6
CONTINUOUS
 10
1.933563
 20
-3.406417
  0
VERTEX
  8
PLAN_1
  6
CONTINUOUS
 10
1.935752
 20
-3.410354
  0
VERTEX
  8
PLAN_1
  6
CONTINUOUS
 10
1.937500
 20
-3.414728
  0
VERTEX
  8
PLAN_1
  6
CONTINUOUS
 10
1.939252
 20
-3.419102
  0
VERTEX
  8
PLAN_1
  6
CONTINUOUS
 10
1.940126
 20
-3.424350
  0
VERTEX
  8
PLAN_1
  6
CONTINUOUS
 10
1.940563
 20
-3.429598
  0
VERTEX
  8
PLAN_1
  6
CONTINUOUS
 10
1.941000
 20
-3.435287
  0
VERTEX
  8
PLAN_1
  6
CONTINUOUS
 10
1.941000
 20
-3.439661
  0
VERTEX
  8
PLAN_1
  6
CONTINUOUS
 10
1.940563
 20
-3.444035
  0
VERTEX
  8
PLAN_1
  6
CONTINUOUS
 10
1.939689
 20
-3.447972
  0
VERTEX
  8
PLAN_1
  6
CONTINUOUS
 10
1.939252
 20
-3.451469
  0
VERTEX
  8
PLAN_1
  6
CONTINUOUS
 10
1.937937
 20
-3.454969
  0
VERTEX
  8
PLAN_1
  6
CONTINUOUS
 10
1.936626
 20
-3.458469
  0
VERTEX
  8
PLAN_1
  6
CONTINUOUS
 10
1.935315
 20
-3.461531
  0
VERTEX
  8
PLAN_1
  6
CONTINUOUS
 10
1.933563
 20
-3.464594
  0
VERTEX
  8
PLAN_1
  6
CONTINUOUS
 10
1.931815
 20
-3.467654
  0
VERTEX
  8
PLAN_1
  6
CONTINUOUS
 10
1.929626
 20
-3.470280
  0
VERTEX
  8
PLAN_1
  6
CONTINUOUS
 10
1.927441
 20
-3.472906
  0
VERTEX
  8
PLAN_1
  6
CONTINUOUS
 10
1.925252
 20
-3.475091
  0
VERTEX
  8
PLAN_1
  6
CONTINUOUS
 10
1.920441
 20
-3.479465
  0
VERTEX
  8
PLAN_1
  6
CONTINUOUS
 10
1.914756
 20
-3.483402
  0
VERTEX
  8
PLAN_1
  6
CONTINUOUS
 10
1.909067
 20
-3.486465
  0
VERTEX
  8
PLAN_1
  6
CONTINUOUS
 10
1.902508
 20
-3.489087
  0
VERTEX
  8
PLAN_1
  6
CONTINUOUS
 10
1.896382
 20
-3.491276
  0
VERTEX
  8
PLAN_1
  6
CONTINUOUS
 10
1.889823
 20
-3.493024
  0
VERTEX
  8
PLAN_1
  6
CONTINUOUS
 10
1.882823
 20
-3.494339
  0
VERTEX
  8
PLAN_1
  6
CONTINUOUS
 10
1.876264
 20
-3.495213
  0
VERTEX
  8
PLAN_1
  6
CONTINUOUS
 10
1.869701
 20
-3.495650
  0
VERTEX
  8
PLAN_1
  6
CONTINUOUS
 10
1.863142
 20
-3.495650
  0
VERTEX
  8
PLAN_1
  6
CONTINUOUS
 10
1.856579
 20
-3.495650
  0
VERTEX
  8
PLAN_1
  6
CONTINUOUS
 10
1.850016
 20
-3.495213
  0
VERTEX
  8
PLAN_1
  6
CONTINUOUS
 10
1.844331
 20
-3.494776
  0
VERTEX
  8
PLAN_1
  6
CONTINUOUS
 10
1.839083
 20
-3.493898
  0
VERTEX
  8
PLAN_1
  6
CONTINUOUS
 10
1.834272
 20
-3.493024
  0
VERTEX
  8
PLAN_1
  6
CONTINUOUS
 10
1.829898
 20
-3.491713
  0
VERTEX
  8
PLAN_1
  6
CONTINUOUS
 10
1.825961
 20
-3.490402
  0
VERTEX
  8
PLAN_1
  6
CONTINUOUS
 10
1.822461
 20
-3.489087
  0
VERTEX
  8
PLAN_1
  6
CONTINUOUS
 10
1.815898
 20
-3.486028
  0
VERTEX
  8
PLAN_1
  6
CONTINUOUS
 10
1.810650
 20
-3.482965
  0
VERTEX
  8
PLAN_1
  6
CONTINUOUS
 10
1.806276
 20
-3.479465
  0
VERTEX
  8
PLAN_1
  6
CONTINUOUS
 10
1.802776
 20
-3.476402
  0
VERTEX
  8
PLAN_1
  6
CONTINUOUS
 10
1.799717
 20
-3.473780
  0
VERTEX
  8
PLAN_1
  6
CONTINUOUS
 10
1.797091
 20
-3.470717
  0
VERTEX
  8
PLAN_1
  6
CONTINUOUS
 10
1.794465
 20
-3.467654
  0
VERTEX
  8
PLAN_1
  6
CONTINUOUS
 10
1.792717
 20
-3.464594
  0
VERTEX
  8
PLAN_1
  6
CONTINUOUS
 10
1.790528
 20
-3.461969
  0
VERTEX
  8
PLAN_1
  6
CONTINUOUS
 10
1.788780
 20
-3.458906
  0
VERTEX
  8
PLAN_1
  6
CONTINUOUS
 10
1.787469
 20
-3.455843
  0
VERTEX
  8
PLAN_1
  6
CONTINUOUS
 10
1.786154
 20
-3.452346
  0
VERTEX
  8
PLAN_1
  6
CONTINUOUS
 10
1.784406
 20
-3.446220
  0
VERTEX
  8
PLAN_1
  6
CONTINUOUS
 10
1.783531
 20
-3.439661
  0
VERTEX
  8
PLAN_1
  6
CONTINUOUS
 10
1.782657
 20
-3.433098
  0
VERTEX
  8
PLAN_1
  6
CONTINUOUS
 10
1.782657
 20
-3.426098
  0
VERTEX
  8
PLAN_1
  6
CONTINUOUS
 10
1.807587
 20
-3.426098
  0
VERTEX
  8
PLAN_1
  6
CONTINUOUS
 10
1.808028
 20
-3.432661
  0
VERTEX
  8
PLAN_1
  6
CONTINUOUS
 10
1.808902
 20
-3.438346
  0
VERTEX
  8
PLAN_1
  6
CONTINUOUS
 10
1.810650
 20
-3.443598
  0
VERTEX
  8
PLAN_1
  6
CONTINUOUS
 10
1.812839
 20
-3.448409
  0
VERTEX
  8
PLAN_1
  6
CONTINUOUS
 10
1.815461
 20
-3.452783
  0
VERTEX
  8
PLAN_1
  6
CONTINUOUS
 10
1.818524
 20
-3.456720
  0
VERTEX
  8
PLAN_1
  6
CONTINUOUS
 10
1.822024
 20
-3.459780
  0
VERTEX
  8
PLAN_1
  6
CONTINUOUS
 10
1.825524
 20
-3.462843
  0
VERTEX
  8
PLAN_1
  6
CONTINUOUS
 10
1.829898
 20
-3.465469
  0
VERTEX
  8
PLAN_1
  6
CONTINUOUS
 10
1.834272
 20
-3.467217
  0
VERTEX
  8
PLAN_1
  6
CONTINUOUS
 10
1.838646
 20
-3.468969
  0
VERTEX
  8
PLAN_1
  6
CONTINUOUS
 10
1.843457
 20
-3.470280
  0
VERTEX
  8
PLAN_1
  6
CONTINUOUS
 10
1.848268
 20
-3.471591
  0
VERTEX
  8
PLAN_1
  6
CONTINUOUS
 10
1.853079
 20
-3.472028
  0
VERTEX
  8
PLAN_1
  6
CONTINUOUS
 10
1.857890
 20
-3.472465
  0
VERTEX
  8
PLAN_1
  6
CONTINUOUS
 10
1.862701
 20
-3.472465
  0
VERTEX
  8
PLAN_1
  6
CONTINUOUS
 10
1.870575
 20
-3.472465
  0
VERTEX
  8
PLAN_1
  6
CONTINUOUS
 10
1.878886
 20
-3.471591
  0
VERTEX
  8
PLAN_1
  6
CONTINUOUS
 10
1.883260
 20
-3.470717
  0
VERTEX
  8
PLAN_1
  6
CONTINUOUS
 10
1.887634
 20
-3.469406
  0
VERTEX
  8
PLAN_1
  6
CONTINUOUS
 10
1.892008
 20
-3.468091
  0
VERTEX
  8
PLAN_1
  6
CONTINUOUS
 10
1.895945
 20
-3.466343
  0
VERTEX
  8
PLAN_1
  6
CONTINUOUS
 10
1.899882
 20
-3.464594
  0
VERTEX
  8
PLAN_1
  6
CONTINUOUS
 10
1.903382
 20
-3.462406
  0
VERTEX
  8
PLAN_1
  6
CONTINUOUS
 10
1.906882
 20
-3.459343
  0
VERTEX
  8
PLAN_1
  6
CONTINUOUS
 10
1.909508
 20
-3.456283
  0
VERTEX
  8
PLAN_1
  6
CONTINUOUS
 10
1.911693
 20
-3.452783
  0
VERTEX
  8
PLAN_1
  6
CONTINUOUS
 10
1.913441
 20
-3.448846
  0
VERTEX
  8
PLAN_1
  6
CONTINUOUS
 10
1.914756
 20
-3.444035
  0
VERTEX
  8
PLAN_1
  6
CONTINUOUS
 10
1.914756
 20
-3.439224
  0
VERTEX
  8
PLAN_1
  6
CONTINUOUS
 10
1.914756
 20
-3.435287
  0
VERTEX
  8
PLAN_1
  6
CONTINUOUS
 10
1.914319
 20
-3.431787
  0
VERTEX
  8
PLAN_1
  6
CONTINUOUS
 10
1.913882
 20
-3.428724
  0
VERTEX
  8
PLAN_1
  6
CONTINUOUS
 10
1.913004
 20
-3.425661
  0
VERTEX
  8
PLAN_1
  6
CONTINUOUS
 10
1.911693
 20
-3.423039
  0
VERTEX
  8
PLAN_1
  6
CONTINUOUS
 10
1.909945
 20
-3.420850
  0
VERTEX
  8
PLAN_1
  6
CONTINUOUS
 10
1.908193
 20
-3.418665
  0
VERTEX
  8
PLAN_1
  6
CONTINUOUS
 10
1.906008
 20
-3.416476
  0
VERTEX
  8
PLAN_1
  6
CONTINUOUS
 10
1.903382
 20
-3.414728
  0
VERTEX
  8
PLAN_1
  6
CONTINUOUS
 10
1.900319
 20
-3.412976
  0
VERTEX
  8
PLAN_1
  6
CONTINUOUS
 10
1.896823
 20
-3.411228
  0
VERTEX
  8
PLAN_1
  6
CONTINUOUS
 10
1.892886
 20
-3.409480
  0
VERTEX
  8
PLAN_1
  6
CONTINUOUS
 10
1.883697
 20
-3.406854
  0
VERTEX
  8
PLAN_1
  6
CONTINUOUS
 10
1.872327
 20
-3.403791
  0
VERTEX
  8
PLAN_1
  6
CONTINUOUS
 10
1.831646
 20
-3.394169
  0
VERTEX
  8
PLAN_1
  6
CONTINUOUS
 10
1.825961
 20
-3.392858
  0
VERTEX
  8
PLAN_1
  6
CONTINUOUS
 10
1.819398
 20
-3.390669
  0
VERTEX
  8
PLAN_1
  6
CONTINUOUS
 10
1.815898
 20
-3.388921
  0
VERTEX
  8
PLAN_1
  6
CONTINUOUS
 10
1.812402
 20
-3.387169
  0
VERTEX
  8
PLAN_1
  6
CONTINUOUS
 10
1.808902
 20
-3.385421
  0
VERTEX
  8
PLAN_1
  6
CONTINUOUS
 10
1.805402
 20
-3.382795
  0
VERTEX
  8
PLAN_1
  6
CONTINUOUS
 10
1.802339
 20
-3.380173
  0
VERTEX
  8
PLAN_1
  6
CONTINUOUS
 10
1.799276
 20
-3.376673
  0
VERTEX
  8
PLAN_1
  6
CONTINUOUS
 10
1.796217
 20
-3.373173
  0
VERTEX
  8
PLAN_1
  6
CONTINUOUS
 10
1.794028
 20
-3.368799
  0
VERTEX
  8
PLAN_1
  6
CONTINUOUS
 10
1.791843
 20
-3.364425
  0
VERTEX
  8
PLAN_1
  6
CONTINUOUS
 10
1.790528
 20
-3.359177
  0
VERTEX
  8
PLAN_1
  6
CONTINUOUS
 10
1.789654
 20
-3.353488
  0
VERTEX
  8
PLAN_1
  6
CONTINUOUS
 10
1.789217
 20
-3.347366
  0
VERTEX
  8
PLAN_1
  6
CONTINUOUS
 10
1.789654
 20
-3.341677
  0
VERTEX
  8
PLAN_1
  6
CONTINUOUS
 10
1.790091
 20
-3.335992
  0
VERTEX
  8
PLAN_1
  6
CONTINUOUS
 10
1.791406
 20
-3.330307
  0
VERTEX
  8
PLAN_1
  6
CONTINUOUS
 10
1.793154
 20
-3.324618
  0
VERTEX
  8
PLAN_1
  6
CONTINUOUS
 10
1.795343
 20
-3.319370
  0
VERTEX
  8
PLAN_1
  6
CONTINUOUS
 10
1.797965
 20
-3.314122
  0
VERTEX
  8
PLAN_1
  6
CONTINUOUS
 10
1.801465
 20
-3.309311
  0
VERTEX
  8
PLAN_1
  6
CONTINUOUS
 10
1.805402
 20
-3.304937
  0
VERTEX
  8
PLAN_1
  6
CONTINUOUS
 10
1.809776
 20
-3.301000
  0
VERTEX
  8
PLAN_1
  6
CONTINUOUS
 10
1.815024
 20
-3.297063
  0
VERTEX
  8
PLAN_1
  6
CONTINUOUS
 10
1.820272
 20
-3.294000
  0
VERTEX
  8
PLAN_1
  6
CONTINUOUS
 10
1.826835
 20
-3.290937
  0
VERTEX
  8
PLAN_1
  6
CONTINUOUS
 10
1.833398
 20
-3.288752
  0
VERTEX
  8
PLAN_1
  6
CONTINUOUS
 10
1.840831
 20
-3.287441
  0
VERTEX
  8
PLAN_1
  6
CONTINUOUS
 10
1.849142
 20
-3.286126
  0
VERTEX
  8
PLAN_1
  6
CONTINUOUS
 10
1.857890
 20
-3.285689
  0
VERTEX
  8
PLAN_1
  6
CONTINUOUS
 10
1.864016
 20
-3.286126
  0
VERTEX
  8
PLAN_1
  6
CONTINUOUS
 10
1.870138
 20
-3.286563
  0
VERTEX
  8
PLAN_1
  6
CONTINUOUS
 10
1.875827
 20
-3.287004
  0
VERTEX
  8
PLAN_1
  6
CONTINUOUS
 10
1.881075
 20
-3.287878
  0
VERTEX
  8
PLAN_1
  6
CONTINUOUS
 10
1.885886
 20
-3.288752
  0
VERTEX
  8
PLAN_1
  6
CONTINUOUS
 10
1.890697
 20
-3.290063
  0
VERTEX
  8
PLAN_1
  6
CONTINUOUS
 10
1.895071
 20
-3.291378
  0
VERTEX
  8
PLAN_1
  6
CONTINUOUS
 10
1.899008
 20
-3.292689
  0
VERTEX
  8
PLAN_1
  6
CONTINUOUS
 10
1.902945
 20
-3.294437
  0
VERTEX
  8
PLAN_1
  6
CONTINUOUS
 10
1.906445
 20
-3.296189
  0
VERTEX
  8
PLAN_1
  6
CONTINUOUS
 10
1.909508
 20
-3.297937
  0
VERTEX
  8
PLAN_1
  6
CONTINUOUS
 10
1.912567
 20
-3.300126
  0
VERTEX
  8
PLAN_1
  6
CONTINUOUS
 10
1.917819
 20
-3.304500
  0
VERTEX
  8
PLAN_1
  6
CONTINUOUS
 10
1.922193
 20
-3.309311
  0
VERTEX
  8
PLAN_1
  6
CONTINUOUS
 10
1.925689
 20
-3.314559
  0
VERTEX
  8
PLAN_1
  6
CONTINUOUS
 10
1.928752
 20
-3.319807
  0
VERTEX
  8
PLAN_1
  6
CONTINUOUS
 10
1.930941
 20
-3.325059
  0
VERTEX
  8
PLAN_1
  6
CONTINUOUS
 10
1.932689
 20
-3.330307
  0
VERTEX
  8
PLAN_1
  6
CONTINUOUS
 10
1.934000
 20
-3.335555
  0
VERTEX
  8
PLAN_1
  6
CONTINUOUS
 10
1.934437
 20
-3.340366
  0
VERTEX
  8
PLAN_1
  6
CONTINUOUS
 10
1.935315
 20
-3.345177
  0
VERTEX
  8
PLAN_1
  6
CONTINUOUS
 10
1.935315
 20
-3.349551
  0
VERTEX
  8
PLAN_1
  6
CONTINUOUS
 10
1.910382
 20
-3.349551
  0
SEQEND
  8
0
  0
POLYLINE
  8
PLAN_1
  6
CONTINUOUS
 66
     1
 40
0.008307
 41
0.008307
  0
VERTEX
  8
PLAN_1
  6
CONTINUOUS
 10
-1.306374
 20
2.769016
  0
VERTEX
  8
PLAN_1
  6
CONTINUOUS
 10
-1.221953
 20
2.769016
  0
SEQEND
  8
0
  0
POLYLINE
  8
PLAN_1
  6
CONTINUOUS
 66
     1
 40
0.008307
 41
0.008307
  0
VERTEX
  8
PLAN_1
  6
CONTINUOUS
 10
-1.024240
 20
2.769016
  0
VERTEX
  8
PLAN_1
  6
CONTINUOUS
 10
-0.959504
 20
2.769016
  0
SEQEND
  8
0
  0
POLYLINE
  8
PLAN_1
  6
CONTINUOUS
 66
     1
 40
0.008307
 41
0.008307
  0
VERTEX
  8
PLAN_1
  6
CONTINUOUS
 10
-1.309437
 20
2.986413
  0
VERTEX
  8
PLAN_1
  6
CONTINUOUS
 10
-1.221953
 20
2.986413
  0
SEQEND
  8
0
  0
POLYLINE
  8
PLAN_1
  6
CONTINUOUS
 66
     1
 40
0.008307
 41
0.008307
  0
VERTEX
  8
PLAN_1
  6
CONTINUOUS
 10
-1.024240
 20
2.986413
  0
VERTEX
  8
PLAN_1
  6
CONTINUOUS
 10
-0.942882
 20
2.986413
  0
SEQEND
  8
0
  0
POLYLINE
  8
PLAN_1
  6
CONTINUOUS
 66
     1
 40
0.008307
 41
0.008307
  0
VERTEX
  8
PLAN_1
  6
CONTINUOUS
 10
-1.309437
 20
2.986413
  0
VERTEX
  8
PLAN_1
  6
CONTINUOUS
 10
-1.310311
 20
2.986413
  0
SEQEND
  8
0
  0
POLYLINE
  8
PLAN_1
  6
CONTINUOUS
 66
     1
 40
0.008307
 41
0.008307
  0
VERTEX
  8
PLAN_1
  6
CONTINUOUS
 10
-1.024240
 20
2.555122
  0
VERTEX
  8
PLAN_1
  6
CONTINUOUS
 10
-1.024240
 20
2.621606
  0
VERTEX
  8
PLAN_1
  6
CONTINUOUS
 10
-1.221953
 20
2.620732
  0
VERTEX
  8
PLAN_1
  6
CONTINUOUS
 10
-1.221953
 20
2.555122
  0
VERTEX
  8
PLAN_1
  6
CONTINUOUS
 10
-1.024240
 20
2.555122
  0
SEQEND
  8
0
  0
POLYLINE
  8
PLAN_1
  6
CONTINUOUS
 66
     1
 40
0.008307
 41
0.008307
  0
VERTEX
  8
PLAN_1
  6
CONTINUOUS
 10
-1.221953
 20
3.041528
  0
VERTEX
  8
PLAN_1
  6
CONTINUOUS
 10
-1.233764
 20
3.037154
  0
VERTEX
  8
PLAN_1
  6
CONTINUOUS
 10
-1.245134
 20
3.031465
  0
VERTEX
  8
PLAN_1
  6
CONTINUOUS
 10
-1.256508
 20
3.025780
  0
VERTEX
  8
PLAN_1
  6
CONTINUOUS
 10
-1.267004
 20
3.019217
  0
VERTEX
  8
PLAN_1
  6
CONTINUOUS
 10
-1.277504
 20
3.012220
  0
VERTEX
  8
PLAN_1
  6
CONTINUOUS
 10
-1.288441
 20
3.004346
  0
VERTEX
  8
PLAN_1
  6
CONTINUOUS
 10
-1.298937
 20
2.996472
  0
VERTEX
  8
PLAN_1
  6
CONTINUOUS
 10
-1.309437
 20
2.987724
  0
SEQEND
  8
0
  0
POLYLINE
  8
PLAN_1
  6
CONTINUOUS
 66
     1
 40
0.008307
 41
0.008307
  0
VERTEX
  8
PLAN_1
  6
CONTINUOUS
 10
-1.309437
 20
2.987724
  0
VERTEX
  8
PLAN_1
  6
CONTINUOUS
 10
-1.309437
 20
2.986413
  0
SEQEND
  8
0
  0
POLYLINE
  8
PLAN_1
  6
CONTINUOUS
 66
     1
 40
0.008307
 41
0.008307
  0
VERTEX
  8
PLAN_1
  6
CONTINUOUS
 10
-1.024240
 20
3.036280
  0
VERTEX
  8
PLAN_1
  6
CONTINUOUS
 10
-1.012866
 20
3.031902
  0
VERTEX
  8
PLAN_1
  6
CONTINUOUS
 10
-1.001933
 20
3.026654
  0
VERTEX
  8
PLAN_1
  6
CONTINUOUS
 10
-0.991433
 20
3.021406
  0
VERTEX
  8
PLAN_1
  6
CONTINUOUS
 10
-0.980937
 20
3.015283
  0
VERTEX
  8
PLAN_1
  6
CONTINUOUS
 10
-0.970874
 20
3.009157
  0
VERTEX
  8
PLAN_1
  6
CONTINUOUS
 10
-0.961252
 20
3.002598
  0
VERTEX
  8
PLAN_1
  6
CONTINUOUS
 10
-0.951630
 20
2.995598
  0
VERTEX
  8
PLAN_1
  6
CONTINUOUS
 10
-0.942008
 20
2.988161
  0
SEQEND
  8
0
  0
POLYLINE
  8
PLAN_1
  6
CONTINUOUS
 66
     1
 40
0.008307
 41
0.008307
  0
VERTEX
  8
PLAN_1
  6
CONTINUOUS
 10
-0.942008
 20
2.988161
  0
VERTEX
  8
PLAN_1
  6
CONTINUOUS
 10
-0.942008
 20
2.514878
  0
VERTEX
  8
PLAN_1
  6
CONTINUOUS
 10
-1.308996
 20
2.514878
  0
VERTEX
  8
PLAN_1
  6
CONTINUOUS
 10
-1.309437
 20
2.986413
  0
SEQEND
  8
0
  0
POLYLINE
  8
PLAN_1
  6
CONTINUOUS
 66
     1
 40
0.008307
 41
0.008307
  0
VERTEX
  8
PLAN_1
  6
CONTINUOUS
 10
-1.024240
 20
3.036280
  0
VERTEX
  8
PLAN_1
  6
CONTINUOUS
 10
-1.024240
 20
2.986413
  0
SEQEND
  8
0
  0
POLYLINE
  8
PLAN_1
  6
CONTINUOUS
 66
     1
 40
0.008307
 41
0.008307
  0
VERTEX
  8
PLAN_1
  6
CONTINUOUS
 10
-1.221953
 20
3.041528
  0
VERTEX
  8
PLAN_1
  6
CONTINUOUS
 10
-1.221953
 20
2.986413
  0
SEQEND
  8
0
  0
POLYLINE
  8
PLAN_1
  6
CONTINUOUS
 66
     1
 40
0.008307
 41
0.008307
  0
VERTEX
  8
PLAN_1
  6
CONTINUOUS
 10
-1.024240
 20
2.986413
  0
VERTEX
  8
PLAN_1
  6
CONTINUOUS
 10
-1.024240
 20
2.622921
  0
VERTEX
  8
PLAN_1
  6
CONTINUOUS
 10
-1.221953
 20
2.622921
  0
VERTEX
  8
PLAN_1
  6
CONTINUOUS
 10
-1.221953
 20
2.986413
  0
SEQEND
  8
0
  0
POLYLINE
  8
PLAN_1
  6
CONTINUOUS
 66
     1
 40
0.008307
 41
0.008307
  0
VERTEX
  8
PLAN_1
  6
CONTINUOUS
 10
-1.024240
 20
3.036280
  0
VERTEX
  8
PLAN_1
  6
CONTINUOUS
 10
-1.024240
 20
3.087020
  0
VERTEX
  8
PLAN_1
  6
CONTINUOUS
 10
-1.221953
 20
3.087020
  0
VERTEX
  8
PLAN_1
  6
CONTINUOUS
 10
-1.221953
 20
3.041528
  0
SEQEND
  8
0
  0
POLYLINE
  8
PLAN_1
  6
CONTINUOUS
 66
     1
 40
0.008307
 41
0.008307
  0
VERTEX
  8
PLAN_1
  6
CONTINUOUS
 10
-0.850587
 20
2.205189
  0
VERTEX
  8
PLAN_1
  6
CONTINUOUS
 10
-0.780161
 20
2.247618
  0
VERTEX
  8
PLAN_1
  6
CONTINUOUS
 10
-0.788472
 20
2.239307
  0
SEQEND
  8
0
  0
POLYLINE
  8
PLAN_1
  6
CONTINUOUS
 66
     1
 40
0.008307
 41
0.008307
  0
VERTEX
  8
PLAN_1
  6
CONTINUOUS
 10
-0.788472
 20
2.239307
  0
VERTEX
  8
PLAN_1
  6
CONTINUOUS
 10
-0.781913
 20
2.243244
  0
VERTEX
  8
PLAN_1
  6
CONTINUOUS
 10
-0.775350
 20
2.247618
  0
VERTEX
  8
PLAN_1
  6
CONTINUOUS
 10
-0.769228
 20
2.252429
  0
VERTEX
  8
PLAN_1
  6
CONTINUOUS
 10
-0.763539
 20
2.257240
  0
VERTEX
  8
PLAN_1
  6
CONTINUOUS
 10
-0.757854
 20
2.262925
  0
VERTEX
  8
PLAN_1
  6
CONTINUOUS
 10
-0.753043
 20
2.268614
  0
VERTEX
  8
PLAN_1
  6
CONTINUOUS
 10
-0.748232
 20
2.274736
  0
VERTEX
  8
PLAN_1
  6
CONTINUOUS
 10
-0.743858
 20
2.281299
  0
VERTEX
  8
PLAN_1
  6
CONTINUOUS
 10
-0.739921
 20
2.288295
  0
VERTEX
  8
PLAN_1
  6
CONTINUOUS
 10
-0.736858
 20
2.295295
  0
VERTEX
  8
PLAN_1
  6
CONTINUOUS
 10
-0.733795
 20
2.302732
  0
VERTEX
  8
PLAN_1
  6
CONTINUOUS
 10
-0.731173
 20
2.310169
  0
VERTEX
  8
PLAN_1
  6
CONTINUOUS
 10
-0.729421
 20
2.318039
  0
VERTEX
  8
PLAN_1
  6
CONTINUOUS
 10
-0.728110
 20
2.325913
  0
VERTEX
  8
PLAN_1
  6
CONTINUOUS
 10
-0.727236
 20
2.334224
  0
VERTEX
  8
PLAN_1
  6
CONTINUOUS
 10
-0.726799
 20
2.342535
  0
VERTEX
  8
PLAN_1
  6
CONTINUOUS
 10
-0.726799
 20
2.349972
  0
VERTEX
  8
PLAN_1
  6
CONTINUOUS
 10
-0.727673
 20
2.356972
  0
VERTEX
  8
PLAN_1
  6
CONTINUOUS
 10
-0.728984
 20
2.363531
  0
VERTEX
  8
PLAN_1
  6
CONTINUOUS
 10
-0.730295
 20
2.370094
  0
VERTEX
  8
PLAN_1
  6
CONTINUOUS
 10
-0.732484
 20
2.376217
  0
VERTEX
  8
PLAN_1
  6
CONTINUOUS
 10
-0.734669
 20
2.381906
  0
VERTEX
  8
PLAN_1
  6
CONTINUOUS
 10
-0.737732
 20
2.387591
  0
VERTEX
  8
PLAN_1
  6
CONTINUOUS
 10
-0.740795
 20
2.392839
  0
VERTEX
  8
PLAN_1
  6
CONTINUOUS
 10
-0.744295
 20
2.398087
  0
VERTEX
  8
PLAN_1
  6
CONTINUOUS
 10
-0.748232
 20
2.402902
  0
VERTEX
  8
PLAN_1
  6
CONTINUOUS
 10
-0.752606
 20
2.407713
  0
VERTEX
  8
PLAN_1
  6
CONTINUOUS
 10
-0.756980
 20
2.412087
  0
VERTEX
  8
PLAN_1
  6
CONTINUOUS
 10
-0.762228
 20
2.416461
  0
VERTEX
  8
PLAN_1
  6
CONTINUOUS
 10
-0.767039
 20
2.420835
  0
VERTEX
  8
PLAN_1
  6
CONTINUOUS
 10
-0.772724
 20
2.424772
  0
VERTEX
  8
PLAN_1
  6
CONTINUOUS
 10
-0.778413
 20
2.428709
  0
SEQEND
  8
0
  0
POLYLINE
  8
PLAN_1
  6
CONTINUOUS
 66
     1
 40
0.008307
 41
0.008307
  0
VERTEX
  8
PLAN_1
  6
CONTINUOUS
 10
-0.778413
 20
2.428709
  0
VERTEX
  8
PLAN_1
  6
CONTINUOUS
 10
-0.947256
 20
2.495634
  0
VERTEX
  8
PLAN_1
  6
CONTINUOUS
 10
-0.945504
 20
2.514878
  0
VERTEX
  8
PLAN_1
  6
CONTINUOUS
 10
-1.307685
 20
2.514878
  0
VERTEX
  8
PLAN_1
  6
CONTINUOUS
 10
-1.307685
 20
2.489945
  0
VERTEX
  8
PLAN_1
  6
CONTINUOUS
 10
-1.478717
 20
2.425209
  0
SEQEND
  8
0
  0
POLYLINE
  8
PLAN_1
  6
CONTINUOUS
 66
     1
 40
0.008307
 41
0.008307
  0
VERTEX
  8
PLAN_1
  6
CONTINUOUS
 10
-1.478717
 20
2.425209
  0
VERTEX
  8
PLAN_1
  6
CONTINUOUS
 10
-1.484402
 20
2.421272
  0
VERTEX
  8
PLAN_1
  6
CONTINUOUS
 10
-1.489650
 20
2.417335
  0
VERTEX
  8
PLAN_1
  6
CONTINUOUS
 10
-1.494898
 20
2.413398
  0
VERTEX
  8
PLAN_1
  6
CONTINUOUS
 10
-1.499272
 20
2.409024
  0
VERTEX
  8
PLAN_1
  6
CONTINUOUS
 10
-1.503650
 20
2.405087
  0
VERTEX
  8
PLAN_1
  6
CONTINUOUS
 10
-1.507583
 20
2.400276
  0
VERTEX
  8
PLAN_1
  6
CONTINUOUS
 10
-1.511083
 20
2.395902
  0
VERTEX
  8
PLAN_1
  6
CONTINUOUS
 10
-1.514583
 20
2.391091
  0
VERTEX
  8
PLAN_1
  6
CONTINUOUS
 10
-1.517209
 20
2.386280
  0
VERTEX
  8
PLAN_1
  6
CONTINUOUS
 10
-1.519831
 20
2.381028
  0
VERTEX
  8
PLAN_1
  6
CONTINUOUS
 10
-1.522020
 20
2.375343
  0
VERTEX
  8
PLAN_1
  6
CONTINUOUS
 10
-1.523768
 20
2.369220
  0
VERTEX
  8
PLAN_1
  6
CONTINUOUS
 10
-1.525083
 20
2.363094
  0
VERTEX
  8
PLAN_1
  6
CONTINUOUS
 10
-1.525957
 20
2.356535
  0
VERTEX
  8
PLAN_1
  6
CONTINUOUS
 10
-1.526394
 20
2.349972
  0
VERTEX
  8
PLAN_1
  6
CONTINUOUS
 10
-1.526831
 20
2.342535
  0
VERTEX
  8
PLAN_1
  6
CONTINUOUS
 10
-1.526394
 20
2.334224
  0
VERTEX
  8
PLAN_1
  6
CONTINUOUS
 10
-1.525520
 20
2.325913
  0
VERTEX
  8
PLAN_1
  6
CONTINUOUS
 10
-1.524205
 20
2.318039
  0
VERTEX
  8
PLAN_1
  6
CONTINUOUS
 10
-1.522457
 20
2.310169
  0
VERTEX
  8
PLAN_1
  6
CONTINUOUS
 10
-1.519831
 20
2.302732
  0
VERTEX
  8
PLAN_1
  6
CONTINUOUS
 10
-1.516772
 20
2.295295
  0
VERTEX
  8
PLAN_1
  6
CONTINUOUS
 10
-1.513709
 20
2.288295
  0
VERTEX
  8
PLAN_1
  6
CONTINUOUS
 10
-1.509772
 20
2.281299
  0
VERTEX
  8
PLAN_1
  6
CONTINUOUS
 10
-1.505398
 20
2.274736
  0
VERTEX
  8
PLAN_1
  6
CONTINUOUS
 10
-1.500587
 20
2.268614
  0
VERTEX
  8
PLAN_1
  6
CONTINUOUS
 10
-1.495776
 20
2.262925
  0
VERTEX
  8
PLAN_1
  6
CONTINUOUS
 10
-1.490087
 20
2.257240
  0
VERTEX
  8
PLAN_1
  6
CONTINUOUS
 10
-1.484402
 20
2.252429
  0
VERTEX
  8
PLAN_1
  6
CONTINUOUS
 10
-1.478280
 20
2.247618
  0
VERTEX
  8
PLAN_1
  6
CONTINUOUS
 10
-1.471717
 20
2.243244
  0
VERTEX
  8
PLAN_1
  6
CONTINUOUS
 10
-1.464717
 20
2.239307
  0
SEQEND
  8
0
  0
POLYLINE
  8
PLAN_1
  6
CONTINUOUS
 66
     1
 40
0.008307
 41
0.008307
  0
VERTEX
  8
PLAN_1
  6
CONTINUOUS
 10
-1.464717
 20
2.239307
  0
VERTEX
  8
PLAN_1
  6
CONTINUOUS
 10
-1.473028
 20
2.247618
  0
VERTEX
  8
PLAN_1
  6
CONTINUOUS
 10
-1.403043
 20
2.205189
  0
VERTEX
  8
PLAN_1
  6
CONTINUOUS
 10
-0.850587
 20
2.205189
  0
SEQEND
  8
0
  0
POLYLINE
  8
PLAN_1
  6
CONTINUOUS
 66
     1
 40
0.004374
 41
0.004374
  0
VERTEX
  8
PLAN_1
  6
CONTINUOUS
 10
-1.438035
 20
2.412961
  0
VERTEX
  8
PLAN_1
  6
CONTINUOUS
 10
-0.829591
 20
2.412961
  0
SEQEND
  8
0
  0
POLYLINE
  8
PLAN_1
  6
CONTINUOUS
 66
     1
 40
0.004374
 41
0.004374
  0
VERTEX
  8
PLAN_1
  6
CONTINUOUS
 10
-1.438035
 20
2.307106
  0
VERTEX
  8
PLAN_1
  6
CONTINUOUS
 10
-0.829591
 20
2.307106
  0
SEQEND
  8
0
  0
POLYLINE
  8
PLAN_1
  6
CONTINUOUS
 66
     1
 40
0.004374
 41
0.004374
  0
VERTEX
  8
PLAN_1
  6
CONTINUOUS
 10
-1.304185
 20
2.489945
  0
VERTEX
  8
PLAN_1
  6
CONTINUOUS
 10
-0.938508
 20
2.489945
  0
SEQEND
  8
0
  0
POLYLINE
  8
PLAN_1
  6
CONTINUOUS
 66
     1
 40
0.008307
 41
0.008307
  0
VERTEX
  8
PLAN_1
  6
CONTINUOUS
 10
-0.488843
 20
1.439713
  0
VERTEX
  8
PLAN_1
  6
CONTINUOUS
 10
-0.488843
 20
2.204315
  0
VERTEX
  8
PLAN_1
  6
CONTINUOUS
 10
-1.778346
 20
2.204315
  0
VERTEX
  8
PLAN_1
  6
CONTINUOUS
 10
-1.778346
 20
1.439713
  0
VERTEX
  8
PLAN_1
  6
CONTINUOUS
 10
-0.488843
 20
1.439713
  0
SEQEND
  8
0
  0
POLYLINE
  8
PLAN_1
  6
CONTINUOUS
 66
     1
 40
0.008307
 41
0.008307
  0
VERTEX
  8
PLAN_1
  6
CONTINUOUS
 10
-0.926697
 20
1.028102
  0
VERTEX
  8
PLAN_1
  6
CONTINUOUS
 10
-0.926697
 20
1.074031
  0
VERTEX
  8
PLAN_1
  6
CONTINUOUS
 10
-1.320370
 20
1.074031
  0
VERTEX
  8
PLAN_1
  6
CONTINUOUS
 10
-1.320370
 20
1.028102
  0
VERTEX
  8
PLAN_1
  6
CONTINUOUS
 10
-0.926697
 20
1.028102
  0
SEQEND
  8
0
  0
POLYLINE
  8
PLAN_1
  6
CONTINUOUS
 66
     1
 40
0.008307
 41
0.008307
  0
VERTEX
  8
PLAN_1
  6
CONTINUOUS
 10
-0.593823
 20
1.414780
  0
VERTEX
  8
PLAN_1
  6
CONTINUOUS
 10
-0.593823
 20
1.439713
  0
VERTEX
  8
PLAN_1
  6
CONTINUOUS
 10
-1.652807
 20
1.439713
  0
VERTEX
  8
PLAN_1
  6
CONTINUOUS
 10
-1.652807
 20
1.414780
  0
VERTEX
  8
PLAN_1
  6
CONTINUOUS
 10
-0.593823
 20
1.414780
  0
SEQEND
  8
0
  0
POLYLINE
  8
PLAN_1
  6
CONTINUOUS
 66
     1
 40
0.008307
 41
0.008307
  0
VERTEX
  8
PLAN_1
  6
CONTINUOUS
 10
-0.827402
 20
1.074031
  0
VERTEX
  8
PLAN_1
  6
CONTINUOUS
 10
-0.827402
 20
1.414780
  0
VERTEX
  8
PLAN_1
  6
CONTINUOUS
 10
-1.438909
 20
1.414780
  0
VERTEX
  8
PLAN_1
  6
CONTINUOUS
 10
-1.438909
 20
1.074031
  0
VERTEX
  8
PLAN_1
  6
CONTINUOUS
 10
-0.827402
 20
1.074031
  0
SEQEND
  8
0
  0
POLYLINE
  8
PLAN_1
 62
     5
  6
CONTINUOUS
 66
     1
 40
0.003000
 41
0.003000
  0
VERTEX
  8
PLAN_1
 62
     5
  6
CONTINUOUS
 10
-1.942811
 20
0.748594
  0
VERTEX
  8
PLAN_1
 62
     5
  6
CONTINUOUS
 10
-1.942811
 20
0.756906
  0
SEQEND
  8
0
  0
POLYLINE
  8
PLAN_1
 62
     5
  6
CONTINUOUS
 66
     1
 40
0.003000
 41
0.003000
  0
VERTEX
  8
PLAN_1
 62
     5
  6
CONTINUOUS
 10
-1.942811
 20
0.765217
  0
VERTEX
  8
PLAN_1
 62
     5
  6
CONTINUOUS
 10
-1.942811
 20
0.773528
  0
SEQEND
  8
0
  0
POLYLINE
  8
PLAN_1
 62
     5
  6
CONTINUOUS
 66
     1
 40
0.003000
 41
0.003000
  0
VERTEX
  8
PLAN_1
 62
     5
  6
CONTINUOUS
 10
-1.942811
 20
0.781839
  0
VERTEX
  8
PLAN_1
 62
     5
  6
CONTINUOUS
 10
-1.942811
 20
0.790150
  0
SEQEND
  8
0
  0
POLYLINE
  8
PLAN_1
 62
     5
  6
CONTINUOUS
 66
     1
 40
0.003000
 41
0.003000
  0
VERTEX
  8
PLAN_1
 62
     5
  6
CONTINUOUS
 10
-1.942811
 20
0.798461
  0
VERTEX
  8
PLAN_1
 62
     5
  6
CONTINUOUS
 10
-1.942811
 20
0.806772
  0
SEQEND
  8
0
  0
POLYLINE
  8
PLAN_1
 62
     5
  6
CONTINUOUS
 66
     1
 40
0.003000
 41
0.003000
  0
VERTEX
  8
PLAN_1
 62
     5
  6
CONTINUOUS
 10
-1.942811
 20
0.815083
  0
VERTEX
  8
PLAN_1
 62
     5
  6
CONTINUOUS
 10
-1.942811
 20
0.823394
  0
SEQEND
  8
0
  0
POLYLINE
  8
PLAN_1
 62
     5
  6
CONTINUOUS
 66
     1
 40
0.003000
 41
0.003000
  0
VERTEX
  8
PLAN_1
 62
     5
  6
CONTINUOUS
 10
-1.942811
 20
0.831705
  0
VERTEX
  8
PLAN_1
 62
     5
  6
CONTINUOUS
 10
-1.942811
 20
0.840016
  0
SEQEND
  8
0
  0
POLYLINE
  8
PLAN_1
 62
     5
  6
CONTINUOUS
 66
     1
 40
0.003000
 41
0.003000
  0
VERTEX
  8
PLAN_1
 62
     5
  6
CONTINUOUS
 10
-1.942811
 20
0.848327
  0
VERTEX
  8
PLAN_1
 62
     5
  6
CONTINUOUS
 10
-1.942811
 20
0.856634
  0
SEQEND
  8
0
  0
POLYLINE
  8
PLAN_1
 62
     5
  6
CONTINUOUS
 66
     1
 40
0.003000
 41
0.003000
  0
VERTEX
  8
PLAN_1
 62
     5
  6
CONTINUOUS
 10
-1.942811
 20
0.864945
  0
VERTEX
  8
PLAN_1
 62
     5
  6
CONTINUOUS
 10
-1.942811
 20
0.873256
  0
SEQEND
  8
0
  0
POLYLINE
  8
PLAN_1
 62
     5
  6
CONTINUOUS
 66
     1
 40
0.003000
 41
0.003000
  0
VERTEX
  8
PLAN_1
 62
     5
  6
CONTINUOUS
 10
-1.942811
 20
0.881567
  0
VERTEX
  8
PLAN_1
 62
     5
  6
CONTINUOUS
 10
-1.942811
 20
0.889878
  0
SEQEND
  8
0
  0
POLYLINE
  8
PLAN_1
 62
     5
  6
CONTINUOUS
 66
     1
 40
0.003000
 41
0.003000
  0
VERTEX
  8
PLAN_1
 62
     5
  6
CONTINUOUS
 10
-1.942811
 20
0.898189
  0
VERTEX
  8
PLAN_1
 62
     5
  6
CONTINUOUS
 10
-1.942811
 20
0.906937
  0
SEQEND
  8
0
  0
POLYLINE
  8
PLAN_1
 62
     5
  6
CONTINUOUS
 66
     1
 40
0.003000
 41
0.003000
  0
VERTEX
  8
PLAN_1
 62
     5
  6
CONTINUOUS
 10
-1.942811
 20
0.915248
  0
VERTEX
  8
PLAN_1
 62
     5
  6
CONTINUOUS
 10
-1.942811
 20
0.923559
  0
SEQEND
  8
0
  0
POLYLINE
  8
PLAN_1
 62
     5
  6
CONTINUOUS
 66
     1
 40
0.003000
 41
0.003000
  0
VERTEX
  8
PLAN_1
 62
     5
  6
CONTINUOUS
 10
-1.942811
 20
0.931870
  0
VERTEX
  8
PLAN_1
 62
     5
  6
CONTINUOUS
 10
-1.942811
 20
0.940181
  0
SEQEND
  8
0
  0
POLYLINE
  8
PLAN_1
 62
     5
  6
CONTINUOUS
 66
     1
 40
0.003000
 41
0.003000
  0
VERTEX
  8
PLAN_1
 62
     5
  6
CONTINUOUS
 10
-1.942811
 20
0.948492
  0
VERTEX
  8
PLAN_1
 62
     5
  6
CONTINUOUS
 10
-1.942811
 20
0.956803
  0
SEQEND
  8
0
  0
POLYLINE
  8
PLAN_1
 62
     5
  6
CONTINUOUS
 66
     1
 40
0.003000
 41
0.003000
  0
VERTEX
  8
PLAN_1
 62
     5
  6
CONTINUOUS
 10
-1.942811
 20
0.965114
  0
VERTEX
  8
PLAN_1
 62
     5
  6
CONTINUOUS
 10
-1.942811
 20
0.973425
  0
SEQEND
  8
0
  0
POLYLINE
  8
PLAN_1
 62
     5
  6
CONTINUOUS
 66
     1
 40
0.003000
 41
0.003000
  0
VERTEX
  8
PLAN_1
 62
     5
  6
CONTINUOUS
 10
-1.942811
 20
0.981736
  0
VERTEX
  8
PLAN_1
 62
     5
  6
CONTINUOUS
 10
-1.942811
 20
0.990047
  0
SEQEND
  8
0
  0
POLYLINE
  8
PLAN_1
 62
     5
  6
CONTINUOUS
 66
     1
 40
0.003000
 41
0.003000
  0
VERTEX
  8
PLAN_1
 62
     5
  6
CONTINUOUS
 10
-1.942811
 20
0.998358
  0
VERTEX
  8
PLAN_1
 62
     5
  6
CONTINUOUS
 10
-1.942811
 20
1.006669
  0
SEQEND
  8
0
  0
POLYLINE
  8
PLAN_1
 62
     5
  6
CONTINUOUS
 66
     1
 40
0.003000
 41
0.003000
  0
VERTEX
  8
PLAN_1
 62
     5
  6
CONTINUOUS
 10
-1.942811
 20
1.014980
  0
VERTEX
  8
PLAN_1
 62
     5
  6
CONTINUOUS
 10
-1.942811
 20
1.023291
  0
SEQEND
  8
0
  0
POLYLINE
  8
PLAN_1
 62
     5
  6
CONTINUOUS
 66
     1
 40
0.003000
 41
0.003000
  0
VERTEX
  8
PLAN_1
 62
     5
  6
CONTINUOUS
 10
-1.942811
 20
1.031602
  0
VERTEX
  8
PLAN_1
 62
     5
  6
CONTINUOUS
 10
-1.942811
 20
1.039913
  0
SEQEND
  8
0
  0
POLYLINE
  8
PLAN_1
 62
     5
  6
CONTINUOUS
 66
     1
 40
0.003000
 41
0.003000
  0
VERTEX
  8
PLAN_1
 62
     5
  6
CONTINUOUS
 10
-1.942811
 20
1.048224
  0
VERTEX
  8
PLAN_1
 62
     5
  6
CONTINUOUS
 10
-1.942811
 20
1.056535
  0
SEQEND
  8
0
  0
POLYLINE
  8
PLAN_1
 62
     5
  6
CONTINUOUS
 66
     1
 40
0.003000
 41
0.003000
  0
VERTEX
  8
PLAN_1
 62
     5
  6
CONTINUOUS
 10
-1.942811
 20
1.064846
  0
VERTEX
  8
PLAN_1
 62
     5
  6
CONTINUOUS
 10
-1.942811
 20
1.073157
  0
SEQEND
  8
0
  0
POLYLINE
  8
PLAN_1
 62
     5
  6
CONTINUOUS
 66
     1
 40
0.003000
 41
0.003000
  0
VERTEX
  8
PLAN_1
 62
     5
  6
CONTINUOUS
 10
-1.942811
 20
1.081469
  0
VERTEX
  8
PLAN_1
 62
     5
  6
CONTINUOUS
 10
-1.942811
 20
1.089780
  0
SEQEND
  8
0
  0
POLYLINE
  8
PLAN_1
 62
     5
  6
CONTINUOUS
 66
     1
 40
0.003000
 41
0.003000
  0
VERTEX
  8
PLAN_1
 62
     5
  6
CONTINUOUS
 10
-1.942811
 20
1.098091
  0
VERTEX
  8
PLAN_1
 62
     5
  6
CONTINUOUS
 10
-1.942811
 20
1.106402
  0
SEQEND
  8
0
  0
POLYLINE
  8
PLAN_1
 62
     5
  6
CONTINUOUS
 66
     1
 40
0.003000
 41
0.003000
  0
VERTEX
  8
PLAN_1
 62
     5
  6
CONTINUOUS
 10
-1.942811
 20
1.114713
  0
VERTEX
  8
PLAN_1
 62
     5
  6
CONTINUOUS
 10
-1.942811
 20
1.123024
  0
SEQEND
  8
0
  0
POLYLINE
  8
PLAN_1
 62
     5
  6
CONTINUOUS
 66
     1
 40
0.003000
 41
0.003000
  0
VERTEX
  8
PLAN_1
 62
     5
  6
CONTINUOUS
 10
-1.942811
 20
1.131335
  0
VERTEX
  8
PLAN_1
 62
     5
  6
CONTINUOUS
 10
-1.942811
 20
1.140083
  0
SEQEND
  8
0
  0
POLYLINE
  8
PLAN_1
 62
     5
  6
CONTINUOUS
 66
     1
 40
0.003000
 41
0.003000
  0
VERTEX
  8
PLAN_1
 62
     5
  6
CONTINUOUS
 10
-1.942811
 20
1.148394
  0
VERTEX
  8
PLAN_1
 62
     5
  6
CONTINUOUS
 10
-1.942811
 20
1.156705
  0
SEQEND
  8
0
  0
POLYLINE
  8
PLAN_1
 62
     5
  6
CONTINUOUS
 66
     1
 40
0.003000
 41
0.003000
  0
VERTEX
  8
PLAN_1
 62
     5
  6
CONTINUOUS
 10
-1.942811
 20
1.165012
  0
VERTEX
  8
PLAN_1
 62
     5
  6
CONTINUOUS
 10
-1.942811
 20
1.173323
  0
SEQEND
  8
0
  0
POLYLINE
  8
PLAN_1
 62
     5
  6
CONTINUOUS
 66
     1
 40
0.003000
 41
0.003000
  0
VERTEX
  8
PLAN_1
 62
     5
  6
CONTINUOUS
 10
-1.942811
 20
1.181634
  0
VERTEX
  8
PLAN_1
 62
     5
  6
CONTINUOUS
 10
-1.942811
 20
1.189945
  0
SEQEND
  8
0
  0
POLYLINE
  8
PLAN_1
 62
     5
  6
CONTINUOUS
 66
     1
 40
0.003000
 41
0.003000
  0
VERTEX
  8
PLAN_1
 62
     5
  6
CONTINUOUS
 10
-1.942811
 20
1.198256
  0
VERTEX
  8
PLAN_1
 62
     5
  6
CONTINUOUS
 10
-1.942811
 20
1.206567
  0
SEQEND
  8
0
  0
POLYLINE
  8
PLAN_1
 62
     5
  6
CONTINUOUS
 66
     1
 40
0.003000
 41
0.003000
  0
VERTEX
  8
PLAN_1
 62
     5
  6
CONTINUOUS
 10
-1.942811
 20
1.214878
  0
VERTEX
  8
PLAN_1
 62
     5
  6
CONTINUOUS
 10
-1.942811
 20
1.223189
  0
SEQEND
  8
0
  0
POLYLINE
  8
PLAN_1
 62
     5
  6
CONTINUOUS
 66
     1
 40
0.003000
 41
0.003000
  0
VERTEX
  8
PLAN_1
 62
     5
  6
CONTINUOUS
 10
-1.942811
 20
1.231500
  0
VERTEX
  8
PLAN_1
 62
     5
  6
CONTINUOUS
 10
-1.942811
 20
1.239811
  0
SEQEND
  8
0
  0
POLYLINE
  8
PLAN_1
 62
     5
  6
CONTINUOUS
 66
     1
 40
0.003000
 41
0.003000
  0
VERTEX
  8
PLAN_1
 62
     5
  6
CONTINUOUS
 10
-1.942811
 20
1.248122
  0
VERTEX
  8
PLAN_1
 62
     5
  6
CONTINUOUS
 10
-1.942811
 20
1.256433
  0
SEQEND
  8
0
  0
POLYLINE
  8
PLAN_1
 62
     5
  6
CONTINUOUS
 66
     1
 40
0.003000
 41
0.003000
  0
VERTEX
  8
PLAN_1
 62
     5
  6
CONTINUOUS
 10
-1.942811
 20
1.264744
  0
VERTEX
  8
PLAN_1
 62
     5
  6
CONTINUOUS
 10
-1.942811
 20
1.273055
  0
SEQEND
  8
0
  0
POLYLINE
  8
PLAN_1
 62
     5
  6
CONTINUOUS
 66
     1
 40
0.003000
 41
0.003000
  0
VERTEX
  8
PLAN_1
 62
     5
  6
CONTINUOUS
 10
-1.942811
 20
1.281366
  0
VERTEX
  8
PLAN_1
 62
     5
  6
CONTINUOUS
 10
-1.942811
 20
1.289677
  0
SEQEND
  8
0
  0
POLYLINE
  8
PLAN_1
 62
     5
  6
CONTINUOUS
 66
     1
 40
0.003000
 41
0.003000
  0
VERTEX
  8
PLAN_1
 62
     5
  6
CONTINUOUS
 10
-1.942811
 20
1.297988
  0
VERTEX
  8
PLAN_1
 62
     5
  6
CONTINUOUS
 10
-1.942811
 20
1.306299
  0
SEQEND
  8
0
  0
POLYLINE
  8
PLAN_1
 62
     5
  6
CONTINUOUS
 66
     1
 40
0.003000
 41
0.003000
  0
VERTEX
  8
PLAN_1
 62
     5
  6
CONTINUOUS
 10
-1.942811
 20
1.314610
  0
VERTEX
  8
PLAN_1
 62
     5
  6
CONTINUOUS
 10
-1.942811
 20
1.322921
  0
SEQEND
  8
0
  0
POLYLINE
  8
PLAN_1
 62
     5
  6
CONTINUOUS
 66
     1
 40
0.003000
 41
0.003000
  0
VERTEX
  8
PLAN_1
 62
     5
  6
CONTINUOUS
 10
-1.942811
 20
1.331232
  0
VERTEX
  8
PLAN_1
 62
     5
  6
CONTINUOUS
 10
-1.942811
 20
1.339543
  0
SEQEND
  8
0
  0
POLYLINE
  8
PLAN_1
 62
     5
  6
CONTINUOUS
 66
     1
 40
0.003000
 41
0.003000
  0
VERTEX
  8
PLAN_1
 62
     5
  6
CONTINUOUS
 10
-1.942811
 20
1.347854
  0
VERTEX
  8
PLAN_1
 62
     5
  6
CONTINUOUS
 10
-1.942811
 20
1.356165
  0
SEQEND
  8
0
  0
POLYLINE
  8
PLAN_1
 62
     5
  6
CONTINUOUS
 66
     1
 40
0.003000
 41
0.003000
  0
VERTEX
  8
PLAN_1
 62
     5
  6
CONTINUOUS
 10
-1.942811
 20
1.364476
  0
VERTEX
  8
PLAN_1
 62
     5
  6
CONTINUOUS
 10
-1.942811
 20
1.373224
  0
SEQEND
  8
0
  0
POLYLINE
  8
PLAN_1
 62
     5
  6
CONTINUOUS
 66
     1
 40
0.003000
 41
0.003000
  0
VERTEX
  8
PLAN_1
 62
     5
  6
CONTINUOUS
 10
-1.942811
 20
1.381535
  0
VERTEX
  8
PLAN_1
 62
     5
  6
CONTINUOUS
 10
-1.942811
 20
1.389846
  0
SEQEND
  8
0
  0
POLYLINE
  8
PLAN_1
 62
     5
  6
CONTINUOUS
 66
     1
 40
0.003000
 41
0.003000
  0
VERTEX
  8
PLAN_1
 62
     5
  6
CONTINUOUS
 10
-1.942811
 20
1.398157
  0
VERTEX
  8
PLAN_1
 62
     5
  6
CONTINUOUS
 10
-1.942811
 20
1.406469
  0
SEQEND
  8
0
  0
POLYLINE
  8
PLAN_1
 62
     5
  6
CONTINUOUS
 66
     1
 40
0.003000
 41
0.003000
  0
VERTEX
  8
PLAN_1
 62
     5
  6
CONTINUOUS
 10
-1.942811
 20
1.414780
  0
VERTEX
  8
PLAN_1
 62
     5
  6
CONTINUOUS
 10
-1.942811
 20
1.423091
  0
SEQEND
  8
0
  0
POLYLINE
  8
PLAN_1
 62
     5
  6
CONTINUOUS
 66
     1
 40
0.003000
 41
0.003000
  0
VERTEX
  8
PLAN_1
 62
     5
  6
CONTINUOUS
 10
-1.942811
 20
1.431402
  0
VERTEX
  8
PLAN_1
 62
     5
  6
CONTINUOUS
 10
-1.942811
 20
1.439713
  0
SEQEND
  8
0
  0
POLYLINE
  8
PLAN_1
 62
     5
  6
CONTINUOUS
 66
     1
 40
0.003000
 41
0.003000
  0
VERTEX
  8
PLAN_1
 62
     5
  6
CONTINUOUS
 10
-1.934504
 20
1.439713
  0
VERTEX
  8
PLAN_1
 62
     5
  6
CONTINUOUS
 10
-1.926193
 20
1.439713
  0
SEQEND
  8
0
  0
POLYLINE
  8
PLAN_1
 62
     5
  6
CONTINUOUS
 66
     1
 40
0.003000
 41
0.003000
  0
VERTEX
  8
PLAN_1
 62
     5
  6
CONTINUOUS
 10
-1.917882
 20
1.439713
  0
VERTEX
  8
PLAN_1
 62
     5
  6
CONTINUOUS
 10
-1.909571
 20
1.439713
  0
SEQEND
  8
0
  0
POLYLINE
  8
PLAN_1
 62
     5
  6
CONTINUOUS
 66
     1
 40
0.003000
 41
0.003000
  0
VERTEX
  8
PLAN_1
 62
     5
  6
CONTINUOUS
 10
-1.901260
 20
1.439713
  0
VERTEX
  8
PLAN_1
 62
     5
  6
CONTINUOUS
 10
-1.892949
 20
1.439713
  0
SEQEND
  8
0
  0
POLYLINE
  8
PLAN_1
 62
     5
  6
CONTINUOUS
 66
     1
 40
0.003000
 41
0.003000
  0
VERTEX
  8
PLAN_1
 62
     5
  6
CONTINUOUS
 10
-1.884638
 20
1.439713
  0
VERTEX
  8
PLAN_1
 62
     5
  6
CONTINUOUS
 10
-1.876327
 20
1.439713
  0
SEQEND
  8
0
  0
POLYLINE
  8
PLAN_1
 62
     5
  6
CONTINUOUS
 66
     1
 40
0.003000
 41
0.003000
  0
VERTEX
  8
PLAN_1
 62
     5
  6
CONTINUOUS
 10
-1.868016
 20
1.439713
  0
VERTEX
  8
PLAN_1
 62
     5
  6
CONTINUOUS
 10
-1.859705
 20
1.439713
  0
SEQEND
  8
0
  0
POLYLINE
  8
PLAN_1
 62
     5
  6
CONTINUOUS
 66
     1
 40
0.003000
 41
0.003000
  0
VERTEX
  8
PLAN_1
 62
     5
  6
CONTINUOUS
 10
-1.851394
 20
1.439713
  0
VERTEX
  8
PLAN_1
 62
     5
  6
CONTINUOUS
 10
-1.843083
 20
1.439713
  0
SEQEND
  8
0
  0
POLYLINE
  8
PLAN_1
 62
     5
  6
CONTINUOUS
 66
     1
 40
0.003000
 41
0.003000
  0
VERTEX
  8
PLAN_1
 62
     5
  6
CONTINUOUS
 10
-1.834772
 20
1.439713
  0
VERTEX
  8
PLAN_1
 62
     5
  6
CONTINUOUS
 10
-1.826461
 20
1.439713
  0
SEQEND
  8
0
  0
POLYLINE
  8
PLAN_1
 62
     5
  6
CONTINUOUS
 66
     1
 40
0.003000
 41
0.003000
  0
VERTEX
  8
PLAN_1
 62
     5
  6
CONTINUOUS
 10
-1.818150
 20
1.439713
  0
VERTEX
  8
PLAN_1
 62
     5
  6
CONTINUOUS
 10
-1.809839
 20
1.439713
  0
SEQEND
  8
0
  0
POLYLINE
  8
PLAN_1
 62
     5
  6
CONTINUOUS
 66
     1
 40
0.003000
 41
0.003000
  0
VERTEX
  8
PLAN_1
 62
     5
  6
CONTINUOUS
 10
-1.801528
 20
1.439713
  0
VERTEX
  8
PLAN_1
 62
     5
  6
CONTINUOUS
 10
-1.793217
 20
1.439713
  0
SEQEND
  8
0
  0
POLYLINE
  8
PLAN_1
 62
     5
  6
CONTINUOUS
 66
     1
 40
0.003000
 41
0.003000
  0
VERTEX
  8
PLAN_1
 62
     5
  6
CONTINUOUS
 10
-1.784906
 20
1.439713
  0
VERTEX
  8
PLAN_1
 62
     5
  6
CONTINUOUS
 10
-1.776594
 20
1.439713
  0
SEQEND
  8
0
  0
POLYLINE
  8
PLAN_1
 62
     5
  6
CONTINUOUS
 66
     1
 40
0.003000
 41
0.003000
  0
VERTEX
  8
PLAN_1
 62
     5
  6
CONTINUOUS
 10
-1.768283
 20
1.439713
  0
VERTEX
  8
PLAN_1
 62
     5
  6
CONTINUOUS
 10
-1.759972
 20
1.439713
  0
SEQEND
  8
0
  0
POLYLINE
  8
PLAN_1
 62
     5
  6
CONTINUOUS
 66
     1
 40
0.003000
 41
0.003000
  0
VERTEX
  8
PLAN_1
 62
     5
  6
CONTINUOUS
 10
-1.751661
 20
1.439713
  0
VERTEX
  8
PLAN_1
 62
     5
  6
CONTINUOUS
 10
-1.743350
 20
1.439713
  0
SEQEND
  8
0
  0
POLYLINE
  8
PLAN_1
 62
     5
  6
CONTINUOUS
 66
     1
 40
0.003000
 41
0.003000
  0
VERTEX
  8
PLAN_1
 62
     5
  6
CONTINUOUS
 10
-1.735039
 20
1.439713
  0
VERTEX
  8
PLAN_1
 62
     5
  6
CONTINUOUS
 10
-1.726291
 20
1.439713
  0
SEQEND
  8
0
  0
POLYLINE
  8
PLAN_1
 62
     5
  6
CONTINUOUS
 66
     1
 40
0.003000
 41
0.003000
  0
VERTEX
  8
PLAN_1
 62
     5
  6
CONTINUOUS
 10
-1.717980
 20
1.439713
  0
VERTEX
  8
PLAN_1
 62
     5
  6
CONTINUOUS
 10
-1.709669
 20
1.439713
  0
SEQEND
  8
0
  0
POLYLINE
  8
PLAN_1
 62
     5
  6
CONTINUOUS
 66
     1
 40
0.003000
 41
0.003000
  0
VERTEX
  8
PLAN_1
 62
     5
  6
CONTINUOUS
 10
-1.701358
 20
1.439713
  0
VERTEX
  8
PLAN_1
 62
     5
  6
CONTINUOUS
 10
-1.693047
 20
1.439713
  0
SEQEND
  8
0
  0
POLYLINE
  8
PLAN_1
 62
     5
  6
CONTINUOUS
 66
     1
 40
0.003000
 41
0.003000
  0
VERTEX
  8
PLAN_1
 62
     5
  6
CONTINUOUS
 10
-1.684736
 20
1.439713
  0
VERTEX
  8
PLAN_1
 62
     5
  6
CONTINUOUS
 10
-1.676425
 20
1.439713
  0
SEQEND
  8
0
  0
POLYLINE
  8
PLAN_1
 62
     5
  6
CONTINUOUS
 66
     1
 40
0.003000
 41
0.003000
  0
VERTEX
  8
PLAN_1
 62
     5
  6
CONTINUOUS
 10
-1.668114
 20
1.439713
  0
VERTEX
  8
PLAN_1
 62
     5
  6
CONTINUOUS
 10
-1.659803
 20
1.439713
  0
SEQEND
  8
0
  0
POLYLINE
  8
PLAN_1
 62
     5
  6
CONTINUOUS
 66
     1
 40
0.003000
 41
0.003000
  0
VERTEX
  8
PLAN_1
 62
     5
  6
CONTINUOUS
 10
-1.651496
 20
1.439713
  0
VERTEX
  8
PLAN_1
 62
     5
  6
CONTINUOUS
 10
-1.643185
 20
1.439713
  0
SEQEND
  8
0
  0
POLYLINE
  8
PLAN_1
 62
     5
  6
CONTINUOUS
 66
     1
 40
0.003000
 41
0.003000
  0
VERTEX
  8
PLAN_1
 62
     5
  6
CONTINUOUS
 10
-1.634874
 20
1.439713
  0
VERTEX
  8
PLAN_1
 62
     5
  6
CONTINUOUS
 10
-1.626563
 20
1.439713
  0
SEQEND
  8
0
  0
POLYLINE
  8
PLAN_1
 62
     5
  6
CONTINUOUS
 66
     1
 40
0.003000
 41
0.003000
  0
VERTEX
  8
PLAN_1
 62
     5
  6
CONTINUOUS
 10
-1.618252
 20
1.439713
  0
VERTEX
  8
PLAN_1
 62
     5
  6
CONTINUOUS
 10
-1.609941
 20
1.439713
  0
SEQEND
  8
0
  0
POLYLINE
  8
PLAN_1
 62
     5
  6
CONTINUOUS
 66
     1
 40
0.003000
 41
0.003000
  0
VERTEX
  8
PLAN_1
 62
     5
  6
CONTINUOUS
 10
-1.601630
 20
1.439713
  0
VERTEX
  8
PLAN_1
 62
     5
  6
CONTINUOUS
 10
-1.593319
 20
1.439713
  0
SEQEND
  8
0
  0
POLYLINE
  8
PLAN_1
 62
     5
  6
CONTINUOUS
 66
     1
 40
0.003000
 41
0.003000
  0
VERTEX
  8
PLAN_1
 62
     5
  6
CONTINUOUS
 10
-1.585008
 20
1.439713
  0
VERTEX
  8
PLAN_1
 62
     5
  6
CONTINUOUS
 10
-1.576697
 20
1.439713
  0
SEQEND
  8
0
  0
POLYLINE
  8
PLAN_1
 62
     5
  6
CONTINUOUS
 66
     1
 40
0.003000
 41
0.003000
  0
VERTEX
  8
PLAN_1
 62
     5
  6
CONTINUOUS
 10
-1.568386
 20
1.439713
  0
VERTEX
  8
PLAN_1
 62
     5
  6
CONTINUOUS
 10
-1.560075
 20
1.439713
  0
SEQEND
  8
0
  0
POLYLINE
  8
PLAN_1
 62
     5
  6
CONTINUOUS
 66
     1
 40
0.003000
 41
0.003000
  0
VERTEX
  8
PLAN_1
 62
     5
  6
CONTINUOUS
 10
-1.551764
 20
1.439713
  0
VERTEX
  8
PLAN_1
 62
     5
  6
CONTINUOUS
 10
-1.543453
 20
1.439713
  0
SEQEND
  8
0
  0
POLYLINE
  8
PLAN_1
 62
     5
  6
CONTINUOUS
 66
     1
 40
0.003000
 41
0.003000
  0
VERTEX
  8
PLAN_1
 62
     5
  6
CONTINUOUS
 10
-1.535142
 20
1.439713
  0
VERTEX
  8
PLAN_1
 62
     5
  6
CONTINUOUS
 10
-1.526831
 20
1.439713
  0
SEQEND
  8
0
  0
POLYLINE
  8
PLAN_1
 62
     5
  6
CONTINUOUS
 66
     1
 40
0.003000
 41
0.003000
  0
VERTEX
  8
PLAN_1
 62
     5
  6
CONTINUOUS
 10
-1.518520
 20
1.439713
  0
VERTEX
  8
PLAN_1
 62
     5
  6
CONTINUOUS
 10
-1.510209
 20
1.439713
  0
SEQEND
  8
0
  0
POLYLINE
  8
PLAN_1
 62
     5
  6
CONTINUOUS
 66
     1
 40
0.003000
 41
0.003000
  0
VERTEX
  8
PLAN_1
 62
     5
  6
CONTINUOUS
 10
-1.501898
 20
1.439713
  0
VERTEX
  8
PLAN_1
 62
     5
  6
CONTINUOUS
 10
-1.493150
 20
1.439713
  0
SEQEND
  8
0
  0
POLYLINE
  8
PLAN_1
 62
     5
  6
CONTINUOUS
 66
     1
 40
0.003000
 41
0.003000
  0
VERTEX
  8
PLAN_1
 62
     5
  6
CONTINUOUS
 10
-1.484839
 20
1.439713
  0
VERTEX
  8
PLAN_1
 62
     5
  6
CONTINUOUS
 10
-1.476528
 20
1.439713
  0
SEQEND
  8
0
  0
POLYLINE
  8
PLAN_1
 62
     5
  6
CONTINUOUS
 66
     1
 40
0.003000
 41
0.003000
  0
VERTEX
  8
PLAN_1
 62
     5
  6
CONTINUOUS
 10
-1.468217
 20
1.439713
  0
VERTEX
  8
PLAN_1
 62
     5
  6
CONTINUOUS
 10
-1.459906
 20
1.439713
  0
SEQEND
  8
0
  0
POLYLINE
  8
PLAN_1
 62
     5
  6
CONTINUOUS
 66
     1
 40
0.003000
 41
0.003000
  0
VERTEX
  8
PLAN_1
 62
     5
  6
CONTINUOUS
 10
-1.451594
 20
1.439713
  0
VERTEX
  8
PLAN_1
 62
     5
  6
CONTINUOUS
 10
-1.443283
 20
1.439713
  0
SEQEND
  8
0
  0
POLYLINE
  8
PLAN_1
 62
     5
  6
CONTINUOUS
 66
     1
 40
0.003000
 41
0.003000
  0
VERTEX
  8
PLAN_1
 62
     5
  6
CONTINUOUS
 10
-1.434972
 20
1.439713
  0
VERTEX
  8
PLAN_1
 62
     5
  6
CONTINUOUS
 10
-1.426661
 20
1.439713
  0
SEQEND
  8
0
  0
POLYLINE
  8
PLAN_1
 62
     5
  6
CONTINUOUS
 66
     1
 40
0.003000
 41
0.003000
  0
VERTEX
  8
PLAN_1
 62
     5
  6
CONTINUOUS
 10
-1.418350
 20
1.439713
  0
VERTEX
  8
PLAN_1
 62
     5
  6
CONTINUOUS
 10
-1.410039
 20
1.439713
  0
SEQEND
  8
0
  0
POLYLINE
  8
PLAN_1
 62
     5
  6
CONTINUOUS
 66
     1
 40
0.003000
 41
0.003000
  0
VERTEX
  8
PLAN_1
 62
     5
  6
CONTINUOUS
 10
-1.401728
 20
1.439713
  0
VERTEX
  8
PLAN_1
 62
     5
  6
CONTINUOUS
 10
-1.393417
 20
1.439713
  0
SEQEND
  8
0
  0
POLYLINE
  8
PLAN_1
 62
     5
  6
CONTINUOUS
 66
     1
 40
0.003000
 41
0.003000
  0
VERTEX
  8
PLAN_1
 62
     5
  6
CONTINUOUS
 10
-1.385106
 20
1.439713
  0
VERTEX
  8
PLAN_1
 62
     5
  6
CONTINUOUS
 10
-1.376795
 20
1.439713
  0
SEQEND
  8
0
  0
POLYLINE
  8
PLAN_1
 62
     5
  6
CONTINUOUS
 66
     1
 40
0.003000
 41
0.003000
  0
VERTEX
  8
PLAN_1
 62
     5
  6
CONTINUOUS
 10
-1.368488
 20
1.439713
  0
VERTEX
  8
PLAN_1
 62
     5
  6
CONTINUOUS
 10
-1.360177
 20
1.439713
  0
SEQEND
  8
0
  0
POLYLINE
  8
PLAN_1
 62
     5
  6
CONTINUOUS
 66
     1
 40
0.003000
 41
0.003000
  0
VERTEX
  8
PLAN_1
 62
     5
  6
CONTINUOUS
 10
-1.351866
 20
1.439713
  0
VERTEX
  8
PLAN_1
 62
     5
  6
CONTINUOUS
 10
-1.343555
 20
1.439713
  0
SEQEND
  8
0
  0
POLYLINE
  8
PLAN_1
 62
     5
  6
CONTINUOUS
 66
     1
 40
0.003000
 41
0.003000
  0
VERTEX
  8
PLAN_1
 62
     5
  6
CONTINUOUS
 10
-1.335244
 20
1.439713
  0
VERTEX
  8
PLAN_1
 62
     5
  6
CONTINUOUS
 10
-1.326933
 20
1.439713
  0
SEQEND
  8
0
  0
POLYLINE
  8
PLAN_1
 62
     5
  6
CONTINUOUS
 66
     1
 40
0.003000
 41
0.003000
  0
VERTEX
  8
PLAN_1
 62
     5
  6
CONTINUOUS
 10
-1.318622
 20
1.439713
  0
VERTEX
  8
PLAN_1
 62
     5
  6
CONTINUOUS
 10
-1.310311
 20
1.439713
  0
SEQEND
  8
0
  0
POLYLINE
  8
PLAN_1
 62
     5
  6
CONTINUOUS
 66
     1
 40
0.003000
 41
0.003000
  0
VERTEX
  8
PLAN_1
 62
     5
  6
CONTINUOUS
 10
-1.302000
 20
1.439713
  0
VERTEX
  8
PLAN_1
 62
     5
  6
CONTINUOUS
 10
-1.293689
 20
1.439713
  0
SEQEND
  8
0
  0
POLYLINE
  8
PLAN_1
 62
     5
  6
CONTINUOUS
 66
     1
 40
0.003000
 41
0.003000
  0
VERTEX
  8
PLAN_1
 62
     5
  6
CONTINUOUS
 10
-1.285378
 20
1.439713
  0
VERTEX
  8
PLAN_1
 62
     5
  6
CONTINUOUS
 10
-1.277067
 20
1.439713
  0
SEQEND
  8
0
  0
POLYLINE
  8
PLAN_1
 62
     5
  6
CONTINUOUS
 66
     1
 40
0.003000
 41
0.003000
  0
VERTEX
  8
PLAN_1
 62
     5
  6
CONTINUOUS
 10
-1.268756
 20
1.439713
  0
VERTEX
  8
PLAN_1
 62
     5
  6
CONTINUOUS
 10
-1.260008
 20
1.439713
  0
SEQEND
  8
0
  0
POLYLINE
  8
PLAN_1
 62
     5
  6
CONTINUOUS
 66
     1
 40
0.003000
 41
0.003000
  0
VERTEX
  8
PLAN_1
 62
     5
  6
CONTINUOUS
 10
-1.251697
 20
1.439713
  0
VERTEX
  8
PLAN_1
 62
     5
  6
CONTINUOUS
 10
-1.243386
 20
1.439713
  0
SEQEND
  8
0
  0
POLYLINE
  8
PLAN_1
 62
     5
  6
CONTINUOUS
 66
     1
 40
0.003000
 41
0.003000
  0
VERTEX
  8
PLAN_1
 62
     5
  6
CONTINUOUS
 10
-1.235075
 20
1.439713
  0
VERTEX
  8
PLAN_1
 62
     5
  6
CONTINUOUS
 10
-1.226764
 20
1.439713
  0
SEQEND
  8
0
  0
POLYLINE
  8
PLAN_1
 62
     5
  6
CONTINUOUS
 66
     1
 40
0.003000
 41
0.003000
  0
VERTEX
  8
PLAN_1
 62
     5
  6
CONTINUOUS
 10
-1.218453
 20
1.439713
  0
VERTEX
  8
PLAN_1
 62
     5
  6
CONTINUOUS
 10
-1.210142
 20
1.439713
  0
SEQEND
  8
0
  0
POLYLINE
  8
PLAN_1
 62
     5
  6
CONTINUOUS
 66
     1
 40
0.003000
 41
0.003000
  0
VERTEX
  8
PLAN_1
 62
     5
  6
CONTINUOUS
 10
-1.201831
 20
1.439713
  0
VERTEX
  8
PLAN_1
 62
     5
  6
CONTINUOUS
 10
-1.193520
 20
1.439713
  0
SEQEND
  8
0
  0
POLYLINE
  8
PLAN_1
 62
     5
  6
CONTINUOUS
 66
     1
 40
0.003000
 41
0.003000
  0
VERTEX
  8
PLAN_1
 62
     5
  6
CONTINUOUS
 10
-1.185209
 20
1.439713
  0
VERTEX
  8
PLAN_1
 62
     5
  6
CONTINUOUS
 10
-1.176898
 20
1.439713
  0
SEQEND
  8
0
  0
POLYLINE
  8
PLAN_1
 62
     5
  6
CONTINUOUS
 66
     1
 40
0.003000
 41
0.003000
  0
VERTEX
  8
PLAN_1
 62
     5
  6
CONTINUOUS
 10
-1.168587
 20
1.439713
  0
VERTEX
  8
PLAN_1
 62
     5
  6
CONTINUOUS
 10
-1.160276
 20
1.439713
  0
SEQEND
  8
0
  0
POLYLINE
  8
PLAN_1
 62
     5
  6
CONTINUOUS
 66
     1
 40
0.003000
 41
0.003000
  0
VERTEX
  8
PLAN_1
 62
     5
  6
CONTINUOUS
 10
-1.151965
 20
1.439713
  0
VERTEX
  8
PLAN_1
 62
     5
  6
CONTINUOUS
 10
-1.143654
 20
1.439713
  0
SEQEND
  8
0
  0
POLYLINE
  8
PLAN_1
 62
     5
  6
CONTINUOUS
 66
     1
 40
0.003000
 41
0.003000
  0
VERTEX
  8
PLAN_1
 62
     5
  6
CONTINUOUS
 10
-1.135343
 20
1.439713
  0
VERTEX
  8
PLAN_1
 62
     5
  6
CONTINUOUS
 10
-1.127031
 20
1.439713
  0
SEQEND
  8
0
  0
POLYLINE
  8
PLAN_1
 62
     5
  6
CONTINUOUS
 66
     1
 40
0.003000
 41
0.003000
  0
VERTEX
  8
PLAN_1
 62
     5
  6
CONTINUOUS
 10
-1.118720
 20
1.439713
  0
VERTEX
  8
PLAN_1
 62
     5
  6
CONTINUOUS
 10
-1.110409
 20
1.439713
  0
SEQEND
  8
0
  0
POLYLINE
  8
PLAN_1
 62
     5
  6
CONTINUOUS
 66
     1
 40
0.003000
 41
0.003000
  0
VERTEX
  8
PLAN_1
 62
     5
  6
CONTINUOUS
 10
-1.102098
 20
1.439713
  0
VERTEX
  8
PLAN_1
 62
     5
  6
CONTINUOUS
 10
-1.093787
 20
1.439713
  0
SEQEND
  8
0
  0
POLYLINE
  8
PLAN_1
 62
     5
  6
CONTINUOUS
 66
     1
 40
0.003000
 41
0.003000
  0
VERTEX
  8
PLAN_1
 62
     5
  6
CONTINUOUS
 10
-1.085480
 20
1.439713
  0
VERTEX
  8
PLAN_1
 62
     5
  6
CONTINUOUS
 10
-1.077169
 20
1.439713
  0
SEQEND
  8
0
  0
POLYLINE
  8
PLAN_1
 62
     5
  6
CONTINUOUS
 66
     1
 40
0.003000
 41
0.003000
  0
VERTEX
  8
PLAN_1
 62
     5
  6
CONTINUOUS
 10
-1.068858
 20
1.439713
  0
VERTEX
  8
PLAN_1
 62
     5
  6
CONTINUOUS
 10
-1.060547
 20
1.439713
  0
SEQEND
  8
0
  0
POLYLINE
  8
PLAN_1
 62
     5
  6
CONTINUOUS
 66
     1
 40
0.003000
 41
0.003000
  0
VERTEX
  8
PLAN_1
 62
     5
  6
CONTINUOUS
 10
-1.052236
 20
1.439713
  0
VERTEX
  8
PLAN_1
 62
     5
  6
CONTINUOUS
 10
-1.043925
 20
1.439713
  0
SEQEND
  8
0
  0
POLYLINE
  8
PLAN_1
 62
     5
  6
CONTINUOUS
 66
     1
 40
0.003000
 41
0.003000
  0
VERTEX
  8
PLAN_1
 62
     5
  6
CONTINUOUS
 10
-1.035614
 20
1.439713
  0
VERTEX
  8
PLAN_1
 62
     5
  6
CONTINUOUS
 10
-1.026866
 20
1.439713
  0
SEQEND
  8
0
  0
POLYLINE
  8
PLAN_1
 62
     5
  6
CONTINUOUS
 66
     1
 40
0.003000
 41
0.003000
  0
VERTEX
  8
PLAN_1
 62
     5
  6
CONTINUOUS
 10
-1.018555
 20
1.439713
  0
VERTEX
  8
PLAN_1
 62
     5
  6
CONTINUOUS
 10
-1.010244
 20
1.439713
  0
SEQEND
  8
0
  0
POLYLINE
  8
PLAN_1
 62
     5
  6
CONTINUOUS
 66
     1
 40
0.003000
 41
0.003000
  0
VERTEX
  8
PLAN_1
 62
     5
  6
CONTINUOUS
 10
-1.001933
 20
1.439713
  0
VERTEX
  8
PLAN_1
 62
     5
  6
CONTINUOUS
 10
-0.993622
 20
1.439713
  0
SEQEND
  8
0
  0
POLYLINE
  8
PLAN_1
 62
     5
  6
CONTINUOUS
 66
     1
 40
0.003000
 41
0.003000
  0
VERTEX
  8
PLAN_1
 62
     5
  6
CONTINUOUS
 10
-0.985311
 20
1.439713
  0
VERTEX
  8
PLAN_1
 62
     5
  6
CONTINUOUS
 10
-0.977000
 20
1.439713
  0
SEQEND
  8
0
  0
POLYLINE
  8
PLAN_1
 62
     5
  6
CONTINUOUS
 66
     1
 40
0.003000
 41
0.003000
  0
VERTEX
  8
PLAN_1
 62
     5
  6
CONTINUOUS
 10
-0.968689
 20
1.439713
  0
VERTEX
  8
PLAN_1
 62
     5
  6
CONTINUOUS
 10
-0.960378
 20
1.439713
  0
SEQEND
  8
0
  0
POLYLINE
  8
PLAN_1
 62
     5
  6
CONTINUOUS
 66
     1
 40
0.003000
 41
0.003000
  0
VERTEX
  8
PLAN_1
 62
     5
  6
CONTINUOUS
 10
-0.952067
 20
1.439713
  0
VERTEX
  8
PLAN_1
 62
     5
  6
CONTINUOUS
 10
-0.943756
 20
1.439713
  0
SEQEND
  8
0
  0
POLYLINE
  8
PLAN_1
 62
     5
  6
CONTINUOUS
 66
     1
 40
0.003000
 41
0.003000
  0
VERTEX
  8
PLAN_1
 62
     5
  6
CONTINUOUS
 10
-0.935445
 20
1.439713
  0
VERTEX
  8
PLAN_1
 62
     5
  6
CONTINUOUS
 10
-0.927134
 20
1.439713
  0
SEQEND
  8
0
  0
POLYLINE
  8
PLAN_1
 62
     5
  6
CONTINUOUS
 66
     1
 40
0.003000
 41
0.003000
  0
VERTEX
  8
PLAN_1
 62
     5
  6
CONTINUOUS
 10
-0.918823
 20
1.439713
  0
VERTEX
  8
PLAN_1
 62
     5
  6
CONTINUOUS
 10
-0.910512
 20
1.439713
  0
SEQEND
  8
0
  0
POLYLINE
  8
PLAN_1
 62
     5
  6
CONTINUOUS
 66
     1
 40
0.003000
 41
0.003000
  0
VERTEX
  8
PLAN_1
 62
     5
  6
CONTINUOUS
 10
-0.902201
 20
1.439713
  0
VERTEX
  8
PLAN_1
 62
     5
  6
CONTINUOUS
 10
-0.893890
 20
1.439713
  0
SEQEND
  8
0
  0
POLYLINE
  8
PLAN_1
 62
     5
  6
CONTINUOUS
 66
     1
 40
0.003000
 41
0.003000
  0
VERTEX
  8
PLAN_1
 62
     5
  6
CONTINUOUS
 10
-0.885579
 20
1.439713
  0
VERTEX
  8
PLAN_1
 62
     5
  6
CONTINUOUS
 10
-0.877268
 20
1.439713
  0
SEQEND
  8
0
  0
POLYLINE
  8
PLAN_1
 62
     5
  6
CONTINUOUS
 66
     1
 40
0.003000
 41
0.003000
  0
VERTEX
  8
PLAN_1
 62
     5
  6
CONTINUOUS
 10
-0.868957
 20
1.439713
  0
VERTEX
  8
PLAN_1
 62
     5
  6
CONTINUOUS
 10
-0.860646
 20
1.439713
  0
SEQEND
  8
0
  0
POLYLINE
  8
PLAN_1
 62
     5
  6
CONTINUOUS
 66
     1
 40
0.003000
 41
0.003000
  0
VERTEX
  8
PLAN_1
 62
     5
  6
CONTINUOUS
 10
-0.852335
 20
1.439713
  0
VERTEX
  8
PLAN_1
 62
     5
  6
CONTINUOUS
 10
-0.844024
 20
1.439713
  0
SEQEND
  8
0
  0
POLYLINE
  8
PLAN_1
 62
     5
  6
CONTINUOUS
 66
     1
 40
0.003000
 41
0.003000
  0
VERTEX
  8
PLAN_1
 62
     5
  6
CONTINUOUS
 10
-0.835713
 20
1.439713
  0
VERTEX
  8
PLAN_1
 62
     5
  6
CONTINUOUS
 10
-0.827402
 20
1.439713
  0
SEQEND
  8
0
  0
POLYLINE
  8
PLAN_1
 62
     5
  6
CONTINUOUS
 66
     1
 40
0.003000
 41
0.003000
  0
VERTEX
  8
PLAN_1
 62
     5
  6
CONTINUOUS
 10
-0.819091
 20
1.439713
  0
VERTEX
  8
PLAN_1
 62
     5
  6
CONTINUOUS
 10
-0.810780
 20
1.439713
  0
SEQEND
  8
0
  0
POLYLINE
  8
PLAN_1
 62
     5
  6
CONTINUOUS
 66
     1
 40
0.003000
 41
0.003000
  0
VERTEX
  8
PLAN_1
 62
     5
  6
CONTINUOUS
 10
-0.802472
 20
1.439713
  0
VERTEX
  8
PLAN_1
 62
     5
  6
CONTINUOUS
 10
-0.793720
 20
1.439713
  0
SEQEND
  8
0
  0
POLYLINE
  8
PLAN_1
 62
     5
  6
CONTINUOUS
 66
     1
 40
0.003000
 41
0.003000
  0
VERTEX
  8
PLAN_1
 62
     5
  6
CONTINUOUS
 10
-0.785409
 20
1.439713
  0
VERTEX
  8
PLAN_1
 62
     5
  6
CONTINUOUS
 10
-0.777102
 20
1.439713
  0
SEQEND
  8
0
  0
POLYLINE
  8
PLAN_1
 62
     5
  6
CONTINUOUS
 66
     1
 40
0.003000
 41
0.003000
  0
VERTEX
  8
PLAN_1
 62
     5
  6
CONTINUOUS
 10
-0.768791
 20
1.439713
  0
VERTEX
  8
PLAN_1
 62
     5
  6
CONTINUOUS
 10
-0.760480
 20
1.439713
  0
SEQEND
  8
0
  0
POLYLINE
  8
PLAN_1
 62
     5
  6
CONTINUOUS
 66
     1
 40
0.003000
 41
0.003000
  0
VERTEX
  8
PLAN_1
 62
     5
  6
CONTINUOUS
 10
-0.752169
 20
1.439713
  0
VERTEX
  8
PLAN_1
 62
     5
  6
CONTINUOUS
 10
-0.743858
 20
1.439713
  0
SEQEND
  8
0
  0
POLYLINE
  8
PLAN_1
 62
     5
  6
CONTINUOUS
 66
     1
 40
0.003000
 41
0.003000
  0
VERTEX
  8
PLAN_1
 62
     5
  6
CONTINUOUS
 10
-0.735547
 20
1.439713
  0
VERTEX
  8
PLAN_1
 62
     5
  6
CONTINUOUS
 10
-0.727236
 20
1.439713
  0
SEQEND
  8
0
  0
POLYLINE
  8
PLAN_1
 62
     5
  6
CONTINUOUS
 66
     1
 40
0.003000
 41
0.003000
  0
VERTEX
  8
PLAN_1
 62
     5
  6
CONTINUOUS
 10
-0.718925
 20
1.439713
  0
VERTEX
  8
PLAN_1
 62
     5
  6
CONTINUOUS
 10
-0.710614
 20
1.439713
  0
SEQEND
  8
0
  0
POLYLINE
  8
PLAN_1
 62
     5
  6
CONTINUOUS
 66
     1
 40
0.003000
 41
0.003000
  0
VERTEX
  8
PLAN_1
 62
     5
  6
CONTINUOUS
 10
-0.702303
 20
1.439713
  0
VERTEX
  8
PLAN_1
 62
     5
  6
CONTINUOUS
 10
-0.693992
 20
1.439713
  0
SEQEND
  8
0
  0
POLYLINE
  8
PLAN_1
 62
     5
  6
CONTINUOUS
 66
     1
 40
0.003000
 41
0.003000
  0
VERTEX
  8
PLAN_1
 62
     5
  6
CONTINUOUS
 10
-0.685681
 20
1.439713
  0
VERTEX
  8
PLAN_1
 62
     5
  6
CONTINUOUS
 10
-0.677370
 20
1.439713
  0
SEQEND
  8
0
  0
POLYLINE
  8
PLAN_1
 62
     5
  6
CONTINUOUS
 66
     1
 40
0.003000
 41
0.003000
  0
VERTEX
  8
PLAN_1
 62
     5
  6
CONTINUOUS
 10
-0.669059
 20
1.439713
  0
VERTEX
  8
PLAN_1
 62
     5
  6
CONTINUOUS
 10
-0.660748
 20
1.439713
  0
SEQEND
  8
0
  0
POLYLINE
  8
PLAN_1
 62
     5
  6
CONTINUOUS
 66
     1
 40
0.003000
 41
0.003000
  0
VERTEX
  8
PLAN_1
 62
     5
  6
CONTINUOUS
 10
-0.652437
 20
1.439713
  0
VERTEX
  8
PLAN_1
 62
     5
  6
CONTINUOUS
 10
-0.644126
 20
1.439713
  0
SEQEND
  8
0
  0
POLYLINE
  8
PLAN_1
 62
     5
  6
CONTINUOUS
 66
     1
 40
0.003000
 41
0.003000
  0
VERTEX
  8
PLAN_1
 62
     5
  6
CONTINUOUS
 10
-0.635815
 20
1.439713
  0
VERTEX
  8
PLAN_1
 62
     5
  6
CONTINUOUS
 10
-0.627504
 20
1.439713
  0
SEQEND
  8
0
  0
POLYLINE
  8
PLAN_1
 62
     5
  6
CONTINUOUS
 66
     1
 40
0.003000
 41
0.003000
  0
VERTEX
  8
PLAN_1
 62
     5
  6
CONTINUOUS
 10
-0.619193
 20
1.439713
  0
VERTEX
  8
PLAN_1
 62
     5
  6
CONTINUOUS
 10
-0.610882
 20
1.439713
  0
SEQEND
  8
0
  0
POLYLINE
  8
PLAN_1
 62
     5
  6
CONTINUOUS
 66
     1
 40
0.003000
 41
0.003000
  0
VERTEX
  8
PLAN_1
 62
     5
  6
CONTINUOUS
 10
-0.602571
 20
1.439713
  0
VERTEX
  8
PLAN_1
 62
     5
  6
CONTINUOUS
 10
-0.594260
 20
1.439713
  0
SEQEND
  8
0
  0
POLYLINE
  8
PLAN_1
 62
     5
  6
CONTINUOUS
 66
     1
 40
0.003000
 41
0.003000
  0
VERTEX
  8
PLAN_1
 62
     5
  6
CONTINUOUS
 10
-0.585949
 20
1.439713
  0
VERTEX
  8
PLAN_1
 62
     5
  6
CONTINUOUS
 10
-0.577638
 20
1.439713
  0
SEQEND
  8
0
  0
POLYLINE
  8
PLAN_1
 62
     5
  6
CONTINUOUS
 66
     1
 40
0.003000
 41
0.003000
  0
VERTEX
  8
PLAN_1
 62
     5
  6
CONTINUOUS
 10
-0.568890
 20
1.439713
  0
VERTEX
  8
PLAN_1
 62
     5
  6
CONTINUOUS
 10
-0.560579
 20
1.439713
  0
SEQEND
  8
0
  0
POLYLINE
  8
PLAN_1
 62
     5
  6
CONTINUOUS
 66
     1
 40
0.003000
 41
0.003000
  0
VERTEX
  8
PLAN_1
 62
     5
  6
CONTINUOUS
 10
-0.552268
 20
1.439713
  0
VERTEX
  8
PLAN_1
 62
     5
  6
CONTINUOUS
 10
-0.543957
 20
1.439713
  0
SEQEND
  8
0
  0
POLYLINE
  8
PLAN_1
 62
     5
  6
CONTINUOUS
 66
     1
 40
0.003000
 41
0.003000
  0
VERTEX
  8
PLAN_1
 62
     5
  6
CONTINUOUS
 10
-0.535646
 20
1.439713
  0
VERTEX
  8
PLAN_1
 62
     5
  6
CONTINUOUS
 10
-0.527335
 20
1.439713
  0
SEQEND
  8
0
  0
POLYLINE
  8
PLAN_1
 62
     5
  6
CONTINUOUS
 66
     1
 40
0.003000
 41
0.003000
  0
VERTEX
  8
PLAN_1
 62
     5
  6
CONTINUOUS
 10
-0.519024
 20
1.439713
  0
VERTEX
  8
PLAN_1
 62
     5
  6
CONTINUOUS
 10
-0.510713
 20
1.439713
  0
SEQEND
  8
0
  0
POLYLINE
  8
PLAN_1
 62
     5
  6
CONTINUOUS
 66
     1
 40
0.003000
 41
0.003000
  0
VERTEX
  8
PLAN_1
 62
     5
  6
CONTINUOUS
 10
-0.502402
 20
1.439713
  0
VERTEX
  8
PLAN_1
 62
     5
  6
CONTINUOUS
 10
-0.494094
 20
1.439713
  0
SEQEND
  8
0
  0
POLYLINE
  8
PLAN_1
 62
     5
  6
CONTINUOUS
 66
     1
 40
0.003000
 41
0.003000
  0
VERTEX
  8
PLAN_1
 62
     5
  6
CONTINUOUS
 10
-0.490594
 20
1.435335
  0
VERTEX
  8
PLAN_1
 62
     5
  6
CONTINUOUS
 10
-0.490594
 20
1.427028
  0
SEQEND
  8
0
  0
POLYLINE
  8
PLAN_1
 62
     5
  6
CONTINUOUS
 66
     1
 40
0.003000
 41
0.003000
  0
VERTEX
  8
PLAN_1
 62
     5
  6
CONTINUOUS
 10
-0.490594
 20
1.418276
  0
VERTEX
  8
PLAN_1
 62
     5
  6
CONTINUOUS
 10
-0.490594
 20
1.409965
  0
SEQEND
  8
0
  0
POLYLINE
  8
PLAN_1
 62
     5
  6
CONTINUOUS
 66
     1
 40
0.003000
 41
0.003000
  0
VERTEX
  8
PLAN_1
 62
     5
  6
CONTINUOUS
 10
-0.490594
 20
1.401657
  0
VERTEX
  8
PLAN_1
 62
     5
  6
CONTINUOUS
 10
-0.490594
 20
1.393346
  0
SEQEND
  8
0
  0
POLYLINE
  8
PLAN_1
 62
     5
  6
CONTINUOUS
 66
     1
 40
0.003000
 41
0.003000
  0
VERTEX
  8
PLAN_1
 62
     5
  6
CONTINUOUS
 10
-0.490594
 20
1.385035
  0
VERTEX
  8
PLAN_1
 62
     5
  6
CONTINUOUS
 10
-0.490594
 20
1.376724
  0
SEQEND
  8
0
  0
POLYLINE
  8
PLAN_1
 62
     5
  6
CONTINUOUS
 66
     1
 40
0.003000
 41
0.003000
  0
VERTEX
  8
PLAN_1
 62
     5
  6
CONTINUOUS
 10
-0.490594
 20
1.368413
  0
VERTEX
  8
PLAN_1
 62
     5
  6
CONTINUOUS
 10
-0.490594
 20
1.360102
  0
SEQEND
  8
0
  0
POLYLINE
  8
PLAN_1
 62
     5
  6
CONTINUOUS
 66
     1
 40
0.003000
 41
0.003000
  0
VERTEX
  8
PLAN_1
 62
     5
  6
CONTINUOUS
 10
-0.490594
 20
1.351791
  0
VERTEX
  8
PLAN_1
 62
     5
  6
CONTINUOUS
 10
-0.490594
 20
1.343480
  0
SEQEND
  8
0
  0
POLYLINE
  8
PLAN_1
 62
     5
  6
CONTINUOUS
 66
     1
 40
0.003000
 41
0.003000
  0
VERTEX
  8
PLAN_1
 62
     5
  6
CONTINUOUS
 10
-0.490594
 20
1.335169
  0
VERTEX
  8
PLAN_1
 62
     5
  6
CONTINUOUS
 10
-0.490594
 20
1.326858
  0
SEQEND
  8
0
  0
POLYLINE
  8
PLAN_1
 62
     5
  6
CONTINUOUS
 66
     1
 40
0.003000
 41
0.003000
  0
VERTEX
  8
PLAN_1
 62
     5
  6
CONTINUOUS
 10
-0.490594
 20
1.318547
  0
VERTEX
  8
PLAN_1
 62
     5
  6
CONTINUOUS
 10
-0.490594
 20
1.310236
  0
SEQEND
  8
0
  0
POLYLINE
  8
PLAN_1
 62
     5
  6
CONTINUOUS
 66
     1
 40
0.003000
 41
0.003000
  0
VERTEX
  8
PLAN_1
 62
     5
  6
CONTINUOUS
 10
-0.490594
 20
1.301925
  0
VERTEX
  8
PLAN_1
 62
     5
  6
CONTINUOUS
 10
-0.490594
 20
1.298862
  0
VERTEX
  8
PLAN_1
 62
     5
  6
CONTINUOUS
 10
-0.484906
 20
1.298862
  0
SEQEND
  8
0
  0
POLYLINE
  8
PLAN_1
 62
     5
  6
CONTINUOUS
 66
     1
 40
0.003000
 41
0.003000
  0
VERTEX
  8
PLAN_1
 62
     5
  6
CONTINUOUS
 10
-0.476594
 20
1.298862
  0
VERTEX
  8
PLAN_1
 62
     5
  6
CONTINUOUS
 10
-0.468283
 20
1.298862
  0
SEQEND
  8
0
  0
POLYLINE
  8
PLAN_1
 62
     5
  6
CONTINUOUS
 66
     1
 40
0.003000
 41
0.003000
  0
VERTEX
  8
PLAN_1
 62
     5
  6
CONTINUOUS
 10
-0.459972
 20
1.298862
  0
VERTEX
  8
PLAN_1
 62
     5
  6
CONTINUOUS
 10
-0.451661
 20
1.298862
  0
SEQEND
  8
0
  0
POLYLINE
  8
PLAN_1
 62
     5
  6
CONTINUOUS
 66
     1
 40
0.003000
 41
0.003000
  0
VERTEX
  8
PLAN_1
 62
     5
  6
CONTINUOUS
 10
-0.451661
 20
1.290551
  0
VERTEX
  8
PLAN_1
 62
     5
  6
CONTINUOUS
 10
-0.451661
 20
1.282240
  0
SEQEND
  8
0
  0
POLYLINE
  8
PLAN_1
 62
     5
  6
CONTINUOUS
 66
     1
 40
0.003000
 41
0.003000
  0
VERTEX
  8
PLAN_1
 62
     5
  6
CONTINUOUS
 10
-0.451661
 20
1.273929
  0
VERTEX
  8
PLAN_1
 62
     5
  6
CONTINUOUS
 10
-0.451661
 20
1.265618
  0
SEQEND
  8
0
  0
POLYLINE
  8
PLAN_1
 62
     5
  6
CONTINUOUS
 66
     1
 40
0.003000
 41
0.003000
  0
VERTEX
  8
PLAN_1
 62
     5
  6
CONTINUOUS
 10
-0.451661
 20
1.257307
  0
VERTEX
  8
PLAN_1
 62
     5
  6
CONTINUOUS
 10
-0.451661
 20
1.248996
  0
SEQEND
  8
0
  0
POLYLINE
  8
PLAN_1
 62
     5
  6
CONTINUOUS
 66
     1
 40
0.003000
 41
0.003000
  0
VERTEX
  8
PLAN_1
 62
     5
  6
CONTINUOUS
 10
-0.451661
 20
1.240685
  0
VERTEX
  8
PLAN_1
 62
     5
  6
CONTINUOUS
 10
-0.451661
 20
1.232374
  0
SEQEND
  8
0
  0
POLYLINE
  8
PLAN_1
 62
     5
  6
CONTINUOUS
 66
     1
 40
0.003000
 41
0.003000
  0
VERTEX
  8
PLAN_1
 62
     5
  6
CONTINUOUS
 10
-0.451661
 20
1.224063
  0
VERTEX
  8
PLAN_1
 62
     5
  6
CONTINUOUS
 10
-0.451661
 20
1.215756
  0
SEQEND
  8
0
  0
POLYLINE
  8
PLAN_1
 62
     5
  6
CONTINUOUS
 66
     1
 40
0.003000
 41
0.003000
  0
VERTEX
  8
PLAN_1
 62
     5
  6
CONTINUOUS
 10
-0.451661
 20
1.207445
  0
VERTEX
  8
PLAN_1
 62
     5
  6
CONTINUOUS
 10
-0.451661
 20
1.199134
  0
SEQEND
  8
0
  0
POLYLINE
  8
PLAN_1
 62
     5
  6
CONTINUOUS
 66
     1
 40
0.003000
 41
0.003000
  0
VERTEX
  8
PLAN_1
 62
     5
  6
CONTINUOUS
 10
-0.451661
 20
1.190823
  0
VERTEX
  8
PLAN_1
 62
     5
  6
CONTINUOUS
 10
-0.451661
 20
1.182512
  0
SEQEND
  8
0
  0
POLYLINE
  8
PLAN_1
 62
     5
  6
CONTINUOUS
 66
     1
 40
0.003000
 41
0.003000
  0
VERTEX
  8
PLAN_1
 62
     5
  6
CONTINUOUS
 10
-0.451661
 20
1.174201
  0
VERTEX
  8
PLAN_1
 62
     5
  6
CONTINUOUS
 10
-0.451661
 20
1.165890
  0
SEQEND
  8
0
  0
POLYLINE
  8
PLAN_1
 62
     5
  6
CONTINUOUS
 66
     1
 40
0.003000
 41
0.003000
  0
VERTEX
  8
PLAN_1
 62
     5
  6
CONTINUOUS
 10
-0.451661
 20
1.157579
  0
VERTEX
  8
PLAN_1
 62
     5
  6
CONTINUOUS
 10
-0.451661
 20
1.149268
  0
SEQEND
  8
0
  0
POLYLINE
  8
PLAN_1
 62
     5
  6
CONTINUOUS
 66
     1
 40
0.003000
 41
0.003000
  0
VERTEX
  8
PLAN_1
 62
     5
  6
CONTINUOUS
 10
-0.451661
 20
1.140957
  0
VERTEX
  8
PLAN_1
 62
     5
  6
CONTINUOUS
 10
-0.451661
 20
1.132646
  0
SEQEND
  8
0
  0
POLYLINE
  8
PLAN_1
 62
     5
  6
CONTINUOUS
 66
     1
 40
0.003000
 41
0.003000
  0
VERTEX
  8
PLAN_1
 62
     5
  6
CONTINUOUS
 10
-0.451661
 20
1.124335
  0
VERTEX
  8
PLAN_1
 62
     5
  6
CONTINUOUS
 10
-0.451661
 20
1.115587
  0
SEQEND
  8
0
  0
POLYLINE
  8
PLAN_1
 62
     5
  6
CONTINUOUS
 66
     1
 40
0.003000
 41
0.003000
  0
VERTEX
  8
PLAN_1
 62
     5
  6
CONTINUOUS
 10
-0.451661
 20
1.107276
  0
VERTEX
  8
PLAN_1
 62
     5
  6
CONTINUOUS
 10
-0.451661
 20
1.098965
  0
SEQEND
  8
0
  0
POLYLINE
  8
PLAN_1
 62
     5
  6
CONTINUOUS
 66
     1
 40
0.003000
 41
0.003000
  0
VERTEX
  8
PLAN_1
 62
     5
  6
CONTINUOUS
 10
-0.451661
 20
1.090654
  0
VERTEX
  8
PLAN_1
 62
     5
  6
CONTINUOUS
 10
-0.451661
 20
1.082343
  0
SEQEND
  8
0
  0
POLYLINE
  8
PLAN_1
 62
     5
  6
CONTINUOUS
 66
     1
 40
0.003000
 41
0.003000
  0
VERTEX
  8
PLAN_1
 62
     5
  6
CONTINUOUS
 10
-0.451661
 20
1.074031
  0
VERTEX
  8
PLAN_1
 62
     5
  6
CONTINUOUS
 10
-0.451661
 20
1.065720
  0
SEQEND
  8
0
  0
POLYLINE
  8
PLAN_1
 62
     5
  6
CONTINUOUS
 66
     1
 40
0.003000
 41
0.003000
  0
VERTEX
  8
PLAN_1
 62
     5
  6
CONTINUOUS
 10
-0.451661
 20
1.057409
  0
VERTEX
  8
PLAN_1
 62
     5
  6
CONTINUOUS
 10
-0.451661
 20
1.049098
  0
SEQEND
  8
0
  0
POLYLINE
  8
PLAN_1
 62
     5
  6
CONTINUOUS
 66
     1
 40
0.003000
 41
0.003000
  0
VERTEX
  8
PLAN_1
 62
     5
  6
CONTINUOUS
 10
-0.451661
 20
1.040787
  0
VERTEX
  8
PLAN_1
 62
     5
  6
CONTINUOUS
 10
-0.451661
 20
1.032476
  0
SEQEND
  8
0
  0
POLYLINE
  8
PLAN_1
 62
     5
  6
CONTINUOUS
 66
     1
 40
0.003000
 41
0.003000
  0
VERTEX
  8
PLAN_1
 62
     5
  6
CONTINUOUS
 10
-0.451661
 20
1.024165
  0
VERTEX
  8
PLAN_1
 62
     5
  6
CONTINUOUS
 10
-0.451661
 20
1.017606
  0
VERTEX
  8
PLAN_1
 62
     5
  6
CONTINUOUS
 10
-0.453413
 20
1.017606
  0
SEQEND
  8
0
  0
POLYLINE
  8
PLAN_1
 62
     5
  6
CONTINUOUS
 66
     1
 40
0.003000
 41
0.003000
  0
VERTEX
  8
PLAN_1
 62
     5
  6
CONTINUOUS
 10
-0.461724
 20
1.017606
  0
VERTEX
  8
PLAN_1
 62
     5
  6
CONTINUOUS
 10
-0.470035
 20
1.017606
  0
SEQEND
  8
0
  0
POLYLINE
  8
PLAN_1
 62
     5
  6
CONTINUOUS
 66
     1
 40
0.003000
 41
0.003000
  0
VERTEX
  8
PLAN_1
 62
     5
  6
CONTINUOUS
 10
-0.478346
 20
1.017606
  0
VERTEX
  8
PLAN_1
 62
     5
  6
CONTINUOUS
 10
-0.486657
 20
1.017606
  0
SEQEND
  8
0
  0
POLYLINE
  8
PLAN_1
 62
     5
  6
CONTINUOUS
 66
     1
 40
0.003000
 41
0.003000
  0
VERTEX
  8
PLAN_1
 62
     5
  6
CONTINUOUS
 10
-0.490594
 20
1.012791
  0
VERTEX
  8
PLAN_1
 62
     5
  6
CONTINUOUS
 10
-0.490594
 20
1.004480
  0
SEQEND
  8
0
  0
POLYLINE
  8
PLAN_1
 62
     5
  6
CONTINUOUS
 66
     1
 40
0.003000
 41
0.003000
  0
VERTEX
  8
PLAN_1
 62
     5
  6
CONTINUOUS
 10
-0.490594
 20
0.996173
  0
VERTEX
  8
PLAN_1
 62
     5
  6
CONTINUOUS
 10
-0.490594
 20
0.987862
  0
SEQEND
  8
0
  0
POLYLINE
  8
PLAN_1
 62
     5
  6
CONTINUOUS
 66
     1
 40
0.003000
 41
0.003000
  0
VERTEX
  8
PLAN_1
 62
     5
  6
CONTINUOUS
 10
-0.490594
 20
0.979551
  0
VERTEX
  8
PLAN_1
 62
     5
  6
CONTINUOUS
 10
-0.490594
 20
0.971240
  0
SEQEND
  8
0
  0
POLYLINE
  8
PLAN_1
 62
     5
  6
CONTINUOUS
 66
     1
 40
0.003000
 41
0.003000
  0
VERTEX
  8
PLAN_1
 62
     5
  6
CONTINUOUS
 10
-0.490594
 20
0.962929
  0
VERTEX
  8
PLAN_1
 62
     5
  6
CONTINUOUS
 10
-0.490594
 20
0.954618
  0
SEQEND
  8
0
  0
POLYLINE
  8
PLAN_1
 62
     5
  6
CONTINUOUS
 66
     1
 40
0.003000
 41
0.003000
  0
VERTEX
  8
PLAN_1
 62
     5
  6
CONTINUOUS
 10
-0.490594
 20
0.946307
  0
VERTEX
  8
PLAN_1
 62
     5
  6
CONTINUOUS
 10
-0.490594
 20
0.937996
  0
SEQEND
  8
0
  0
POLYLINE
  8
PLAN_1
 62
     5
  6
CONTINUOUS
 66
     1
 40
0.003000
 41
0.003000
  0
VERTEX
  8
PLAN_1
 62
     5
  6
CONTINUOUS
 10
-0.490594
 20
0.929685
  0
VERTEX
  8
PLAN_1
 62
     5
  6
CONTINUOUS
 10
-0.490594
 20
0.921374
  0
SEQEND
  8
0
  0
POLYLINE
  8
PLAN_1
 62
     5
  6
CONTINUOUS
 66
     1
 40
0.003000
 41
0.003000
  0
VERTEX
  8
PLAN_1
 62
     5
  6
CONTINUOUS
 10
-0.490594
 20
0.913063
  0
VERTEX
  8
PLAN_1
 62
     5
  6
CONTINUOUS
 10
-0.490594
 20
0.904752
  0
SEQEND
  8
0
  0
POLYLINE
  8
PLAN_1
 62
     5
  6
CONTINUOUS
 66
     1
 40
0.003000
 41
0.003000
  0
VERTEX
  8
PLAN_1
 62
     5
  6
CONTINUOUS
 10
-0.490594
 20
0.896441
  0
VERTEX
  8
PLAN_1
 62
     5
  6
CONTINUOUS
 10
-0.490594
 20
0.888130
  0
SEQEND
  8
0
  0
POLYLINE
  8
PLAN_1
 62
     5
  6
CONTINUOUS
 66
     1
 40
0.003000
 41
0.003000
  0
VERTEX
  8
PLAN_1
 62
     5
  6
CONTINUOUS
 10
-0.490594
 20
0.879819
  0
VERTEX
  8
PLAN_1
 62
     5
  6
CONTINUOUS
 10
-0.490594
 20
0.871508
  0
SEQEND
  8
0
  0
POLYLINE
  8
PLAN_1
 62
     5
  6
CONTINUOUS
 66
     1
 40
0.003000
 41
0.003000
  0
VERTEX
  8
PLAN_1
 62
     5
  6
CONTINUOUS
 10
-0.490594
 20
0.863197
  0
VERTEX
  8
PLAN_1
 62
     5
  6
CONTINUOUS
 10
-0.490594
 20
0.854886
  0
SEQEND
  8
0
  0
POLYLINE
  8
PLAN_1
 62
     5
  6
CONTINUOUS
 66
     1
 40
0.003000
 41
0.003000
  0
VERTEX
  8
PLAN_1
 62
     5
  6
CONTINUOUS
 10
-0.490594
 20
0.846575
  0
VERTEX
  8
PLAN_1
 62
     5
  6
CONTINUOUS
 10
-0.490594
 20
0.838264
  0
SEQEND
  8
0
  0
POLYLINE
  8
PLAN_1
 62
     5
  6
CONTINUOUS
 66
     1
 40
0.003000
 41
0.003000
  0
VERTEX
  8
PLAN_1
 62
     5
  6
CONTINUOUS
 10
-0.490594
 20
0.829953
  0
VERTEX
  8
PLAN_1
 62
     5
  6
CONTINUOUS
 10
-0.490594
 20
0.821642
  0
SEQEND
  8
0
  0
POLYLINE
  8
PLAN_1
 62
     5
  6
CONTINUOUS
 66
     1
 40
0.003000
 41
0.003000
  0
VERTEX
  8
PLAN_1
 62
     5
  6
CONTINUOUS
 10
-0.490594
 20
0.812894
  0
VERTEX
  8
PLAN_1
 62
     5
  6
CONTINUOUS
 10
-0.490594
 20
0.804583
  0
SEQEND
  8
0
  0
POLYLINE
  8
PLAN_1
 62
     5
  6
CONTINUOUS
 66
     1
 40
0.003000
 41
0.003000
  0
VERTEX
  8
PLAN_1
 62
     5
  6
CONTINUOUS
 10
-0.490594
 20
0.796272
  0
VERTEX
  8
PLAN_1
 62
     5
  6
CONTINUOUS
 10
-0.490594
 20
0.787961
  0
SEQEND
  8
0
  0
POLYLINE
  8
PLAN_1
 62
     5
  6
CONTINUOUS
 66
     1
 40
0.003000
 41
0.003000
  0
VERTEX
  8
PLAN_1
 62
     5
  6
CONTINUOUS
 10
-0.490594
 20
0.779650
  0
VERTEX
  8
PLAN_1
 62
     5
  6
CONTINUOUS
 10
-0.490594
 20
0.771339
  0
SEQEND
  8
0
  0
POLYLINE
  8
PLAN_1
 62
     5
  6
CONTINUOUS
 66
     1
 40
0.003000
 41
0.003000
  0
VERTEX
  8
PLAN_1
 62
     5
  6
CONTINUOUS
 10
-0.490594
 20
0.763028
  0
VERTEX
  8
PLAN_1
 62
     5
  6
CONTINUOUS
 10
-0.490594
 20
0.754717
  0
SEQEND
  8
0
  0
POLYLINE
  8
PLAN_1
  6
CONTINUOUS
 66
     1
 40
0.008307
 41
0.008307
  0
VERTEX
  8
PLAN_1
  6
CONTINUOUS
 10
-1.438472
 20
1.439713
  0
VERTEX
  8
PLAN_1
  6
CONTINUOUS
 10
-1.438472
 20
1.611614
  0
VERTEX
  8
PLAN_1
  6
CONTINUOUS
 10
-1.782720
 20
1.611614
  0
SEQEND
  8
0
  0
POLYLINE
  8
PLAN_1
  6
CONTINUOUS
 66
     1
 40
0.008307
 41
0.008307
  0
VERTEX
  8
PLAN_1
  6
CONTINUOUS
 10
-0.487969
 20
1.611614
  0
VERTEX
  8
PLAN_1
  6
CONTINUOUS
 10
-0.813843
 20
1.611614
  0
VERTEX
  8
PLAN_1
  6
CONTINUOUS
 10
-0.813843
 20
1.439713
  0
SEQEND
  8
0
  0
POLYLINE
  8
PLAN_1
  6
CONTINUOUS
 66
     1
 40
0.008307
 41
0.008307
  0
VERTEX
  8
PLAN_1
  6
CONTINUOUS
 10
-1.542142
 20
1.439713
  0
VERTEX
  8
PLAN_1
  6
CONTINUOUS
 10
-1.542142
 20
1.612051
  0
SEQEND
  8
0
  0
POLYLINE
  8
PLAN_1
  6
CONTINUOUS
 66
     1
 40
0.008307
 41
0.008307
  0
VERTEX
  8
PLAN_1
  6
CONTINUOUS
 10
-0.725921
 20
1.439713
  0
VERTEX
  8
PLAN_1
  6
CONTINUOUS
 10
-0.725921
 20
1.612051
  0
SEQEND
  8
0
  0
POLYLINE
  8
PLAN_1
 62
     2
  6
CONTINUOUS
 66
     1
 40
0.004374
 41
0.004374
  0
VERTEX
  8
PLAN_1
 62
     2
  6
CONTINUOUS
 10
-1.419665
 20
3.245362
  0
VERTEX
  8
PLAN_1
 62
     2
  6
CONTINUOUS
 10
-0.994496
 20
3.245362
  0
SEQEND
  8
0
  0
SOLID
  8
PLAN_1
 62
     2
 10
-1.220642
 20
3.245362
 11
-1.279689
 21
3.261110
 12
-1.220642
 22
3.245362
 13
-1.279689
 23
3.229614
  0
POLYLINE
  8
PLAN_1
 62
     2
  6
CONTINUOUS
 66
     1
 40
0.003000
 41
0.003000
  0
VERTEX
  8
PLAN_1
 62
     2
  6
CONTINUOUS
 10
-1.220642
 20
3.245362
  0
VERTEX
  8
PLAN_1
 62
     2
  6
CONTINUOUS
 10
-1.279689
 20
3.261110
  0
VERTEX
  8
PLAN_1
 62
     2
  6
CONTINUOUS
 10
-1.279689
 20
3.229614
  0
VERTEX
  8
PLAN_1
 62
     2
  6
CONTINUOUS
 10
-1.220642
 20
3.245362
  0
SEQEND
  8
0
  0
SOLID
  8
PLAN_1
 62
     2
 10
-1.024240
 20
3.245362
 11
-0.965189
 21
3.261110
 12
-1.024240
 22
3.245362
 13
-0.965189
 23
3.229614
  0
POLYLINE
  8
PLAN_1
 62
     2
  6
CONTINUOUS
 66
     1
 40
0.003000
 41
0.003000
  0
VERTEX
  8
PLAN_1
 62
     2
  6
CONTINUOUS
 10
-1.024240
 20
3.245362
  0
VERTEX
  8
PLAN_1
 62
     2
  6
CONTINUOUS
 10
-0.965189
 20
3.261110
  0
VERTEX
  8
PLAN_1
 62
     2
  6
CONTINUOUS
 10
-0.965189
 20
3.229614
  0
VERTEX
  8
PLAN_1
 62
     2
  6
CONTINUOUS
 10
-1.024240
 20
3.245362
  0
SEQEND
  8
0
  0
POLYLINE
  8
PLAN_1
 62
     2
  6
CONTINUOUS
 66
     1
 40
0.003000
 41
0.003000
  0
VERTEX
  8
PLAN_1
 62
     2
  6
CONTINUOUS
 10
-1.374173
 20
3.311413
  0
VERTEX
  8
PLAN_1
 62
     2
  6
CONTINUOUS
 10
-1.372862
 20
3.312287
  0
VERTEX
  8
PLAN_1
 62
     2
  6
CONTINUOUS
 10
-1.371547
 20
3.313161
  0
VERTEX
  8
PLAN_1
 62
     2
  6
CONTINUOUS
 10
-1.369799
 20
3.314035
  0
VERTEX
  8
PLAN_1
 62
     2
  6
CONTINUOUS
 10
-1.368488
 20
3.314472
  0
VERTEX
  8
PLAN_1
 62
     2
  6
CONTINUOUS
 10
-1.366299
 20
3.315350
  0
VERTEX
  8
PLAN_1
 62
     2
  6
CONTINUOUS
 10
-1.364551
 20
3.315787
  0
VERTEX
  8
PLAN_1
 62
     2
  6
CONTINUOUS
 10
-1.362362
 20
3.315787
  0
VERTEX
  8
PLAN_1
 62
     2
  6
CONTINUOUS
 10
-1.360177
 20
3.316224
  0
VERTEX
  8
PLAN_1
 62
     2
  6
CONTINUOUS
 10
-1.355362
 20
3.315787
  0
VERTEX
  8
PLAN_1
 62
     2
  6
CONTINUOUS
 10
-1.351425
 20
3.314472
  0
VERTEX
  8
PLAN_1
 62
     2
  6
CONTINUOUS
 10
-1.347051
 20
3.312724
  0
VERTEX
  8
PLAN_1
 62
     2
  6
CONTINUOUS
 10
-1.343555
 20
3.310098
  0
VERTEX
  8
PLAN_1
 62
     2
  6
CONTINUOUS
 10
-1.341803
 20
3.308350
  0
VERTEX
  8
PLAN_1
 62
     2
  6
CONTINUOUS
 10
-1.340492
 20
3.306602
  0
VERTEX
  8
PLAN_1
 62
     2
  6
CONTINUOUS
 10
-1.339181
 20
3.304850
  0
VERTEX
  8
PLAN_1
 62
     2
  6
CONTINUOUS
 10
-1.337866
 20
3.302665
  0
VERTEX
  8
PLAN_1
 62
     2
  6
CONTINUOUS
 10
-1.336992
 20
3.300476
  0
VERTEX
  8
PLAN_1
 62
     2
  6
CONTINUOUS
 10
-1.336555
 20
3.297850
  0
VERTEX
  8
PLAN_1
 62
     2
  6
CONTINUOUS
 10
-1.336118
 20
3.295228
  0
VERTEX
  8
PLAN_1
 62
     2
  6
CONTINUOUS
 10
-1.336118
 20
3.292602
  0
VERTEX
  8
PLAN_1
 62
     2
  6
CONTINUOUS
 10
-1.336118
 20
3.289102
  0
VERTEX
  8
PLAN_1
 62
     2
  6
CONTINUOUS
 10
-1.336992
 20
3.285165
  0
VERTEX
  8
PLAN_1
 62
     2
  6
CONTINUOUS
 10
-1.338303
 20
3.280791
  0
VERTEX
  8
PLAN_1
 62
     2
  6
CONTINUOUS
 10
-1.340492
 20
3.276854
  0
VERTEX
  8
PLAN_1
 62
     2
  6
CONTINUOUS
 10
-1.342240
 20
3.274669
  0
VERTEX
  8
PLAN_1
 62
     2
  6
CONTINUOUS
 10
-1.343992
 20
3.272921
  0
VERTEX
  8
PLAN_1
 62
     2
  6
CONTINUOUS
 10
-1.346177
 20
3.271169
  0
VERTEX
  8
PLAN_1
 62
     2
  6
CONTINUOUS
 10
-1.348803
 20
3.269858
  0
VERTEX
  8
PLAN_1
 62
     2
  6
CONTINUOUS
 10
-1.351425
 20
3.268543
  0
VERTEX
  8
PLAN_1
 62
     2
  6
CONTINUOUS
 10
-1.354925
 20
3.267669
  0
VERTEX
  8
PLAN_1
 62
     2
  6
CONTINUOUS
 10
-1.358425
 20
3.267232
  0
VERTEX
  8
PLAN_1
 62
     2
  6
CONTINUOUS
 10
-1.362362
 20
3.266795
  0
VERTEX
  8
PLAN_1
 62
     2
  6
CONTINUOUS
 10
-1.366299
 20
3.267232
  0
VERTEX
  8
PLAN_1
 62
     2
  6
CONTINUOUS
 10
-1.369799
 20
3.267669
  0
VERTEX
  8
PLAN_1
 62
     2
  6
CONTINUOUS
 10
-1.373736
 20
3.268984
  0
VERTEX
  8
PLAN_1
 62
     2
  6
CONTINUOUS
 10
-1.377236
 20
3.270732
  0
VERTEX
  8
PLAN_1
 62
     2
  6
CONTINUOUS
 10
-1.378984
 20
3.272043
  0
VERTEX
  8
PLAN_1
 62
     2
  6
CONTINUOUS
 10
-1.380295
 20
3.273795
  0
VERTEX
  8
PLAN_1
 62
     2
  6
CONTINUOUS
 10
-1.381610
 20
3.275106
  0
VERTEX
  8
PLAN_1
 62
     2
  6
CONTINUOUS
 10
-1.382921
 20
3.277295
  0
VERTEX
  8
PLAN_1
 62
     2
  6
CONTINUOUS
 10
-1.384232
 20
3.279043
  0
VERTEX
  8
PLAN_1
 62
     2
  6
CONTINUOUS
 10
-1.385106
 20
3.281669
  0
VERTEX
  8
PLAN_1
 62
     2
  6
CONTINUOUS
 10
-1.385547
 20
3.284291
  0
VERTEX
  8
PLAN_1
 62
     2
  6
CONTINUOUS
 10
-1.385984
 20
3.287354
  0
VERTEX
  8
PLAN_1
 62
     2
  6
CONTINUOUS
 10
-1.376795
 20
3.287354
  0
VERTEX
  8
PLAN_1
 62
     2
  6
CONTINUOUS
 10
-1.375921
 20
3.284291
  0
VERTEX
  8
PLAN_1
 62
     2
  6
CONTINUOUS
 10
-1.375047
 20
3.281669
  0
VERTEX
  8
PLAN_1
 62
     2
  6
CONTINUOUS
 10
-1.373299
 20
3.279480
  0
VERTEX
  8
PLAN_1
 62
     2
  6
CONTINUOUS
 10
-1.371547
 20
3.277732
  0
VERTEX
  8
PLAN_1
 62
     2
  6
CONTINUOUS
 10
-1.369362
 20
3.276417
  0
VERTEX
  8
PLAN_1
 62
     2
  6
CONTINUOUS
 10
-1.366736
 20
3.275543
  0
VERTEX
  8
PLAN_1
 62
     2
  6
CONTINUOUS
 10
-1.364110
 20
3.275106
  0
VERTEX
  8
PLAN_1
 62
     2
  6
CONTINUOUS
 10
-1.361051
 20
3.275106
  0
VERTEX
  8
PLAN_1
 62
     2
  6
CONTINUOUS
 10
-1.357551
 20
3.275106
  0
VERTEX
  8
PLAN_1
 62
     2
  6
CONTINUOUS
 10
-1.354925
 20
3.276417
  0
VERTEX
  8
PLAN_1
 62
     2
  6
CONTINUOUS
 10
-1.352303
 20
3.277732
  0
VERTEX
  8
PLAN_1
 62
     2
  6
CONTINUOUS
 10
-1.349677
 20
3.279917
  0
VERTEX
  8
PLAN_1
 62
     2
  6
CONTINUOUS
 10
-1.347929
 20
3.282106
  0
VERTEX
  8
PLAN_1
 62
     2
  6
CONTINUOUS
 10
-1.346614
 20
3.285165
  0
VERTEX
  8
PLAN_1
 62
     2
  6
CONTINUOUS
 10
-1.346177
 20
3.288228
  0
VERTEX
  8
PLAN_1
 62
     2
  6
CONTINUOUS
 10
-1.345740
 20
3.291728
  0
VERTEX
  8
PLAN_1
 62
     2
  6
CONTINUOUS
 10
-1.346177
 20
3.295228
  0
VERTEX
  8
PLAN_1
 62
     2
  6
CONTINUOUS
 10
-1.347051
 20
3.298728
  0
VERTEX
  8
PLAN_1
 62
     2
  6
CONTINUOUS
 10
-1.348366
 20
3.301350
  0
VERTEX
  8
PLAN_1
 62
     2
  6
CONTINUOUS
 10
-1.350551
 20
3.303539
  0
VERTEX
  8
PLAN_1
 62
     2
  6
CONTINUOUS
 10
-1.352740
 20
3.305287
  0
VERTEX
  8
PLAN_1
 62
     2
  6
CONTINUOUS
 10
-1.355803
 20
3.306602
  0
VERTEX
  8
PLAN_1
 62
     2
  6
CONTINUOUS
 10
-1.358862
 20
3.307476
  0
VERTEX
  8
PLAN_1
 62
     2
  6
CONTINUOUS
 10
-1.361925
 20
3.307913
  0
VERTEX
  8
PLAN_1
 62
     2
  6
CONTINUOUS
 10
-1.364110
 20
3.307913
  0
VERTEX
  8
PLAN_1
 62
     2
  6
CONTINUOUS
 10
-1.365862
 20
3.307476
  0
VERTEX
  8
PLAN_1
 62
     2
  6
CONTINUOUS
 10
-1.367610
 20
3.307039
  0
VERTEX
  8
PLAN_1
 62
     2
  6
CONTINUOUS
 10
-1.369362
 20
3.306161
  0
VERTEX
  8
PLAN_1
 62
     2
  6
CONTINUOUS
 10
-1.371110
 20
3.304850
  0
VERTEX
  8
PLAN_1
 62
     2
  6
CONTINUOUS
 10
-1.372862
 20
3.303976
  0
VERTEX
  8
PLAN_1
 62
     2
  6
CONTINUOUS
 10
-1.374173
 20
3.302665
  0
VERTEX
  8
PLAN_1
 62
     2
  6
CONTINUOUS
 10
-1.375484
 20
3.300913
  0
VERTEX
  8
PLAN_1
 62
     2
  6
CONTINUOUS
 10
-1.383358
 20
3.301350
  0
VERTEX
  8
PLAN_1
 62
     2
  6
CONTINUOUS
 10
-1.377673
 20
3.340720
  0
VERTEX
  8
PLAN_1
 62
     2
  6
CONTINUOUS
 10
-1.340055
 20
3.340720
  0
VERTEX
  8
PLAN_1
 62
     2
  6
CONTINUOUS
 10
-1.340055
 20
3.331531
  0
VERTEX
  8
PLAN_1
 62
     2
  6
CONTINUOUS
 10
-1.371110
 20
3.331531
  0
VERTEX
  8
PLAN_1
 62
     2
  6
CONTINUOUS
 10
-1.374173
 20
3.311413
  0
SEQEND
  8
0
  0
POLYLINE
  8
PLAN_1
 62
     2
  6
CONTINUOUS
 66
     1
 40
0.004374
 41
0.004374
  0
VERTEX
  8
PLAN_1
 62
     2
  6
CONTINUOUS
 10
-1.095102
 20
3.406331
  0
VERTEX
  8
PLAN_1
 62
     2
  6
CONTINUOUS
 10
-0.484906
 20
3.406331
  0
SEQEND
  8
0
  0
SOLID
  8
PLAN_1
 62
     2
 10
-0.455598
 20
3.406331
 11
-0.514650
 21
3.422079
 12
-0.455598
 22
3.406331
 13
-0.514650
 23
3.390583
  0
POLYLINE
  8
PLAN_1
 62
     2
  6
CONTINUOUS
 66
     1
 40
0.003000
 41
0.003000
  0
VERTEX
  8
PLAN_1
 62
     2
  6
CONTINUOUS
 10
-0.455598
 20
3.406331
  0
VERTEX
  8
PLAN_1
 62
     2
  6
CONTINUOUS
 10
-0.514650
 20
3.422079
  0
VERTEX
  8
PLAN_1
 62
     2
  6
CONTINUOUS
 10
-0.514650
 20
3.390583
  0
VERTEX
  8
PLAN_1
 62
     2
  6
CONTINUOUS
 10
-0.455598
 20
3.406331
  0
SEQEND
  8
0
  0
SOLID
  8
PLAN_1
 62
     2
 10
-1.124409
 20
3.406331
 11
-1.065358
 21
3.422079
 12
-1.124409
 22
3.406331
 13
-1.065358
 23
3.390583
  0
POLYLINE
  8
PLAN_1
 62
     2
  6
CONTINUOUS
 66
     1
 40
0.003000
 41
0.003000
  0
VERTEX
  8
PLAN_1
 62
     2
  6
CONTINUOUS
 10
-1.124409
 20
3.406331
  0
VERTEX
  8
PLAN_1
 62
     2
  6
CONTINUOUS
 10
-1.065358
 20
3.422079
  0
VERTEX
  8
PLAN_1
 62
     2
  6
CONTINUOUS
 10
-1.065358
 20
3.390583
  0
VERTEX
  8
PLAN_1
 62
     2
  6
CONTINUOUS
 10
-1.124409
 20
3.406331
  0
SEQEND
  8
0
  0
POLYLINE
  8
PLAN_1
 62
     2
  6
CONTINUOUS
 66
     1
 40
0.003000
 41
0.003000
  0
VERTEX
  8
PLAN_1
 62
     2
  6
CONTINUOUS
 10
-0.810343
 20
3.429953
  0
VERTEX
  8
PLAN_1
 62
     2
  6
CONTINUOUS
 10
-0.820406
 20
3.429953
  0
VERTEX
  8
PLAN_1
 62
     2
  6
CONTINUOUS
 10
-0.820406
 20
3.481567
  0
VERTEX
  8
PLAN_1
 62
     2
  6
CONTINUOUS
 10
-0.837465
 20
3.481567
  0
VERTEX
  8
PLAN_1
 62
     2
  6
CONTINUOUS
 10
-0.837465
 20
3.489004
  0
VERTEX
  8
PLAN_1
 62
     2
  6
CONTINUOUS
 10
-0.833091
 20
3.489441
  0
VERTEX
  8
PLAN_1
 62
     2
  6
CONTINUOUS
 10
-0.829591
 20
3.489878
  0
VERTEX
  8
PLAN_1
 62
     2
  6
CONTINUOUS
 10
-0.826528
 20
3.490752
  0
VERTEX
  8
PLAN_1
 62
     2
  6
CONTINUOUS
 10
-0.824343
 20
3.492063
  0
VERTEX
  8
PLAN_1
 62
     2
  6
CONTINUOUS
 10
-0.822154
 20
3.493378
  0
VERTEX
  8
PLAN_1
 62
     2
  6
CONTINUOUS
 10
-0.820406
 20
3.496000
  0
VERTEX
  8
PLAN_1
 62
     2
  6
CONTINUOUS
 10
-0.819091
 20
3.499063
  0
VERTEX
  8
PLAN_1
 62
     2
  6
CONTINUOUS
 10
-0.817780
 20
3.503000
  0
VERTEX
  8
PLAN_1
 62
     2
  6
CONTINUOUS
 10
-0.810343
 20
3.503000
  0
VERTEX
  8
PLAN_1
 62
     2
  6
CONTINUOUS
 10
-0.810343
 20
3.429953
  0
SEQEND
  8
0
  0
POLYLINE
  8
PLAN_1
 62
     2
  6
CONTINUOUS
 66
     1
 40
0.003000
 41
0.003000
  0
VERTEX
  8
PLAN_1
 62
     2
  6
CONTINUOUS
 10
-0.786287
 20
3.501252
  0
VERTEX
  8
PLAN_1
 62
     2
  6
CONTINUOUS
 10
-0.735547
 20
3.501252
  0
VERTEX
  8
PLAN_1
 62
     2
  6
CONTINUOUS
 10
-0.735547
 20
3.493378
  0
VERTEX
  8
PLAN_1
 62
     2
  6
CONTINUOUS
 10
-0.738606
 20
3.489878
  0
VERTEX
  8
PLAN_1
 62
     2
  6
CONTINUOUS
 10
-0.742543
 20
3.485067
  0
VERTEX
  8
PLAN_1
 62
     2
  6
CONTINUOUS
 10
-0.746917
 20
3.478504
  0
VERTEX
  8
PLAN_1
 62
     2
  6
CONTINUOUS
 10
-0.751291
 20
3.471067
  0
VERTEX
  8
PLAN_1
 62
     2
  6
CONTINUOUS
 10
-0.755665
 20
3.462319
  0
VERTEX
  8
PLAN_1
 62
     2
  6
CONTINUOUS
 10
-0.759602
 20
3.452697
  0
VERTEX
  8
PLAN_1
 62
     2
  6
CONTINUOUS
 10
-0.761354
 20
3.447012
  0
VERTEX
  8
PLAN_1
 62
     2
  6
CONTINUOUS
 10
-0.763102
 20
3.441764
  0
VERTEX
  8
PLAN_1
 62
     2
  6
CONTINUOUS
 10
-0.764413
 20
3.436075
  0
VERTEX
  8
PLAN_1
 62
     2
  6
CONTINUOUS
 10
-0.765728
 20
3.429953
  0
VERTEX
  8
PLAN_1
 62
     2
  6
CONTINUOUS
 10
-0.775787
 20
3.429953
  0
VERTEX
  8
PLAN_1
 62
     2
  6
CONTINUOUS
 10
-0.774476
 20
3.437827
  0
VERTEX
  8
PLAN_1
 62
     2
  6
CONTINUOUS
 10
-0.771850
 20
3.445697
  0
VERTEX
  8
PLAN_1
 62
     2
  6
CONTINUOUS
 10
-0.768791
 20
3.454008
  0
VERTEX
  8
PLAN_1
 62
     2
  6
CONTINUOUS
 10
-0.765291
 20
3.462756
  0
VERTEX
  8
PLAN_1
 62
     2
  6
CONTINUOUS
 10
-0.760917
 20
3.470630
  0
VERTEX
  8
PLAN_1
 62
     2
  6
CONTINUOUS
 10
-0.756106
 20
3.478504
  0
VERTEX
  8
PLAN_1
 62
     2
  6
CONTINUOUS
 10
-0.751291
 20
3.485941
  0
VERTEX
  8
PLAN_1
 62
     2
  6
CONTINUOUS
 10
-0.746043
 20
3.492504
  0
VERTEX
  8
PLAN_1
 62
     2
  6
CONTINUOUS
 10
-0.786287
 20
3.492504
  0
VERTEX
  8
PLAN_1
 62
     2
  6
CONTINUOUS
 10
-0.786287
 20
3.501252
  0
SEQEND
  8
0
  0
POLYLINE
  8
PLAN_1
 62
     2
  6
CONTINUOUS
 66
     1
 40
0.004374
 41
0.004374
  0
VERTEX
  8
PLAN_1
 62
     2
  6
CONTINUOUS
 10
-1.124409
 20
3.430827
  0
VERTEX
  8
PLAN_1
 62
     2
  6
CONTINUOUS
 10
-1.124409
 20
3.269858
  0
SEQEND
  8
0
  0
POLYLINE
  8
PLAN_1
 62
     2
  6
CONTINUOUS
 66
     1
 40
0.004374
 41
0.004374
  0
VERTEX
  8
PLAN_1
 62
     2
  6
CONTINUOUS
 10
-1.124409
 20
3.217803
  0
VERTEX
  8
PLAN_1
 62
     2
  6
CONTINUOUS
 10
-1.124409
 20
3.127697
  0
SEQEND
  8
0
  0
POLYLINE
  8
PLAN_1
 62
     2
  6
CONTINUOUS
 66
     1
 40
0.004374
 41
0.004374
  0
VERTEX
  8
PLAN_1
 62
     2
  6
CONTINUOUS
 10
-1.220642
 20
3.268984
  0
VERTEX
  8
PLAN_1
 62
     2
  6
CONTINUOUS
 10
-1.220642
 20
3.109327
  0
SEQEND
  8
0
  0
POLYLINE
  8
PLAN_1
 62
     2
  6
CONTINUOUS
 66
     1
 40
0.004374
 41
0.004374
  0
VERTEX
  8
PLAN_1
 62
     2
  6
CONTINUOUS
 10
-1.024240
 20
3.268106
  0
VERTEX
  8
PLAN_1
 62
     2
  6
CONTINUOUS
 10
-1.024240
 20
3.110638
  0
SEQEND
  8
0
  0
POLYLINE
  8
PLAN_1
 62
     2
  6
CONTINUOUS
 66
     1
 40
0.004374
 41
0.004374
  0
VERTEX
  8
PLAN_1
 62
     2
  6
CONTINUOUS
 10
-0.455598
 20
1.322484
  0
VERTEX
  8
PLAN_1
 62
     2
  6
CONTINUOUS
 10
-0.455598
 20
3.429953
  0
SEQEND
  8
0
  0
ENDSEC
  0
EOF
