999
DXF file: C:\Users\sesa63760\Dev\_Creo\CAD\MCADID0004774_3D-CAD\drw0001_5.dxf
999
Pro/ENGINEER 2019471 by Parametric Technology Corporation
  0
SECTION
  2
HEADER
  9
$ACADVER
  1
AC1024
  9
$DWGCODEPAGE
  3
ANSI_1252
  9
$EXTMAX
 10
179.3440945402
 20
253.6437908497
 30
0.0
  9
$EXTMIN
 10
0.0
 20
0.0
 30
0.0
  9
$LIMMIN
 10
0.0
 20
0.0
  9
$LIMMAX
 10
179.3440945402
 20
253.6437908497
  9
$VIEWCTR
 10
89.6720472701
 20
126.8218954248
  9
$VIEWSIZE
 40
253.6437908497
  9
$CLAYER
  8
0
  9
$LTSCALE
 40
16.5338174776
  9
$CELTYPE
  6
BYLAYER
  9
$DIMSCALE
 40
1.0
  9
$DIMASZ
 40
2.1350487445
  9
$DIMEXO
 40
1.0
  9
$DIMDLI
 40
11.4233648027
  9
$DIMEXE
 40
1.0
  9
$DIMCEN
 40
2.7055337691
  9
$DIMLFAC
 40
1.0
  9
$DIMBLK
  1
_FILLED
  9
$DIMALT
 70
0
  9
$DIMALTF
 40
0.0393700787
  9
$DIMTXT
 40
2.9890682423
  9
$DIMTOL
 70
1
  9
$DIMLIM
 70
0
  9
$DIMTFAC
 40
1.0
  9
$DIMTP
 40
0.01
  9
$DIMTM
 40
0.01
  9
$DIMGAP
 40
0.625
  9
$DIMDSEP
 70
46
  9
$AUNITS
 70
0
  9
$PDMODE
 70
3
  9
$PDSIZE
 40
0.3125
  9
$HANDSEED
  5
282
  9
$TILEMODE
 70
1
  9
$MEASUREMENT
 70
1
  9
$INSUNITS
 70
4
  0
ENDSEC
  0
SECTION
  2
CLASSES
  0
CLASS
  1
ACDBDICTIONARYWDFLT
  2
AcDbDictionaryWithDefault
  3
AutoCAD 2000
 90
0
 91
1
280
0
281
0
  0
CLASS
  1
ACDBPLACEHOLDER
  2
AcDbPlaceHolder
  3
AutoCAD 2000
 90
0
 91
1
280
0
281
0
  0
CLASS
  1
LAYOUT
  2
AcDbLayout
  3
AutoCAD 2000
 90
0
 91
0
280
0
281
0
  0
ENDSEC
  0
SECTION
  2
TABLES
  0
TABLE
  2
VPORT
  5
8
100
AcDbSymbolTable
 70
2
  0
VPORT
  5
1F4
100
AcDbSymbolTableRecord
100
AcDbViewportTableRecord
  2
*ACTIVE
 70
0
 10
0.0
 20
0.0
 11
1.0
 21
1.0
 12
89.6720472701
 22
126.8218954248
 13
0.0
 23
0.0
 14
1.0
 24
1.0
 15
0.0
 25
0.0
 16
0.0
 26
0.0
 36
1.0
 17
0.0
 27
0.0
 37
0.0
 40
253.6437908497
 41
0.7070707071
 42
50.0
 43
0.0
 44
0.0
 50
0.0
 51
0.0
 71
0
 72
100
 73
1
 74
1
 75
0
 76
0
 77
0
 78
0
  0
ENDTAB
  0
TABLE
  2
LTYPE
  5
5
100
AcDbSymbolTable
 70
6
  0
LTYPE
  5
14
100
AcDbSymbolTableRecord
100
AcDbLinetypeTableRecord
  2
BYBLOCK
 70
0
  3

 72
65
 73
0
 40
0.0
  0
LTYPE
  5
15
100
AcDbSymbolTableRecord
100
AcDbLinetypeTableRecord
  2
BYLAYER
 70
0
  3

 72
65
 73
0
 40
0.0
  0
LTYPE
  5
16
100
AcDbSymbolTableRecord
100
AcDbLinetypeTableRecord
  2
CONTINUOUS
 70
64
  3
Solid line
 72
65
 73
0
 40
0.0
  0
LTYPE
  5
1F5
100
AcDbSymbolTableRecord
100
AcDbLinetypeTableRecord
  2
CENTER
 70
64
  3
____ _ ____ _ ____ _ ____ _ ____ _ ____ _ ____
 72
65
 73
4
 40
0.6
 49
0.375
 74
0
 49
-0.075
 74
0
 49
0.075
 74
0
 49
-0.075
 74
0
  0
LTYPE
  5
1F6
100
AcDbSymbolTableRecord
100
AcDbLinetypeTableRecord
  2
HIDDEN
 70
64
  3
- - - - - - - - - - - - - - - - - - - -
 72
65
 73
2
 40
0.2
 49
0.1
 74
0
 49
-0.1
 74
0
  0
LTYPE
  5
1F7
100
AcDbSymbolTableRecord
100
AcDbLinetypeTableRecord
  2
PHANTOM
 70
64
  3
_____ _ _ _____ _ _ _____ _ _ _____
 72
65
 73
6
 40
0.8
 49
0.45
 74
0
 49
-0.05
 74
0
 49
0.1
 74
0
 49
-0.05
 74
0
 49
0.1
 74
0
 49
-0.05
 74
0
  0
LTYPE
  5
1F8
100
AcDbSymbolTableRecord
100
AcDbLinetypeTableRecord
  2
DOT
 70
64
  3
. . . . . . . . . . . . . . . . . . . .
 72
65
 73
2
 40
0.2
 49
0.1
 74
0
 49
-0.1
 74
0
  0
LTYPE
  5
1F9
100
AcDbSymbolTableRecord
100
AcDbLinetypeTableRecord
  2
DASHED
 70
64
  3
- - - - - - - - - - - - - - - - - - - -
 72
65
 73
2
 40
0.2
 49
0.1
 74
0
 49
-0.1
 74
0
  0
ENDTAB
  0
TABLE
  2
LAYER
  5
2
100
AcDbSymbolTable
 70
36
  0
LAYER
  5
10
100
AcDbSymbolTableRecord
100
AcDbLayerTableRecord
  2
0
 70
0
 62
7
  6
CONTINUOUS
370
-3
390
F
  0
LAYER
  5
1FA
100
AcDbSymbolTableRecord
100
AcDbLayerTableRecord
  2
DEFAULT_1
 70
0
 62
7
  6
CENTER
370
-3
390
F
  0
LAYER
  5
1FB
100
AcDbSymbolTableRecord
100
AcDbLayerTableRecord
  2
DEFAULT_2
 70
0
 62
7
  6
HIDDEN
370
-3
390
F
  0
LAYER
  5
1FC
100
AcDbSymbolTableRecord
100
AcDbLayerTableRecord
  2
DEFAULT_3
 70
0
 62
7
  6
PHANTOM
370
-3
390
F
  0
LAYER
  5
1FD
100
AcDbSymbolTableRecord
100
AcDbLayerTableRecord
  2
00_COMPONENTS
 70
0
 62
7
  6
CONTINUOUS
370
-3
390
F
  0
LAYER
  5
1FE
100
AcDbSymbolTableRecord
100
AcDbLayerTableRecord
  2
01_1_DEFAULT_DATUMS
 70
0
 62
7
  6
CONTINUOUS
370
-3
390
F
  0
LAYER
  5
1FF
100
AcDbSymbolTableRecord
100
AcDbLayerTableRecord
  2
01_PLANES
 70
0
 62
7
  6
CONTINUOUS
370
-3
390
F
  0
LAYER
  5
200
100
AcDbSymbolTableRecord
100
AcDbLayerTableRecord
  2
02_COORD_SYS
 70
0
 62
7
  6
CONTINUOUS
370
-3
390
F
  0
LAYER
  5
201
100
AcDbSymbolTableRecord
100
AcDbLayerTableRecord
  2
03_AXES
 70
0
 62
7
  6
CONTINUOUS
370
-3
390
F
  0
LAYER
  5
202
100
AcDbSymbolTableRecord
100
AcDbLayerTableRecord
  2
04_POINTS
 70
0
 62
7
  6
CONTINUOUS
370
-3
390
F
  0
LAYER
  5
203
100
AcDbSymbolTableRecord
100
AcDbLayerTableRecord
  2
05_CURVES
 70
0
 62
7
  6
CONTINUOUS
370
-3
390
F
  0
LAYER
  5
204
100
AcDbSymbolTableRecord
100
AcDbLayerTableRecord
  2
06_SURFS
 70
0
 62
7
  6
CONTINUOUS
370
-3
390
F
  0
LAYER
  5
205
100
AcDbSymbolTableRecord
100
AcDbLayerTableRecord
  2
07_COSMETICS
 70
0
 62
7
  6
CONTINUOUS
370
-3
390
F
  0
LAYER
  5
206
100
AcDbSymbolTableRecord
100
AcDbLayerTableRecord
  2
1
 70
0
 62
7
  6
CONTINUOUS
370
-3
390
F
  0
LAYER
  5
207
100
AcDbSymbolTableRecord
100
AcDbLayerTableRecord
  2
10_NOTES
 70
0
 62
7
  6
CONTINUOUS
370
-3
390
F
  0
LAYER
  5
208
100
AcDbSymbolTableRecord
100
AcDbLayerTableRecord
  2
11_NOTES_PUB
 70
0
 62
7
  6
CONTINUOUS
370
-3
390
F
  0
LAYER
  5
209
100
AcDbSymbolTableRecord
100
AcDbLayerTableRecord
  2
13_REF_GTOL
 70
0
 62
7
  6
CONTINUOUS
370
-3
390
F
  0
LAYER
  5
20A
100
AcDbSymbolTableRecord
100
AcDbLayerTableRecord
  2
16_MISC
 70
0
 62
7
  6
CONTINUOUS
370
-3
390
F
  0
LAYER
  5
20B
100
AcDbSymbolTableRecord
100
AcDbLayerTableRecord
  2
17_NO_PRINT
 70
0
 62
7
  6
CONTINUOUS
370
-3
390
F
  0
LAYER
  5
20C
100
AcDbSymbolTableRecord
100
AcDbLayerTableRecord
  2
18_DATUM_CAMS_JOINTS
 70
0
 62
7
  6
CONTINUOUS
370
-3
390
F
  0
LAYER
  5
20D
100
AcDbSymbolTableRecord
100
AcDbLayerTableRecord
  2
19_DATUM_FUNCTIONAL
 70
0
 62
7
  6
CONTINUOUS
370
-3
390
F
  0
LAYER
  5
20E
100
AcDbSymbolTableRecord
100
AcDbLayerTableRecord
  2
20_DATUM_KINEMATIC_SCHEME
 70
0
 62
7
  6
CONTINUOUS
370
-3
390
F
  0
ENDTAB
  0
TABLE
  2
STYLE
  5
3
100
AcDbSymbolTable
 70
1
  0
STYLE
  5
11
100
AcDbSymbolTableRecord
100
AcDbTextStyleTableRecord
  2
STANDARD
 70
0
 40
0.0
 41
1.0
 50
0.0
 71
0
 42
0.2
  3
ARIAL.TTF
  4

  0
STYLE
  5
20F
100
AcDbSymbolTableRecord
100
AcDbTextStyleTableRecord
  2
TEXTSTYLE_1
 70
0
 40
0.0
 41
0.8
 50
0.0
 71
0
 42
0.2
  3
gdt
  4

  0
ENDTAB
  0
TABLE
  2
VIEW
  5
6
100
AcDbSymbolTable
 70
0
  0
ENDTAB
  0
TABLE
  2
UCS
  5
7
100
AcDbSymbolTable
 70
0
  0
ENDTAB
  0
TABLE
  2
APPID
  5
9
100
AcDbSymbolTable
 70
1
  0
APPID
  5
210
100
AcDbSymbolTableRecord
100
AcDbRegAppTableRecord
  2
ACAD
 70
0
  0
ENDTAB
  0
TABLE
  2
BLOCK_RECORD
  5
1
100
AcDbSymbolTable
 70
0
  0
BLOCK_RECORD
  5
211
100
AcDbSymbolTableRecord
100
AcDbBlockTableRecord
  2
*Model_Space
  0
BLOCK_RECORD
  5
212
100
AcDbSymbolTableRecord
100
AcDbBlockTableRecord
  2
*Paper_Space
  0
BLOCK_RECORD
  5
213
100
AcDbSymbolTableRecord
100
AcDbBlockTableRecord
  2
_FILLED
  0
ENDTAB
  0
TABLE
  2
DIMSTYLE
  5
A
100
AcDbSymbolTable
 70
1
100
AcDbDimStyleTable
 71
0
  0
DIMSTYLE
105
214
100
AcDbSymbolTableRecord
100
AcDbDimStyleTableRecord
  2
STANDARD
 70
0
  3

  4

 40
1.0
 41
2.1350487445
 42
1.0
 43
0.38
 44
1.0
 45
0.0
 46
0.0
 47
0.01
 48
0.01
140
2.9890682423
141
0.09
142
0.0
143
25.4
144
1.0
145
0.0
146
1.0
147
0.625
 71
1
 72
0
 73
0
 74
0
 75
0
 76
0
 77
1
 78
8
 79
2
170
0
171
1
172
0
173
0
174
0
175
0
176
0
177
0
178
0
270
2
179
2
271
2
272
2
273
2
274
2
275
0
280
0
281
0
282
0
283
1
284
8
285
0
286
0
287
3
288
0
340
11
278
46
341
213
342
213
343
213
344
213
  0
ENDTAB
  0
ENDSEC
  0
SECTION
  2
BLOCKS
  0
BLOCK
  5
20
100
AcDbEntity
  8
0
100
AcDbBlockBegin
  2
*Model_Space
 70
0
 10
0.0
 20
0.0
 30
0.0
  3
*Model_Space
  1

  0
ENDBLK
  5
21
100
AcDbEntity
  8
0
100
AcDbBlockEnd
  0
BLOCK
  5
1C
100
AcDbEntity
  8
0
100
AcDbBlockBegin
  2
*Paper_Space
 70
0
 10
0.0
 20
0.0
 30
0.0
  3
*Paper_Space
  1

  0
ENDBLK
  5
1D
100
AcDbEntity
  8
0
100
AcDbBlockEnd
  0
BLOCK
  5
215
100
AcDbEntity
  8
0
100
AcDbBlockBegin
  2
_FILLED
 70
64
 10
0.0
 20
0.0
  3
_FILLED
  1

  0
SOLID
  5
216
100
AcDbEntity
  8
0
  6
BYBLOCK
 62
0
100
AcDbTrace
 10
0.0
 20
0.0
 11
-1.0
 21
0.25
 12
-1.0
 22
-0.25
 13
-1.0
 23
-0.25
  0
ENDBLK
  5
217
100
AcDbEntity
  8
0
  6
BYBLOCK
 62
0
100
AcDbBlockEnd
  0
ENDSEC
  0
SECTION
  2
ENTITIES
  0
LINE
  5
218
100
AcDbEntity
  8
1
100
AcDbLine
 62
7
  6
BYLAYER
 10
20.9057074008
 20
124.032558912
 11
20.9057074008
 21
130.2321469704
  0
LINE
  5
219
100
AcDbEntity
  8
1
100
AcDbLine
 62
7
  6
BYLAYER
 10
128.4057074008
 20
110.6323529412
 11
133.9057074008
 21
110.6323529412
  0
LINE
  5
21A
100
AcDbEntity
  8
1
100
AcDbLine
 62
7
  6
BYLAYER
 10
134.1057074008
 20
110.6323529412
 11
152.9057074008
 21
110.6323529412
  0
LINE
  5
21B
100
AcDbEntity
  8
1
100
AcDbLine
 62
7
  6
BYLAYER
 10
153.1057074008
 20
110.8323529412
 11
148.5057074008
 21
110.8323497502
  0
LINE
  5
21C
100
AcDbEntity
  8
1
100
AcDbLine
 62
7
  6
BYLAYER
 10
148.5057074008
 20
112.1323529412
 11
127.9057074008
 21
112.1323529412
  0
LINE
  5
21D
100
AcDbEntity
  8
1
100
AcDbLine
 62
7
  6
BYLAYER
 10
154.1057074008
 20
113.3823529412
 11
153.3057074008
 21
113.3823529412
  0
LINE
  5
21E
100
AcDbEntity
  8
1
100
AcDbLine
 62
7
  6
BYLAYER
 10
152.9057074008
 20
116.1486149621
 11
148.5057074008
 21
116.1486216661
  0
LINE
  5
21F
100
AcDbEntity
  8
1
100
AcDbLine
 62
7
  6
BYLAYER
 10
152.9057073401
 20
116.3060879077
 11
148.7057074008
 21
116.3060879077
  0
LINE
  5
220
100
AcDbEntity
  8
1
100
AcDbLine
 62
7
  6
BYLAYER
 10
148.3057074008
 20
118.5323529405
 11
148.5057074008
 21
118.5323555593
  0
LINE
  5
221
100
AcDbEntity
  8
1
100
AcDbLine
 62
7
  6
BYLAYER
 10
148.7057074008
 20
118.6556504422
 11
152.9057074273
 21
118.6556504422
  0
LINE
  5
222
100
AcDbEntity
  8
1
100
AcDbLine
 62
7
  6
BYLAYER
 10
148.7057073769
 20
118.7323529412
 11
152.9057074008
 21
118.7323529412
  0
LINE
  5
223
100
AcDbEntity
  8
1
100
AcDbLine
 62
7
  6
BYLAYER
 10
153.1057074008
 20
118.9323529412
 11
148.706487431
 21
118.9323529412
  0
LINE
  5
224
100
AcDbEntity
  8
1
100
AcDbLine
 62
7
  6
BYLAYER
 10
154.1057074008
 20
120.1323529412
 11
163.4057074008
 21
120.1323529412
  0
LINE
  5
225
100
AcDbEntity
  8
1
100
AcDbLine
 62
7
  6
BYLAYER
 10
20.9057074008
 20
124.0323529412
 11
121.9057074008
 21
124.0323529412
  0
LINE
  5
226
100
AcDbEntity
  8
1
100
AcDbLine
 62
7
  6
BYLAYER
 10
126.4057074008
 20
125.1323529412
 11
124.9057074008
 21
125.1323529412
  0
LINE
  5
227
100
AcDbEntity
  8
1
100
AcDbLine
 62
7
  6
BYLAYER
 10
124.9057074008
 20
125.6323529412
 11
121.9057074008
 21
125.6323529412
  0
LINE
  5
228
100
AcDbEntity
  8
1
100
AcDbLine
 62
7
  6
BYLAYER
 10
127.9057074008
 20
125.7323529412
 11
126.9057074008
 21
125.7323529412
  0
LINE
  5
229
100
AcDbEntity
  8
1
100
AcDbLine
 62
7
  6
BYLAYER
 10
132.9057074008
 20
126.6323529412
 11
133.9057074008
 21
126.6323529412
  0
LINE
  5
22A
100
AcDbEntity
  8
1
100
AcDbLine
 62
7
  6
BYLAYER
 10
133.9057074008
 20
127.6323529412
 11
132.9057074008
 21
127.6323529412
  0
LINE
  5
22B
100
AcDbEntity
  8
1
100
AcDbLine
 62
7
  6
BYLAYER
 10
127.9057074008
 20
128.5323529412
 11
126.9057074008
 21
128.5323529412
  0
LINE
  5
22C
100
AcDbEntity
  8
1
100
AcDbLine
 62
7
  6
BYLAYER
 10
124.9057074008
 20
128.6323529412
 11
121.9057074008
 21
128.6323529412
  0
LINE
  5
22D
100
AcDbEntity
  8
1
100
AcDbLine
 62
7
  6
BYLAYER
 10
126.4057074008
 20
129.1323529412
 11
124.9057074008
 21
129.1323529412
  0
LINE
  5
22E
100
AcDbEntity
  8
1
100
AcDbLine
 62
7
  6
BYLAYER
 10
20.9057074008
 20
130.2323529412
 11
121.9057074008
 21
130.2323529412
  0
LINE
  5
22F
100
AcDbEntity
  8
1
100
AcDbLine
 62
7
  6
BYLAYER
 10
154.1057074008
 20
134.1323529412
 11
163.4057074008
 21
134.1323529412
  0
LINE
  5
230
100
AcDbEntity
  8
1
100
AcDbLine
 62
7
  6
BYLAYER
 10
148.7057117572
 20
135.3323529412
 11
153.1057074008
 21
135.3323529412
  0
LINE
  5
231
100
AcDbEntity
  8
1
100
AcDbLine
 62
7
  6
BYLAYER
 10
152.9057074008
 20
135.5323529412
 11
148.7057074008
 21
135.5323529412
  0
LINE
  5
232
100
AcDbEntity
  8
1
100
AcDbLine
 62
7
  6
BYLAYER
 10
152.9057073404
 20
135.6090554501
 11
148.7057074008
 21
135.6090554501
  0
LINE
  5
233
100
AcDbEntity
  8
1
100
AcDbLine
 62
7
  6
BYLAYER
 10
148.5057074008
 20
135.7323529786
 11
148.3057074008
 21
135.7323529786
  0
LINE
  5
234
100
AcDbEntity
  8
1
100
AcDbLine
 62
7
  6
BYLAYER
 10
148.7057074008
 20
137.9586179824
 11
152.9057074273
 21
137.9586179824
  0
LINE
  5
235
100
AcDbEntity
  8
1
100
AcDbLine
 62
7
  6
BYLAYER
 10
152.9057399744
 20
138.1160909206
 11
148.5057074009
 21
138.1160909206
  0
LINE
  5
236
100
AcDbEntity
  8
1
100
AcDbLine
 62
7
  6
BYLAYER
 10
154.1057074008
 20
140.8823529412
 11
153.3057074008
 21
140.8823529412
  0
LINE
  5
237
100
AcDbEntity
  8
1
100
AcDbLine
 62
7
  6
BYLAYER
 10
127.9057074008
 20
142.1323529412
 11
148.5057074008
 21
142.1323529412
  0
LINE
  5
238
100
AcDbEntity
  8
1
100
AcDbLine
 62
7
  6
BYLAYER
 10
148.5057074009
 20
143.4323529075
 11
153.1057074008
 21
143.4323529412
  0
LINE
  5
239
100
AcDbEntity
  8
1
100
AcDbLine
 62
7
  6
BYLAYER
 10
152.9057074008
 20
143.6323529412
 11
134.1057074008
 21
143.6323529412
  0
LINE
  5
23A
100
AcDbEntity
  8
1
100
AcDbLine
 62
7
  6
BYLAYER
 10
133.9057074008
 20
143.6323529412
 11
128.4057074008
 21
143.6323529412
  0
LINE
  5
23B
100
AcDbEntity
  8
1
100
AcDbLine
 62
7
  6
BYLAYER
 10
121.9057074008
 20
130.2321469704
 11
121.9057074008
 21
124.032558912
  0
LINE
  5
23C
100
AcDbEntity
  8
1
100
AcDbLine
 62
7
  6
BYLAYER
 10
124.9057074008
 20
125.1323529412
 11
124.9057074008
 21
129.1323529412
  0
LINE
  5
23D
100
AcDbEntity
  8
1
100
AcDbLine
 62
7
  6
BYLAYER
 10
126.4057074008
 20
129.1323529412
 11
126.4057074008
 21
125.1323529412
  0
LINE
  5
23E
100
AcDbEntity
  8
1
100
AcDbLine
 62
7
  6
BYLAYER
 10
126.9057074008
 20
125.7323529412
 11
126.9057074008
 21
128.5323529412
  0
LINE
  5
23F
100
AcDbEntity
  8
1
100
AcDbLine
 62
7
  6
BYLAYER
 10
127.9057074008
 20
111.1323531288
 11
127.9057074008
 21
143.1323527535
  0
LINE
  5
240
100
AcDbEntity
  8
1
100
AcDbLine
 62
7
  6
BYLAYER
 10
128.4057074008
 20
110.6323529412
 11
128.4057074008
 21
143.6323529412
  0
LINE
  5
241
100
AcDbEntity
  8
1
100
AcDbLine
 62
7
  6
BYLAYER
 10
132.9057074008
 20
127.6323529412
 11
132.9057074008
 21
126.6323529412
  0
LINE
  5
242
100
AcDbEntity
  8
1
100
AcDbLine
 62
7
  6
BYLAYER
 10
133.7057074008
 20
127.6323529412
 11
133.7057074008
 21
126.6323529412
  0
LINE
  5
243
100
AcDbEntity
  8
1
100
AcDbLine
 62
7
  6
BYLAYER
 10
133.9057074008
 20
143.6323529412
 11
133.9057074008
 21
110.6323529412
  0
LINE
  5
244
100
AcDbEntity
  8
1
100
AcDbLine
 62
7
  6
BYLAYER
 10
134.1057074008
 20
110.6323529412
 11
134.1057074008
 21
143.6323529412
  0
LINE
  5
245
100
AcDbEntity
  8
1
100
AcDbLine
 62
7
  6
BYLAYER
 10
148.3057074008
 20
143.6323529412
 11
148.3057074008
 21
135.7323530884
  0
LINE
  5
246
100
AcDbEntity
  8
1
100
AcDbLine
 62
7
  6
BYLAYER
 10
148.3057074008
 20
118.5323541583
 11
148.3057074008
 21
110.6323529412
  0
LINE
  5
247
100
AcDbEntity
  8
1
100
AcDbLine
 62
7
  6
BYLAYER
 10
148.5057074008
 20
110.8323534245
 11
148.5057074008
 21
118.5323581903
  0
LINE
  5
248
100
AcDbEntity
  8
1
100
AcDbLine
 62
7
  6
BYLAYER
 10
148.5057074008
 20
135.732353085
 11
148.5057074008
 21
143.4323529412
  0
LINE
  5
249
100
AcDbEntity
  8
1
100
AcDbLine
 62
7
  6
BYLAYER
 10
148.7057074008
 20
110.832347012
 11
148.7057074008
 21
118.7323529412
  0
LINE
  5
24A
100
AcDbEntity
  8
1
100
AcDbLine
 62
7
  6
BYLAYER
 10
148.7057074008
 20
135.5323529412
 11
148.7057073769
 21
143.4323529412
  0
LINE
  5
24B
100
AcDbEntity
  8
1
100
AcDbLine
 62
7
  6
BYLAYER
 10
152.9057073401
 20
116.3060879077
 11
152.9057074008
 21
110.6323529412
  0
LINE
  5
24C
100
AcDbEntity
  8
1
100
AcDbLine
 62
7
  6
BYLAYER
 10
153.1057074008
 20
110.8323529412
 11
153.1057074008
 21
115.8468352562
  0
LINE
  5
24D
100
AcDbEntity
  8
1
100
AcDbLine
 62
7
  6
BYLAYER
 10
153.1057074008
 20
118.9323529412
 11
153.1057074008
 21
135.3323529405
  0
LINE
  5
24E
100
AcDbEntity
  8
1
100
AcDbLine
 62
7
  6
BYLAYER
 10
153.1057074008
 20
138.4178684591
 11
153.1057074008
 21
143.4323529412
  0
LINE
  5
24F
100
AcDbEntity
  8
1
100
AcDbLine
 62
7
  6
BYLAYER
 10
153.3057074002
 20
113.3823529412
 11
153.3057074002
 21
116.0086528256
  0
LINE
  5
250
100
AcDbEntity
  8
1
100
AcDbLine
 62
7
  6
BYLAYER
 10
153.3057074005
 20
119.0499205284
 11
153.3057074005
 21
135.2147902163
  0
LINE
  5
251
100
AcDbEntity
  8
1
100
AcDbLine
 62
7
  6
BYLAYER
 10
153.3057074002
 20
138.2560567387
 11
153.3057074002
 21
140.8823529412
  0
LINE
  5
252
100
AcDbEntity
  8
1
100
AcDbLine
 62
7
  6
BYLAYER
 10
154.1057074008
 20
140.8821767605
 11
154.1057074008
 21
113.3825291218
  0
LINE
  5
253
100
AcDbEntity
  8
1
100
AcDbLine
 62
7
  6
BYLAYER
 10
152.9057074273
 20
137.9586179824
 11
152.9057074008
 21
143.6323529412
  0
LINE
  5
254
100
AcDbEntity
  8
1
100
AcDbLine
 62
7
  6
BYLAYER
 10
152.9057074273
 20
118.6556504422
 11
152.9057073404
 21
135.6090554501
  0
LINE
  5
255
100
AcDbEntity
  8
1
100
AcDbLine
 62
7
  6
BYLAYER
 10
163.4057074008
 20
134.1323433816
 11
163.4057074008
 21
120.1323625007
  0
ARC
  5
256
100
AcDbEntity
  8
1
100
AcDbCircle
 62
7
  6
BYLAYER
 10
126.9057074008
 20
125.2323529412
 40
0.5
100
AcDbArc
 50
90.0
 51
180.0081493659
  0
ARC
  5
257
100
AcDbEntity
  8
1
100
AcDbCircle
 62
7
  6
BYLAYER
 10
128.4057074008
 20
111.1323529412
 40
0.5
100
AcDbArc
 50
180.0
 51
270.0
  0
ARC
  5
258
100
AcDbEntity
  8
1
100
AcDbCircle
 62
7
  6
BYLAYER
 10
134.1057074008
 20
110.8323529412
 40
0.2
100
AcDbArc
 50
179.9998614136
 51
270.0
  0
ARC
  5
259
100
AcDbEntity
  8
1
100
AcDbCircle
 62
7
  6
BYLAYER
 10
126.9057074008
 20
129.0323529412
 40
0.5
100
AcDbArc
 50
180.0001251608
 51
270.0
  0
ARC
  5
25A
100
AcDbEntity
  8
1
100
AcDbCircle
 62
7
  6
BYLAYER
 10
128.4057074008
 20
143.1323529412
 40
0.5
100
AcDbArc
 50
90.0
 51
180.0000215028
  0
ARC
  5
25B
100
AcDbEntity
  8
1
100
AcDbCircle
 62
7
  6
BYLAYER
 10
134.1057074008
 20
143.4323529412
 40
0.2
100
AcDbArc
 50
90.0
 51
180.0
  0
ARC
  5
25C
100
AcDbEntity
  8
1
100
AcDbCircle
 62
7
  6
BYLAYER
 10
152.9045643557
 20
119.0651750306
 40
0.4095261836
100
AcDbArc
 50
270.1599176212
 51
273.2000867953
  0
ARC
  5
25D
100
AcDbEntity
  8
1
100
AcDbCircle
 62
7
  6
BYLAYER
 10
152.9091104347
 20
119.054224818
 40
0.3978995948
100
AcDbArc
 50
295.5755012153
 51
303.7009355434
  0
ARC
  5
25E
100
AcDbEntity
  8
1
100
AcDbCircle
 62
7
  6
BYLAYER
 10
148.3057074008
 20
110.8323529412
 40
0.2
100
AcDbArc
 50
270.0
 51
0.0001384592
  0
ARC
  5
25F
100
AcDbEntity
  8
1
100
AcDbCircle
 62
7
  6
BYLAYER
 10
148.7057074008
 20
118.5323529412
 40
0.2
100
AcDbArc
 50
90.0000068435
 51
179.9984962225
  0
ARC
  5
260
100
AcDbEntity
  8
1
100
AcDbCircle
 62
7
  6
BYLAYER
 10
153.3057074008
 20
113.1823529412
 40
0.2
100
AcDbArc
 50
90.0
 51
180.0
  0
ARC
  5
261
100
AcDbEntity
  8
1
100
AcDbCircle
 62
7
  6
BYLAYER
 10
152.9057074008
 20
118.9323529412
 40
0.2
100
AcDbArc
 50
270.0046663022
 51
360.0
  0
ARC
  5
262
100
AcDbEntity
  8
1
100
AcDbCircle
 62
7
  6
BYLAYER
 10
152.9057074008
 20
110.8323529412
 40
0.2
100
AcDbArc
 50
270.0
 51
360.0
  0
ARC
  5
263
100
AcDbEntity
  8
1
100
AcDbCircle
 62
7
  6
BYLAYER
 10
152.9141418895
 20
135.3029786062
 40
0.3061930394
100
AcDbArc
 50
87.5574543529
 51
91.5785135073
  0
ARC
  5
264
100
AcDbEntity
  8
1
100
AcDbCircle
 62
7
  6
BYLAYER
 10
148.3057074008
 20
143.4323529412
 40
0.2
100
AcDbArc
 50
0.0
 51
89.9999999998
  0
ARC
  5
265
100
AcDbEntity
  8
1
100
AcDbCircle
 62
7
  6
BYLAYER
 10
153.3057074008
 20
141.0823529412
 40
0.2
100
AcDbArc
 50
180.0
 51
270.0
  0
ARC
  5
266
100
AcDbEntity
  8
1
100
AcDbCircle
 62
7
  6
BYLAYER
 10
152.9057074008
 20
143.4323529412
 40
0.2
100
AcDbArc
 50
0.0
 51
90.0
  0
ARC
  5
267
100
AcDbEntity
  8
1
100
AcDbCircle
 62
7
  6
BYLAYER
 10
152.9057074008
 20
135.3323529412
 40
0.2
100
AcDbArc
 50
0.0
 51
90.0
  0
ARC
  5
268
100
AcDbEntity
  8
1
100
AcDbCircle
 62
7
  6
BYLAYER
 10
148.7057074008
 20
135.7323529412
 40
0.2
100
AcDbArc
 50
180.0
 51
270.0
  0
SPLINE
  5
269
100
AcDbEntity
  8
1
100
AcDbSpline
 62
7
  6
BYLAYER
 70
0
 71
3
 72
12
 73
8
 74
0
 42
0.0000001
 43
0.0000001
 44
0.0000000001
 40
0.0
 40
0.0
 40
0.0
 40
0.0
 40
0.2935300185
 40
0.5815101085
 40
0.7083745644
 40
0.8197339189
 40
1.0
 40
1.0
 40
1.0
 40
1.0
 10
153.3057074008
 20
119.0499164611
 30
0.0
 10
153.2810145642
 20
119.049915203
 30
0.0
 10
153.232001296
 20
119.0446445018
 30
0.0
 10
153.1749581185
 20
119.0241924703
 30
0.0
 10
153.1386585468
 20
118.9983104664
 30
0.0
 10
153.1146801574
 20
118.9723231485
 30
0.0
 10
153.105716021
 20
118.9475175569
 30
0.0
 10
153.105716111
 20
118.9323529038
 30
0.0
  0
SPLINE
  5
26A
100
AcDbEntity
  8
1
100
AcDbSpline
 62
7
  6
BYLAYER
 70
0
 71
3
 72
15
 73
11
 74
0
 42
0.0000001
 43
0.0000001
 44
0.0000000001
 40
0.0
 40
0.0
 40
0.0
 40
0.0
 40
0.0064466889
 40
0.0210924395
 40
0.0777667951
 40
0.170185554
 40
0.2941964429
 40
0.4452033014
 40
0.6178449287
 40
1.0
 40
1.0
 40
1.0
 40
1.0
 10
148.705707374
 20
110.6323529412
 30
0.0
 10
148.705276631
 20
110.6323529412
 30
0.0
 10
148.704475454
 20
110.6339852504
 30
0.0
 10
148.703964828
 20
110.638739077
 30
0.0
 10
148.7040292735
 20
110.6501215375
 30
0.0
 10
148.7055745057
 20
110.6680658579
 30
0.0
 10
148.706615886
 20
110.6927078745
 30
0.0
 10
148.7062168469
 20
110.7225867273
 30
0.0
 10
148.70537384
 20
110.7697519365
 30
0.0
 10
148.7056554041
 20
110.8068188567
 30
0.0
 10
148.7057073981
 20
110.8323529412
 30
0.0
  0
SPLINE
  5
26B
100
AcDbEntity
  8
1
100
AcDbSpline
 62
7
  6
BYLAYER
 70
0
 71
3
 72
9
 73
5
 74
0
 42
0.0000001
 43
0.0000001
 44
0.0000000001
 40
0.0
 40
0.0
 40
0.0
 40
0.0
 40
0.2548951689
 40
1.0
 40
1.0
 40
1.0
 40
1.0
 10
152.927425343
 20
118.6562874296
 30
0.0
 10
152.9409061742
 20
118.6570398062
 30
0.0
 10
152.9936187184
 20
118.662533432
 30
0.0
 10
153.0452843851
 20
118.6782705701
 30
0.0
 10
153.0808837295
 20
118.6953125407
 30
0.0
  0
SPLINE
  5
26C
100
AcDbEntity
  8
1
100
AcDbSpline
 62
7
  6
BYLAYER
 70
0
 71
3
 72
9
 73
5
 74
0
 42
0.0000001
 43
0.0000001
 44
0.0000000001
 40
0.0
 40
0.0
 40
0.0
 40
0.0
 40
0.256551536
 40
1.0
 40
1.0
 40
1.0
 40
1.0
 10
153.1298882128
 20
118.7231942147
 30
0.0
 10
153.138513406
 20
118.7289525737
 30
0.0
 10
153.1712352302
 20
118.752724982
 30
0.0
 10
153.2002213266
 20
118.7815595586
 30
0.0
 10
153.2191016575
 20
118.8049414257
 30
0.0
  0
SPLINE
  5
26D
100
AcDbEntity
  8
1
100
AcDbSpline
 62
7
  6
BYLAYER
 70
0
 71
3
 72
9
 73
5
 74
0
 42
0.0000001
 43
0.0000001
 44
0.0000000001
 40
0.0
 40
0.0
 40
0.0
 40
0.0
 40
0.5074209451
 40
1.0
 40
1.0
 40
1.0
 40
1.0
 10
153.2191016575
 20
118.8049414257
 30
0.0
 10
153.2471093081
 20
118.8396267905
 30
0.0
 10
153.2916737544
 20
118.9182165267
 30
0.0
 10
153.3035516704
 20
119.0066968234
 30
0.0
 10
153.3057074005
 20
119.0499205284
 30
0.0
  0
SPLINE
  5
26E
100
AcDbEntity
  8
1
100
AcDbSpline
 62
7
  6
BYLAYER
 70
0
 71
3
 72
11
 73
7
 74
0
 42
0.0000001
 43
0.0000001
 44
0.0000000001
 40
0.0
 40
0.0
 40
0.0
 40
0.0
 40
0.2500438687
 40
0.5000333412
 40
0.750055619
 40
1.0
 40
1.0
 40
1.0
 40
1.0
 10
148.706487431
 20
118.9323529412
 30
0.0
 10
148.6543669198
 20
118.9321279634
 30
0.0
 10
148.5488659234
 20
118.9120481667
 30
0.0
 10
148.4158771642
 20
118.8226615023
 30
0.0
 10
148.3255110524
 20
118.6900750734
 30
0.0
 10
148.3060106558
 20
118.5844535345
 30
0.0
 10
148.3057074008
 20
118.5323541583
 30
0.0
  0
SPLINE
  5
26F
100
AcDbEntity
  8
1
100
AcDbSpline
 62
7
  6
BYLAYER
 70
0
 71
3
 72
19
 73
15
 74
0
 42
0.0000001
 43
0.0000001
 44
0.0000000001
 40
0.0
 40
0.0
 40
0.0
 40
0.0
 40
0.0048537648
 40
0.010882077
 40
0.0192814306
 40
0.0431020855
 40
0.0761330166
 40
0.1181333792
 40
0.1686228731
 40
0.2929004239
 40
0.4443583135
 40
0.6173097814
 40
0.8053109742
 40
1.0
 40
1.0
 40
1.0
 40
1.0
 10
148.7057073705
 20
118.7323529412
 30
0.0
 10
148.7060309591
 20
118.7323529412
 30
0.0
 10
148.705581377
 20
118.7335863535
 30
0.0
 10
148.7058435997
 20
118.7346103802
 30
0.0
 10
148.7057398337
 20
118.7373076735
 30
0.0
 10
148.7058790719
 20
118.7415487768
 30
0.0
 10
148.7058780707
 20
118.7481907134
 30
0.0
 10
148.7059457811
 20
118.7565389591
 30
0.0
 10
148.7060117073
 20
118.7709992414
 30
0.0
 10
148.7061093363
 20
118.7927419461
 30
0.0
 10
148.7062126147
 20
118.822656964
 30
0.0
 10
148.7063142743
 20
118.8568172108
 30
0.0
 10
148.7064052384
 20
118.8938606165
 30
0.0
 10
148.7064604681
 20
118.9193735259
 30
0.0
 10
148.706487431
 20
118.9323529412
 30
0.0
  0
SPLINE
  5
270
100
AcDbEntity
  8
1
100
AcDbSpline
 62
7
  6
BYLAYER
 70
0
 71
3
 72
11
 73
7
 74
0
 42
0.0000001
 43
0.0000001
 44
0.0000000001
 40
0.0
 40
0.0
 40
0.0
 40
0.0
 40
0.2631115853
 40
0.5343092449
 40
0.7838698245
 40
1.0
 40
1.0
 40
1.0
 40
1.0
 10
153.3057068573
 20
138.2560540234
 30
0.0
 10
153.2808774319
 20
138.2560557938
 30
0.0
 10
153.2301208834
 20
138.2636656753
 30
0.0
 10
153.1629265464
 20
138.298228048
 30
0.0
 10
153.1165612956
 20
138.3529753783
 30
0.0
 10
153.1057162329
 20
138.3974555704
 30
0.0
 10
153.105716111
 20
138.4178514343
 30
0.0
  0
SPLINE
  5
271
100
AcDbEntity
  8
1
100
AcDbSpline
 62
7
  6
BYLAYER
 70
0
 71
3
 72
13
 73
9
 74
0
 42
0.0000001
 43
0.0000001
 44
0.0000000001
 40
0.0
 40
0.0
 40
0.0
 40
0.0
 40
0.3112602192
 40
0.5807471625
 40
0.6983430332
 40
0.8054515932
 40
0.9045924322
 40
1.0
 40
1.0
 40
1.0
 40
1.0
 10
152.9057073782
 20
137.9586179824
 30
0.0
 10
152.9624607354
 20
137.9587371927
 30
0.0
 10
153.0692967995
 20
137.9756930949
 30
0.0
 10
153.1836105718
 20
138.0379512011
 30
0.0
 10
153.2480598341
 20
138.1015599141
 30
0.0
 10
153.2813974527
 20
138.1509692259
 30
0.0
 10
153.299790059
 20
138.203368126
 30
0.0
 10
153.304516129
 20
138.2387014823
 30
0.0
 10
153.3057074002
 20
138.2560567387
 30
0.0
  0
SPLINE
  5
272
100
AcDbEntity
  8
1
100
AcDbSpline
 62
7
  6
BYLAYER
 70
0
 71
3
 72
13
 73
9
 74
0
 42
0.0000001
 43
0.0000001
 44
0.0000000001
 40
0.0
 40
0.0
 40
0.0
 40
0.0
 40
0.2349095079
 40
0.475045678
 40
0.5989422421
 40
0.7267833121
 40
0.8603985838
 40
1.0
 40
1.0
 40
1.0
 40
1.0
 10
153.1057074008
 20
138.4178495172
 30
0.0
 10
153.10571253
 20
138.3868460411
 30
0.0
 10
153.0988525432
 20
138.3239909986
 30
0.0
 10
153.0728559913
 20
138.2484104437
 30
0.0
 10
153.0391386074
 20
138.1926276556
 30
0.0
 10
153.0050291083
 20
138.1544083944
 30
0.0
 10
152.9605728793
 20
138.1242936881
 30
0.0
 10
152.9241483483
 20
138.1160770613
 30
0.0
 10
152.9057236876
 20
138.1160910562
 30
0.0
  0
SPLINE
  5
273
100
AcDbEntity
  8
1
100
AcDbSpline
 62
7
  6
BYLAYER
 70
0
 71
3
 72
19
 73
15
 74
0
 42
0.0000001
 43
0.0000001
 44
0.0000000001
 40
0.0
 40
0.0
 40
0.0
 40
0.0
 40
0.1946892222
 40
0.3826909053
 40
0.5556426254
 40
0.7071004295
 40
0.831377708
 40
0.8818670368
 40
0.9238673129
 40
0.9568981746
 40
0.9807187106
 40
0.9891180045
 40
0.9951462671
 40
1.0
 40
1.0
 40
1.0
 40
1.0
 10
148.7057073751
 20
143.4323529412
 30
0.0
 10
148.7057342736
 20
143.44533237
 30
0.0
 10
148.7057893912
 20
143.4708453261
 30
0.0
 10
148.7058802757
 20
143.5078887954
 30
0.0
 10
148.705982
 20
143.5420490867
 30
0.0
 10
148.7060853601
 20
143.571964098
 30
0.0
 10
148.706182933
 20
143.5937067686
 30
0.0
 10
148.706248807
 20
143.6081670166
 30
0.0
 10
148.7063164929
 20
143.6165152414
 30
0.0
 10
148.706315516
 20
143.6231571591
 30
0.0
 10
148.7064547711
 20
143.6273982473
 30
0.0
 10
148.7063510813
 20
143.6300955224
 30
0.0
 10
148.7066132921
 20
143.6311195438
 30
0.0
 10
148.7061638444
 20
143.6323529412
 30
0.0
 10
148.706487431
 20
143.6323529412
 30
0.0
  0
SPLINE
  5
274
100
AcDbEntity
  8
1
100
AcDbSpline
 62
7
  6
BYLAYER
 70
0
 71
3
 72
11
 73
7
 74
0
 42
0.0000001
 43
0.0000001
 44
0.0000000001
 40
0.0
 40
0.0
 40
0.0
 40
0.0
 40
0.1938745543
 40
0.4244714036
 40
0.6987266134
 40
1.0
 40
1.0
 40
1.0
 40
1.0
 10
148.5057074009
 20
118.5323579993
 30
0.0
 10
148.5057080053
 20
118.5488913512
 30
0.0
 10
148.5188720596
 20
118.5853384933
 30
0.0
 10
148.5658801457
 20
118.6246162996
 30
0.0
 10
148.6306810255
 20
118.6498836907
 30
0.0
 10
148.6800152262
 20
118.6556504372
 30
0.0
 10
148.7057074008
 20
118.6556504372
 30
0.0
  0
SPLINE
  5
275
100
AcDbEntity
  8
1
100
AcDbSpline
 62
7
  6
BYLAYER
 70
0
 71
3
 72
11
 73
7
 74
0
 42
0.0000001
 43
0.0000001
 44
0.0000000001
 40
0.0
 40
0.0
 40
0.0
 40
0.0
 40
0.2767360255
 40
0.5386185459
 40
0.777943435
 40
1.0
 40
1.0
 40
1.0
 40
1.0
 10
148.7057074008
 20
116.3060879077
 30
0.0
 10
148.6798843194
 20
116.3060879077
 30
0.0
 10
148.6292498389
 20
116.2984168115
 30
0.0
 10
148.5633301781
 20
116.2648565464
 30
0.0
 10
148.5172175527
 20
116.2129557923
 30
0.0
 10
148.5057084105
 20
116.1693424399
 30
0.0
 10
148.505707401
 20
116.1486216655
 30
0.0
  0
SPLINE
  5
276
100
AcDbEntity
  8
1
100
AcDbSpline
 62
7
  6
BYLAYER
 70
0
 71
3
 72
11
 73
7
 74
0
 42
0.0000001
 43
0.0000001
 44
0.0000000001
 40
0.0
 40
0.0
 40
0.0
 40
0.0
 40
0.2220559224
 40
0.4613732865
 40
0.7232521247
 40
1.0
 40
1.0
 40
1.0
 40
1.0
 10
148.5057074008
 20
138.1160909206
 30
0.0
 10
148.5057076463
 20
138.0953698157
 30
0.0
 10
148.517213866
 20
138.0517556657
 30
0.0
 10
148.5633260012
 20
137.9998532188
 30
0.0
 10
148.629247284
 20
137.9662943246
 30
0.0
 10
148.6798827271
 20
137.9586179785
 30
0.0
 10
148.7057074008
 20
137.9586179785
 30
0.0
  0
SPLINE
  5
277
100
AcDbEntity
  8
1
100
AcDbSpline
 62
7
  6
BYLAYER
 70
0
 71
3
 72
11
 73
7
 74
0
 42
0.0000001
 43
0.0000001
 44
0.0000000001
 40
0.0
 40
0.0
 40
0.0
 40
0.0
 40
0.3012026479
 40
0.5753402942
 40
0.8059867519
 40
1.0
 40
1.0
 40
1.0
 40
1.0
 10
148.7057074008
 20
135.6090554501
 30
0.0
 10
148.6800218223
 20
135.6090554501
 30
0.0
 10
148.6307042925
 20
135.6148127323
 30
0.0
 10
148.5659145041
 20
135.6400765016
 30
0.0
 10
148.5189032626
 20
135.6793479588
 30
0.0
 10
148.5057081884
 20
135.7158045069
 30
0.0
 10
148.5057074009
 20
135.7323493233
 30
0.0
  0
SPLINE
  5
278
100
AcDbEntity
  8
1
100
AcDbSpline
 62
7
  6
BYLAYER
 70
0
 71
3
 72
9
 73
5
 74
0
 42
0.0000001
 43
0.0000001
 44
0.0000000001
 40
0.0
 40
0.0
 40
0.0
 40
0.0
 40
0.4925524974
 40
1.0
 40
1.0
 40
1.0
 40
1.0
 10
153.3057074005
 20
135.2147902163
 30
0.0
 10
153.304535239
 20
135.2575418557
 30
0.0
 10
153.2917626485
 20
135.34497261
 30
0.0
 10
153.2485337848
 20
135.4227947325
 30
0.0
 10
153.2211699309
 20
135.4573286719
 30
0.0
  0
SPLINE
  5
279
100
AcDbEntity
  8
1
100
AcDbSpline
 62
7
  6
BYLAYER
 70
0
 71
3
 72
11
 73
7
 74
0
 42
0.0000001
 43
0.0000001
 44
0.0000000001
 40
0.0
 40
0.0
 40
0.0
 40
0.0
 40
0.2341211047
 40
0.4786175549
 40
0.7350330111
 40
1.0
 40
1.0
 40
1.0
 40
1.0
 10
153.2211699309
 20
135.4573286719
 30
0.0
 10
153.2046859164
 20
135.4781319534
 30
0.0
 10
153.1667381498
 20
135.5175091356
 30
0.0
 10
153.0970892178
 20
135.5644224168
 30
0.0
 10
153.0159933181
 20
135.5968859367
 30
0.0
 10
152.9572038317
 20
135.6076278912
 30
0.0
 10
152.9271910874
 20
135.6088934568
 30
0.0
  0
SPLINE
  5
27A
100
AcDbEntity
  8
1
100
AcDbSpline
 62
7
  6
BYLAYER
 70
0
 71
3
 72
13
 73
9
 74
0
 42
0.0000001
 43
0.0000001
 44
0.0000000001
 40
0.0
 40
0.0
 40
0.0
 40
0.0
 40
0.1395995495
 40
0.2732150549
 40
0.4010574559
 40
0.5249550463
 40
0.7650913354
 40
1.0
 40
1.0
 40
1.0
 40
1.0
 10
152.9057074008
 20
116.1486149609
 30
0.0
 10
152.924132509
 20
116.1486285591
 30
0.0
 10
152.960556693
 20
116.1404114313
 30
0.0
 10
153.005022865
 20
116.1103078487
 30
0.0
 10
153.0391332044
 20
116.0720851542
 30
0.0
 10
153.0728532124
 20
116.0163011875
 30
0.0
 10
153.0988521494
 20
115.9407178883
 30
0.0
 10
153.105712356
 20
115.8778606029
 30
0.0
 10
153.1057074008
 20
115.8468560711
 30
0.0
  0
SPLINE
  5
27B
100
AcDbEntity
  8
1
100
AcDbSpline
 62
7
  6
BYLAYER
 70
0
 71
3
 72
15
 73
11
 74
0
 42
0.0000001
 43
0.0000001
 44
0.0000000001
 40
0.0
 40
0.0
 40
0.0
 40
0.0
 40
0.0950310759
 40
0.1941641908
 40
0.301082189
 40
0.4183427193
 40
0.5471542628
 40
0.688402662
 40
0.8410477806
 40
1.0
 40
1.0
 40
1.0
 40
1.0
 10
153.3057074002
 20
116.0086528256
 30
0.0
 10
153.3050524212
 20
116.026010168
 30
0.0
 10
153.3004710634
 20
116.0614800381
 30
0.0
 10
153.2813582824
 20
116.1136311589
 30
0.0
 10
153.2481152564
 20
116.1630898186
 30
0.0
 10
153.2020220399
 20
116.2087413918
 30
0.0
 10
153.1432696478
 20
116.2489445531
 30
0.0
 10
153.0722489194
 20
116.2803786326
 30
0.0
 10
152.99189435
 20
116.301370021
 30
0.0
 10
152.9347533919
 20
116.306726221
 30
0.0
 10
152.9057072591
 20
116.3060879077
 30
0.0
  0
SPLINE
  5
27C
100
AcDbEntity
  8
1
100
AcDbSpline
 62
7
  6
BYLAYER
 70
0
 71
3
 72
11
 73
7
 74
0
 42
0.0000001
 43
0.0000001
 44
0.0000000001
 40
0.0
 40
0.0
 40
0.0
 40
0.0
 40
0.2631149715
 40
0.534314845
 40
0.7838738015
 40
1.0
 40
1.0
 40
1.0
 40
1.0
 10
153.3057074008
 20
116.0086532059
 30
0.0
 10
153.2808763861
 20
116.0086514317
 30
0.0
 10
153.2301166706
 20
116.0010405615
 30
0.0
 10
153.1629194395
 20
115.966473972
 30
0.0
 10
153.1165553343
 20
115.9117208114
 30
0.0
 10
153.1057141741
 20
115.867237608
 30
0.0
 10
153.1057162906
 20
115.8468410766
 30
0.0
  0
SPLINE
  5
27D
100
AcDbEntity
  8
1
100
AcDbSpline
 62
7
  6
BYLAYER
 70
0
 71
3
 72
11
 73
7
 74
0
 42
0.0000001
 43
0.0000001
 44
0.0000000001
 40
0.0
 40
0.0
 40
0.0
 40
0.0
 40
0.2500426124
 40
0.5000305992
 40
0.750054199
 40
1.0
 40
1.0
 40
1.0
 40
1.0
 10
148.3057074008
 20
135.7323530884
 30
0.0
 10
148.3060320112
 20
135.6802968943
 30
0.0
 10
148.3262632182
 20
135.5749659671
 30
0.0
 10
148.4157019253
 20
135.4422591696
 30
0.0
 10
148.5481864738
 20
135.3521094745
 30
0.0
 10
148.6536756041
 20
135.3326585607
 30
0.0
 10
148.7057117572
 20
135.3323529412
 30
0.0
  0
SPLINE
  5
27E
100
AcDbEntity
  8
1
100
AcDbSpline
 62
7
  6
BYLAYER
 70
0
 71
3
 72
19
 73
15
 74
0
 42
0.0000001
 43
0.0000001
 44
0.0000000001
 40
0.0
 40
0.0
 40
0.0
 40
0.0
 40
0.1945936612
 40
0.3824091334
 40
0.5553610987
 40
0.7069024643
 40
0.8311956867
 40
0.8817104917
 40
0.9237187746
 40
0.9567704749
 40
0.9806390016
 40
0.9890653862
 40
0.99511843
 40
1.0
 40
1.0
 40
1.0
 40
1.0
 10
148.7057073739
 20
135.3323529412
 30
0.0
 10
148.7050586287
 20
135.3453144251
 30
0.0
 10
148.7040618466
 20
135.3708008067
 30
0.0
 10
148.703834759
 20
135.4078513112
 30
0.0
 10
148.7051967119
 20
135.4419932275
 30
0.0
 10
148.7065385775
 20
135.4719006543
 30
0.0
 10
148.7063813006
 20
135.4936675252
 30
0.0
 10
148.7059556101
 20
135.5081298152
 30
0.0
 10
148.705724274
 20
135.5164815838
 30
0.0
 10
148.7055745584
 20
135.5231297046
 30
0.0
 10
148.70566268
 20
135.5273806864
 30
0.0
 10
148.7055557101
 20
135.5300836245
 30
0.0
 10
148.7058198388
 20
135.5311164077
 30
0.0
 10
148.7053818765
 20
135.5323482058
 30
0.0
 10
148.7057074004
 20
135.5323529411
 30
0.0
  0
SPLINE
  5
27F
100
AcDbEntity
  8
1
100
AcDbSpline
 62
7
  6
BYLAYER
 70
0
 71
3
 72
12
 73
8
 74
0
 42
0.0000001
 43
0.0000001
 44
0.0000000001
 40
0.0
 40
0.0
 40
0.0
 40
0.0
 40
0.2935390221
 40
0.5815229185
 40
0.7083854775
 40
0.8197408396
 40
1.0
 40
1.0
 40
1.0
 40
1.0
 10
153.3057074008
 20
135.2147898134
 30
0.0
 10
153.2810124919
 20
135.2147910628
 30
0.0
 10
153.231995537
 20
135.2200625844
 30
0.0
 10
153.1749487971
 20
135.2405178539
 30
0.0
 10
153.1386492693
 20
135.2664038417
 30
0.0
 10
153.1146730195
 20
135.2923943895
 30
0.0
 10
153.1057130864
 20
135.3172024124
 30
0.0
 10
153.1057162914
 20
135.3323672903
 30
0.0
  0
ENDSEC
  0
SECTION
  2
OBJECTS
  0
DICTIONARY
  5
C
100
AcDbDictionary
280
0
281
1
  3
ACAD_GROUP
350
D
  3
ACAD_MLINESTYLE
350
17
  3
ACAD_LAYOUT
350
1A
  3
ACAD_PLOTSETTINGS
350
19
  3
ACAD_PLOTSTYLENAME
350
E
  0
DICTIONARY
  5
D
102
{ACAD_REACTORS
330
C
102
}
100
AcDbDictionary
280
0
281
1
  0
ACDBDICTIONARYWDFLT
  5
E
102
{ACAD_REACTORS
330
C
102
}
100
AcDbDictionary
281
1
  3
Normal
350
F
100
AcDbDictionaryWithDefault
340
F
  0
DICTIONARY
  5
17
102
{ACAD_REACTORS
330
C
102
}
100
AcDbDictionary
280
0
281
1
  3
Standard
350
18
  0
DICTIONARY
  5
19
102
{ACAD_REACTORS
330
C
102
}
100
AcDbDictionary
281
1
  0
DICTIONARY
  5
1A
102
{ACAD_REACTORS
330
C
102
}
100
AcDbDictionary
281
1
  3
Model
350
280
  3
Layout1
350
281
  0
ACDBPLACEHOLDER
  5
F
102
{ACAD_REACTORS
330
E
102
}
  0
MLINESTYLE
  5
18
102
{ACAD_REACTORS
330
17
102
}
100
AcDbMlineStyle
  2
STANDARD
 70
0
  3

 62
256
 51
90.0
 52
90.0
 71
2
 49
0.5
 62
256
  6
BYLAYER
 49
-0.5
 62
256
  6
BYLAYER
  0
LAYOUT
  5
280
102
{ACAD_REACTORS
330
1A
102
}
100
AcDbPlotSettings
  1

  2
none_device
  4

  6

 40
0.0
 41
0.0
 42
0.0
 43
0.0
 44
210.0
 45
297.0
 46
0.0
 47
0.0
 48
0.0
 49
0.0
140
0.0
141
0.0
142
1.0
143
1.0
 70
1024
 72
1
 73
0
 74
0
  7

 75
0
147
1.0
148
0.0
149
0.0
100
AcDbLayout
  1
Model
 70
0
 71
0
 10
0.0
 20
0.0
 11
210.0
 21
297.0
 12
0.0
 22
0.0
 32
0.0
 14
0.0
 24
0.0
 34
0.0
 15
0.0
 25
0.0
 35
0.0
146
0.0
 13
0.0
 23
0.0
 33
0.0
 16
1.0
 26
0.0
 36
0.0
 17
0.0
 27
1.0
 37
0.0
 76
0
330
211
345
0
346
0
  0
LAYOUT
  5
281
102
{ACAD_REACTORS
330
1A
102
}
100
AcDbPlotSettings
  1

  2
none_device
  4

  6

 40
0.0
 41
0.0
 42
0.0
 43
0.0
 44
210.0
 45
297.0
 46
0.0
 47
0.0
 48
0.0
 49
0.0
140
0.0
141
0.0
142
1.0
143
1.0
 70
0
 72
1
 73
0
 74
0
  7

 75
0
147
1.0
148
0.0
149
0.0
100
AcDbLayout
  1
Layout1
 70
0
 71
1
 10
0.0
 20
0.0
 11
210.0
 21
297.0
 12
0.0
 22
0.0
 32
0.0
 14
0.0
 24
0.0
 34
0.0
 15
0.0
 25
0.0
 35
0.0
146
0.0
 13
0.0
 23
0.0
 33
0.0
 16
1.0
 26
0.0
 36
0.0
 17
0.0
 27
1.0
 37
0.0
 76
0
330
212
345
0
346
0
  0
ENDSEC
  0
EOF
