999
DXF file: C:\Users\sesa63760\Dev\_Creo\CAD\MCADID0004770_3D-CAD\drw0001_1.dxf
999
Pro/ENGINEER 2019471 by Parametric Technology Corporation
  0
SECTION
  2
HEADER
  9
$ACADVER
  1
AC1024
  9
$DWGCODEPAGE
  3
ANSI_1252
  9
$EXTMAX
 10
62.9395550644
 20
89.0145135911
 30
0.0
  9
$EXTMIN
 10
0.0
 20
0.0
 30
0.0
  9
$LIMMIN
 10
0.0
 20
0.0
  9
$LIMMAX
 10
62.9395550644
 20
89.0145135911
  9
$VIEWCTR
 10
31.4697775322
 20
44.5072567956
  9
$VIEWSIZE
 40
89.0145135911
  9
$CLAYER
  8
0
  9
$LTSCALE
 40
5.8024275526
  9
$CELTYPE
  6
BYLAYER
  9
$DIMSCALE
 40
1.0
  9
$DIMASZ
 40
0.7492804174
  9
$DIMEXO
 40
1.0
  9
$DIMDLI
 40
4.0089499454
  9
$DIMEXE
 40
1.0
  9
$DIMCEN
 40
0.949488145
  9
$DIMLFAC
 40
1.0
  9
$DIMBLK
  1
_FILLED
  9
$DIMALT
 70
0
  9
$DIMALTF
 40
0.0393700787
  9
$DIMTXT
 40
1.0489925844
  9
$DIMTOL
 70
1
  9
$DIMLIM
 70
0
  9
$DIMTFAC
 40
1.0
  9
$DIMTP
 40
0.01
  9
$DIMTM
 40
0.01
  9
$DIMGAP
 40
0.625
  9
$DIMDSEP
 70
46
  9
$AUNITS
 70
0
  9
$PDMODE
 70
3
  9
$PDSIZE
 40
0.3125
  9
$HANDSEED
  5
3DF
  9
$TILEMODE
 70
1
  9
$MEASUREMENT
 70
1
  9
$INSUNITS
 70
4
  0
ENDSEC
  0
SECTION
  2
CLASSES
  0
CLASS
  1
ACDBDICTIONARYWDFLT
  2
AcDbDictionaryWithDefault
  3
AutoCAD 2000
 90
0
 91
1
280
0
281
0
  0
CLASS
  1
ACDBPLACEHOLDER
  2
AcDbPlaceHolder
  3
AutoCAD 2000
 90
0
 91
1
280
0
281
0
  0
CLASS
  1
LAYOUT
  2
AcDbLayout
  3
AutoCAD 2000
 90
0
 91
0
280
0
281
0
  0
ENDSEC
  0
SECTION
  2
TABLES
  0
TABLE
  2
VPORT
  5
8
100
AcDbSymbolTable
 70
2
  0
VPORT
  5
1F4
100
AcDbSymbolTableRecord
100
AcDbViewportTableRecord
  2
*ACTIVE
 70
0
 10
0.0
 20
0.0
 11
1.0
 21
1.0
 12
31.4697775322
 22
44.5072567956
 13
0.0
 23
0.0
 14
1.0
 24
1.0
 15
0.0
 25
0.0
 16
0.0
 26
0.0
 36
1.0
 17
0.0
 27
0.0
 37
0.0
 40
89.0145135911
 41
0.7070707071
 42
50.0
 43
0.0
 44
0.0
 50
0.0
 51
0.0
 71
0
 72
100
 73
1
 74
1
 75
0
 76
0
 77
0
 78
0
  0
ENDTAB
  0
TABLE
  2
LTYPE
  5
5
100
AcDbSymbolTable
 70
6
  0
LTYPE
  5
14
100
AcDbSymbolTableRecord
100
AcDbLinetypeTableRecord
  2
BYBLOCK
 70
0
  3

 72
65
 73
0
 40
0.0
  0
LTYPE
  5
15
100
AcDbSymbolTableRecord
100
AcDbLinetypeTableRecord
  2
BYLAYER
 70
0
  3

 72
65
 73
0
 40
0.0
  0
LTYPE
  5
16
100
AcDbSymbolTableRecord
100
AcDbLinetypeTableRecord
  2
CONTINUOUS
 70
64
  3
Solid line
 72
65
 73
0
 40
0.0
  0
LTYPE
  5
1F5
100
AcDbSymbolTableRecord
100
AcDbLinetypeTableRecord
  2
CENTER
 70
64
  3
____ _ ____ _ ____ _ ____ _ ____ _ ____ _ ____
 72
65
 73
4
 40
0.6
 49
0.375
 74
0
 49
-0.075
 74
0
 49
0.075
 74
0
 49
-0.075
 74
0
  0
LTYPE
  5
1F6
100
AcDbSymbolTableRecord
100
AcDbLinetypeTableRecord
  2
HIDDEN
 70
64
  3
- - - - - - - - - - - - - - - - - - - -
 72
65
 73
2
 40
0.2
 49
0.1
 74
0
 49
-0.1
 74
0
  0
LTYPE
  5
1F7
100
AcDbSymbolTableRecord
100
AcDbLinetypeTableRecord
  2
PHANTOM
 70
64
  3
_____ _ _ _____ _ _ _____ _ _ _____
 72
65
 73
6
 40
0.8
 49
0.45
 74
0
 49
-0.05
 74
0
 49
0.1
 74
0
 49
-0.05
 74
0
 49
0.1
 74
0
 49
-0.05
 74
0
  0
LTYPE
  5
1F8
100
AcDbSymbolTableRecord
100
AcDbLinetypeTableRecord
  2
DOT
 70
64
  3
. . . . . . . . . . . . . . . . . . . .
 72
65
 73
2
 40
0.2
 49
0.1
 74
0
 49
-0.1
 74
0
  0
LTYPE
  5
1F9
100
AcDbSymbolTableRecord
100
AcDbLinetypeTableRecord
  2
DASHED
 70
64
  3
- - - - - - - - - - - - - - - - - - - -
 72
65
 73
2
 40
0.2
 49
0.1
 74
0
 49
-0.1
 74
0
  0
ENDTAB
  0
TABLE
  2
LAYER
  5
2
100
AcDbSymbolTable
 70
36
  0
LAYER
  5
10
100
AcDbSymbolTableRecord
100
AcDbLayerTableRecord
  2
0
 70
0
 62
7
  6
CONTINUOUS
370
-3
390
F
  0
LAYER
  5
1FA
100
AcDbSymbolTableRecord
100
AcDbLayerTableRecord
  2
DEFAULT_1
 70
0
 62
7
  6
CENTER
370
-3
390
F
  0
LAYER
  5
1FB
100
AcDbSymbolTableRecord
100
AcDbLayerTableRecord
  2
DEFAULT_2
 70
0
 62
7
  6
HIDDEN
370
-3
390
F
  0
LAYER
  5
1FC
100
AcDbSymbolTableRecord
100
AcDbLayerTableRecord
  2
DEFAULT_3
 70
0
 62
7
  6
PHANTOM
370
-3
390
F
  0
LAYER
  5
1FD
100
AcDbSymbolTableRecord
100
AcDbLayerTableRecord
  2
00_COMPONENTS
 70
0
 62
7
  6
CONTINUOUS
370
-3
390
F
  0
LAYER
  5
1FE
100
AcDbSymbolTableRecord
100
AcDbLayerTableRecord
  2
01_1_DEFAULT_DATUMS
 70
0
 62
7
  6
CONTINUOUS
370
-3
390
F
  0
LAYER
  5
1FF
100
AcDbSymbolTableRecord
100
AcDbLayerTableRecord
  2
01_PLANES
 70
0
 62
7
  6
CONTINUOUS
370
-3
390
F
  0
LAYER
  5
200
100
AcDbSymbolTableRecord
100
AcDbLayerTableRecord
  2
02_COORD_SYS
 70
0
 62
7
  6
CONTINUOUS
370
-3
390
F
  0
LAYER
  5
201
100
AcDbSymbolTableRecord
100
AcDbLayerTableRecord
  2
03_AXES
 70
0
 62
7
  6
CONTINUOUS
370
-3
390
F
  0
LAYER
  5
202
100
AcDbSymbolTableRecord
100
AcDbLayerTableRecord
  2
04_POINTS
 70
0
 62
7
  6
CONTINUOUS
370
-3
390
F
  0
LAYER
  5
203
100
AcDbSymbolTableRecord
100
AcDbLayerTableRecord
  2
05_CURVES
 70
0
 62
7
  6
CONTINUOUS
370
-3
390
F
  0
LAYER
  5
204
100
AcDbSymbolTableRecord
100
AcDbLayerTableRecord
  2
06_SURFS
 70
0
 62
7
  6
CONTINUOUS
370
-3
390
F
  0
LAYER
  5
205
100
AcDbSymbolTableRecord
100
AcDbLayerTableRecord
  2
07_COSMETICS
 70
0
 62
7
  6
CONTINUOUS
370
-3
390
F
  0
LAYER
  5
206
100
AcDbSymbolTableRecord
100
AcDbLayerTableRecord
  2
10_NOTES
 70
0
 62
7
  6
CONTINUOUS
370
-3
390
F
  0
LAYER
  5
207
100
AcDbSymbolTableRecord
100
AcDbLayerTableRecord
  2
11_NOTES_PUB
 70
0
 62
7
  6
CONTINUOUS
370
-3
390
F
  0
LAYER
  5
208
100
AcDbSymbolTableRecord
100
AcDbLayerTableRecord
  2
13_REF_GTOL
 70
0
 62
7
  6
CONTINUOUS
370
-3
390
F
  0
LAYER
  5
209
100
AcDbSymbolTableRecord
100
AcDbLayerTableRecord
  2
16_MISC
 70
0
 62
7
  6
CONTINUOUS
370
-3
390
F
  0
LAYER
  5
20A
100
AcDbSymbolTableRecord
100
AcDbLayerTableRecord
  2
17_NO_PRINT
 70
0
 62
7
  6
CONTINUOUS
370
-3
390
F
  0
LAYER
  5
20B
100
AcDbSymbolTableRecord
100
AcDbLayerTableRecord
  2
18_DATUM_CAMS_JOINTS
 70
0
 62
7
  6
CONTINUOUS
370
-3
390
F
  0
LAYER
  5
20C
100
AcDbSymbolTableRecord
100
AcDbLayerTableRecord
  2
19_DATUM_FUNCTIONAL
 70
0
 62
7
  6
CONTINUOUS
370
-3
390
F
  0
LAYER
  5
20D
100
AcDbSymbolTableRecord
100
AcDbLayerTableRecord
  2
20_DATUM_KINEMATIC_SCHEME
 70
0
 62
7
  6
CONTINUOUS
370
-3
390
F
  0
ENDTAB
  0
TABLE
  2
STYLE
  5
3
100
AcDbSymbolTable
 70
1
  0
STYLE
  5
11
100
AcDbSymbolTableRecord
100
AcDbTextStyleTableRecord
  2
STANDARD
 70
0
 40
0.0
 41
1.0
 50
0.0
 71
0
 42
0.2
  3
ARIAL.TTF
  4

  0
STYLE
  5
20E
100
AcDbSymbolTableRecord
100
AcDbTextStyleTableRecord
  2
TEXTSTYLE_1
 70
0
 40
0.0
 41
0.8
 50
0.0
 71
0
 42
0.2
  3
gdt
  4

  0
ENDTAB
  0
TABLE
  2
VIEW
  5
6
100
AcDbSymbolTable
 70
0
  0
ENDTAB
  0
TABLE
  2
UCS
  5
7
100
AcDbSymbolTable
 70
0
  0
ENDTAB
  0
TABLE
  2
APPID
  5
9
100
AcDbSymbolTable
 70
1
  0
APPID
  5
20F
100
AcDbSymbolTableRecord
100
AcDbRegAppTableRecord
  2
ACAD
 70
0
  0
ENDTAB
  0
TABLE
  2
BLOCK_RECORD
  5
1
100
AcDbSymbolTable
 70
0
  0
BLOCK_RECORD
  5
210
100
AcDbSymbolTableRecord
100
AcDbBlockTableRecord
  2
*Model_Space
  0
BLOCK_RECORD
  5
211
100
AcDbSymbolTableRecord
100
AcDbBlockTableRecord
  2
*Paper_Space
  0
BLOCK_RECORD
  5
212
100
AcDbSymbolTableRecord
100
AcDbBlockTableRecord
  2
_FILLED
  0
ENDTAB
  0
TABLE
  2
DIMSTYLE
  5
A
100
AcDbSymbolTable
 70
1
100
AcDbDimStyleTable
 71
0
  0
DIMSTYLE
105
213
100
AcDbSymbolTableRecord
100
AcDbDimStyleTableRecord
  2
STANDARD
 70
0
  3

  4

 40
1.0
 41
0.7492804174
 42
1.0
 43
0.38
 44
1.0
 45
0.0
 46
0.0
 47
0.01
 48
0.01
140
1.0489925844
141
0.09
142
0.0
143
25.4
144
1.0
145
0.0
146
1.0
147
0.625
 71
1
 72
0
 73
0
 74
0
 75
0
 76
0
 77
1
 78
8
 79
2
170
0
171
1
172
0
173
0
174
0
175
0
176
0
177
0
178
0
270
2
179
2
271
2
272
2
273
2
274
2
275
0
280
0
281
0
282
0
283
1
284
8
285
0
286
0
287
3
288
0
340
11
278
46
341
212
342
212
343
212
344
212
  0
ENDTAB
  0
ENDSEC
  0
SECTION
  2
BLOCKS
  0
BLOCK
  5
20
100
AcDbEntity
  8
0
100
AcDbBlockBegin
  2
*Model_Space
 70
0
 10
0.0
 20
0.0
 30
0.0
  3
*Model_Space
  1

  0
ENDBLK
  5
21
100
AcDbEntity
  8
0
100
AcDbBlockEnd
  0
BLOCK
  5
1C
100
AcDbEntity
  8
0
100
AcDbBlockBegin
  2
*Paper_Space
 70
0
 10
0.0
 20
0.0
 30
0.0
  3
*Paper_Space
  1

  0
ENDBLK
  5
1D
100
AcDbEntity
  8
0
100
AcDbBlockEnd
  0
BLOCK
  5
214
100
AcDbEntity
  8
0
100
AcDbBlockBegin
  2
_FILLED
 70
64
 10
0.0
 20
0.0
  3
_FILLED
  1

  0
SOLID
  5
215
100
AcDbEntity
  8
0
  6
BYBLOCK
 62
0
100
AcDbTrace
 10
0.0
 20
0.0
 11
-1.0
 21
0.25
 12
-1.0
 22
-0.25
 13
-1.0
 23
-0.25
  0
ENDBLK
  5
216
100
AcDbEntity
  8
0
  6
BYBLOCK
 62
0
100
AcDbBlockEnd
  0
ENDSEC
  0
SECTION
  2
ENTITIES
  0
LINE
  5
217
100
AcDbEntity
  8
0
100
AcDbLine
 62
7
  6
BYLAYER
 10
22.5250915886
 20
74.4219794874
 11
17.5753647281
 21
71.5642704103
  0
LINE
  5
218
100
AcDbEntity
  8
0
100
AcDbLine
 62
7
  6
BYLAYER
 10
15.0398410652
 20
67.7909962487
 11
18.0096771815
 21
69.5056216949
  0
LINE
  5
219
100
AcDbEntity
  8
0
100
AcDbLine
 62
7
  6
BYLAYER
 10
26.458037673
 20
74.3832557834
 11
27.0606062978
 21
74.7311468645
  0
LINE
  5
21A
100
AcDbEntity
  8
0
100
AcDbLine
 62
7
  6
BYLAYER
 10
25.7537383879
 20
14.8003961232
 11
26.4537383879
 21
14.8003978058
  0
LINE
  5
21B
100
AcDbEntity
  8
0
100
AcDbLine
 62
7
  6
BYLAYER
 10
25.7537386423
 20
14.8438428657
 11
26.4537386423
 21
14.8438445484
  0
LINE
  5
21C
100
AcDbEntity
  8
0
100
AcDbLine
 62
7
  6
BYLAYER
 10
10.9009138791
 20
23.7810827702
 11
11.0423346466
 21
23.6994311176
  0
LINE
  5
21D
100
AcDbEntity
  8
0
100
AcDbLine
 62
7
  6
BYLAYER
 10
25.0431083821
 20
15.6162676798
 11
25.1845291495
 21
15.5346160272
  0
LINE
  5
21E
100
AcDbEntity
  8
0
100
AcDbLine
 62
7
  6
BYLAYER
 10
34.122043113
 20
18.304768937
 11
33.4930234466
 21
18.3047674216
  0
LINE
  5
21F
100
AcDbEntity
  8
0
100
AcDbLine
 62
7
  6
BYLAYER
 10
18.7008808346
 20
18.3047318654
 11
18.085375731
 21
18.3047303892
  0
LINE
  5
220
100
AcDbEntity
  8
0
100
AcDbLine
 62
7
  6
BYLAYER
 10
7.5067291192
 20
27.4553688153
 11
25.6088755597
 21
17.0043261292
  0
LINE
  5
221
100
AcDbEntity
  8
0
100
AcDbLine
 62
7
  6
BYLAYER
 10
17.3599050349
 20
19.5639512386
 11
16.8422709884
 21
20.2322215617
  0
LINE
  5
222
100
AcDbEntity
  8
0
100
AcDbLine
 62
7
  6
BYLAYER
 10
7.3017125242
 20
27.7410993987
 11
7.3017125242
 21
33.04836511
  0
LINE
  5
223
100
AcDbEntity
  8
0
100
AcDbLine
 62
7
  6
BYLAYER
 10
7.3724823385
 20
33.0483652744
 11
7.3724823385
 21
39.7436850949
  0
LINE
  5
224
100
AcDbEntity
  8
0
100
AcDbLine
 62
7
  6
BYLAYER
 10
7.4260357291
 20
42.1931931961
 11
7.4260357291
 21
39.7436859447
  0
LINE
  5
225
100
AcDbEntity
  8
0
100
AcDbLine
 62
7
  6
BYLAYER
 10
7.5067291192
 20
27.4553688153
 11
7.506728082
 21
32.7626351255
  0
LINE
  5
226
100
AcDbEntity
  8
0
100
AcDbLine
 62
7
  6
BYLAYER
 10
7.5775096524
 20
32.7625943667
 11
7.5775096524
 21
39.4579141871
  0
LINE
  5
227
100
AcDbEntity
  8
0
100
AcDbLine
 62
7
  6
BYLAYER
 10
7.7189318918
 20
39.3354417908
 11
7.7189318918
 21
41.7849490422
  0
LINE
  5
228
100
AcDbEntity
  8
0
100
AcDbLine
 62
7
  6
BYLAYER
 10
10.461569635
 20
25.7494294416
 11
10.461569635
 21
24.393449001
  0
LINE
  5
229
100
AcDbEntity
  8
0
100
AcDbLine
 62
7
  6
BYLAYER
 10
9.0721009049
 20
43.2764023822
 11
8.9673155911
 21
42.3003491569
  0
LINE
  5
22A
100
AcDbEntity
  8
0
100
AcDbLine
 62
7
  6
BYLAYER
 10
9.0980963091
 20
43.419052751
 11
9.0721015652
 21
43.2764023585
  0
LINE
  5
22B
100
AcDbEntity
  8
0
100
AcDbLine
 62
7
  6
BYLAYER
 10
9.1467624874
 20
43.8566073475
 11
9.1528048069
 21
43.8883220716
  0
LINE
  5
22C
100
AcDbEntity
  8
0
100
AcDbLine
 62
7
  6
BYLAYER
 10
7.5067397942
 20
32.7626292255
 11
25.6088650373
 21
22.3115987737
  0
LINE
  5
22D
100
AcDbEntity
  8
0
100
AcDbLine
 62
7
  6
BYLAYER
 10
7.5775096524
 20
32.7625943667
 11
25.6088076437
 21
22.3524551264
  0
LINE
  5
22E
100
AcDbEntity
  8
0
100
AcDbLine
 62
7
  6
BYLAYER
 10
11.6172380127
 20
43.4961046268
 11
11.6555224294
 21
42.9043390418
  0
LINE
  5
22F
100
AcDbEntity
  8
0
100
AcDbLine
 62
7
  6
BYLAYER
 10
11.6172332518
 20
44.1563067753
 11
11.6971016416
 21
42.9021737221
  0
LINE
  5
230
100
AcDbEntity
  8
0
100
AcDbLine
 62
7
  6
BYLAYER
 10
11.5617469912
 20
44.0843551928
 11
11.5923021117
 21
43.5284394304
  0
LINE
  5
231
100
AcDbEntity
  8
0
100
AcDbLine
 62
7
  6
BYLAYER
 10
11.7008106251
 20
42.9021737311
 11
11.6317419415
 21
44.3575546821
  0
LINE
  5
232
100
AcDbEntity
  8
0
100
AcDbLine
 62
7
  6
BYLAYER
 10
11.6172429574
 20
42.8104247388
 11
11.6172380127
 21
43.4961046268
  0
LINE
  5
233
100
AcDbEntity
  8
0
100
AcDbLine
 62
7
  6
BYLAYER
 10
11.6172332518
 20
44.1563067753
 11
11.6172283071
 21
44.8419866633
  0
LINE
  5
234
100
AcDbEntity
  8
0
100
AcDbLine
 62
7
  6
BYLAYER
 10
12.3058963126
 20
44.8419883187
 11
12.3059012572
 21
44.1563084306
  0
LINE
  5
235
100
AcDbEntity
  8
0
100
AcDbLine
 62
7
  6
BYLAYER
 10
12.3059060181
 20
43.4961062822
 11
12.3059109628
 21
42.8104263941
  0
LINE
  5
236
100
AcDbEntity
  8
0
100
AcDbLine
 62
7
  6
BYLAYER
 10
12.6686499204
 20
45.8673854819
 11
12.6686499204
 21
45.459141328
  0
LINE
  5
237
100
AcDbEntity
  8
0
100
AcDbLine
 62
7
  6
BYLAYER
 10
12.2223231918
 20
42.9021749846
 11
12.2913864041
 21
44.3575562677
  0
LINE
  5
238
100
AcDbEntity
  8
0
100
AcDbLine
 62
7
  6
BYLAYER
 10
12.3308329767
 20
43.5284302142
 11
12.3613885555
 21
44.0843571149
  0
LINE
  5
239
100
AcDbEntity
  8
0
100
AcDbLine
 62
7
  6
BYLAYER
 10
12.3059012572
 20
44.1563084306
 11
12.2260330087
 21
42.9021749935
  0
LINE
  5
23A
100
AcDbEntity
  8
0
100
AcDbLine
 62
7
  6
BYLAYER
 10
12.3059060181
 20
43.4961062822
 11
12.2676215757
 21
42.9043411631
  0
LINE
  5
23B
100
AcDbEntity
  8
0
100
AcDbLine
 62
7
  6
BYLAYER
 10
25.1488210658
 20
61.5077658085
 11
27.0580014262
 21
62.610025024
  0
LINE
  5
23C
100
AcDbEntity
  8
0
100
AcDbLine
 62
7
  6
BYLAYER
 10
33.5675208888
 20
66.3682754043
 11
35.0482747868
 21
67.2231839627
  0
LINE
  5
23D
100
AcDbEntity
  8
0
100
AcDbLine
 62
7
  6
BYLAYER
 10
14.851038365
 20
43.2764023822
 11
14.9558236788
 21
42.3003491569
  0
LINE
  5
23E
100
AcDbEntity
  8
0
100
AcDbLine
 62
7
  6
BYLAYER
 10
11.5617469912
 20
44.0843551928
 11
11.6172332518
 21
44.1563067753
  0
LINE
  5
23F
100
AcDbEntity
  8
0
100
AcDbLine
 62
7
  6
BYLAYER
 10
7.7189318918
 20
39.3354417908
 11
25.3966750205
 21
29.1294229278
  0
LINE
  5
240
100
AcDbEntity
  8
0
100
AcDbLine
 62
7
  6
BYLAYER
 10
11.6172380127
 20
43.4961046268
 11
11.5617507144
 21
43.5680559426
  0
LINE
  5
241
100
AcDbEntity
  8
0
100
AcDbLine
 62
7
  6
BYLAYER
 10
12.3059012572
 20
44.1563084306
 11
12.3613885555
 21
44.0843571149
  0
LINE
  5
242
100
AcDbEntity
  8
0
100
AcDbLine
 62
7
  6
BYLAYER
 10
14.7703584352
 20
43.8883428863
 11
14.776373119
 21
43.8566208795
  0
LINE
  5
243
100
AcDbEntity
  8
0
100
AcDbLine
 62
7
  6
BYLAYER
 10
14.8510377054
 20
43.2764023586
 11
14.8250394121
 21
43.4190665169
  0
LINE
  5
244
100
AcDbEntity
  8
0
100
AcDbLine
 62
7
  6
BYLAYER
 10
16.7770673268
 20
62.8223410207
 11
16.7770732148
 21
62.0058561123
  0
LINE
  5
245
100
AcDbEntity
  8
0
100
AcDbLine
 62
7
  6
BYLAYER
 10
12.3613922787
 20
43.5680578647
 11
12.3059060181
 21
43.4961062822
  0
LINE
  5
246
100
AcDbEntity
  8
0
100
AcDbLine
 62
7
  6
BYLAYER
 10
7.7189318918
 20
41.7849490422
 11
25.3966750205
 21
31.5789301792
  0
LINE
  5
247
100
AcDbEntity
  8
0
100
AcDbLine
 62
7
  6
BYLAYER
 10
39.1851851264
 20
23.7811507573
 11
39.3266058938
 21
23.6994991046
  0
LINE
  5
248
100
AcDbEntity
  8
0
100
AcDbLine
 62
7
  6
BYLAYER
 10
42.3825647424
 20
23.5629687532
 11
33.1901383155
 21
28.870098562
  0
LINE
  5
249
100
AcDbEntity
  8
0
100
AcDbLine
 62
7
  6
BYLAYER
 10
20.6037052586
 20
47.7290883372
 11
20.6037052586
 21
48.198610966
  0
LINE
  5
24A
100
AcDbEntity
  8
0
100
AcDbLine
 62
7
  6
BYLAYER
 10
21.1037052586
 20
48.198610966
 11
21.1037052586
 21
49.6088545659
  0
LINE
  5
24B
100
AcDbEntity
  8
0
100
AcDbLine
 62
7
  6
BYLAYER
 10
22.433950752
 20
58.9032591657
 11
22.3760302516
 21
58.2157219228
  0
LINE
  5
24C
100
AcDbEntity
  8
0
100
AcDbLine
 62
7
  6
BYLAYER
 10
20.5885748606
 20
48.1897922292
 11
20.592457354
 21
48.1970316375
  0
LINE
  5
24D
100
AcDbEntity
  8
0
100
AcDbLine
 62
7
  6
BYLAYER
 10
16.6959880199
 20
41.7578865957
 11
16.2515619946
 21
40.9699837114
  0
LINE
  5
24E
100
AcDbEntity
  8
0
100
AcDbLine
 62
7
  6
BYLAYER
 10
20.6037052586
 20
48.18709839
 11
20.6094178679
 21
48.1939875318
  0
LINE
  5
24F
100
AcDbEntity
  8
0
100
AcDbLine
 62
7
  6
BYLAYER
 10
23.0398052501
 20
53.9345691104
 11
24.100461006
 21
54.5469353412
  0
LINE
  5
250
100
AcDbEntity
  8
0
100
AcDbLine
 62
7
  6
BYLAYER
 10
19.7396882926
 20
49.9498270206
 11
12.6686499204
 21
45.8673854819
  0
LINE
  5
251
100
AcDbEntity
  8
0
100
AcDbLine
 62
7
  6
BYLAYER
 10
27.6496064728
 20
54.3524051464
 11
37.5490601938
 21
60.0678233006
  0
LINE
  5
252
100
AcDbEntity
  8
0
100
AcDbLine
 62
7
  6
BYLAYER
 10
20.5055673192
 20
49.9837606895
 11
20.0932431552
 21
49.7457066434
  0
LINE
  5
253
100
AcDbEntity
  8
0
100
AcDbLine
 62
7
  6
BYLAYER
 10
13.022204783
 20
45.6632651046
 11
12.4054329942
 21
45.3071738719
  0
LINE
  5
254
100
AcDbEntity
  8
0
100
AcDbLine
 62
7
  6
BYLAYER
 10
9.0937464453
 20
43.3951821645
 11
7.7189260039
 21
42.6014339506
  0
LINE
  5
255
100
AcDbEntity
  8
0
100
AcDbLine
 62
7
  6
BYLAYER
 10
32.1141791379
 20
30.5582876644
 11
32.4154786423
 21
30.3843362497
  0
LINE
  5
256
100
AcDbEntity
  8
0
100
AcDbLine
 62
7
  6
BYLAYER
 10
41.5541154595
 20
25.3941133445
 11
32.3616890326
 21
30.7012431532
  0
LINE
  5
257
100
AcDbEntity
  8
0
100
AcDbLine
 62
7
  6
BYLAYER
 10
45.5492521398
 20
24.4346831453
 11
45.9028070024
 21
24.2305627681
  0
LINE
  5
258
100
AcDbEntity
  8
0
100
AcDbLine
 62
7
  6
BYLAYER
 10
25.7594325157
 20
35.3312895364
 11
25.7039452173
 21
35.4032408522
  0
LINE
  5
259
100
AcDbEntity
  8
0
100
AcDbLine
 62
7
  6
BYLAYER
 10
16.6693445195
 20
56.3780994851
 11
17.9109389748
 21
52.5007638756
  0
LINE
  5
25A
100
AcDbEntity
  8
0
100
AcDbLine
 62
7
  6
BYLAYER
 10
23.2142954079
 20
35.1115872918
 11
23.1095100941
 21
34.1355340665
  0
LINE
  5
25B
100
AcDbEntity
  8
0
100
AcDbLine
 62
7
  6
BYLAYER
 10
16.652086201
 20
41.7678717736
 11
16.6475419823
 21
41.763461248
  0
LINE
  5
25C
100
AcDbEntity
  8
0
100
AcDbLine
 62
7
  6
BYLAYER
 10
20.792294247
 20
48.9459168707
 11
20.4217060019
 21
48.7319515303
  0
LINE
  5
25D
100
AcDbEntity
  8
0
100
AcDbLine
 62
7
  6
BYLAYER
 10
26.4481054657
 20
34.6456113037
 11
25.7594374603
 21
34.6456096483
  0
LINE
  5
25E
100
AcDbEntity
  8
0
100
AcDbLine
 62
7
  6
BYLAYER
 10
25.7642446089
 20
34.7373584513
 11
26.4432959135
 21
34.7373600836
  0
LINE
  5
25F
100
AcDbEntity
  8
0
100
AcDbLine
 62
7
  6
BYLAYER
 10
28.967233915
 20
35.2542514265
 11
28.8822461148
 21
35.2542512222
  0
LINE
  5
260
100
AcDbEntity
  8
0
100
AcDbLine
 62
7
  6
BYLAYER
 10
23.3251855719
 20
35.2542378647
 11
23.240290812
 21
35.2542376606
  0
LINE
  5
261
100
AcDbEntity
  8
0
100
AcDbLine
 62
7
  6
BYLAYER
 10
28.6143833634
 20
35.403247848
 11
26.5035867817
 21
35.4032427743
  0
LINE
  5
262
100
AcDbEntity
  8
0
100
AcDbLine
 62
7
  6
BYLAYER
 10
25.7039452173
 20
35.4032408522
 11
23.5931486356
 21
35.4032357784
  0
LINE
  5
263
100
AcDbEntity
  8
0
100
AcDbLine
 62
7
  6
BYLAYER
 10
23.5931449124
 20
35.9195350286
 11
25.7039414941
 21
35.9195401024
  0
LINE
  5
264
100
AcDbEntity
  8
0
100
AcDbLine
 62
7
  6
BYLAYER
 10
26.5035830585
 20
35.9195420245
 11
28.6143796402
 21
35.9195470982
  0
LINE
  5
265
100
AcDbEntity
  8
0
100
AcDbLine
 62
7
  6
BYLAYER
 10
25.7739364444
 20
36.1927395917
 11
26.4335809071
 21
36.1927411773
  0
LINE
  5
266
100
AcDbEntity
  8
0
100
AcDbLine
 62
7
  6
BYLAYER
 10
25.7594228101
 20
36.6771715729
 11
26.4480908155
 21
36.6771732283
  0
LINE
  5
267
100
AcDbEntity
  8
0
100
AcDbLine
 62
7
  6
BYLAYER
 10
32.1141791379
 20
33.0077949158
 11
32.3616890326
 21
32.8648982442
  0
LINE
  5
268
100
AcDbEntity
  8
0
100
AcDbLine
 62
7
  6
BYLAYER
 10
44.3825308084
 20
26.2105875428
 11
43.6754179178
 21
26.6188301249
  0
LINE
  5
269
100
AcDbEntity
  8
0
100
AcDbLine
 62
7
  6
BYLAYER
 10
36.4628845635
 20
31.4484417333
 11
36.8164274285
 21
31.2443178288
  0
LINE
  5
26A
100
AcDbEntity
  8
0
100
AcDbLine
 62
7
  6
BYLAYER
 10
12.6686499204
 20
45.8673854819
 11
13.022204783
 21
45.6632651046
  0
LINE
  5
26B
100
AcDbEntity
  8
0
100
AcDbLine
 62
7
  6
BYLAYER
 10
45.5492521398
 20
26.8841903967
 11
45.9028070024
 21
26.6800700194
  0
LINE
  5
26C
100
AcDbEntity
  8
0
100
AcDbLine
 62
7
  6
BYLAYER
 10
31.5079290368
 20
34.9798575563
 11
32.3616890326
 21
34.3024551898
  0
LINE
  5
26D
100
AcDbEntity
  8
0
100
AcDbLine
 62
7
  6
BYLAYER
 10
26.4480957601
 20
35.9914933402
 11
26.5035830585
 21
35.9195420245
  0
LINE
  5
26E
100
AcDbEntity
  8
0
100
AcDbLine
 62
7
  6
BYLAYER
 10
25.7594325157
 20
35.3312895364
 11
25.7977169323
 21
34.7395239513
  0
LINE
  5
26F
100
AcDbEntity
  8
0
100
AcDbLine
 62
7
  6
BYLAYER
 10
25.7594277547
 20
35.9914916848
 11
25.8392961446
 21
34.7373586317
  0
LINE
  5
270
100
AcDbEntity
  8
0
100
AcDbLine
 62
7
  6
BYLAYER
 10
25.7039414941
 20
35.9195401024
 11
25.7344966146
 21
35.36362434
  0
LINE
  5
271
100
AcDbEntity
  8
0
100
AcDbLine
 62
7
  6
BYLAYER
 10
25.843005128
 20
34.7373586407
 11
25.7739364444
 21
36.1927395917
  0
LINE
  5
272
100
AcDbEntity
  8
0
100
AcDbLine
 62
7
  6
BYLAYER
 10
24.6037641379
 20
17.5846143512
 11
24.6037641379
 21
16.2286339106
  0
LINE
  5
273
100
AcDbEntity
  8
0
100
AcDbLine
 62
7
  6
BYLAYER
 10
25.1037420293
 20
15.5812598264
 11
25.1037398587
 21
14.159767144
  0
LINE
  5
274
100
AcDbEntity
  8
0
100
AcDbLine
 62
7
  6
BYLAYER
 10
25.3966750205
 20
31.5789301792
 11
25.3966750205
 21
29.1294229278
  0
LINE
  5
275
100
AcDbEntity
  8
0
100
AcDbLine
 62
7
  6
BYLAYER
 10
25.6037400417
 20
14.1338188119
 11
25.6037420339
 21
15.3898947164
  0
LINE
  5
276
100
AcDbEntity
  8
0
100
AcDbLine
 62
7
  6
BYLAYER
 10
25.6088076437
 20
29.0477749469
 11
25.6088076437
 21
22.3524551264
  0
LINE
  5
277
100
AcDbEntity
  8
0
100
AcDbLine
 62
7
  6
BYLAYER
 10
25.60887556
 20
22.3115918404
 11
25.6088755597
 21
17.0043261292
  0
LINE
  5
278
100
AcDbEntity
  8
0
100
AcDbLine
 62
7
  6
BYLAYER
 10
25.7537383879
 20
14.8003961232
 11
25.7537391693
 21
15.3569055842
  0
LINE
  5
279
100
AcDbEntity
  8
0
100
AcDbLine
 62
7
  6
BYLAYER
 10
25.7594374603
 20
34.6456096483
 11
25.7594325157
 21
35.3312895364
  0
LINE
  5
27A
100
AcDbEntity
  8
0
100
AcDbLine
 62
7
  6
BYLAYER
 10
25.7594277547
 20
35.9914916848
 11
25.7594228101
 21
36.6771715729
  0
LINE
  5
27B
100
AcDbEntity
  8
0
100
AcDbLine
 62
7
  6
BYLAYER
 10
26.4480908155
 20
36.6771732283
 11
26.4480957601
 21
35.9914933402
  0
LINE
  5
27C
100
AcDbEntity
  8
0
100
AcDbLine
 62
7
  6
BYLAYER
 10
26.4481005211
 20
35.3312911918
 11
26.4481054657
 21
34.6456113037
  0
LINE
  5
27D
100
AcDbEntity
  8
0
100
AcDbLine
 62
7
  6
BYLAYER
 10
26.4537391561
 20
15.3439886631
 11
26.4537383879
 21
14.8003978058
  0
LINE
  5
27E
100
AcDbEntity
  8
0
100
AcDbLine
 62
7
  6
BYLAYER
 10
26.5986889488
 20
17.0043280108
 11
26.5986876545
 21
22.3115929749
  0
LINE
  5
27F
100
AcDbEntity
  8
0
100
AcDbLine
 62
7
  6
BYLAYER
 10
26.5987571373
 20
22.352457506
 11
26.5987571373
 21
29.0477773264
  0
LINE
  5
280
100
AcDbEntity
  8
0
100
AcDbLine
 62
7
  6
BYLAYER
 10
26.6037420322
 20
15.388317175
 11
26.6037400417
 21
14.1338212698
  0
LINE
  5
281
100
AcDbEntity
  8
0
100
AcDbLine
 62
7
  6
BYLAYER
 10
26.8108885829
 20
29.1294263272
 11
26.8108885829
 21
31.5789335786
  0
LINE
  5
282
100
AcDbEntity
  8
0
100
AcDbLine
 62
7
  6
BYLAYER
 10
26.3645176947
 20
34.7373598942
 11
26.4335809071
 21
36.1927411773
  0
LINE
  5
283
100
AcDbEntity
  8
0
100
AcDbLine
 62
7
  6
BYLAYER
 10
26.4730274796
 20
35.3636151238
 11
26.5035830585
 21
35.9195420245
  0
LINE
  5
284
100
AcDbEntity
  8
0
100
AcDbLine
 62
7
  6
BYLAYER
 10
26.4480957601
 20
35.9914933402
 11
26.3682275117
 21
34.7373599031
  0
LINE
  5
285
100
AcDbEntity
  8
0
100
AcDbLine
 62
7
  6
BYLAYER
 10
26.4481005211
 20
35.3312911918
 11
26.4098160787
 21
34.7395260727
  0
LINE
  5
286
100
AcDbEntity
  8
0
100
AcDbLine
 62
7
  6
BYLAYER
 10
23.240290812
 20
35.2542376606
 11
23.2142960682
 21
35.1115872681
  0
LINE
  5
287
100
AcDbEntity
  8
0
100
AcDbLine
 62
7
  6
BYLAYER
 10
23.2889569903
 20
35.6917922571
 11
23.2949993099
 21
35.7235069812
  0
LINE
  5
288
100
AcDbEntity
  8
0
100
AcDbLine
 62
7
  6
BYLAYER
 10
16.6960983888
 20
41.7527428708
 11
16.69076688
 21
41.748630272
  0
LINE
  5
289
100
AcDbEntity
  8
0
100
AcDbLine
 62
7
  6
BYLAYER
 10
28.9287235054
 20
40.6623319377
 11
31.4589593108
 21
37.9250849543
  0
LINE
  5
28A
100
AcDbEntity
  8
0
100
AcDbLine
 62
7
  6
BYLAYER
 10
28.9932328679
 20
35.1115872918
 11
29.0980181818
 21
34.1355340665
  0
LINE
  5
28B
100
AcDbEntity
  8
0
100
AcDbLine
 62
7
  6
BYLAYER
 10
27.1037398587
 20
14.1597773589
 11
27.1037420292
 21
15.5812342964
  0
LINE
  5
28C
100
AcDbEntity
  8
0
100
AcDbLine
 62
7
  6
BYLAYER
 10
27.6037641379
 20
17.584604978
 11
27.6037641379
 21
16.2286339106
  0
LINE
  5
28D
100
AcDbEntity
  8
0
100
AcDbLine
 62
7
  6
BYLAYER
 10
29.2857520131
 20
33.0077881171
 11
29.2857520131
 21
30.5582808657
  0
LINE
  5
28E
100
AcDbEntity
  8
0
100
AcDbLine
 62
7
  6
BYLAYER
 10
28.3703574518
 20
43.3188564618
 11
28.5287666615
 21
43.8316455953
  0
LINE
  5
28F
100
AcDbEntity
  8
0
100
AcDbLine
 62
7
  6
BYLAYER
 10
29.8139474239
 20
45.9775565355
 11
28.7733917348
 21
44.2201651927
  0
LINE
  5
290
100
AcDbEntity
  8
0
100
AcDbLine
 62
7
  6
BYLAYER
 10
30.0740757691
 20
46.240672724
 11
29.8139474239
 21
45.9775565355
  0
LINE
  5
291
100
AcDbEntity
  8
0
100
AcDbLine
 62
7
  6
BYLAYER
 10
45.1353423902
 20
54.9363513729
 11
43.2817065613
 21
53.8661606163
  0
LINE
  5
292
100
AcDbEntity
  8
0
100
AcDbLine
 62
7
  6
BYLAYER
 10
32.1953421692
 20
47.4654833571
 11
30.0740306576
 21
46.2407508955
  0
LINE
  5
293
100
AcDbEntity
  8
0
100
AcDbLine
 62
7
  6
BYLAYER
 10
32.2202670876
 20
40.3269916376
 11
32.00813417
 21
40.4494638639
  0
LINE
  5
294
100
AcDbEntity
  8
0
100
AcDbLine
 62
7
  6
BYLAYER
 10
17.9109389748
 20
52.5007638756
 11
20.0141031779
 21
50.3737037272
  0
LINE
  5
295
100
AcDbEntity
  8
0
100
AcDbLine
 62
7
  6
BYLAYER
 10
32.0925961496
 20
39.9762414883
 11
28.5287666615
 21
43.8316455953
  0
LINE
  5
296
100
AcDbEntity
  8
0
100
AcDbLine
 62
7
  6
BYLAYER
 10
25.4664448193
 20
47.8039286664
 11
28.7765114734
 21
44.2230489932
  0
LINE
  5
297
100
AcDbEntity
  8
0
100
AcDbLine
 62
7
  6
BYLAYER
 10
28.7733917348
 20
44.2201651927
 11
32.00813417
 21
40.4494638639
  0
LINE
  5
298
100
AcDbEntity
  8
0
100
AcDbLine
 62
7
  6
BYLAYER
 10
28.3703574518
 20
43.3188564618
 11
28.9287235054
 21
40.6623319377
  0
LINE
  5
299
100
AcDbEntity
  8
0
100
AcDbLine
 62
7
  6
BYLAYER
 10
28.9125529382
 20
35.7235277959
 11
28.918567622
 21
35.6918057891
  0
LINE
  5
29A
100
AcDbEntity
  8
0
100
AcDbLine
 62
7
  6
BYLAYER
 10
28.9932322083
 20
35.1115872681
 11
28.967233915
 21
35.2542514265
  0
LINE
  5
29B
100
AcDbEntity
  8
0
100
AcDbLine
 62
7
  6
BYLAYER
 10
32.1141791379
 20
30.5582876644
 11
32.1141791379
 21
33.0077949158
  0
LINE
  5
29C
100
AcDbEntity
  8
0
100
AcDbLine
 62
7
  6
BYLAYER
 10
31.0740261807
 20
46.1417023374
 11
33.1953376923
 21
47.3664347991
  0
LINE
  5
29D
100
AcDbEntity
  8
0
100
AcDbLine
 62
7
  6
BYLAYER
 10
44.0140264017
 20
53.6125703533
 11
46.1353379133
 21
54.8373028149
  0
LINE
  5
29E
100
AcDbEntity
  8
0
100
AcDbLine
 62
7
  6
BYLAYER
 10
28.9152627097
 20
44.0547878608
 11
28.5287666615
 21
43.8316455953
  0
LINE
  5
29F
100
AcDbEntity
  8
0
100
AcDbLine
 62
7
  6
BYLAYER
 10
34.7164240347
 20
46.4882550569
 11
32.595112523
 21
45.2635225953
  0
LINE
  5
2A0
100
AcDbEntity
  8
0
100
AcDbLine
 62
7
  6
BYLAYER
 10
45.535112744
 20
52.7343906112
 11
47.6564242557
 21
53.9591230728
  0
LINE
  5
2A1
100
AcDbEntity
  8
0
100
AcDbLine
 62
7
  6
BYLAYER
 10
12.3059109628
 20
42.8104263941
 11
11.6172429574
 21
42.8104247388
  0
LINE
  5
2A2
100
AcDbEntity
  8
0
100
AcDbLine
 62
7
  6
BYLAYER
 10
11.6220501059
 20
42.9021735417
 11
12.3011014105
 21
42.902175174
  0
LINE
  5
2A3
100
AcDbEntity
  8
0
100
AcDbLine
 62
7
  6
BYLAYER
 10
14.8250394121
 20
43.4190665169
 11
14.7400516118
 21
43.4190663126
  0
LINE
  5
2A4
100
AcDbEntity
  8
0
100
AcDbLine
 62
7
  6
BYLAYER
 10
9.1829910689
 20
43.4190529551
 11
9.0980963091
 21
43.419052751
  0
LINE
  5
2A5
100
AcDbEntity
  8
0
100
AcDbLine
 62
7
  6
BYLAYER
 10
14.4721888604
 20
43.5680629384
 11
12.3613922787
 21
43.5680578647
  0
LINE
  5
2A6
100
AcDbEntity
  8
0
100
AcDbLine
 62
7
  6
BYLAYER
 10
11.5617507144
 20
43.5680559426
 11
9.4509541327
 21
43.5680508688
  0
LINE
  5
2A7
100
AcDbEntity
  8
0
100
AcDbLine
 62
7
  6
BYLAYER
 10
9.4509504095
 20
44.084350119
 11
11.5617469912
 21
44.0843551928
  0
LINE
  5
2A8
100
AcDbEntity
  8
0
100
AcDbLine
 62
7
  6
BYLAYER
 10
12.3613885555
 20
44.0843571149
 11
14.4721851372
 21
44.0843621886
  0
LINE
  5
2A9
100
AcDbEntity
  8
0
100
AcDbLine
 62
7
  6
BYLAYER
 10
11.6317419415
 20
44.3575546821
 11
12.2913864041
 21
44.3575562677
  0
LINE
  5
2AA
100
AcDbEntity
  8
0
100
AcDbLine
 62
7
  6
BYLAYER
 10
11.6172283071
 20
44.8419866633
 11
12.3058963126
 21
44.8419883187
  0
LINE
  5
2AB
100
AcDbEntity
  8
0
100
AcDbLine
 62
7
  6
BYLAYER
 10
52.9738453745
 20
30.7625115582
 11
52.6202905119
 21
30.9666319354
  0
LINE
  5
2AC
100
AcDbEntity
  8
0
100
AcDbLine
 62
7
  6
BYLAYER
 10
20.0932431552
 20
49.7457066434
 11
19.7396882926
 21
49.9498270206
  0
LINE
  5
2AD
100
AcDbEntity
  8
0
100
AcDbLine
 62
7
  6
BYLAYER
 10
50.5339127009
 20
33.5183699658
 11
53.7870118433
 21
31.6402347893
  0
LINE
  5
2AE
100
AcDbEntity
  8
0
100
AcDbLine
 62
7
  6
BYLAYER
 10
27.6496064728
 20
54.3524051464
 11
25.1488210658
 21
61.5077658085
  0
LINE
  5
2AF
100
AcDbEntity
  8
0
100
AcDbLine
 62
7
  6
BYLAYER
 10
32.3616890326
 20
30.7012431532
 11
32.3616890326
 21
40.0820430033
  0
LINE
  5
2B0
100
AcDbEntity
  8
0
100
AcDbLine
 62
7
  6
BYLAYER
 10
34.7057589491
 20
34.9001449902
 11
34.705761893
 21
34.491902536
  0
LINE
  5
2B1
100
AcDbEntity
  8
0
100
AcDbLine
 62
7
  6
BYLAYER
 10
32.0925961496
 20
39.9762414883
 11
31.4589593108
 21
37.9250849543
  0
LINE
  5
2B2
100
AcDbEntity
  8
0
100
AcDbLine
 62
7
  6
BYLAYER
 10
25.7039414941
 20
35.9195401024
 11
25.7594277547
 21
35.9914916848
  0
LINE
  5
2B3
100
AcDbEntity
  8
0
100
AcDbLine
 62
7
  6
BYLAYER
 10
26.5035867817
 20
35.4032427743
 11
26.4481005211
 21
35.3312911918
  0
LINE
  5
2B4
100
AcDbEntity
  8
0
100
AcDbLine
 62
7
  6
BYLAYER
 10
31.0740261807
 20
46.1417023374
 11
32.595112523
 21
45.2635225953
  0
LINE
  5
2B5
100
AcDbEntity
  8
0
100
AcDbLine
 62
7
  6
BYLAYER
 10
54.4941156805
 20
32.8649813603
 11
51.9481384825
 21
34.3348687276
  0
LINE
  5
2B6
100
AcDbEntity
  8
0
100
AcDbLine
 62
7
  6
BYLAYER
 10
38.6584507521
 20
38.1955603154
 11
32.595112523
 21
45.2635225953
  0
LINE
  5
2B7
100
AcDbEntity
  8
0
100
AcDbLine
 62
7
  6
BYLAYER
 10
27.0580014262
 20
62.6100250241
 11
29.5587868333
 21
55.4546643618
  0
LINE
  5
2B8
100
AcDbEntity
  8
0
100
AcDbLine
 62
7
  6
BYLAYER
 10
32.3616890326
 20
36.7434489064
 11
31.5079290368
 21
34.9798575563
  0
LINE
  5
2B9
100
AcDbEntity
  8
0
100
AcDbLine
 62
7
  6
BYLAYER
 10
32.3491177114
 20
40.1243433969
 11
32.0925961496
 21
39.9762414883
  0
LINE
  5
2BA
100
AcDbEntity
  8
0
100
AcDbLine
 62
7
  6
BYLAYER
 10
32.3616890326
 20
38.4462730911
 11
31.4589593108
 21
37.9250849543
  0
LINE
  5
2BB
100
AcDbEntity
  8
0
100
AcDbLine
 62
7
  6
BYLAYER
 10
21.7069307408
 20
49.3759009152
 11
23.3945845751
 21
49.0878154611
  0
LINE
  5
2BC
100
AcDbEntity
  8
0
100
AcDbLine
 62
7
  6
BYLAYER
 10
33.1953376923
 20
47.3664347991
 11
34.7164240347
 21
46.4882550569
  0
LINE
  5
2BD
100
AcDbEntity
  8
0
100
AcDbLine
 62
7
  6
BYLAYER
 10
18.8983480685
 20
58.3316579601
 11
19.6054337985
 21
57.9234101511
  0
LINE
  5
2BE
100
AcDbEntity
  8
0
100
AcDbLine
 62
7
  6
BYLAYER
 10
41.5204661125
 20
39.3467014781
 11
27.6496064728
 21
54.3524051464
  0
LINE
  5
2BF
100
AcDbEntity
  8
0
100
AcDbLine
 62
7
  6
BYLAYER
 10
34.7164240347
 20
46.4882550569
 11
40.7797622638
 21
39.4202927769
  0
LWPOLYLINE
  5
2C0
100
AcDbEntity
  8
0
100
AcDbPolyline
 62
7
  6
BYLAYER
 90
3
 70
0
 10
32.3616890326
 20
37.6638992993
 10
30.714581808
 20
36.9727644544
 10
28.3015056995
 20
36.5190564696
  0
LINE
  5
2C1
100
AcDbEntity
  8
0
100
AcDbLine
 62
7
  6
BYLAYER
 10
41.5541154595
 20
31.0674679826
 11
41.5541154595
 21
25.3941133445
  0
LINE
  5
2C2
100
AcDbEntity
  8
0
100
AcDbLine
 62
7
  6
BYLAYER
 10
12.8808281619
 20
23.6994447076
 11
13.0222525506
 21
23.781098451
  0
LINE
  5
2C3
100
AcDbEntity
  8
0
100
AcDbLine
 62
7
  6
BYLAYER
 10
26.8108885829
 20
31.5789335786
 11
29.2857520131
 21
33.0077881171
  0
LINE
  5
2C4
100
AcDbEntity
  8
0
100
AcDbLine
 62
7
  6
BYLAYER
 10
53.7197624847
 20
46.8911607928
 11
51.5984509731
 21
45.6664283312
  0
LINE
  5
2C5
100
AcDbEntity
  8
0
100
AcDbLine
 62
7
  6
BYLAYER
 10
40.7797622637
 20
39.420292777
 11
38.6584507521
 21
38.1955603154
  0
LINE
  5
2C6
100
AcDbEntity
  8
0
100
AcDbLine
 62
7
  6
BYLAYER
 10
35.3239881604
 20
36.266636026
 11
35.8097499644
 21
36.5470890602
  0
LINE
  5
2C7
100
AcDbEntity
  8
0
100
AcDbLine
 62
7
  6
BYLAYER
 10
51.4199198335
 20
45.0621196323
 11
41.5204661125
 21
39.3467014781
  0
LINE
  5
2C8
100
AcDbEntity
  8
0
100
AcDbLine
 62
7
  6
BYLAYER
 10
35.6398798333
 20
58.9655640851
 11
34.5774424929
 21
62.0054580041
  0
LINE
  5
2C9
100
AcDbEntity
  8
0
100
AcDbLine
 62
7
  6
BYLAYER
 10
35.0482747868
 20
67.2231839627
 11
37.5490601938
 21
60.0678233006
  0
LINE
  5
2CA
100
AcDbEntity
  8
0
100
AcDbLine
 62
7
  6
BYLAYER
 10
43.6754269712
 20
32.2922004442
 11
43.6754269712
 21
26.6188458061
  0
LINE
  5
2CB
100
AcDbEntity
  8
0
100
AcDbLine
 62
7
  6
BYLAYER
 10
44.9056975226
 20
30.1897466111
 11
44.9056975226
 21
30.268937814
  0
LINE
  5
2CC
100
AcDbEntity
  8
0
100
AcDbLine
 62
7
  6
BYLAYER
 10
26.8108885829
 20
29.1294263272
 11
29.2857520131
 21
30.5582808657
  0
LINE
  5
2CD
100
AcDbEntity
  8
0
100
AcDbLine
 62
7
  6
BYLAYER
 10
45.5492521398
 20
26.8841903967
 11
45.5492521398
 21
24.4346831453
  0
LINE
  5
2CE
100
AcDbEntity
  8
0
100
AcDbLine
 62
7
  6
BYLAYER
 10
45.9028070024
 20
26.6800700194
 11
45.9028070024
 21
24.2305627681
  0
LINE
  5
2CF
100
AcDbEntity
  8
0
100
AcDbLine
 62
7
  6
BYLAYER
 10
38.3089747969
 20
31.09645665
 11
38.7587314433
 21
31.3561222209
  0
LINE
  5
2D0
100
AcDbEntity
  8
0
100
AcDbLine
 62
7
  6
BYLAYER
 10
44.0140264017
 20
53.6125703533
 11
45.535112744
 21
52.7343906112
  0
LINE
  5
2D1
100
AcDbEntity
  8
0
100
AcDbLine
 62
7
  6
BYLAYER
 10
46.1353379133
 20
54.8373028149
 11
47.6564242557
 21
53.9591230728
  0
LINE
  5
2D2
100
AcDbEntity
  8
0
100
AcDbLine
 62
7
  6
BYLAYER
 10
37.5490601938
 20
60.0678233006
 11
51.4199198336
 21
45.0621196322
  0
LINE
  5
2D3
100
AcDbEntity
  8
0
100
AcDbLine
 62
7
  6
BYLAYER
 10
51.5984509731
 20
45.6664283312
 11
45.535112744
 21
52.7343906112
  0
LINE
  5
2D4
100
AcDbEntity
  8
0
100
AcDbLine
 62
7
  6
BYLAYER
 10
34.8475054822
 20
19.5639512386
 11
35.3651395287
 21
20.2322215617
  0
LINE
  5
2D5
100
AcDbEntity
  8
0
100
AcDbLine
 62
7
  6
BYLAYER
 10
41.5541154595
 20
31.0674679826
 11
43.6754269712
 21
32.2922004442
  0
LINE
  5
2D6
100
AcDbEntity
  8
0
100
AcDbLine
 62
7
  6
BYLAYER
 10
54.4941156805
 20
38.5383359984
 11
56.6154271922
 21
39.76306846
  0
LINE
  5
2D7
100
AcDbEntity
  8
0
100
AcDbLine
 62
7
  6
BYLAYER
 10
26.5987571373
 20
22.352457506
 11
35.5389437043
 21
27.5140458165
  0
LINE
  5
2D8
100
AcDbEntity
  8
0
100
AcDbLine
 62
7
  6
BYLAYER
 10
26.5986977923
 20
22.3115996901
 11
35.5742984456
 21
27.4936342089
  0
LINE
  5
2D9
100
AcDbEntity
  8
0
100
AcDbLine
 62
7
  6
BYLAYER
 10
47.6564242557
 20
53.9591230728
 11
53.7197624848
 21
46.8911607928
  0
LINE
  5
2DA
100
AcDbEntity
  8
0
100
AcDbLine
 62
7
  6
BYLAYER
 10
52.9738453745
 20
30.7625115582
 11
52.9738453745
 21
28.3130043068
  0
LINE
  5
2DB
100
AcDbEntity
  8
0
100
AcDbLine
 62
7
  6
BYLAYER
 10
43.6754269712
 20
29.5586450199
 11
53.0443348794
 21
34.9677542347
  0
LINE
  5
2DC
100
AcDbEntity
  8
0
100
AcDbLine
 62
7
  6
BYLAYER
 10
26.5986889488
 20
17.0043280108
 11
40.1705918291
 21
24.8400230193
  0
LINE
  5
2DD
100
AcDbEntity
  8
0
100
AcDbLine
 62
7
  6
BYLAYER
 10
54.4941156805
 20
38.5383359984
 11
54.4941156805
 21
32.8649813603
  0
LINE
  5
2DE
100
AcDbEntity
  8
0
100
AcDbLine
 62
7
  6
BYLAYER
 10
44.3825308084
 20
26.2105875428
 11
45.5492521398
 21
26.8841903967
  0
LINE
  5
2DF
100
AcDbEntity
  8
0
100
AcDbLine
 62
7
  6
BYLAYER
 10
52.6202905119
 20
30.9666319354
 11
53.7870118433
 21
31.6402347893
  0
LINE
  5
2E0
100
AcDbEntity
  8
0
100
AcDbLine
 62
7
  6
BYLAYER
 10
45.9028070024
 20
26.6800700194
 11
52.9738453745
 21
30.7625115582
  0
LINE
  5
2E1
100
AcDbEntity
  8
0
100
AcDbLine
 62
7
  6
BYLAYER
 10
27.0230226648
 20
15.5346296172
 11
27.1644470535
 21
15.6162833606
  0
LINE
  5
2E2
100
AcDbEntity
  8
0
100
AcDbLine
 62
7
  6
BYLAYER
 10
41.1650994091
 20
23.6995126946
 11
41.3065237978
 21
23.781166438
  0
LINE
  5
2E3
100
AcDbEntity
  8
0
100
AcDbLine
 62
7
  6
BYLAYER
 10
56.6154271922
 20
39.76306846
 11
56.6154271922
 21
34.0897138219
  0
LINE
  5
2E4
100
AcDbEntity
  8
0
100
AcDbLine
 62
7
  6
BYLAYER
 10
44.3825308084
 20
23.7610802914
 11
45.5492521398
 21
24.4346831453
  0
LINE
  5
2E5
100
AcDbEntity
  8
0
100
AcDbLine
 62
7
  6
BYLAYER
 10
52.9738453745
 20
28.7212484607
 11
53.7870118433
 21
29.1907275379
  0
LINE
  5
2E6
100
AcDbEntity
  8
0
100
AcDbLine
 62
7
  6
BYLAYER
 10
45.9028070024
 20
24.2305627681
 11
52.9738453745
 21
28.3130043068
  0
ARC
  5
2E7
100
AcDbEntity
  8
0
100
AcDbCircle
 62
7
  6
BYLAYER
 10
26.1170302648
 20
32.6075805751
 40
16.3156688268
100
AcDbArc
 50
273.4934517821
 51
275.2416651776
  0
ARC
  5
2E8
100
AcDbEntity
  8
0
100
AcDbCircle
 62
7
  6
BYLAYER
 10
26.1005944976
 20
29.0152729713
 40
14.7452401969
100
AcDbArc
 50
266.1235550426
 51
268.0690059696
  0
ARC
  5
2E9
100
AcDbEntity
  8
0
100
AcDbCircle
 62
7
  6
BYLAYER
 10
26.1080936737
 20
28.9900851161
 40
14.7200235967
100
AcDbArc
 50
271.9296042719
 51
273.8783878607
  0
ARC
  5
2EA
100
AcDbEntity
  8
0
100
AcDbCircle
 62
7
  6
BYLAYER
 10
26.1068562262
 20
28.5187254627
 40
14.3935132519
100
AcDbArc
 50
271.9783219483
 51
273.9714409072
  0
ARC
  5
2EB
100
AcDbEntity
  8
0
100
AcDbCircle
 62
7
  6
BYLAYER
 10
26.0992606476
 20
28.4938314601
 40
14.3685894383
100
AcDbArc
 50
266.027106678
 51
268.0236842191
  0
ARC
  5
2EC
100
AcDbEntity
  8
0
100
AcDbCircle
 62
7
  6
BYLAYER
 10
23.7194484178
 20
27.0293033701
 40
9.6739798553
100
AcDbArc
 50
240.0008079199
 51
240.3135311011
  0
ARC
  5
2ED
100
AcDbEntity
  8
0
100
AcDbCircle
 62
7
  6
BYLAYER
 10
23.735070165
 20
26.8047259468
 40
9.6105955458
100
AcDbArc
 50
240.0008079199
 51
240.3135311012
  0
ARC
  5
2EE
100
AcDbEntity
  8
0
100
AcDbCircle
 62
7
  6
BYLAYER
 10
23.9243997144
 20
25.8693461176
 40
9.1887285651
100
AcDbArc
 50
240.4623731094
 51
240.88397464
  0
ARC
  5
2EF
100
AcDbEntity
  8
0
100
AcDbCircle
 62
7
  6
BYLAYER
 10
23.8776471368
 20
25.7868531721
 40
9.0939082639
100
AcDbArc
 50
240.0010983141
 51
240.4624211985
  0
ARC
  5
2F0
100
AcDbEntity
  8
0
100
AcDbCircle
 62
7
  6
BYLAYER
 10
28.5322794818
 20
25.4396004561
 40
8.6919485992
100
AcDbArc
 50
299.4348288715
 51
302.5021320626
  0
ARC
  5
2F1
100
AcDbEntity
  8
0
100
AcDbCircle
 62
7
  6
BYLAYER
 10
26.098737899
 20
56.1940425445
 40
8.5466109143
100
AcDbArc
 50
265.6275299238
 51
266.4393340105
  0
ARC
  5
2F2
100
AcDbEntity
  8
0
100
AcDbCircle
 62
7
  6
BYLAYER
 10
24.6440408931
 20
21.5685185676
 40
5.5279355968
100
AcDbArc
 50
238.7235921043
 51
240.002443139
  0
ARC
  5
2F3
100
AcDbEntity
  8
0
100
AcDbCircle
 62
7
  6
BYLAYER
 10
31.3643292085
 20
64.3295457017
 40
5.3397047505
100
AcDbArc
 50
345.9971081851
 51
349.8784868202
  0
ARC
  5
2F4
100
AcDbEntity
  8
0
100
AcDbCircle
 62
7
  6
BYLAYER
 10
32.8747950553
 20
22.8225849474
 40
3.4412296966
100
AcDbArc
 50
350.6139566388
 51
356.4173349822
  0
ARC
  5
2F5
100
AcDbEntity
  8
0
100
AcDbCircle
 62
7
  6
BYLAYER
 10
20.4560042943
 20
38.4352690651
 40
3.3909975044
100
AcDbArc
 50
158.7332950261
 51
161.0868023358
  0
ARC
  5
2F6
100
AcDbEntity
  8
0
100
AcDbCircle
 62
7
  6
BYLAYER
 10
20.3688707425
 20
38.4647154836
 40
3.2990236281
100
AcDbArc
 50
161.0800909233
 51
163.7715055863
  0
ARC
  5
2F7
100
AcDbEntity
  8
0
100
AcDbCircle
 62
7
  6
BYLAYER
 10
19.7758342628
 20
62.8712328828
 40
2.9966748826
100
AcDbArc
 50
169.9288963745
 51
174.0008034022
  0
ARC
  5
2F8
100
AcDbEntity
  8
0
100
AcDbCircle
 62
7
  6
BYLAYER
 10
23.3515605598
 20
47.7383442535
 40
2.8692002637
100
AcDbArc
 50
140.0051638757
 51
143.6185509591
  0
ARC
  5
2F9
100
AcDbEntity
  8
0
100
AcDbCircle
 62
7
  6
BYLAYER
 10
19.6932607946
 20
59.4647466899
 40
2.7350902839
100
AcDbArc
 50
348.6186341743
 51
349.8657654085
  0
ARC
  5
2FA
100
AcDbEntity
  8
0
100
AcDbCircle
 62
7
  6
BYLAYER
 10
19.7318765753
 20
59.457012147
 40
2.6957125567
100
AcDbArc
 50
347.9266580324
 51
349.4368073545
  0
ARC
  5
2FB
100
AcDbEntity
  8
0
100
AcDbCircle
 62
7
  6
BYLAYER
 10
19.4674612363
 20
62.9233861056
 40
2.6839346145
100
AcDbArc
 50
166.5747337862
 51
169.8739126893
  0
ARC
  5
2FC
100
AcDbEntity
  8
0
100
AcDbCircle
 62
7
  6
BYLAYER
 10
19.8320774866
 20
59.4354046878
 40
2.5932085349
100
AcDbArc
 50
346.549561856
 51
347.930439127
  0
ARC
  5
2FD
100
AcDbEntity
  8
0
100
AcDbCircle
 62
7
  6
BYLAYER
 10
18.2025494648
 20
62.2708958736
 40
2.5844567554
100
AcDbArc
 50
72.070210777
 51
74.3576687295
  0
ARC
  5
2FE
100
AcDbEntity
  8
0
100
AcDbCircle
 62
7
  6
BYLAYER
 10
23.5188411471
 20
50.8882437912
 40
2.5035517058
100
AcDbArc
 50
214.4890213088
 51
219.6811383406
  0
ARC
  5
2FF
100
AcDbEntity
  8
0
100
AcDbCircle
 62
7
  6
BYLAYER
 10
40.4873450808
 20
25.2232079411
 40
1.6587974096
100
AcDbArc
 50
294.120535681
 51
295.0550131371
  0
ARC
  5
300
100
AcDbEntity
  8
0
100
AcDbCircle
 62
7
  6
BYLAYER
 10
12.2030738335
 20
25.2231399542
 40
1.6587974097
100
AcDbArc
 50
294.1205356811
 51
295.0550131371
  0
ARC
  5
301
100
AcDbEntity
  8
0
100
AcDbCircle
 62
7
  6
BYLAYER
 10
26.3452683365
 20
17.0583248638
 40
1.6587974097
100
AcDbArc
 50
294.120535681
 51
295.0550131371
  0
ARC
  5
302
100
AcDbEntity
  8
0
100
AcDbCircle
 62
7
  6
BYLAYER
 10
18.3233975184
 20
63.3243110565
 40
1.5157103663
100
AcDbArc
 50
96.6672137404
 51
103.6529407347
  0
ARC
  5
303
100
AcDbEntity
  8
0
100
AcDbCircle
 62
7
  6
BYLAYER
 10
20.8920270425
 20
59.0300233776
 40
1.4909372801
100
AcDbArc
 50
276.6076552497
 51
283.7097031489
  0
ARC
  5
304
100
AcDbEntity
  8
0
100
AcDbCircle
 62
7
  6
BYLAYER
 10
35.9398342048
 20
35.5278740206
 40
1.037699069
100
AcDbArc
 50
120.0363690484
 51
129.6263917672
  0
ARC
  5
305
100
AcDbEntity
  8
0
100
AcDbCircle
 62
7
  6
BYLAYER
 10
37.980478689
 20
31.9920224742
 40
1.0298208264
100
AcDbArc
 50
290.1523671973
 51
300.0000678957
  0
ARC
  5
306
100
AcDbEntity
  8
0
100
AcDbCircle
 62
7
  6
BYLAYER
 10
35.8249465958
 20
35.3984806405
 40
1.002316215
100
AcDbArc
 50
112.147708681
 51
119.9865688137
  0
ARC
  5
307
100
AcDbEntity
  8
0
100
AcDbCircle
 62
7
  6
BYLAYER
 10
37.8086694349
 20
31.9628647116
 40
1.0004764266
100
AcDbArc
 50
300.0041876083
 51
308.6397629553
  0
ARC
  5
308
100
AcDbEntity
  8
0
100
AcDbCircle
 62
7
  6
BYLAYER
 10
7.6049559392
 20
39.7436782439
 40
0.2324701079
100
AcDbArc
 50
177.131996068
 51
182.8671142362
  0
ARC
  5
309
100
AcDbEntity
  8
0
100
AcDbCircle
 62
7
  6
BYLAYER
 10
26.4537387484
 20
14.6503978058
 40
0.15
100
AcDbArc
 50
0.0027810237
 51
90.0001377221
  0
ARC
  5
30A
100
AcDbEntity
  8
0
100
AcDbCircle
 62
7
  6
BYLAYER
 10
25.7537387484
 20
14.6503961232
 40
0.15
100
AcDbArc
 50
90.0001377221
 51
179.997494639
  0
SPLINE
  5
30B
100
AcDbEntity
  8
0
100
AcDbSpline
 62
7
  6
BYLAYER
 70
0
 71
3
 72
15
 73
11
 74
0
 42
0.0000001
 43
0.0000001
 44
0.0000000001
 40
0.0
 40
0.0
 40
0.0
 40
0.0
 40
0.1141521431
 40
0.2373214229
 40
0.3669696504
 40
0.4999912471
 40
0.6330151746
 40
0.7626650661
 40
0.8858469178
 40
1.0
 40
1.0
 40
1.0
 40
1.0
 10
41.1650925112
 20
23.6995166786
 30
0.0
 10
41.1021650166
 20
23.6631842427
 30
0.0
 10
40.9645620043
 20
23.5991054454
 30
0.0
 10
40.7404823277
 20
23.5309942927
 30
0.0
 10
40.4978799499
 20
23.4890692062
 30
0.0
 10
40.2458667277
 20
23.4749187872
 30
0.0
 10
39.993852481
 20
23.4890635326
 30
0.0
 10
39.7512372579
 20
23.5309775695
 30
0.0
 10
39.5271480483
 20
23.5990911017
 30
0.0
 10
39.3895347946
 20
23.6631679087
 30
0.0
 10
39.3266058938
 20
23.6994991046
 30
0.0
  0
SPLINE
  5
30C
100
AcDbEntity
  8
0
100
AcDbSpline
 62
7
  6
BYLAYER
 70
0
 71
3
 72
9
 73
5
 74
0
 42
0.0000001
 43
0.0000001
 44
0.0000000001
 40
0.0
 40
0.0
 40
0.0
 40
0.0
 40
0.4758665283
 40
1.0
 40
1.0
 40
1.0
 40
1.0
 10
41.6014366472
 20
24.0227775035
 30
0.0
 10
41.5629275506
 20
23.9758351596
 30
0.0
 10
41.470679508
 20
23.8862871293
 30
0.0
 10
41.3644337496
 20
23.8146079079
 30
0.0
 10
41.3065184372
 20
23.7811695328
 30
0.0
  0
SPLINE
  5
30D
100
AcDbEntity
  8
0
100
AcDbSpline
 62
7
  6
BYLAYER
 70
0
 71
3
 72
10
 73
6
 74
0
 42
0.0000001
 43
0.0000001
 44
0.0000000001
 40
0.0
 40
0.0
 40
0.0
 40
0.0
 40
0.2725691033
 40
0.5302473755
 40
1.0
 40
1.0
 40
1.0
 40
1.0
 10
39.1851851264
 20
23.7811507573
 30
0.0
 10
39.1489744268
 20
23.8020565415
 30
0.0
 10
39.0802594749
 20
23.8459208249
 30
0.0
 10
38.9598393462
 20
23.9410796568
 30
0.0
 10
38.8838424343
 20
24.0250082548
 30
0.0
 10
38.8441534784
 20
24.0851537619
 30
0.0
  0
SPLINE
  5
30E
100
AcDbEntity
  8
0
100
AcDbSpline
 62
7
  6
BYLAYER
 70
0
 71
3
 72
9
 73
5
 74
0
 42
0.0000001
 43
0.0000001
 44
0.0000000001
 40
0.0
 40
0.0
 40
0.0
 40
0.0
 40
0.2453674063
 40
1.0
 40
1.0
 40
1.0
 40
1.0
 10
41.3065184372
 20
23.7811695328
 30
0.0
 10
41.297201042
 20
23.7757899787
 30
0.0
 10
41.2589788079
 20
23.7542985544
 30
0.0
 10
41.2198012764
 20
23.7345148073
 30
0.0
 10
41.1898263221
 20
23.7205007336
 30
0.0
  0
SPLINE
  5
30F
100
AcDbEntity
  8
0
100
AcDbSpline
 62
7
  6
BYLAYER
 70
0
 71
3
 72
15
 73
11
 74
0
 42
0.0000001
 43
0.0000001
 44
0.0000000001
 40
0.0
 40
0.0
 40
0.0
 40
0.0
 40
0.1172308717
 40
0.2409686222
 40
0.3692699615
 40
0.49992254
 40
0.6305852944
 40
0.7589133203
 40
0.8826755556
 40
1.0
 40
1.0
 40
1.0
 40
1.0
 10
41.1652252621
 20
23.7092438379
 30
0.0
 10
41.0979801541
 20
23.6791314951
 30
0.0
 10
40.955633249
 20
23.6261882043
 30
0.0
 10
40.7300950647
 20
23.5697808032
 30
0.0
 10
40.4916601286
 20
23.5352823701
 30
0.0
 10
40.246697781
 20
23.5236252356
 30
0.0
 10
40.0017102009
 20
23.5351144579
 30
0.0
 10
39.7632152318
 20
23.5694647612
 30
0.0
 10
39.5375463557
 20
23.6257217113
 30
0.0
 10
39.3950894105
 20
23.6785833273
 30
0.0
 10
39.327767768
 20
23.7086686037
 30
0.0
  0
SPLINE
  5
310
100
AcDbEntity
  8
0
100
AcDbSpline
 62
7
  6
BYLAYER
 70
0
 71
3
 72
9
 73
5
 74
0
 42
0.0000001
 43
0.0000001
 44
0.0000000001
 40
0.0
 40
0.0
 40
0.0
 40
0.0
 40
0.2557301253
 40
1.0
 40
1.0
 40
1.0
 40
1.0
 10
39.327767768
 20
23.7086686037
 30
0.0
 10
39.3153166325
 20
23.7142328745
 30
0.0
 10
39.2668939141
 20
23.7365781343
 30
0.0
 10
39.2195590126
 20
23.7613054338
 30
0.0
 10
39.1851851264
 20
23.7811507573
 30
0.0
  0
LINE
  5
311
100
AcDbEntity
  8
0
100
AcDbLine
 62
7
  6
BYLAYER
 10
14.8250429608
 20
42.926956439
 11
14.7763767825
 21
43.3486019844
  0
LINE
  5
312
100
AcDbEntity
  8
0
100
AcDbLine
 62
7
  6
BYLAYER
 10
14.776373119
 20
43.8566208795
 11
14.8250394121
 21
43.4190665169
  0
SPLINE
  5
313
100
AcDbEntity
  8
0
100
AcDbSpline
 62
7
  6
BYLAYER
 70
0
 71
3
 72
14
 73
10
 74
0
 42
0.0000001
 43
0.0000001
 44
0.0000000001
 40
0.0
 40
0.0
 40
0.0
 40
0.0
 40
0.1110231118
 40
0.2252179505
 40
0.3436675505
 40
0.4671087584
 40
0.5954343364
 40
0.727958173
 40
1.0
 40
1.0
 40
1.0
 40
1.0
 10
14.7763767825
 20
43.3486019844
 30
0.0
 10
14.7746424023
 20
43.3636046625
 30
0.0
 10
14.7674473115
 20
43.3937184239
 30
0.0
 10
14.7465305857
 20
43.4359221702
 30
0.0
 10
14.7162076278
 20
43.474124841
 30
0.0
 10
14.6777302161
 20
43.5070425505
 30
0.0
 10
14.6324826326
 20
43.5337389264
 30
0.0
 10
14.5647245077
 20
43.5601071494
 30
0.0
 10
14.509195011
 20
43.5680630273
 30
0.0
 10
14.4721888604
 20
43.5680629384
 30
0.0
  0
SPLINE
  5
314
100
AcDbEntity
  8
0
100
AcDbSpline
 62
7
  6
BYLAYER
 70
0
 71
3
 72
14
 73
10
 74
0
 42
0.0000001
 43
0.0000001
 44
0.0000000001
 40
0.0
 40
0.0
 40
0.0
 40
0.0
 40
0.2720393801
 40
0.4045660693
 40
0.5328964625
 40
0.6563420514
 40
0.7747910227
 40
0.8889801771
 40
1.0
 40
1.0
 40
1.0
 40
1.0
 10
9.4509541327
 20
43.5680508688
 30
0.0
 10
9.4139482466
 20
43.5680507799
 30
0.0
 10
9.3584187197
 20
43.5600945055
 30
0.0
 10
9.2906597076
 20
43.5337260731
 30
0.0
 10
9.2454111516
 20
43.5070279479
 30
0.0
 10
9.2069327881
 20
43.4741093224
 30
0.0
 10
9.1766111004
 20
43.4359059496
 30
0.0
 10
9.1556942616
 20
43.3937036119
 30
0.0
 10
9.148500486
 20
43.3635907136
 30
0.0
 10
9.1467661509
 20
43.3485884525
 30
0.0
  0
LINE
  5
315
100
AcDbEntity
  8
0
100
AcDbLine
 62
7
  6
BYLAYER
 10
9.1467661509
 20
43.3485884525
 11
9.0980998579
 21
42.9269426732
  0
LINE
  5
316
100
AcDbEntity
  8
0
100
AcDbLine
 62
7
  6
BYLAYER
 10
9.0980963091
 20
43.419052751
 11
9.1467624874
 21
43.8566073475
  0
SPLINE
  5
317
100
AcDbEntity
  8
0
100
AcDbSpline
 62
7
  6
BYLAYER
 70
0
 71
3
 72
15
 73
11
 74
0
 42
0.0000001
 43
0.0000001
 44
0.0000000001
 40
0.0
 40
0.0
 40
0.0
 40
0.0
 40
0.1141521431
 40
0.2373214229
 40
0.3669696504
 40
0.4999912471
 40
0.6330151746
 40
0.7626650661
 40
0.8858469178
 40
1.0
 40
1.0
 40
1.0
 40
1.0
 10
12.880821264
 20
23.6994486916
 30
0.0
 10
12.8178937694
 20
23.6631162556
 30
0.0
 10
12.6802907571
 20
23.5990374584
 30
0.0
 10
12.4562110805
 20
23.5309263057
 30
0.0
 10
12.2136087027
 20
23.4890012192
 30
0.0
 10
11.9615954804
 20
23.4748508001
 30
0.0
 10
11.7095812338
 20
23.4889955456
 30
0.0
 10
11.4669660107
 20
23.5309095825
 30
0.0
 10
11.2428768011
 20
23.5990231147
 30
0.0
 10
11.1052635473
 20
23.6630999217
 30
0.0
 10
11.0423346466
 20
23.6994311176
 30
0.0
  0
SPLINE
  5
318
100
AcDbEntity
  8
0
100
AcDbSpline
 62
7
  6
BYLAYER
 70
0
 71
3
 72
10
 73
6
 74
0
 42
0.0000001
 43
0.0000001
 44
0.0000000001
 40
0.0
 40
0.0
 40
0.0
 40
0.0
 40
0.469935351
 40
0.7273983314
 40
1.0
 40
1.0
 40
1.0
 40
1.0
 10
13.3619527018
 20
24.0831284391
 30
0.0
 10
13.3222477068
 20
24.0234046714
 30
0.0
 10
13.246487595
 20
23.9400943391
 30
0.0
 10
13.126638791
 20
23.8454844293
 30
0.0
 10
13.0582754853
 20
23.8019030852
 30
0.0
 10
13.02224719
 20
23.7811015458
 30
0.0
  0
SPLINE
  5
319
100
AcDbEntity
  8
0
100
AcDbSpline
 62
7
  6
BYLAYER
 70
0
 71
3
 72
25
 73
21
 74
0
 42
0.0000001
 43
0.0000001
 44
0.0000000001
 40
0.0
 40
0.0
 40
0.0
 40
0.0
 40
0.0214912834
 40
0.0430268579
 40
0.064847853
 40
0.0871791209
 40
0.1340675476
 40
0.1849587306
 40
0.2404619991
 40
0.3006795129
 40
0.3653098113
 40
0.4337455582
 40
0.5051553758
 40
0.578552042
 40
0.6528521592
 40
0.7269284819
 40
0.7996689832
 40
0.870017038
 40
0.9370512961
 40
1.0
 40
1.0
 40
1.0
 40
1.0
 10
14.9558196108
 20
42.3003490398
 30
0.0
 10
14.9604747227
 20
42.2569556955
 30
0.0
 10
14.9641510819
 20
42.1693634316
 30
0.0
 10
14.9523698973
 20
42.0378465762
 30
0.0
 10
14.9233052573
 20
41.9072779387
 30
0.0
 10
14.8609402811
 20
41.7328003023
 30
0.0
 10
14.7379443789
 20
41.5196264733
 30
0.0
 10
14.530108858
 20
41.2856339349
 30
0.0
 10
14.2649465228
 20
41.0732841573
 30
0.0
 10
13.9485172767
 20
40.8868080336
 30
0.0
 10
13.587788135
 20
40.729951701
 30
0.0
 10
13.1907167146
 20
40.6060610692
 30
0.0
 10
12.7661176662
 20
40.5178383337
 30
0.0
 10
12.3234729387
 20
40.4672401714
 30
0.0
 10
11.8727076976
 20
40.4553996147
 30
0.0
 10
11.4239343207
 20
40.4825724332
 30
0.0
 10
10.987238369
 20
40.5481655018
 30
0.0
 10
10.5723411955
 20
40.650698233
 30
0.0
 10
10.1886150654
 20
40.7879062554
 30
0.0
 10
9.9509626534
 20
40.9045553885
 30
0.0
 10
9.8402581233
 20
40.9684692328
 30
0.0
  0
SPLINE
  5
31A
100
AcDbEntity
  8
0
100
AcDbSpline
 62
7
  6
BYLAYER
 70
0
 71
3
 72
12
 73
8
 74
0
 42
0.0000001
 43
0.0000001
 44
0.0000000001
 40
0.0
 40
0.0
 40
0.0
 40
0.0
 40
0.115735647
 40
0.2329842806
 40
0.4745327178
 40
0.7292762561
 40
1.0
 40
1.0
 40
1.0
 40
1.0
 10
14.7703191811
 20
43.8883355463
 30
0.0
 10
14.756716818
 20
43.9383551511
 30
0.0
 10
14.722814409
 20
44.0373933204
 30
0.0
 10
14.6299305189
 20
44.2290227617
 30
0.0
 10
14.4680675274
 20
44.453939361
 30
0.0
 10
14.216141107
 20
44.6899175919
 30
0.0
 10
14.019777689
 20
44.8215124516
 30
0.0
 10
13.9147690754
 20
44.8821378314
 30
0.0
  0
SPLINE
  5
31B
100
AcDbEntity
  8
0
100
AcDbSpline
 62
7
  6
BYLAYER
 70
0
 71
3
 72
23
 73
19
 74
0
 42
0.0000001
 43
0.0000001
 44
0.0000000001
 40
0.0
 40
0.0
 40
0.0
 40
0.0
 40
0.0609283511
 40
0.1248061401
 40
0.1911777563
 40
0.2595304454
 40
0.3291682909
 40
0.3993293438
 40
0.4692239479
 40
0.5380750968
 40
0.6051675335
 40
0.669897575
 40
0.7318218506
 40
0.7907024001
 40
0.8465546601
 40
0.8996815567
 40
0.950583664
 40
1.0
 40
1.0
 40
1.0
 40
1.0
 10
13.9147690754
 20
44.8821378314
 30
0.0
 10
13.8197025438
 20
44.9370232774
 30
0.0
 10
13.6180086424
 20
45.0376828164
 30
0.0
 10
13.2949762299
 20
45.1587136106
 30
0.0
 10
12.9490554473
 20
45.2521476515
 30
0.0
 10
12.5861506432
 20
45.3168702561
 30
0.0
 10
12.2123560659
 20
45.3519476011
 30
0.0
 10
11.8341860267
 20
45.3568865996
 30
0.0
 10
11.4582432377
 20
45.3316223142
 30
0.0
 10
11.0910721143
 20
45.2765130023
 30
0.0
 10
10.7389764096
 20
45.1923320926
 30
0.0
 10
10.4078483893
 20
45.0801873683
 30
0.0
 10
10.1030771569
 20
44.9413499694
 30
0.0
 10
9.829558006
 20
44.7770922446
 30
0.0
 10
9.5918044802
 20
44.588616705
 30
0.0
 10
9.3945845237
 20
44.376915278
 30
0.0
 10
9.2431677131
 20
44.143811891
 30
0.0
 10
9.1761777337
 20
43.974232188
 30
0.0
 10
9.1528158627
 20
43.888320003
 30
0.0
  0
SPLINE
  5
31C
100
AcDbEntity
  8
0
100
AcDbSpline
 62
7
  6
BYLAYER
 70
0
 71
3
 72
16
 73
12
 74
0
 42
0.0000001
 43
0.0000001
 44
0.0000000001
 40
0.0
 40
0.0
 40
0.0
 40
0.0
 40
0.1497641355
 40
0.2912169702
 40
0.4242900618
 40
0.4878821671
 40
0.5496322432
 40
0.6681094182
 40
0.7812855955
 40
0.8911447263
 40
1.0
 40
1.0
 40
1.0
 40
1.0
 10
9.8402581233
 20
40.9684692328
 30
0.0
 10
9.7674278659
 20
41.0105168503
 30
0.0
 10
9.6293381633
 20
41.0986657302
 30
0.0
 10
9.4422431093
 20
41.246864392
 30
0.0
 10
9.3075765684
 20
41.3814574367
 30
0.0
 10
9.2155282245
 20
41.4937686935
 30
0.0
 10
9.1362291524
 20
41.6054839234
 30
0.0
 10
9.0555995
 20
41.7499618644
 30
0.0
 10
8.9903361355
 20
41.9312725013
 30
0.0
 10
8.9588496338
 20
42.1159535897
 30
0.0
 10
8.9607994759
 20
42.2395725632
 30
0.0
 10
8.9673198409
 20
42.3003490132
 30
0.0
  0
SPLINE
  5
31D
100
AcDbEntity
  8
0
100
AcDbSpline
 62
7
  6
BYLAYER
 70
0
 71
3
 72
14
 73
10
 74
0
 42
0.0000001
 43
0.0000001
 44
0.0000000001
 40
0.0
 40
0.0
 40
0.0
 40
0.0
 40
0.2892627121
 40
0.4225615262
 40
0.5485059597
 40
0.6678879081
 40
0.7818672987
 40
0.8919530706
 40
1.0
 40
1.0
 40
1.0
 40
1.0
 10
10.9009138791
 20
23.7810827702
 30
0.0
 10
10.8350743711
 20
23.819094368
 30
0.0
 10
10.742861785
 20
23.8825854508
 30
0.0
 10
10.638535459
 20
23.9824292454
 30
0.0
 10
10.5750342713
 20
24.0593902263
 30
0.0
 10
10.5248597611
 20
24.1397430946
 30
0.0
 10
10.4885158977
 20
24.2227561775
 30
0.0
 10
10.4665046344
 20
24.3076069884
 30
0.0
 10
10.4615764005
 20
24.3650519357
 30
0.0
 10
10.4615732489
 20
24.3934490012
 30
0.0
  0
SPLINE
  5
31E
100
AcDbEntity
  8
0
100
AcDbSpline
 62
7
  6
BYLAYER
 70
0
 71
3
 72
13
 73
9
 74
0
 42
0.0000001
 43
0.0000001
 44
0.0000000001
 40
0.0
 40
0.0
 40
0.0
 40
0.0
 40
0.1082094459
 40
0.2200045451
 40
0.4571099584
 40
0.5839527261
 40
0.7167083301
 40
1.0
 40
1.0
 40
1.0
 40
1.0
 10
9.1467661509
 20
43.3485884525
 30
0.0
 10
9.1584629497
 20
43.3053848471
 30
0.0
 10
9.1881063382
 20
43.2190310161
 30
0.0
 10
9.2711689272
 20
43.048762764
 30
0.0
 10
9.38808923
 20
42.8882797666
 30
0.0
 10
9.5314282177
 20
42.7408619111
 30
0.0
 10
9.7017080818
 20
42.5940824393
 30
0.0
 10
9.8455633763
 20
42.4981129093
 30
0.0
 10
9.9470437214
 20
42.4395245301
 30
0.0
  0
SPLINE
  5
31F
100
AcDbEntity
  8
0
100
AcDbSpline
 62
7
  6
BYLAYER
 70
0
 71
3
 72
23
 73
19
 74
0
 42
0.0000001
 43
0.0000001
 44
0.0000000001
 40
0.0
 40
0.0
 40
0.0
 40
0.0
 40
0.0606935614
 40
0.1250199617
 40
0.1923703713
 40
0.2620668109
 40
0.3333005107
 40
0.4052104941
 40
0.4769115058
 40
0.5475248923
 40
0.6162129776
 40
0.6822154758
 40
0.7448877424
 40
0.8037443016
 40
0.858510008
 40
0.9091786626
 40
0.9561069871
 40
1.0
 40
1.0
 40
1.0
 40
1.0
 10
10.1583676495
 20
42.7851335914
 30
0.0
 10
10.2429196343
 20
42.7363185845
 30
0.0
 10
10.4232922608
 20
42.6462801022
 30
0.0
 10
10.7133442197
 20
42.5371511734
 30
0.0
 10
11.0262457712
 20
42.4516651018
 30
0.0
 10
11.3562014112
 20
42.3913401478
 30
0.0
 10
11.697246427
 20
42.357298221
 30
0.0
 10
12.0431251295
 20
42.3501466355
 30
0.0
 10
12.387510942
 20
42.3700113196
 30
0.0
 10
12.7241030615
 20
42.4165346781
 30
0.0
 10
13.0467496458
 20
42.4888764339
 30
0.0
 10
13.3495746939
 20
42.5857205581
 30
0.0
 10
13.6270896193
 20
42.7053289976
 30
0.0
 10
13.8742889459
 20
42.8456132948
 30
0.0
 10
14.0866895441
 20
43.004190526
 30
0.0
 10
14.260467179
 20
43.1784876196
 30
0.0
 10
14.3921089404
 20
43.3656337898
 30
0.0
 10
14.4513765639
 20
43.5005936955
 30
0.0
 10
14.4721888604
 20
43.5680629384
 30
0.0
  0
SPLINE
  5
320
100
AcDbEntity
  8
0
100
AcDbSpline
 62
7
  6
BYLAYER
 70
0
 71
3
 72
11
 73
7
 74
0
 42
0.0000001
 43
0.0000001
 44
0.0000000001
 40
0.0
 40
0.0
 40
0.0
 40
0.0
 40
0.2203383803
 40
0.458137921
 40
0.7175402719
 40
1.0
 40
1.0
 40
1.0
 40
1.0
 10
9.4509541327
 20
43.5680508688
 30
0.0
 10
9.4742960703
 20
43.4923846927
 30
0.0
 10
9.5433374826
 20
43.3409187684
 30
0.0
 10
9.6997921437
 20
43.1339011242
 30
0.0
 10
9.9076209856
 20
42.9440429423
 30
0.0
 10
10.0704571532
 20
42.8358875919
 30
0.0
 10
10.1583676495
 20
42.7851335914
 30
0.0
  0
SPLINE
  5
321
100
AcDbEntity
  8
0
100
AcDbSpline
 62
7
  6
BYLAYER
 70
0
 71
3
 72
12
 73
8
 74
0
 42
0.0000001
 43
0.0000001
 44
0.0000000001
 40
0.0
 40
0.0
 40
0.0
 40
0.0
 40
0.2667523863
 40
0.5249292565
 40
0.7689266968
 40
0.8858846255
 40
1.0
 40
1.0
 40
1.0
 40
1.0
 10
14.4721851372
 20
44.0843621886
 30
0.0
 10
14.506087294
 20
44.0843622701
 30
0.0
 10
14.5731937862
 20
44.0752082084
 30
0.0
 10
14.663724287
 20
44.0350415809
 30
0.0
 10
14.7234982685
 20
43.9812908524
 30
0.0
 10
14.7558609421
 20
43.9299525346
 30
0.0
 10
14.7664973856
 20
43.9023271295
 30
0.0
 10
14.7703066681
 20
43.8883331474
 30
0.0
  0
SPLINE
  5
322
100
AcDbEntity
  8
0
100
AcDbSpline
 62
7
  6
BYLAYER
 70
0
 71
3
 72
9
 73
5
 74
0
 42
0.0000001
 43
0.0000001
 44
0.0000000001
 40
0.0
 40
0.0
 40
0.0
 40
0.0
 40
0.2453674063
 40
1.0
 40
1.0
 40
1.0
 40
1.0
 10
13.02224719
 20
23.7811015458
 30
0.0
 10
13.0129297947
 20
23.7757219917
 30
0.0
 10
12.9747075607
 20
23.7542305674
 30
0.0
 10
12.9355300291
 20
23.7344468203
 30
0.0
 10
12.9055550749
 20
23.7204327465
 30
0.0
  0
SPLINE
  5
323
100
AcDbEntity
  8
0
100
AcDbSpline
 62
7
  6
BYLAYER
 70
0
 71
3
 72
15
 73
11
 74
0
 42
0.0000001
 43
0.0000001
 44
0.0000000001
 40
0.0
 40
0.0
 40
0.0
 40
0.0
 40
0.1172308717
 40
0.2409686222
 40
0.3692699615
 40
0.49992254
 40
0.6305852944
 40
0.7589133203
 40
0.8826755556
 40
1.0
 40
1.0
 40
1.0
 40
1.0
 10
12.8809540148
 20
23.7091758509
 30
0.0
 10
12.8137089069
 20
23.6790635081
 30
0.0
 10
12.6713620017
 20
23.6261202173
 30
0.0
 10
12.4458238175
 20
23.5697128162
 30
0.0
 10
12.2073888813
 20
23.5352143831
 30
0.0
 10
11.9624265338
 20
23.5235572486
 30
0.0
 10
11.7174389536
 20
23.5350464709
 30
0.0
 10
11.4789439846
 20
23.5693967742
 30
0.0
 10
11.2532751085
 20
23.6256537243
 30
0.0
 10
11.1108181633
 20
23.6785153402
 30
0.0
 10
11.0434965208
 20
23.7086006166
 30
0.0
  0
SPLINE
  5
324
100
AcDbEntity
  8
0
100
AcDbSpline
 62
7
  6
BYLAYER
 70
0
 71
3
 72
9
 73
5
 74
0
 42
0.0000001
 43
0.0000001
 44
0.0000000001
 40
0.0
 40
0.0
 40
0.0
 40
0.0
 40
0.2557301253
 40
1.0
 40
1.0
 40
1.0
 40
1.0
 10
11.0434965208
 20
23.7086006166
 30
0.0
 10
11.0310453853
 20
23.7141648875
 30
0.0
 10
10.9826226669
 20
23.7365101472
 30
0.0
 10
10.9352877654
 20
23.7612374467
 30
0.0
 10
10.9009138791
 20
23.7810827702
 30
0.0
  0
SPLINE
  5
325
100
AcDbEntity
  8
0
100
AcDbSpline
 62
7
  6
BYLAYER
 70
0
 71
3
 72
9
 73
5
 74
0
 42
0.0000001
 43
0.0000001
 44
0.0000000001
 40
0.0
 40
0.0
 40
0.0
 40
0.0
 40
0.2418169007
 40
1.0
 40
1.0
 40
1.0
 40
1.0
 10
9.9470437214
 20
42.4395245301
 30
0.0
 10
9.9792187641
 20
42.4209486808
 30
0.0
 10
10.1138716246
 20
42.3469122448
 30
0.0
 10
10.2543471713
 20
42.2836298386
 30
0.0
 10
10.3628178645
 20
42.2411671264
 30
0.0
  0
SPLINE
  5
326
100
AcDbEntity
  8
0
100
AcDbSpline
 62
7
  6
BYLAYER
 70
0
 71
3
 72
23
 73
19
 74
0
 42
0.0000001
 43
0.0000001
 44
0.0000000001
 40
0.0
 40
0.0
 40
0.0
 40
0.0
 40
0.0655785047
 40
0.1337714978
 40
0.203964198
 40
0.2754536303
 40
0.3475012745
 40
0.4193515361
 40
0.4902535636
 40
0.5594868979
 40
0.6263889541
 40
0.6903790761
 40
0.75098996
 40
0.8079080037
 40
0.8610065174
 40
0.9103955739
 40
0.9564987462
 40
1.0
 40
1.0
 40
1.0
 40
1.0
 10
10.3628178645
 20
42.2411671264
 30
0.0
 10
10.4639151645
 20
42.2015908553
 30
0.0
 10
10.6740150665
 20
42.1304954432
 30
0.0
 10
11.0021257624
 20
42.0492843597
 30
0.0
 10
11.3452252724
 20
41.9923039729
 30
0.0
 10
11.6979491479
 20
41.9604998539
 30
0.0
 10
12.0547892596
 20
41.9543450289
 30
0.0
 10
12.4101732511
 20
41.9739240864
 30
0.0
 10
12.7585522258
 20
42.0189517031
 30
0.0
 10
13.094491139
 20
42.0887245082
 30
0.0
 10
13.4127663643
 20
42.1821450705
 30
0.0
 10
13.7084370477
 20
42.2977923519
 30
0.0
 10
13.9769317523
 20
42.433917568
 30
0.0
 10
14.214119415
 20
42.5884904216
 30
0.0
 10
14.4163224447
 20
42.7592655318
 30
0.0
 10
14.5803654689
 20
42.94391003
 30
0.0
 10
14.7033277546
 20
43.1397478683
 30
0.0
 10
14.7575573892
 20
43.2790863819
 30
0.0
 10
14.7763767825
 20
43.3486019844
 30
0.0
  0
SPLINE
  5
327
100
AcDbEntity
  8
0
100
AcDbSpline
 62
7
  6
BYLAYER
 70
0
 71
3
 72
23
 73
19
 74
0
 42
0.0000001
 43
0.0000001
 44
0.0000000001
 40
0.0
 40
0.0
 40
0.0
 40
0.0
 40
0.0606935614
 40
0.1250199617
 40
0.1923703713
 40
0.2620668109
 40
0.3333005107
 40
0.4052104941
 40
0.4769115058
 40
0.5475248923
 40
0.6162129776
 40
0.6822154758
 40
0.7448877424
 40
0.8037443016
 40
0.858510008
 40
0.9091786626
 40
0.9561069871
 40
1.0
 40
1.0
 40
1.0
 40
1.0
 10
13.7647716204
 20
44.8672794661
 30
0.0
 10
13.6802196356
 20
44.9160944729
 30
0.0
 10
13.4998470091
 20
45.0061329553
 30
0.0
 10
13.2097950503
 20
45.115261884
 30
0.0
 10
12.8968934987
 20
45.2007479557
 30
0.0
 10
12.5669378587
 20
45.2610729097
 30
0.0
 10
12.2258928429
 20
45.2951148364
 30
0.0
 10
11.8800141404
 20
45.3022664219
 30
0.0
 10
11.5356283279
 20
45.2824017378
 30
0.0
 10
11.1990362084
 20
45.2358783794
 30
0.0
 10
10.8763896242
 20
45.1635366235
 30
0.0
 10
10.5735645761
 20
45.0666924993
 30
0.0
 10
10.2960496506
 20
44.9470840598
 30
0.0
 10
10.048850324
 20
44.8067997626
 30
0.0
 10
9.8364497258
 20
44.6482225315
 30
0.0
 10
9.6626720909
 20
44.4739254379
 30
0.0
 10
9.5310303296
 20
44.2867792677
 30
0.0
 10
9.471762706
 20
44.1518193619
 30
0.0
 10
9.4509504095
 20
44.084350119
 30
0.0
  0
SPLINE
  5
328
100
AcDbEntity
  8
0
100
AcDbSpline
 62
7
  6
BYLAYER
 70
0
 71
3
 72
11
 73
7
 74
0
 42
0.0000001
 43
0.0000001
 44
0.0000000001
 40
0.0
 40
0.0
 40
0.0
 40
0.0
 40
0.2203383803
 40
0.458137921
 40
0.7175402719
 40
1.0
 40
1.0
 40
1.0
 40
1.0
 10
14.4721851372
 20
44.0843621886
 30
0.0
 10
14.4488431996
 20
44.1600283647
 30
0.0
 10
14.3798017874
 20
44.3114942891
 30
0.0
 10
14.2233471262
 20
44.5185119333
 30
0.0
 10
14.0155182844
 20
44.7083701151
 30
0.0
 10
13.8526821167
 20
44.8165254656
 30
0.0
 10
13.7647716204
 20
44.8672794661
 30
0.0
  0
SPLINE
  5
329
100
AcDbEntity
  8
0
100
AcDbSpline
 62
7
  6
BYLAYER
 70
0
 71
3
 72
9
 73
5
 74
0
 42
0.0000001
 43
0.0000001
 44
0.0000000001
 40
0.0
 40
0.0
 40
0.0
 40
0.0
 40
0.4977783232
 40
1.0
 40
1.0
 40
1.0
 40
1.0
 10
9.0721017465
 20
43.276402352
 30
0.0
 10
9.0658678652
 20
43.2183535691
 30
0.0
 10
9.0638919043
 20
43.1003478032
 30
0.0
 10
9.0833951833
 20
42.983981415
 30
0.0
 10
9.0980998579
 20
42.9269426732
 30
0.0
  0
SPLINE
  5
32A
100
AcDbEntity
  8
0
100
AcDbSpline
 62
7
  6
BYLAYER
 70
0
 71
3
 72
12
 73
8
 74
0
 42
0.0000001
 43
0.0000001
 44
0.0000000001
 40
0.0
 40
0.0
 40
0.0
 40
0.0
 40
0.1141215672
 40
0.2310828139
 40
0.4750737304
 40
0.7332447549
 40
1.0
 40
1.0
 40
1.0
 40
1.0
 10
9.1528287413
 20
43.8883175689
 30
0.0
 10
9.1566383117
 20
43.9023123917
 30
0.0
 10
9.1672747414
 20
43.9299393099
 30
0.0
 10
9.1996379505
 20
43.9812783224
 30
0.0
 10
9.259411391
 20
44.0350285678
 30
0.0
 10
9.3499411192
 20
44.0751954746
 30
0.0
 10
9.4170476562
 20
44.0843500376
 30
0.0
 10
9.4509504095
 20
44.084350119
 30
0.0
  0
SPLINE
  5
32B
100
AcDbEntity
  8
0
100
AcDbSpline
 62
7
  6
BYLAYER
 70
0
 71
3
 72
9
 73
5
 74
0
 42
0.0000001
 43
0.0000001
 44
0.0000000001
 40
0.0
 40
0.0
 40
0.0
 40
0.0
 40
0.5022213777
 40
1.0
 40
1.0
 40
1.0
 40
1.0
 10
14.8250429608
 20
42.926956439
 30
0.0
 10
14.8397462464
 20
42.9839930547
 30
0.0
 10
14.8592474643
 20
43.1003549202
 30
0.0
 10
14.8572711581
 20
43.2183558704
 30
0.0
 10
14.8510375239
 20
43.2764023521
 30
0.0
  0
LINE
  5
32C
100
AcDbEntity
  8
0
100
AcDbLine
 62
7
  6
BYLAYER
 10
28.9672374638
 20
34.7621413486
 11
28.9185712855
 21
35.183786894
  0
LINE
  5
32D
100
AcDbEntity
  8
0
100
AcDbLine
 62
7
  6
BYLAYER
 10
28.918567622
 20
35.6918057891
 11
28.967233915
 21
35.2542514265
  0
SPLINE
  5
32E
100
AcDbEntity
  8
0
100
AcDbSpline
 62
7
  6
BYLAYER
 70
0
 71
3
 72
14
 73
10
 74
0
 42
0.0000001
 43
0.0000001
 44
0.0000000001
 40
0.0
 40
0.0
 40
0.0
 40
0.0
 40
0.1110231118
 40
0.2252179505
 40
0.3436675505
 40
0.4671087584
 40
0.5954343364
 40
0.727958173
 40
1.0
 40
1.0
 40
1.0
 40
1.0
 10
28.9185712855
 20
35.183786894
 30
0.0
 10
28.9168369052
 20
35.1987895721
 30
0.0
 10
28.9096418144
 20
35.2289033335
 30
0.0
 10
28.8887250886
 20
35.2711070798
 30
0.0
 10
28.8584021308
 20
35.3093097506
 30
0.0
 10
28.8199247191
 20
35.3422274601
 30
0.0
 10
28.7746771355
 20
35.368923836
 30
0.0
 10
28.7069190107
 20
35.395292059
 30
0.0
 10
28.6513895139
 20
35.4032479369
 30
0.0
 10
28.6143833634
 20
35.403247848
 30
0.0
  0
SPLINE
  5
32F
100
AcDbEntity
  8
0
100
AcDbSpline
 62
7
  6
BYLAYER
 70
0
 71
3
 72
14
 73
10
 74
0
 42
0.0000001
 43
0.0000001
 44
0.0000000001
 40
0.0
 40
0.0
 40
0.0
 40
0.0
 40
0.2720393801
 40
0.4045660693
 40
0.5328964625
 40
0.6563420514
 40
0.7747910227
 40
0.8889801771
 40
1.0
 40
1.0
 40
1.0
 40
1.0
 10
23.5931486356
 20
35.4032357784
 30
0.0
 10
23.5561427495
 20
35.4032356895
 30
0.0
 10
23.5006132226
 20
35.3952794151
 30
0.0
 10
23.4328542105
 20
35.3689109827
 30
0.0
 10
23.3876056546
 20
35.3422128575
 30
0.0
 10
23.349127291
 20
35.309294232
 30
0.0
 10
23.3188056034
 20
35.2710908592
 30
0.0
 10
23.2978887646
 20
35.2288885215
 30
0.0
 10
23.290694989
 20
35.1987756232
 30
0.0
 10
23.2889606538
 20
35.1837733621
 30
0.0
  0
LINE
  5
330
100
AcDbEntity
  8
0
100
AcDbLine
 62
7
  6
BYLAYER
 10
23.2889606538
 20
35.1837733621
 11
23.2402943608
 21
34.7621275828
  0
LINE
  5
331
100
AcDbEntity
  8
0
100
AcDbLine
 62
7
  6
BYLAYER
 10
23.240290812
 20
35.2542376606
 11
23.2889569903
 21
35.6917922571
  0
SPLINE
  5
332
100
AcDbEntity
  8
0
100
AcDbSpline
 62
7
  6
BYLAYER
 70
0
 71
3
 72
15
 73
11
 74
0
 42
0.0000001
 43
0.0000001
 44
0.0000000001
 40
0.0
 40
0.0
 40
0.0
 40
0.0
 40
0.1141521431
 40
0.2373214229
 40
0.3669696504
 40
0.4999912471
 40
0.6330151746
 40
0.7626650661
 40
0.8858469178
 40
1.0
 40
1.0
 40
1.0
 40
1.0
 10
27.0230157669
 20
15.5346336012
 30
0.0
 10
26.9600882723
 20
15.4983011652
 30
0.0
 10
26.82248526
 20
15.434222368
 30
0.0
 10
26.5984055835
 20
15.3661112153
 30
0.0
 10
26.3558032057
 20
15.3241861288
 30
0.0
 10
26.1037899834
 20
15.3100357097
 30
0.0
 10
25.8517757367
 20
15.3241804551
 30
0.0
 10
25.6091605137
 20
15.3660944921
 30
0.0
 10
25.3850713041
 20
15.4342080243
 30
0.0
 10
25.2474580503
 20
15.4982848313
 30
0.0
 10
25.1845291495
 20
15.5346160272
 30
0.0
  0
SPLINE
  5
333
100
AcDbEntity
  8
0
100
AcDbSpline
 62
7
  6
BYLAYER
 70
0
 71
3
 72
14
 73
10
 74
0
 42
0.0000001
 43
0.0000001
 44
0.0000000001
 40
0.0
 40
0.0
 40
0.0
 40
0.0
 40
0.1080460517
 40
0.2181315492
 40
0.3321041494
 40
0.4515030548
 40
0.5774600158
 40
0.7107294512
 40
1.0
 40
1.0
 40
1.0
 40
1.0
 10
27.603760524
 20
16.2286339105
 30
0.0
 10
27.6037636754
 20
16.2002381404
 30
0.0
 10
27.5988281992
 20
16.1427949958
 30
0.0
 10
27.5768154699
 20
16.0579522709
 30
0.0
 10
27.5404921819
 20
15.9749297443
 30
0.0
 10
27.4902922315
 20
15.8945894915
 30
0.0
 10
27.4268083697
 20
15.8176204493
 30
0.0
 10
27.3224801237
 20
15.7177882912
 30
0.0
 10
27.2302796742
 20
15.654299116
 30
0.0
 10
27.1644416929
 20
15.6162864554
 30
0.0
  0
SPLINE
  5
334
100
AcDbEntity
  8
0
100
AcDbSpline
 62
7
  6
BYLAYER
 70
0
 71
3
 72
25
 73
21
 74
0
 42
0.0000001
 43
0.0000001
 44
0.0000000001
 40
0.0
 40
0.0
 40
0.0
 40
0.0
 40
0.0214912834
 40
0.0430268579
 40
0.064847853
 40
0.0871791209
 40
0.1340675476
 40
0.1849587306
 40
0.2404619991
 40
0.3006795129
 40
0.3653098113
 40
0.4337455582
 40
0.5051553758
 40
0.578552042
 40
0.6528521592
 40
0.7269284819
 40
0.7996689832
 40
0.870017038
 40
0.9370512961
 40
1.0
 40
1.0
 40
1.0
 40
1.0
 10
29.0980141137
 20
34.1355339494
 30
0.0
 10
29.1026692256
 20
34.0921406051
 30
0.0
 10
29.1063455848
 20
34.0045483411
 30
0.0
 10
29.0945644002
 20
33.8730314858
 30
0.0
 10
29.0654997602
 20
33.7424628483
 30
0.0
 10
29.0031347841
 20
33.5679852119
 30
0.0
 10
28.8801388819
 20
33.3548113829
 30
0.0
 10
28.6723033609
 20
33.1208188445
 30
0.0
 10
28.4071410258
 20
32.9084690669
 30
0.0
 10
28.0907117796
 20
32.7219929432
 30
0.0
 10
27.7299826379
 20
32.5651366106
 30
0.0
 10
27.3329112176
 20
32.4412459788
 30
0.0
 10
26.9083121691
 20
32.3530232433
 30
0.0
 10
26.4656674417
 20
32.302425081
 30
0.0
 10
26.0149022005
 20
32.2905845243
 30
0.0
 10
25.5661288236
 20
32.3177573428
 30
0.0
 10
25.1294328719
 20
32.3833504114
 30
0.0
 10
24.7145356985
 20
32.4858831426
 30
0.0
 10
24.3308095683
 20
32.623091165
 30
0.0
 10
24.0931571564
 20
32.7397402981
 30
0.0
 10
23.9824526263
 20
32.8036541424
 30
0.0
  0
SPLINE
  5
335
100
AcDbEntity
  8
0
100
AcDbSpline
 62
7
  6
BYLAYER
 70
0
 71
3
 72
12
 73
8
 74
0
 42
0.0000001
 43
0.0000001
 44
0.0000000001
 40
0.0
 40
0.0
 40
0.0
 40
0.0
 40
0.115735647
 40
0.2329842806
 40
0.4745327178
 40
0.7292762561
 40
1.0
 40
1.0
 40
1.0
 40
1.0
 10
28.912513684
 20
35.7235204559
 30
0.0
 10
28.8989113209
 20
35.7735400607
 30
0.0
 10
28.8650089119
 20
35.87257823
 30
0.0
 10
28.7721250218
 20
36.0642076713
 30
0.0
 10
28.6102620304
 20
36.2891242706
 30
0.0
 10
28.35833561
 20
36.5251025015
 30
0.0
 10
28.1619721919
 20
36.6566973612
 30
0.0
 10
28.0569635783
 20
36.717322741
 30
0.0
  0
SPLINE
  5
336
100
AcDbEntity
  8
0
100
AcDbSpline
 62
7
  6
BYLAYER
 70
0
 71
3
 72
23
 73
19
 74
0
 42
0.0000001
 43
0.0000001
 44
0.0000000001
 40
0.0
 40
0.0
 40
0.0
 40
0.0
 40
0.0609283511
 40
0.1248061401
 40
0.1911777563
 40
0.2595304454
 40
0.3291682909
 40
0.3993293438
 40
0.4692239479
 40
0.5380750968
 40
0.6051675335
 40
0.669897575
 40
0.7318218506
 40
0.7907024001
 40
0.8465546601
 40
0.8996815567
 40
0.950583664
 40
1.0
 40
1.0
 40
1.0
 40
1.0
 10
28.0569635783
 20
36.717322741
 30
0.0
 10
27.9618970467
 20
36.772208187
 30
0.0
 10
27.7602031453
 20
36.872867726
 30
0.0
 10
27.4371707328
 20
36.9938985202
 30
0.0
 10
27.0912499503
 20
37.0873325611
 30
0.0
 10
26.7283451461
 20
37.1520551657
 30
0.0
 10
26.3545505689
 20
37.1871325107
 30
0.0
 10
25.9763805296
 20
37.1920715092
 30
0.0
 10
25.6004377406
 20
37.1668072238
 30
0.0
 10
25.2332666172
 20
37.1116979119
 30
0.0
 10
24.8811709126
 20
37.0275170022
 30
0.0
 10
24.5500428923
 20
36.9153722779
 30
0.0
 10
24.2452716598
 20
36.776534879
 30
0.0
 10
23.9717525089
 20
36.6122771542
 30
0.0
 10
23.7339989832
 20
36.4238016146
 30
0.0
 10
23.5367790266
 20
36.2121001876
 30
0.0
 10
23.385362216
 20
35.9789968006
 30
0.0
 10
23.3183722366
 20
35.8094170976
 30
0.0
 10
23.2950103657
 20
35.7235049126
 30
0.0
  0
SPLINE
  5
337
100
AcDbEntity
  8
0
100
AcDbSpline
 62
7
  6
BYLAYER
 70
0
 71
3
 72
16
 73
12
 74
0
 42
0.0000001
 43
0.0000001
 44
0.0000000001
 40
0.0
 40
0.0
 40
0.0
 40
0.0
 40
0.1497641355
 40
0.2912169702
 40
0.4242900618
 40
0.4878821671
 40
0.5496322432
 40
0.6681094182
 40
0.7812855955
 40
0.8911447263
 40
1.0
 40
1.0
 40
1.0
 40
1.0
 10
23.9824526263
 20
32.8036541424
 30
0.0
 10
23.9096223689
 20
32.8457017599
 30
0.0
 10
23.7715326663
 20
32.9338506397
 30
0.0
 10
23.5844376123
 20
33.0820493016
 30
0.0
 10
23.4497710713
 20
33.2166423463
 30
0.0
 10
23.3577227275
 20
33.3289536031
 30
0.0
 10
23.2784236553
 20
33.440668833
 30
0.0
 10
23.1977940029
 20
33.585146774
 30
0.0
 10
23.1325306385
 20
33.7664574109
 30
0.0
 10
23.1010441368
 20
33.9511384993
 30
0.0
 10
23.1029939789
 20
34.0747574727
 30
0.0
 10
23.1095143439
 20
34.1355339228
 30
0.0
  0
SPLINE
  5
338
100
AcDbEntity
  8
0
100
AcDbSpline
 62
7
  6
BYLAYER
 70
0
 71
3
 72
14
 73
10
 74
0
 42
0.0000001
 43
0.0000001
 44
0.0000000001
 40
0.0
 40
0.0
 40
0.0
 40
0.0
 40
0.2892627121
 40
0.4225615262
 40
0.5485059597
 40
0.6678879081
 40
0.7818672987
 40
0.8919530706
 40
1.0
 40
1.0
 40
1.0
 40
1.0
 10
25.0431083821
 20
15.6162676798
 30
0.0
 10
24.977268874
 20
15.6542792776
 30
0.0
 10
24.8850562879
 20
15.7177703604
 30
0.0
 10
24.7807299619
 20
15.817614155
 30
0.0
 10
24.7172287743
 20
15.8945751359
 30
0.0
 10
24.667054264
 20
15.9749280041
 30
0.0
 10
24.6307104006
 20
16.0579410871
 30
0.0
 10
24.6086991373
 20
16.142791898
 30
0.0
 10
24.6037709034
 20
16.2002368453
 30
0.0
 10
24.6037677518
 20
16.2286339108
 30
0.0
  0
SPLINE
  5
339
100
AcDbEntity
  8
0
100
AcDbSpline
 62
7
  6
BYLAYER
 70
0
 71
3
 72
13
 73
9
 74
0
 42
0.0000001
 43
0.0000001
 44
0.0000000001
 40
0.0
 40
0.0
 40
0.0
 40
0.0
 40
0.1082094459
 40
0.2200045451
 40
0.4571099584
 40
0.5839527261
 40
0.7167083301
 40
1.0
 40
1.0
 40
1.0
 40
1.0
 10
23.2889606538
 20
35.1837733621
 30
0.0
 10
23.3006574526
 20
35.1405697567
 30
0.0
 10
23.3303008412
 20
35.0542159257
 30
0.0
 10
23.4133634301
 20
34.8839476736
 30
0.0
 10
23.5302837329
 20
34.7234646762
 30
0.0
 10
23.6736227206
 20
34.5760468207
 30
0.0
 10
23.8439025847
 20
34.4292673489
 30
0.0
 10
23.9877578792
 20
34.3332978189
 30
0.0
 10
24.0892382243
 20
34.2747094397
 30
0.0
  0
SPLINE
  5
33A
100
AcDbEntity
  8
0
100
AcDbSpline
 62
7
  6
BYLAYER
 70
0
 71
3
 72
23
 73
19
 74
0
 42
0.0000001
 43
0.0000001
 44
0.0000000001
 40
0.0
 40
0.0
 40
0.0
 40
0.0
 40
0.0606935614
 40
0.1250199617
 40
0.1923703713
 40
0.2620668109
 40
0.3333005107
 40
0.4052104941
 40
0.4769115058
 40
0.5475248923
 40
0.6162129776
 40
0.6822154758
 40
0.7448877424
 40
0.8037443016
 40
0.858510008
 40
0.9091786626
 40
0.9561069871
 40
1.0
 40
1.0
 40
1.0
 40
1.0
 10
24.3005621524
 20
34.620318501
 30
0.0
 10
24.3851141373
 20
34.5715034941
 30
0.0
 10
24.5654867637
 20
34.4814650118
 30
0.0
 10
24.8555387226
 20
34.372336083
 30
0.0
 10
25.1684402742
 20
34.2868500114
 30
0.0
 10
25.4983959141
 20
34.2265250574
 30
0.0
 10
25.83944093
 20
34.1924831306
 30
0.0
 10
26.1853196324
 20
34.1853315451
 30
0.0
 10
26.529705445
 20
34.2051962292
 30
0.0
 10
26.8662975645
 20
34.2517195877
 30
0.0
 10
27.1889441487
 20
34.3240613435
 30
0.0
 10
27.4917691968
 20
34.4209054677
 30
0.0
 10
27.7692841223
 20
34.5405139072
 30
0.0
 10
28.0164834488
 20
34.6807982044
 30
0.0
 10
28.2288840471
 20
34.8393754356
 30
0.0
 10
28.402661682
 20
35.0136725292
 30
0.0
 10
28.5343034433
 20
35.2008186994
 30
0.0
 10
28.5935710669
 20
35.3357786051
 30
0.0
 10
28.6143833634
 20
35.403247848
 30
0.0
  0
SPLINE
  5
33B
100
AcDbEntity
  8
0
100
AcDbSpline
 62
7
  6
BYLAYER
 70
0
 71
3
 72
11
 73
7
 74
0
 42
0.0000001
 43
0.0000001
 44
0.0000000001
 40
0.0
 40
0.0
 40
0.0
 40
0.0
 40
0.2203383803
 40
0.458137921
 40
0.7175402719
 40
1.0
 40
1.0
 40
1.0
 40
1.0
 10
23.5931486356
 20
35.4032357784
 30
0.0
 10
23.6164905732
 20
35.3275696023
 30
0.0
 10
23.6855319855
 20
35.176103678
 30
0.0
 10
23.8419866467
 20
34.9690860338
 30
0.0
 10
24.0498154885
 20
34.7792278519
 30
0.0
 10
24.2126516561
 20
34.6710725015
 30
0.0
 10
24.3005621524
 20
34.620318501
 30
0.0
  0
SPLINE
  5
33C
100
AcDbEntity
  8
0
100
AcDbSpline
 62
7
  6
BYLAYER
 70
0
 71
3
 72
12
 73
8
 74
0
 42
0.0000001
 43
0.0000001
 44
0.0000000001
 40
0.0
 40
0.0
 40
0.0
 40
0.0
 40
0.2667523863
 40
0.5249292565
 40
0.7689266968
 40
0.8858846255
 40
1.0
 40
1.0
 40
1.0
 40
1.0
 10
28.6143796402
 20
35.9195470982
 30
0.0
 10
28.6482817969
 20
35.9195471797
 30
0.0
 10
28.7153882891
 20
35.910393118
 30
0.0
 10
28.80591879
 20
35.8702264905
 30
0.0
 10
28.8656927714
 20
35.8164757619
 30
0.0
 10
28.898055445
 20
35.7651374442
 30
0.0
 10
28.9086918886
 20
35.7375120391
 30
0.0
 10
28.9125011711
 20
35.723518057
 30
0.0
  0
SPLINE
  5
33D
100
AcDbEntity
  8
0
100
AcDbSpline
 62
7
  6
BYLAYER
 70
0
 71
3
 72
9
 73
5
 74
0
 42
0.0000001
 43
0.0000001
 44
0.0000000001
 40
0.0
 40
0.0
 40
0.0
 40
0.0
 40
0.2453674063
 40
1.0
 40
1.0
 40
1.0
 40
1.0
 10
27.1644416929
 20
15.6162864554
 30
0.0
 10
27.1551242977
 20
15.6109069013
 30
0.0
 10
27.1169020637
 20
15.589415477
 30
0.0
 10
27.0777245321
 20
15.5696317299
 30
0.0
 10
27.0477495778
 20
15.5556176561
 30
0.0
  0
SPLINE
  5
33E
100
AcDbEntity
  8
0
100
AcDbSpline
 62
7
  6
BYLAYER
 70
0
 71
3
 72
15
 73
11
 74
0
 42
0.0000001
 43
0.0000001
 44
0.0000000001
 40
0.0
 40
0.0
 40
0.0
 40
0.0
 40
0.1172308717
 40
0.2409686222
 40
0.3692699615
 40
0.49992254
 40
0.6305852944
 40
0.7589133203
 40
0.8826755556
 40
1.0
 40
1.0
 40
1.0
 40
1.0
 10
27.0231485178
 20
15.5443607605
 30
0.0
 10
26.9559034098
 20
15.5142484177
 30
0.0
 10
26.8135565047
 20
15.4613051269
 30
0.0
 10
26.5880183204
 20
15.4048977258
 30
0.0
 10
26.3495833843
 20
15.3703992926
 30
0.0
 10
26.1046210367
 20
15.3587421582
 30
0.0
 10
25.8596334566
 20
15.3702313804
 30
0.0
 10
25.6211384875
 20
15.4045816838
 30
0.0
 10
25.3954696114
 20
15.4608386339
 30
0.0
 10
25.2530126662
 20
15.5137002498
 30
0.0
 10
25.1856910237
 20
15.5437855262
 30
0.0
  0
SPLINE
  5
33F
100
AcDbEntity
  8
0
100
AcDbSpline
 62
7
  6
BYLAYER
 70
0
 71
3
 72
9
 73
5
 74
0
 42
0.0000001
 43
0.0000001
 44
0.0000000001
 40
0.0
 40
0.0
 40
0.0
 40
0.0
 40
0.2557301253
 40
1.0
 40
1.0
 40
1.0
 40
1.0
 10
25.1856910237
 20
15.5437855262
 30
0.0
 10
25.1732398882
 20
15.5493497971
 30
0.0
 10
25.1248171698
 20
15.5716950568
 30
0.0
 10
25.0774822683
 20
15.5964223563
 30
0.0
 10
25.0431083821
 20
15.6162676798
 30
0.0
  0
SPLINE
  5
340
100
AcDbEntity
  8
0
100
AcDbSpline
 62
7
  6
BYLAYER
 70
0
 71
3
 72
9
 73
5
 74
0
 42
0.0000001
 43
0.0000001
 44
0.0000000001
 40
0.0
 40
0.0
 40
0.0
 40
0.0
 40
0.2418169007
 40
1.0
 40
1.0
 40
1.0
 40
1.0
 10
24.0892382243
 20
34.2747094397
 30
0.0
 10
24.121413267
 20
34.2561335904
 30
0.0
 10
24.2560661275
 20
34.1820971543
 30
0.0
 10
24.3965416742
 20
34.1188147482
 30
0.0
 10
24.5050123674
 20
34.076352036
 30
0.0
  0
SPLINE
  5
341
100
AcDbEntity
  8
0
100
AcDbSpline
 62
7
  6
BYLAYER
 70
0
 71
3
 72
23
 73
19
 74
0
 42
0.0000001
 43
0.0000001
 44
0.0000000001
 40
0.0
 40
0.0
 40
0.0
 40
0.0
 40
0.0655785047
 40
0.1337714978
 40
0.203964198
 40
0.2754536303
 40
0.3475012745
 40
0.4193515361
 40
0.4902535636
 40
0.5594868979
 40
0.6263889541
 40
0.6903790761
 40
0.75098996
 40
0.8079080037
 40
0.8610065174
 40
0.9103955739
 40
0.9564987462
 40
1.0
 40
1.0
 40
1.0
 40
1.0
 10
24.5050123674
 20
34.076352036
 30
0.0
 10
24.6061096674
 20
34.0367757649
 30
0.0
 10
24.8162095694
 20
33.9656803528
 30
0.0
 10
25.1443202654
 20
33.8844692693
 30
0.0
 10
25.4874197753
 20
33.8274888825
 30
0.0
 10
25.8401436508
 20
33.7956847635
 30
0.0
 10
26.1969837625
 20
33.7895299385
 30
0.0
 10
26.552367754
 20
33.809108996
 30
0.0
 10
26.9007467287
 20
33.8541366127
 30
0.0
 10
27.236685642
 20
33.9239094178
 30
0.0
 10
27.5549608673
 20
34.0173299801
 30
0.0
 10
27.8506315506
 20
34.1329772615
 30
0.0
 10
28.1191262553
 20
34.2691024776
 30
0.0
 10
28.3563139179
 20
34.4236753312
 30
0.0
 10
28.5585169477
 20
34.5944504414
 30
0.0
 10
28.7225599718
 20
34.7790949395
 30
0.0
 10
28.8455222576
 20
34.9749327779
 30
0.0
 10
28.8997518921
 20
35.1142712915
 30
0.0
 10
28.9185712855
 20
35.183786894
 30
0.0
  0
SPLINE
  5
342
100
AcDbEntity
  8
0
100
AcDbSpline
 62
7
  6
BYLAYER
 70
0
 71
3
 72
23
 73
19
 74
0
 42
0.0000001
 43
0.0000001
 44
0.0000000001
 40
0.0
 40
0.0
 40
0.0
 40
0.0
 40
0.0606935614
 40
0.1250199617
 40
0.1923703713
 40
0.2620668109
 40
0.3333005107
 40
0.4052104941
 40
0.4769115058
 40
0.5475248923
 40
0.6162129776
 40
0.6822154758
 40
0.7448877424
 40
0.8037443016
 40
0.858510008
 40
0.9091786626
 40
0.9561069871
 40
1.0
 40
1.0
 40
1.0
 40
1.0
 10
27.9069661234
 20
36.7024643757
 30
0.0
 10
27.8224141385
 20
36.7512793825
 30
0.0
 10
27.6420415121
 20
36.8413178649
 30
0.0
 10
27.3519895532
 20
36.9504467936
 30
0.0
 10
27.0390880016
 20
37.0359328653
 30
0.0
 10
26.7091323617
 20
37.0962578192
 30
0.0
 10
26.3680873459
 20
37.130299746
 30
0.0
 10
26.0222086434
 20
37.1374513315
 30
0.0
 10
25.6778228308
 20
37.1175866474
 30
0.0
 10
25.3412307113
 20
37.071063289
 30
0.0
 10
25.0185841271
 20
36.9987215331
 30
0.0
 10
24.715759079
 20
36.9018774089
 30
0.0
 10
24.4382441536
 20
36.7822689694
 30
0.0
 10
24.191044827
 20
36.6419846722
 30
0.0
 10
23.9786442287
 20
36.4834074411
 30
0.0
 10
23.8048665938
 20
36.3091103475
 30
0.0
 10
23.6732248325
 20
36.1219641773
 30
0.0
 10
23.6139572089
 20
35.9870042715
 30
0.0
 10
23.5931449124
 20
35.9195350286
 30
0.0
  0
SPLINE
  5
343
100
AcDbEntity
  8
0
100
AcDbSpline
 62
7
  6
BYLAYER
 70
0
 71
3
 72
11
 73
7
 74
0
 42
0.0000001
 43
0.0000001
 44
0.0000000001
 40
0.0
 40
0.0
 40
0.0
 40
0.0
 40
0.2203383803
 40
0.458137921
 40
0.7175402719
 40
1.0
 40
1.0
 40
1.0
 40
1.0
 10
28.6143796402
 20
35.9195470982
 30
0.0
 10
28.5910377026
 20
35.9952132743
 30
0.0
 10
28.5219962903
 20
36.1466791987
 30
0.0
 10
28.3655416291
 20
36.3536968429
 30
0.0
 10
28.1577127873
 20
36.5435550247
 30
0.0
 10
27.9948766197
 20
36.6517103752
 30
0.0
 10
27.9069661234
 20
36.7024643757
 30
0.0
  0
SPLINE
  5
344
100
AcDbEntity
  8
0
100
AcDbSpline
 62
7
  6
BYLAYER
 70
0
 71
3
 72
9
 73
5
 74
0
 42
0.0000001
 43
0.0000001
 44
0.0000000001
 40
0.0
 40
0.0
 40
0.0
 40
0.0
 40
0.4977783232
 40
1.0
 40
1.0
 40
1.0
 40
1.0
 10
23.2142962494
 20
35.1115872616
 30
0.0
 10
23.2080623682
 20
35.0535384787
 30
0.0
 10
23.2060864073
 20
34.9355327128
 30
0.0
 10
23.2255896862
 20
34.8191663246
 30
0.0
 10
23.2402943608
 20
34.7621275828
 30
0.0
  0
SPLINE
  5
345
100
AcDbEntity
  8
0
100
AcDbSpline
 62
7
  6
BYLAYER
 70
0
 71
3
 72
12
 73
8
 74
0
 42
0.0000001
 43
0.0000001
 44
0.0000000001
 40
0.0
 40
0.0
 40
0.0
 40
0.0
 40
0.1141215672
 40
0.2310828139
 40
0.4750737304
 40
0.7332447549
 40
1.0
 40
1.0
 40
1.0
 40
1.0
 10
23.2950232442
 20
35.7235024785
 30
0.0
 10
23.2988328146
 20
35.7374973013
 30
0.0
 10
23.3094692443
 20
35.7651242195
 30
0.0
 10
23.3418324535
 20
35.816463232
 30
0.0
 10
23.401605894
 20
35.8702134774
 30
0.0
 10
23.4921356222
 20
35.9103803842
 30
0.0
 10
23.5592421592
 20
35.9195349472
 30
0.0
 10
23.5931449124
 20
35.9195350286
 30
0.0
  0
SPLINE
  5
346
100
AcDbEntity
  8
0
100
AcDbSpline
 62
7
  6
BYLAYER
 70
0
 71
3
 72
9
 73
5
 74
0
 42
0.0000001
 43
0.0000001
 44
0.0000000001
 40
0.0
 40
0.0
 40
0.0
 40
0.0
 40
0.5022213777
 40
1.0
 40
1.0
 40
1.0
 40
1.0
 10
28.9672374638
 20
34.7621413486
 30
0.0
 10
28.9819407494
 20
34.8191779643
 30
0.0
 10
29.0014419673
 20
34.9355398298
 30
0.0
 10
28.999465661
 20
35.05354078
 30
0.0
 10
28.9932320268
 20
35.1115872616
 30
0.0
  0
SPLINE
  5
347
100
AcDbEntity
  8
0
100
AcDbSpline
 62
7
  6
BYLAYER
 70
0
 71
3
 72
15
 73
11
 74
0
 42
0.0000001
 43
0.0000001
 44
0.0000000001
 40
0.0
 40
0.0
 40
0.0
 40
0.0
 40
0.1486045141
 40
0.2894990889
 40
0.4227227968
 40
0.5486417764
 40
0.668000708
 40
0.7819384286
 40
0.8919870976
 40
1.0
 40
1.0
 40
1.0
 40
1.0
 10
19.6054337985
 20
57.9234101511
 30
0.0
 10
19.695662661
 20
57.871314998
 30
0.0
 10
19.8757589571
 20
57.7770285423
 30
0.0
 10
20.1504820066
 20
57.664592427
 30
0.0
 10
20.4202950478
 20
57.5859217242
 30
0.0
 10
20.6826824721
 20
57.541910091
 30
0.0
 10
20.9351810994
 20
57.5331131102
 30
0.0
 10
21.1753623973
 20
57.5599042615
 30
0.0
 10
21.4006655316
 20
57.622209107
 30
0.0
 10
21.5399140962
 20
57.6874068301
 30
0.0
 10
21.6054972737
 20
57.725271218
 30
0.0
  0
SPLINE
  5
348
100
AcDbEntity
  8
0
100
AcDbSpline
 62
7
  6
BYLAYER
 70
0
 71
3
 72
15
 73
11
 74
0
 42
0.0000001
 43
0.0000001
 44
0.0000000001
 40
0.0
 40
0.0
 40
0.0
 40
0.0
 40
0.1080132627
 40
0.2180617257
 40
0.3319995369
 40
0.4513614563
 40
0.5772752811
 40
0.7104914696
 40
0.8514274723
 40
1.0
 40
1.0
 40
1.0
 40
1.0
 10
17.6055151812
 20
64.6534847872
 30
0.0
 10
17.5399326371
 20
64.615620765
 30
0.0
 10
17.4138468875
 20
64.5276282301
 30
0.0
 10
17.2472374955
 20
64.3636669794
 30
0.0
 10
17.103942828
 20
64.1690620721
 30
0.0
 10
16.9853176846
 20
63.9459957178
 30
0.0
 10
16.8922342612
 20
63.6967692486
 30
0.0
 10
16.8254431074
 20
63.423754818
 30
0.0
 10
16.7854747325
 20
63.1296192913
 30
0.0
 10
16.7770673268
 20
62.9265053049
 30
0.0
 10
16.7770673268
 20
62.8223410207
 30
0.0
  0
SPLINE
  5
349
100
AcDbEntity
  8
0
100
AcDbSpline
 62
7
  6
BYLAYER
 70
0
 71
3
 72
20
 73
16
 74
0
 42
0.0000001
 43
0.0000001
 44
0.0000000001
 40
0.0
 40
0.0
 40
0.0
 40
0.0
 40
0.055833903
 40
0.1142016622
 40
0.1748140281
 40
0.2373916919
 40
0.3669942208
 40
0.4999691794
 40
0.6329460926
 40
0.698401028
 40
0.7626075416
 40
0.8251883171
 40
0.8858019907
 40
0.9441528874
 40
1.0
 40
1.0
 40
1.0
 40
1.0
 10
16.7770732148
 20
62.0058561123
 30
0.0
 10
16.7770732148
 20
61.9238103768
 30
0.0
 10
16.7843741745
 20
61.7559346551
 30
0.0
 10
16.8152694238
 20
61.5006990408
 30
0.0
 10
16.8661321576
 20
61.2385755558
 30
0.0
 10
16.9609725348
 20
60.8791898278
 30
0.0
 10
17.1263810853
 20
60.4295720526
 30
0.0
 10
17.3888561372
 20
59.9096667997
 30
0.0
 10
17.6562255957
 20
59.5012466473
 30
0.0
 10
17.8950157671
 20
59.197816558
 30
0.0
 10
18.0828063704
 20
58.9865338335
 30
0.0
 10
18.278409201
 20
58.7924311881
 30
0.0
 10
18.4799658031
 20
58.617339395
 30
0.0
 10
18.6855384858
 20
58.4629407957
 30
0.0
 10
18.8272780106
 20
58.3726984545
 30
0.0
 10
18.8983480664
 20
58.3316651092
 30
0.0
  0
SPLINE
  5
34A
100
AcDbEntity
  8
0
100
AcDbSpline
 62
7
  6
BYLAYER
 70
0
 71
3
 72
24
 73
20
 74
0
 42
0.0000001
 43
0.0000001
 44
0.0000000001
 40
0.0
 40
0.0
 40
0.0
 40
0.0
 40
0.0743008662
 40
0.144745229
 40
0.2113543892
 40
0.2432856542
 40
0.2743431846
 40
0.3340198227
 40
0.3909874374
 40
0.4460102323
 40
0.500015094
 40
0.5540199373
 40
0.6090418211
 40
0.6660080958
 40
0.7256872757
 40
0.7886407256
 40
0.855248626
 40
0.9257197348
 40
1.0
 40
1.0
 40
1.0
 40
1.0
 10
18.8983480664
 20
58.3316651092
 30
0.0
 10
18.9660201168
 20
58.2925936525
 30
0.0
 10
19.1010896374
 20
58.2218678426
 30
0.0
 10
19.3071196671
 20
58.1375546266
 30
0.0
 10
19.4781269985
 20
58.0876926614
 30
0.0
 10
19.6119383159
 20
58.0613667557
 30
0.0
 10
19.7398855794
 20
58.0443575654
 30
0.0
 10
19.8956581745
 20
58.0389491637
 30
0.0
 10
20.0757740811
 20
58.0590181595
 30
0.0
 10
20.2447882465
 20
58.1057711229
 30
0.0
 10
20.4008252265
 20
58.1788209495
 30
0.0
 10
20.5421147088
 20
58.2774191203
 30
0.0
 10
20.6670989207
 20
58.4004169211
 30
0.0
 10
20.7745671031
 20
58.5463586025
 30
0.0
 10
20.8635368408
 20
58.7136600379
 30
0.0
 10
20.9333525231
 20
58.9005792506
 30
0.0
 10
20.9834509931
 20
59.1053467982
 30
0.0
 10
21.0134216775
 20
59.3259540645
 30
0.0
 10
21.0197315657
 20
59.4782918079
 30
0.0
 10
21.0197315657
 20
59.5564115852
 30
0.0
  0
SPLINE
  5
34B
100
AcDbEntity
  8
0
100
AcDbSpline
 62
7
  6
BYLAYER
 70
0
 71
3
 72
9
 73
5
 74
0
 42
0.0000001
 43
0.0000001
 44
0.0000000001
 40
0.0
 40
0.0
 40
0.0
 40
0.0
 40
0.2575106096
 40
1.0
 40
1.0
 40
1.0
 40
1.0
 10
19.3946805409
 20
64.5680145583
 30
0.0
 10
19.3616682314
 20
64.584224366
 30
0.0
 10
19.2324548241
 20
64.6450632649
 30
0.0
 10
19.0990726064
 20
64.6972024919
 30
0.0
 10
18.9981779123
 20
64.7298371284
 30
0.0
  0
SPLINE
  5
34C
100
AcDbEntity
  8
0
100
AcDbSpline
 62
7
  6
BYLAYER
 70
0
 71
3
 72
10
 73
6
 74
0
 42
0.0000001
 43
0.0000001
 44
0.0000000001
 40
0.0
 40
0.0
 40
0.0
 40
0.0
 40
0.5192026003
 40
0.7638987867
 40
1.0
 40
1.0
 40
1.0
 40
1.0
 10
18.8994000313
 20
64.7596337081
 30
0.0
 10
18.7728400163
 20
64.7950281212
 30
0.0
 10
18.5817228892
 20
64.832544229
 30
0.0
 10
18.3285485644
 20
64.844032818
 30
0.0
 10
18.206772508
 20
64.8367365512
 30
0.0
 10
18.1474199105
 20
64.8297710513
 30
0.0
  0
SPLINE
  5
34D
100
AcDbEntity
  8
0
100
AcDbSpline
 62
7
  6
BYLAYER
 70
0
 71
3
 72
9
 73
5
 74
0
 42
0.0000001
 43
0.0000001
 44
0.0000000001
 40
0.0
 40
0.0
 40
0.0
 40
0.0
 40
0.5034022426
 40
1.0
 40
1.0
 40
1.0
 40
1.0
 10
17.9656290996
 20
64.797192475
 30
0.0
 10
17.9022661997
 20
64.7817124941
 30
0.0
 10
17.7783220394
 20
64.7423400977
 30
0.0
 10
17.6612394086
 20
64.6856571193
 30
0.0
 10
17.6055151812
 20
64.6534847872
 30
0.0
  0
SPLINE
  5
34E
100
AcDbEntity
  8
0
100
AcDbSpline
 62
7
  6
BYLAYER
 70
0
 71
3
 72
36
 73
32
 74
0
 42
0.0000001
 43
0.0000001
 44
0.0000000001
 40
0.0
 40
0.0
 40
0.0
 40
0.0
 40
0.0325447034
 40
0.0665663753
 40
0.101896411
 40
0.1383719989
 40
0.2139153717
 40
0.2914244095
 40
0.3689344384
 40
0.4444776404
 40
0.4809547294
 40
0.5162851594
 40
0.5502965879
 40
0.5828485398
 40
0.6138429217
 40
0.643228575
 40
0.6710144012
 40
0.6843344519
 40
0.697290037
 40
0.7221840647
 40
0.745948093
 40
0.7689009148
 40
0.7914291791
 40
0.8139574999
 40
0.8369101281
 40
0.8606738899
 40
0.8855693538
 40
0.9118306788
 40
0.9396164479
 40
0.9690137386
 40
1.0
 40
1.0
 40
1.0
 40
1.0
 10
21.0197315657
 20
59.5564115852
 30
0.0
 10
21.0197315657
 20
59.6384588808
 30
0.0
 10
21.0124303342
 20
59.8063378425
 30
0.0
 10
20.9815339019
 20
60.0615784786
 30
0.0
 10
20.9306694287
 20
60.3237068325
 30
0.0
 10
20.8358249157
 20
60.6831007816
 30
0.0
 10
20.6704160827
 20
61.1327161021
 30
0.0
 10
20.4079086451
 20
61.6526741289
 30
0.0
 10
20.0888633818
 20
62.1399891202
 30
0.0
 10
19.7821896254
 20
62.5080523714
 30
0.0
 10
19.5183516973
 20
62.7698801553
 30
0.0
 10
19.3167879178
 20
62.9449698029
 30
0.0
 10
19.1111982962
 20
63.0993733157
 30
0.0
 10
18.9035032146
 20
63.2316029772
 30
0.0
 10
18.6956665252
 20
63.3404211565
 30
0.0
 10
18.4896293516
 20
63.4247330849
 30
0.0
 10
18.3186288671
 20
63.4745870524
 30
0.0
 10
18.1848207762
 20
63.5009084671
 30
0.0
 10
18.0568769877
 20
63.5179133653
 30
0.0
 10
17.9011086628
 20
63.523316991
 30
0.0
 10
17.7209981562
 20
63.5032431316
 30
0.0
 10
17.5519893198
 20
63.4564863586
 30
0.0
 10
17.3959575025
 20
63.383433799
 30
0.0
 10
17.2546728655
 20
63.2848340223
 30
0.0
 10
17.1296930634
 20
63.1618356947
 30
0.0
 10
17.0222287372
 20
63.0158945156
 30
0.0
 10
16.9332622262
 20
62.8485945248
 30
0.0
 10
16.8634490959
 20
62.6616776038
 30
0.0
 10
16.8133524626
 20
62.4569131032
 30
0.0
 10
16.7833828793
 20
62.2363095357
 30
0.0
 10
16.7770732148
 20
62.0839744752
 30
0.0
 10
16.7770732148
 20
62.0058561123
 30
0.0
  0
SPLINE
  5
34F
100
AcDbEntity
  8
0
100
AcDbSpline
 62
7
  6
BYLAYER
 70
0
 71
3
 72
9
 73
5
 74
0
 42
0.0000001
 43
0.0000001
 44
0.0000000001
 40
0.0
 40
0.0
 40
0.0
 40
0.0
 40
0.4962311385
 40
1.0
 40
1.0
 40
1.0
 40
1.0
 10
21.6054972737
 20
57.725271218
 30
0.0
 10
21.6642354071
 20
57.759183626
 30
0.0
 10
21.7775149232
 20
57.8367285843
 30
0.0
 10
21.8778179656
 20
57.9303907
 30
0.0
 10
21.9246755706
 20
57.980842659
 30
0.0
  0
SPLINE
  5
350
100
AcDbEntity
  8
0
100
AcDbSpline
 62
7
  6
BYLAYER
 70
0
 71
3
 72
9
 73
5
 74
0
 42
0.0000001
 43
0.0000001
 44
0.0000000001
 40
0.0
 40
0.0
 40
0.0
 40
0.0
 40
0.2462883737
 40
1.0
 40
1.0
 40
1.0
 40
1.0
 10
21.9246755706
 20
57.980842659
 30
0.0
 10
21.9389535031
 20
57.9962158234
 30
0.0
 10
21.9955748145
 20
58.0598814514
 30
0.0
 10
22.0467314451
 20
58.1283677192
 30
0.0
 10
22.0820909313
 20
58.1819611885
 30
0.0
  0
SPLINE
  5
351
100
AcDbEntity
  8
0
100
AcDbSpline
 62
7
  6
BYLAYER
 70
0
 71
3
 72
9
 73
5
 74
0
 42
0.0000001
 43
0.0000001
 44
0.0000000001
 40
0.0
 40
0.0
 40
0.0
 40
0.0
 40
0.481627454
 40
1.0
 40
1.0
 40
1.0
 40
1.0
 10
22.0820909313
 20
58.1819611885
 30
0.0
 10
22.1446468796
 20
58.2767756401
 30
0.0
 10
22.2543164624
 20
58.4873874501
 30
0.0
 10
22.3257160542
 20
58.7133102149
 30
0.0
 10
22.3541581777
 20
58.832213596
 30
0.0
  0
SPLINE
  5
352
100
AcDbEntity
  8
0
100
AcDbSpline
 62
7
  6
BYLAYER
 70
0
 71
3
 72
9
 73
5
 74
0
 42
0.0000001
 43
0.0000001
 44
0.0000000001
 40
0.0
 40
0.0
 40
0.0
 40
0.0
 40
0.2442068298
 40
1.0
 40
1.0
 40
1.0
 40
1.0
 10
22.3819057496
 20
58.9628344832
 30
0.0
 10
22.3869592628
 20
58.9899137863
 30
0.0
 10
22.405992674
 20
59.1011070678
 30
0.0
 10
22.418519185
 20
59.2133885342
 30
0.0
 10
22.4247270191
 20
59.2984165504
 30
0.0
  0
SPLINE
  5
353
100
AcDbEntity
  8
0
100
AcDbSpline
 62
7
  6
BYLAYER
 70
0
 71
3
 72
23
 73
19
 74
0
 42
0.0000001
 43
0.0000001
 44
0.0000000001
 40
0.0
 40
0.0
 40
0.0
 40
0.0
 40
0.073372915
 40
0.1478711924
 40
0.2228197754
 40
0.2975267195
 40
0.3713083183
 40
0.4435080227
 40
0.513514567
 40
0.5807849702
 40
0.6448695777
 40
0.7054372174
 40
0.7623070837
 40
0.8154880431
 40
0.8652157883
 40
0.9119870982
 40
0.9565758013
 40
1.0
 40
1.0
 40
1.0
 40
1.0
 10
27.6377751252
 20
45.4511314035
 30
0.0
 10
27.4491575715
 20
45.4160217201
 30
0.0
 10
27.0663155762
 20
45.3591568815
 30
0.0
 10
26.4850277344
 20
45.3136683163
 30
0.0
 10
25.8984796813
 20
45.3076988143
 30
0.0
 10
25.3147493504
 20
45.3413592177
 30
0.0
 10
24.7418261336
 20
45.4141669315
 30
0.0
 10
24.1875515408
 20
45.5251217507
 30
0.0
 10
23.6595010637
 20
45.6727316637
 30
0.0
 10
23.1648711953
 20
45.8549968346
 30
0.0
 10
22.7103733133
 20
46.0694618717
 30
0.0
 10
22.3021643043
 20
46.3133052619
 30
0.0
 10
21.9457892408
 20
46.5833934447
 30
0.0
 10
21.6461241209
 20
46.8763132626
 30
0.0
 10
21.4074428259
 20
47.188436332
 30
0.0
 10
21.2335181634
 20
47.5159495387
 30
0.0
 10
21.1275771835
 20
47.8542748987
 30
0.0
 10
21.103706955
 20
48.0850642023
 30
0.0
 10
21.1037141996
 20
48.1986109371
 30
0.0
  0
SPLINE
  5
354
100
AcDbEntity
  8
0
100
AcDbSpline
 62
7
  6
BYLAYER
 70
0
 71
3
 72
11
 73
7
 74
0
 42
0.0000001
 43
0.0000001
 44
0.0000000001
 40
0.0
 40
0.0
 40
0.0
 40
0.0
 40
0.2252318636
 40
0.4670209885
 40
0.7255409705
 40
1.0
 40
1.0
 40
1.0
 40
1.0
 10
21.5920832334
 20
49.2896897304
 30
0.0
 10
21.6842329081
 20
49.1783250835
 30
0.0
 10
21.894168037
 20
48.9626348096
 30
0.0
 10
22.2618206926
 20
48.6750583036
 30
0.0
 10
22.6874606057
 20
48.4161285952
 30
0.0
 10
22.9970312221
 20
48.2691815147
 30
0.0
 10
23.1593913228
 20
48.2008877066
 30
0.0
  0
SPLINE
  5
355
100
AcDbEntity
  8
0
100
AcDbSpline
 62
7
  6
BYLAYER
 70
0
 71
3
 72
11
 73
7
 74
0
 42
0.0000001
 43
0.0000001
 44
0.0000000001
 40
0.0
 40
0.0
 40
0.0
 40
0.0
 40
0.2371103024
 40
0.4843024072
 40
0.7394120184
 40
1.0
 40
1.0
 40
1.0
 40
1.0
 10
23.1593913228
 20
48.2008877066
 30
0.0
 10
23.3311336652
 20
48.1286474301
 30
0.0
 10
23.6891096982
 20
47.997757683
 30
0.0
 10
24.2503072414
 20
47.8449716133
 30
0.0
 10
24.839877241
 20
47.7333844212
 30
0.0
 10
25.242975278
 20
47.6879192486
 30
0.0
 10
25.4471447308
 20
47.6723065439
 30
0.0
  0
SPLINE
  5
356
100
AcDbEntity
  8
0
100
AcDbSpline
 62
7
  6
BYLAYER
 70
0
 71
3
 72
16
 73
12
 74
0
 42
0.0000001
 43
0.0000001
 44
0.0000000001
 40
0.0
 40
0.0
 40
0.0
 40
0.0
 40
0.0558420556
 40
0.1142321826
 40
0.2373901217
 40
0.3670294086
 40
0.5000399691
 40
0.633054272
 40
0.7626938694
 40
0.8858552666
 40
1.0
 40
1.0
 40
1.0
 40
1.0
 10
34.705761893
 20
34.491902536
 30
0.0
 10
34.705761893
 20
34.4239505444
 30
0.0
 10
34.7118144126
 20
34.2848920483
 30
0.0
 10
34.7465560758
 20
33.9978968808
 30
0.0
 10
34.8326446854
 20
33.6278524976
 30
0.0
 10
34.9950813047
 20
33.1862615675
 30
0.0
 10
35.2125391114
 20
32.755529605
 30
0.0
 10
35.4768133365
 20
32.3518630999
 30
0.0
 10
35.7780874354
 20
31.9903133639
 30
0.0
 10
36.1050034345
 20
31.6844550738
 30
0.0
 10
36.342595984
 20
31.5179015105
 30
0.0
 10
36.4628845607
 20
31.4484510029
 30
0.0
  0
SPLINE
  5
357
100
AcDbEntity
  8
0
100
AcDbSpline
 62
7
  6
BYLAYER
 70
0
 71
3
 72
15
 73
11
 74
0
 42
0.0000001
 43
0.0000001
 44
0.0000000001
 40
0.0
 40
0.0
 40
0.0
 40
0.0
 40
0.1486037745
 40
0.2894995004
 40
0.4227218323
 40
0.5486418163
 40
0.6680006703
 40
0.7819376318
 40
0.8919874939
 40
1.0
 40
1.0
 40
1.0
 40
1.0
 10
36.8164274285
 20
31.2443178288
 30
0.0
 10
36.8837603271
 20
31.2054420451
 30
0.0
 10
37.0181593474
 20
31.1350853503
 30
0.0
 10
37.2231673581
 20
31.0511709341
 30
0.0
 10
37.4245188596
 20
30.9924744261
 30
0.0
 10
37.6203229452
 20
30.9596206393
 30
0.0
 10
37.8087511861
 20
30.9530597575
 30
0.0
 10
37.9879842392
 20
30.9730592316
 30
0.0
 10
38.15612308
 20
31.0195353085
 30
0.0
 10
38.2600297332
 20
31.0682071225
 30
0.0
 10
38.3089709727
 20
31.0964632738
 30
0.0
  0
SPLINE
  5
358
100
AcDbEntity
  8
0
100
AcDbSpline
 62
7
  6
BYLAYER
 70
0
 71
3
 72
15
 73
11
 74
0
 42
0.0000001
 43
0.0000001
 44
0.0000000001
 40
0.0
 40
0.0
 40
0.0
 40
0.0
 40
0.1080124352
 40
0.2180618367
 40
0.3320011043
 40
0.451362035
 40
0.5772693389
 40
0.7104922434
 40
0.8514459498
 40
1.0
 40
1.0
 40
1.0
 40
1.0
 10
35.3239919846
 20
36.2666294022
 30
0.0
 10
35.275051414
 20
36.2383736371
 30
0.0
 10
35.1809482863
 20
36.1727253121
 30
0.0
 10
35.0566276513
 20
36.0503544601
 30
0.0
 10
34.9496922891
 20
35.9051328515
 30
0.0
 10
34.8611654182
 20
35.7386741907
 30
0.0
 10
34.7917046196
 20
35.5526888179
 30
0.0
 10
34.7418539078
 20
35.3489438911
 30
0.0
 10
34.7120411798
 20
35.1294404471
 30
0.0
 10
34.7057589491
 20
34.9778678556
 30
0.0
 10
34.7057589491
 20
34.9001449902
 30
0.0
  0
SPLINE
  5
359
100
AcDbEntity
  8
0
100
AcDbSpline
 62
7
  6
BYLAYER
 70
0
 71
3
 72
24
 73
20
 74
0
 42
0.0000001
 43
0.0000001
 44
0.0000000001
 40
0.0
 40
0.0
 40
0.0
 40
0.0
 40
0.0616287284
 40
0.1270712088
 40
0.1956622657
 40
0.2666272216
 40
0.3390608166
 40
0.4120043945
 40
0.4844760055
 40
0.5555135789
 40
0.6242156752
 40
0.6897845998
 40
0.7515749794
 40
0.8091508571
 40
0.8623544999
 40
0.9113846207
 40
0.9568736671
 40
0.9786538049
 40
1.0
 40
1.0
 40
1.0
 40
1.0
 10
38.9272040082
 20
32.4629476857
 30
0.0
 10
38.9272040082
 20
32.582471268
 30
0.0
 10
38.9115712317
 20
32.8290710052
 30
0.0
 10
38.8470955806
 20
33.2036310698
 30
0.0
 10
38.7420886726
 20
33.5876897867
 30
0.0
 10
38.5987151084
 20
33.9735560568
 30
0.0
 10
38.4197837031
 20
34.3535994114
 30
0.0
 10
38.2088773826
 20
34.7202348561
 30
0.0
 10
37.9701964741
 20
35.0661531422
 30
0.0
 10
37.7085010157
 20
35.3844621026
 30
0.0
 10
37.4289890965
 20
35.6688323982
 30
0.0
 10
37.1371789694
 20
35.9136235177
 30
0.0
 10
36.8387664426
 20
36.1139832661
 30
0.0
 10
36.5394943567
 20
36.2659161086
 30
0.0
 10
36.2449551061
 20
36.3662619305
 30
0.0
 10
35.9607266163
 20
36.4126645786
 30
0.0
 10
35.733422218
 20
36.4046438036
 30
0.0
 10
35.5649117661
 20
36.3692430172
 30
0.0
 10
35.4854203327
 20
36.3424529323
 30
0.0
 10
35.4470777643
 20
36.3268409914
 30
0.0
  0
SPLINE
  5
35A
100
AcDbEntity
  8
0
100
AcDbSpline
 62
7
  6
BYLAYER
 70
0
 71
3
 72
14
 73
10
 74
0
 42
0.0000001
 43
0.0000001
 44
0.0000000001
 40
0.0
 40
0.0
 40
0.0
 40
0.0
 40
0.107765891
 40
0.2185945642
 40
0.3337600563
 40
0.4542541746
 40
0.7135928161
 40
0.8534927826
 40
1.0
 40
1.0
 40
1.0
 40
1.0
 10
38.4333887434
 20
31.1814052656
 30
0.0
 10
38.4732077686
 20
31.2132116562
 30
0.0
 10
38.5492028863
 20
31.2839362151
 30
0.0
 10
38.6485366222
 20
31.4072058495
 30
0.0
 10
38.7336485466
 20
31.5477670437
 30
0.0
 10
38.8297476461
 20
31.7617357386
 30
0.0
 10
38.8914831985
 20
32.0017289765
 30
0.0
 10
38.9221857892
 20
32.2581202134
 30
0.0
 10
38.9272040082
 20
32.3936640774
 30
0.0
 10
38.9272040082
 20
32.4629476857
 30
0.0
  0
SPLINE
  5
35B
100
AcDbEntity
  8
0
100
AcDbSpline
 62
7
  6
BYLAYER
 70
0
 71
3
 72
9
 73
5
 74
0
 42
0.0000001
 43
0.0000001
 44
0.0000000001
 40
0.0
 40
0.0
 40
0.0
 40
0.0
 40
0.2611804515
 40
1.0
 40
1.0
 40
1.0
 40
1.0
 10
36.4628845607
 20
31.4484510029
 30
0.0
 10
36.4940247329
 20
31.4304717332
 30
0.0
 10
36.6147942966
 20
31.3643905923
 30
0.0
 10
36.7420649115
 20
31.3097757946
 30
0.0
 10
36.838814265
 20
31.2783785064
 30
0.0
  0
SPLINE
  5
35C
100
AcDbEntity
  8
0
100
AcDbSpline
 62
7
  6
BYLAYER
 70
0
 71
3
 72
20
 73
16
 74
0
 42
0.0000001
 43
0.0000001
 44
0.0000000001
 40
0.0
 40
0.0
 40
0.0
 40
0.0
 40
0.1322052352
 40
0.1938513698
 40
0.2529727746
 40
0.3101170167
 40
0.365942359
 40
0.4211969701
 40
0.4766655388
 40
0.5331206881
 40
0.5912696994
 40
0.7146962356
 40
0.7809999012
 40
0.8506430422
 40
1.0
 40
1.0
 40
1.0
 40
1.0
 10
36.838814265
 20
31.2783785064
 30
0.0
 10
36.9310088272
 20
31.2484593479
 30
0.0
 10
37.0708250661
 20
31.216291178
 30
0.0
 10
37.2563771062
 20
31.2062302401
 30
0.0
 10
37.3868729915
 20
31.2152685633
 30
0.0
 10
37.5108637932
 20
31.2406671102
 30
0.0
 10
37.6273889132
 20
31.2823759109
 30
0.0
 10
37.7355255006
 20
31.3400378845
 30
0.0
 10
37.8343689802
 20
31.4132499753
 30
0.0
 10
37.9231785915
 20
31.5013766129
 30
0.0
 10
38.0293546266
 20
31.6404520807
 30
0.0
 10
38.1103639516
 20
31.8053657335
 30
0.0
 10
38.166607584
 20
31.9872119048
 30
0.0
 10
38.2089194956
 20
32.1923513746
 30
0.0
 10
38.220097227
 20
32.3534432314
 30
0.0
 10
38.220097227
 20
32.4629459861
 30
0.0
  0
SPLINE
  5
35D
100
AcDbEntity
  8
0
100
AcDbSpline
 62
7
  6
BYLAYER
 70
0
 71
3
 72
32
 73
28
 74
0
 42
0.0000001
 43
0.0000001
 44
0.0000000001
 40
0.0
 40
0.0
 40
0.0
 40
0.0
 40
0.0325449076
 40
0.0665748604
 40
0.1383517409
 40
0.2139059749
 40
0.2914249298
 40
0.3689459274
 40
0.4444999378
 40
0.516278197
 40
0.582801279
 40
0.6138003885
 40
0.6431900192
 40
0.6709802747
 40
0.6972465327
 40
0.7221445424
 40
0.7459117473
 40
0.7688679436
 40
0.7913995244
 40
0.8139305475
 40
0.836886366
 40
0.8606545278
 40
0.8855524772
 40
0.9118164671
 40
0.9396086241
 40
0.9690141541
 40
1.0
 40
1.0
 40
1.0
 40
1.0
 10
38.220097227
 20
32.4629459861
 30
0.0
 10
38.220097227
 20
32.5308991852
 30
0.0
 10
38.2140444924
 20
32.6699601997
 30
0.0
 10
38.1793016092
 20
32.9569606317
 30
0.0
 10
38.0932100989
 20
33.3270117084
 30
0.0
 10
37.9307679152
 20
33.7686101437
 30
0.0
 10
37.7133040998
 20
34.1993479923
 30
0.0
 10
37.4490189753
 20
34.6030198296
 30
0.0
 10
37.1477478281
 20
34.9645669665
 30
0.0
 10
36.820785769
 20
35.2704377688
 30
0.0
 10
36.5300408557
 20
35.4742787659
 30
0.0
 10
36.2950089408
 20
35.5973667546
 30
0.0
 10
36.1243199418
 20
35.6671998854
 30
0.0
 10
35.956712215
 20
35.7160780974
 30
0.0
 10
35.7937078686
 20
35.7434091535
 30
0.0
 10
35.6368470228
 20
35.7488744768
 30
0.0
 10
35.4876482728
 20
35.7322274531
 30
0.0
 10
35.3476522175
 20
35.6935102281
 30
0.0
 10
35.2184067778
 20
35.6329941458
 30
0.0
 10
35.1013795783
 20
35.5513200978
 30
0.0
 10
34.9978433542
 20
35.4494450166
 30
0.0
 10
34.908847795
 20
35.3285428152
 30
0.0
 10
34.8351313234
 20
35.1899783506
 30
0.0
 10
34.7773146493
 20
35.0351427663
 30
0.0
 10
34.7358079058
 20
34.8655208935
 30
0.0
 10
34.710996822
 20
34.682782152
 30
0.0
 10
34.705761893
 20
34.5566004415
 30
0.0
 10
34.705761893
 20
34.491902536
 30
0.0
  0
SPLINE
  5
35E
100
AcDbEntity
  8
0
100
AcDbSpline
 62
7
  6
BYLAYER
 70
0
 71
3
 72
23
 73
19
 74
0
 42
0.0000001
 43
0.0000001
 44
0.0000000001
 40
0.0
 40
0.0
 40
0.0
 40
0.0
 40
0.0624864801
 40
0.1250299816
 40
0.1876882554
 40
0.2503992936
 40
0.3131318965
 40
0.3758571622
 40
0.4385381092
 40
0.5011445605
 40
0.5636557621
 40
0.6260565765
 40
0.6883543349
 40
0.7505741716
 40
0.8127663146
 40
0.8750049218
 40
0.9373709804
 40
1.0
 40
1.0
 40
1.0
 40
1.0
 10
17.3521279022
 20
39.5216064681
 30
0.0
 10
17.2490439205
 20
39.7206928163
 30
0.0
 10
17.0621084464
 20
40.1294250902
 30
0.0
 10
16.8443669523
 20
40.7678001445
 30
0.0
 10
16.6923244988
 20
41.425860485
 30
0.0
 10
16.6088489831
 20
42.0967735882
 30
0.0
 10
16.5953479772
 20
42.7729741122
 30
0.0
 10
16.652017014
 20
43.4468202471
 30
0.0
 10
16.7779608626
 20
44.1107351692
 30
0.0
 10
16.9708836857
 20
44.7575273068
 30
0.0
 10
17.2275014198
 20
45.3806610939
 30
0.0
 10
17.5437624393
 20
45.9744270513
 30
0.0
 10
17.914773612
 20
46.5342798994
 30
0.0
 10
18.335564697
 20
47.056698712
 30
0.0
 10
18.8009869087
 20
47.5393758222
 30
0.0
 10
19.306160529
 20
47.9809745621
 30
0.0
 10
19.8466321083
 20
48.3810496005
 30
0.0
 10
20.2270069544
 20
48.6195387994
 30
0.0
 10
20.4216037186
 20
48.7318924763
 30
0.0
  0
SPLINE
  5
35F
100
AcDbEntity
  8
0
100
AcDbSpline
 62
7
  6
BYLAYER
 70
0
 71
3
 72
11
 73
7
 74
0
 42
0.0000001
 43
0.0000001
 44
0.0000000001
 40
0.0
 40
0.0
 40
0.0
 40
0.0
 40
0.2650199574
 40
0.5175621604
 40
0.7611321772
 40
1.0
 40
1.0
 40
1.0
 40
1.0
 10
21.0416079132
 20
49.440234063
 30
0.0
 10
20.9715618189
 20
49.345034359
 30
0.0
 10
20.846564962
 20
49.1499384397
 30
0.0
 10
20.707188039
 20
48.8389604946
 30
0.0
 10
20.6226478583
 20
48.520746463
 30
0.0
 10
20.6037222449
 20
48.3051400788
 30
0.0
 10
20.6037152586
 20
48.1986109066
 30
0.0
  0
SPLINE
  5
360
100
AcDbEntity
  8
0
100
AcDbSpline
 62
7
  6
BYLAYER
 70
0
 71
3
 72
25
 73
21
 74
0
 42
0.0000001
 43
0.0000001
 44
0.0000000001
 40
0.0
 40
0.0
 40
0.0
 40
0.0
 40
0.0717038526
 40
0.1450398373
 40
0.2192957145
 40
0.2937275635
 40
0.3675855429
 40
0.4401384322
 40
0.5106957633
 40
0.5786336872
 40
0.6434209884
 40
0.7046494198
 40
0.7620715634
 40
0.8156418001
 40
0.8655616197
 40
0.912323591
 40
0.9347875801
 40
0.9567900686
 40
0.9784758223
 40
1.0
 40
1.0
 40
1.0
 40
1.0
 10
28.2346537977
 20
44.8017368268
 30
0.0
 10
28.023678537
 20
44.750550226
 30
0.0
 10
27.592639691
 20
44.6639947444
 30
0.0
 10
26.933210432
 20
44.581972576
 30
0.0
 10
26.2613255906
 20
44.5470493933
 30
0.0
 10
25.5870885408
 20
44.5597498489
 30
0.0
 10
24.9205791338
 20
44.6198883555
 30
0.0
 10
24.271776283
 20
44.7265798337
 30
0.0
 10
23.6503673841
 20
44.878225598
 30
0.0
 10
23.065606108
 20
45.0725719737
 30
0.0
 10
22.5261739199
 20
45.3067705615
 30
0.0
 10
22.0400597407
 20
45.5774579904
 30
0.0
 10
21.6144433945
 20
45.8807847195
 30
0.0
 10
21.2556538781
 20
46.2126201404
 30
0.0
 10
20.9692658884
 20
46.5683954464
 30
0.0
 10
20.792628875
 20
46.8854248797
 30
0.0
 10
20.6943434243
 20
47.1439771076
 30
0.0
 10
20.6421481746
 20
47.3377171606
 30
0.0
 10
20.6107086762
 20
47.5329871974
 30
0.0
 10
20.6037108707
 20
47.6639200879
 30
0.0
 10
20.6037150932
 20
47.729088283
 30
0.0
  0
SPLINE
  5
361
100
AcDbEntity
  8
0
100
AcDbSpline
 62
7
  6
BYLAYER
 70
0
 71
3
 72
9
 73
5
 74
0
 42
0.0000001
 43
0.0000001
 44
0.0000000001
 40
0.0
 40
0.0
 40
0.0
 40
0.0
 40
0.4392467308
 40
1.0
 40
1.0
 40
1.0
 40
1.0
 10
17.352127614
 20
39.5216070248
 30
0.0
 10
17.3746663002
 20
39.4780779921
 30
0.0
 10
17.4212892457
 20
39.3765291969
 30
0.0
 10
17.4593574086
 20
39.2714684573
 30
0.0
 10
17.478398508
 20
39.2118580591
 30
0.0
  0
SPLINE
  5
362
100
AcDbEntity
  8
0
100
AcDbSpline
 62
7
  6
BYLAYER
 70
0
 71
3
 72
23
 73
19
 74
0
 42
0.0000001
 43
0.0000001
 44
0.0000000001
 40
0.0
 40
0.0
 40
0.0
 40
0.0
 40
0.0453625815
 40
0.0935120114
 40
0.144753935
 40
0.1992101942
 40
0.2568472811
 40
0.3174982447
 40
0.3808892425
 40
0.4466619222
 40
0.5143881075
 40
0.5835889435
 40
0.6537492839
 40
0.7243299513
 40
0.7947817033
 40
0.8645577292
 40
0.9331315223
 40
1.0
 40
1.0
 40
1.0
 40
1.0
 10
21.0724810468
 20
46.4268541796
 30
0.0
 10
21.1298005665
 20
46.3193277628
 30
0.0
 10
21.2663270796
 20
46.1071176631
 30
0.0
 10
21.5217788322
 20
45.8125439178
 30
0.0
 10
21.8302503323
 20
45.5360738625
 30
0.0
 10
22.188017246
 20
45.280751501
 30
0.0
 10
22.5909874615
 20
45.0493430183
 30
0.0
 10
23.034520432
 20
44.84440787
 30
0.0
 10
23.5135201235
 20
44.6682264386
 30
0.0
 10
24.0224868185
 20
44.5228344538
 30
0.0
 10
24.5555447024
 20
44.409881928
 30
0.0
 10
25.1065318395
 20
44.3306542299
 30
0.0
 10
25.6690764363
 20
44.2860986454
 30
0.0
 10
26.2366586766
 20
44.2767145832
 30
0.0
 10
26.8026949389
 20
44.3025947297
 30
0.0
 10
27.3606395942
 20
44.3634737646
 30
0.0
 10
27.9039912234
 20
44.4586247269
 30
0.0
 10
28.2576501045
 20
44.5454701511
 30
0.0
 10
28.430413728
 20
44.5946162233
 30
0.0
  0
SPLINE
  5
363
100
AcDbEntity
  8
0
100
AcDbSpline
 62
7
  6
BYLAYER
 70
0
 71
3
 72
16
 73
12
 74
0
 42
0.0000001
 43
0.0000001
 44
0.0000000001
 40
0.0
 40
0.0
 40
0.0
 40
0.0
 40
0.1282242928
 40
0.2607412426
 40
0.394896275
 40
0.5279251087
 40
0.6571368831
 40
0.780090993
 40
0.8386080945
 40
0.8948633472
 40
1.0
 40
1.0
 40
1.0
 40
1.0
 10
28.353125917
 20
44.6782682043
 30
0.0
 10
28.0781066001
 20
44.6002369604
 30
0.0
 10
27.5090354811
 20
44.4747151732
 30
0.0
 10
26.6325656479
 20
44.3771290371
 30
0.0
 10
25.7399374339
 20
44.3687914113
 30
0.0
 10
24.8583454521
 20
44.4500034037
 30
0.0
 10
24.0145487981
 20
44.6182804525
 30
0.0
 10
23.3531982645
 20
44.8303279006
 30
0.0
 10
22.8663066273
 20
45.0407819349
 30
0.0
 10
22.4306820154
 20
45.2661568151
 30
0.0
 10
22.1293738417
 20
45.4667539362
 30
0.0
 10
21.9474004612
 20
45.6145025279
 30
0.0
  0
SPLINE
  5
364
100
AcDbEntity
  8
0
100
AcDbSpline
 62
7
  6
BYLAYER
 70
0
 71
3
 72
28
 73
24
 74
0
 42
0.0000001
 43
0.0000001
 44
0.0000000001
 40
0.0
 40
0.0
 40
0.0
 40
0.0
 40
0.0729422031
 40
0.1482763672
 40
0.2249733043
 40
0.3019472058
 40
0.3780987943
 40
0.4523651781
 40
0.5237687618
 40
0.59147116
 40
0.6548344611
 40
0.7134941316
 40
0.7674459784
 40
0.7928080331
 40
0.8172066895
 40
0.8407835896
 40
0.8637121008
 40
0.8861968283
 40
0.9084630071
 40
0.9307479819
 40
0.953287542
 40
0.9763050368
 40
1.0
 40
1.0
 40
1.0
 40
1.0
 10
28.7525972921
 20
44.2476560543
 30
0.0
 10
28.4967119097
 20
44.1713369345
 30
0.0
 10
27.9685089331
 20
44.0421809633
 30
0.0
 10
27.1531231394
 20
43.9194663606
 30
0.0
 10
26.3154454089
 20
43.8663568057
 30
0.0
 10
25.4733122111
 20
43.8839862827
 30
0.0
 10
24.644512076
 20
43.9719829678
 30
0.0
 10
23.8465724978
 20
44.1284884935
 30
0.0
 10
23.0963025128
 20
44.3502306969
 30
0.0
 10
22.4094449797
 20
44.6326101676
 30
0.0
 10
21.8002788399
 20
44.9699750542
 30
0.0
 10
21.2815841766
 20
45.3555709537
 30
0.0
 10
20.9265613519
 20
45.7187875397
 30
0.0
 10
20.7022689425
 20
46.0258096839
 30
0.0
 10
20.5665019139
 20
46.2580100815
 30
0.0
 10
20.4604989037
 20
46.4955470033
 30
0.0
 10
20.3850210702
 20
46.7371961972
 30
0.0
 10
20.3404703321
 20
46.9815696496
 30
0.0
 10
20.3272541999
 20
47.2272818981
 30
0.0
 10
20.3453966555
 20
47.4728750772
 30
0.0
 10
20.3948044033
 20
47.7169232973
 30
0.0
 10
20.4751216204
 20
47.9579838288
 30
0.0
 10
20.5477072112
 20
48.1132810917
 30
0.0
 10
20.5885748606
 20
48.1897922292
 30
0.0
  0
SPLINE
  5
365
100
AcDbEntity
  8
0
100
AcDbSpline
 62
7
  6
BYLAYER
 70
0
 71
3
 72
29
 73
25
 74
0
 42
0.0000001
 43
0.0000001
 44
0.0000000001
 40
0.0
 40
0.0
 40
0.0
 40
0.0
 40
0.0534445738
 40
0.0785430105
 40
0.1027288742
 40
0.1262000814
 40
0.1491898494
 40
0.1719581828
 40
0.1947779002
 40
0.2179185732
 40
0.2416320594
 40
0.2661381954
 40
0.2916197768
 40
0.3182155497
 40
0.3460245657
 40
0.4054305766
 40
0.4699524114
 40
0.5391945486
 40
0.6124252403
 40
0.6886705525
 40
0.7667928316
 40
0.8455595197
 40
0.9237060686
 40
1.0
 40
1.0
 40
1.0
 40
1.0
 10
20.6917125583
 20
48.7212631653
 30
0.0
 10
20.5348691094
 20
48.5665740892
 30
0.0
 10
20.3226462936
 20
48.3184283461
 30
0.0
 10
20.1026846402
 20
47.955781459
 30
0.0
 10
19.9773656573
 20
47.6825162466
 30
0.0
 10
19.8892171977
 20
47.4041672336
 30
0.0
 10
19.8389633924
 20
47.1224226449
 30
0.0
 10
19.8269327779
 20
46.8391477815
 30
0.0
 10
19.8533199187
 20
46.5562290975
 30
0.0
 10
19.9178095102
 20
46.2755370248
 30
0.0
 10
20.0199802798
 20
45.9989057398
 30
0.0
 10
20.1589779134
 20
45.7280137552
 30
0.0
 10
20.3339137579
 20
45.4645268673
 30
0.0
 10
20.5435656597
 20
45.209912017
 30
0.0
 10
20.874952521
 20
44.8770474581
 30
0.0
 10
21.3727552556
 20
44.4936066281
 30
0.0
 10
22.0684744904
 20
44.1019071539
 30
0.0
 10
22.8594381148
 20
43.7769253107
 30
0.0
 10
23.7270291048
 20
43.5261356433
 30
0.0
 10
24.6509179158
 20
43.3552958225
 30
0.0
 10
25.6092512496
 20
43.2684280641
 30
0.0
 10
26.5793463918
 20
43.2675942878
 30
0.0
 10
27.5380568927
 20
43.3527813316
 30
0.0
 10
28.1653760848
 20
43.4675929686
 30
0.0
 10
28.4714821188
 20
43.539656696
 30
0.0
  0
SPLINE
  5
366
100
AcDbEntity
  8
0
100
AcDbSpline
 62
7
  6
BYLAYER
 70
0
 71
3
 72
9
 73
5
 74
0
 42
0.0000001
 43
0.0000001
 44
0.0000000001
 40
0.0
 40
0.0
 40
0.0
 40
0.0
 40
0.2550071777
 40
1.0
 40
1.0
 40
1.0
 40
1.0
 10
16.7666599577
 20
41.1012480869
 30
0.0
 10
16.7315154089
 20
41.0588211427
 30
0.0
 10
16.5961844189
 20
40.8904096018
 30
0.0
 10
16.4710638803
 20
40.7137277865
 30
0.0
 10
16.3848546628
 20
40.5778122761
 30
0.0
  0
SPLINE
  5
367
100
AcDbEntity
  8
0
100
AcDbSpline
 62
7
  6
BYLAYER
 70
0
 71
3
 72
34
 73
30
 74
0
 42
0.0000001
 43
0.0000001
 44
0.0000000001
 40
0.0
 40
0.0
 40
0.0
 40
0.0
 40
0.0774105276
 40
0.156414902
 40
0.235524914
 40
0.3132446898
 40
0.3881569174
 40
0.4241793977
 40
0.4590555385
 40
0.4926736769
 40
0.524949596
 40
0.5558308664
 40
0.5852979284
 40
0.6133686649
 40
0.6401097417
 40
0.6656385252
 40
0.6901278495
 40
0.7138038705
 40
0.736939389
 40
0.7598436169
 40
0.7828419802
 40
0.8062542973
 40
0.8303719525
 40
0.8554408474
 40
0.8816546297
 40
0.9091517412
 40
0.9380240095
 40
0.9683168066
 40
1.0
 40
1.0
 40
1.0
 40
1.0
 10
28.8572327428
 20
41.0931527969
 30
0.0
 10
28.4247735448
 20
41.0020792303
 30
0.0
 10
27.5405272173
 20
40.8647935009
 30
0.0
 10
26.1959319365
 20
40.7906983766
 30
0.0
 10
24.8485240288
 20
40.8470698257
 30
0.0
 10
23.5363619513
 20
41.032350694
 30
0.0
 10
22.4889511666
 20
41.2932849085
 30
0.0
 10
21.7012683317
 20
41.5639063755
 30
0.0
 10
21.1494332336
 20
41.7919627535
 30
0.0
 10
20.6327958742
 20
42.046063083
 30
0.0
 10
20.1549892304
 20
42.3244665001
 30
0.0
 10
19.7193919524
 20
42.6252745074
 30
0.0
 10
19.329046254
 20
42.9463780417
 30
0.0
 10
18.986803641
 20
43.2856588892
 30
0.0
 10
18.6951110398
 20
43.6407668313
 30
0.0
 10
18.4561869164
 20
44.0093417025
 30
0.0
 10
18.271936708
 20
44.3888596382
 30
0.0
 10
18.1438944319
 20
44.7766131342
 30
0.0
 10
18.0733448791
 20
45.1697273343
 30
0.0
 10
18.0609060771
 20
45.5651018352
 30
0.0
 10
18.1067924501
 20
45.9595759453
 30
0.0
 10
18.2104942846
 20
46.3500214547
 30
0.0
 10
18.3710314543
 20
46.7334570052
 30
0.0
 10
18.5869774425
 20
47.1070817535
 30
0.0
 10
18.8565346269
 20
47.4682833189
 30
0.0
 10
19.1776281169
 20
47.8146185301
 30
0.0
 10
19.547933296
 20
48.1438003985
 30
0.0
 10
19.9647307127
 20
48.4534640485
 30
0.0
 10
20.2649609612
 20
48.6414515762
 30
0.0
 10
20.4216086341
 20
48.7318953139
 30
0.0
  0
SPLINE
  5
368
100
AcDbEntity
  8
0
100
AcDbSpline
 62
7
  6
BYLAYER
 70
0
 71
3
 72
9
 73
5
 74
0
 42
0.0000001
 43
0.0000001
 44
0.0000000001
 40
0.0
 40
0.0
 40
0.0
 40
0.0
 40
0.2457439522
 40
1.0
 40
1.0
 40
1.0
 40
1.0
 10
17.3521429051
 20
39.5215781213
 30
0.0
 10
17.3722991414
 20
39.4826507675
 30
0.0
 10
17.4570381715
 20
39.3256609272
 30
0.0
 10
17.5523999145
 20
39.174452071
 30
0.0
 10
17.6293137141
 20
39.064058522
 30
0.0
  0
SPLINE
  5
369
100
AcDbEntity
  8
0
100
AcDbSpline
 62
7
  6
BYLAYER
 70
0
 71
3
 72
25
 73
21
 74
0
 42
0.0000001
 43
0.0000001
 44
0.0000000001
 40
0.0
 40
0.0
 40
0.0
 40
0.0
 40
0.0216349112
 40
0.0434210078
 40
0.0655038169
 40
0.0880196773
 40
0.1347795553
 40
0.1845327171
 40
0.23777534
 40
0.2947371846
 40
0.3554174406
 40
0.4196231714
 40
0.487009284
 40
0.5571113882
 40
0.6293719451
 40
0.7031651011
 40
0.7778208471
 40
0.8526436102
 40
0.9269306679
 40
1.0
 40
1.0
 40
1.0
 40
1.0
 10
20.6037152586
 20
48.1986109066
 30
0.0
 10
20.603711137
 20
48.1357631972
 30
0.0
 10
20.6102148745
 20
48.0095321671
 30
0.0
 10
20.6394480388
 20
47.8211960172
 30
0.0
 10
20.6879914137
 20
47.6342276283
 30
0.0
 10
20.7793510056
 20
47.3846822646
 30
0.0
 10
20.9435742379
 20
47.0781462529
 30
0.0
 10
21.2104826112
 20
46.7325122668
 30
0.0
 10
21.5454677999
 20
46.4084457744
 30
0.0
 10
21.9436573898
 20
46.1101262443
 30
0.0
 10
22.399521853
 20
45.8413542989
 30
0.0
 10
22.9067660801
 20
45.6056544908
 30
0.0
 10
23.4584020469
 20
45.4061779102
 30
0.0
 10
24.0468162176
 20
45.2456541962
 30
0.0
 10
24.6638551472
 20
45.1263006721
 30
0.0
 10
25.3009431647
 20
45.0497494256
 30
0.0
 10
25.9492134762
 20
45.0170656825
 30
0.0
 10
26.599644208
 20
45.02872615
 30
0.0
 10
27.243127308
 20
45.084547811
 30
0.0
 10
27.6663698261
 20
45.1514436387
 30
0.0
 10
27.8746519615
 20
45.1923475844
 30
0.0
  0
SPLINE
  5
36A
100
AcDbEntity
  8
0
100
AcDbSpline
 62
7
  6
BYLAYER
 70
0
 71
3
 72
15
 73
11
 74
0
 42
0.0000001
 43
0.0000001
 44
0.0000000001
 40
0.0
 40
0.0
 40
0.0
 40
0.0
 40
0.1460431679
 40
0.2856044817
 40
0.4185766366
 40
0.5451822851
 40
0.6658423546
 40
0.7812090593
 40
0.8922059796
 40
1.0
 40
1.0
 40
1.0
 40
1.0
 10
34.5961664557
 20
61.6793049808
 30
0.0
 10
34.5961664557
 20
61.4527075758
 30
0.0
 10
34.5801935139
 20
61.0093483649
 30
0.0
 10
34.5048021718
 20
60.3635438059
 30
0.0
 10
34.3788356708
 20
59.7562822271
 30
0.0
 10
34.2030940735
 20
59.1920218039
 30
0.0
 10
33.9787048875
 20
58.6747578721
 30
0.0
 10
33.7069419692
 20
58.2083265524
 30
0.0
 10
33.3896913254
 20
57.7964051598
 30
0.0
 10
33.1465051604
 20
57.5576168758
 30
0.0
 10
33.0189244674
 20
57.4494687522
 30
0.0
  0
SPLINE
  5
36B
100
AcDbEntity
  8
0
100
AcDbSpline
 62
7
  6
BYLAYER
 70
0
 71
3
 72
32
 73
28
 74
0
 42
0.0000001
 43
0.0000001
 44
0.0000000001
 40
0.0
 40
0.0
 40
0.0
 40
0.0
 40
0.0213268512
 40
0.042882071
 40
0.064882079
 40
0.0875211769
 40
0.1109650524
 40
0.1353458057
 40
0.1607628798
 40
0.1872817539
 40
0.2149390547
 40
0.2437425716
 40
0.2736770526
 40
0.3047046965
 40
0.3367698827
 40
0.3698002846
 40
0.4383802234
 40
0.5096485081
 40
0.5826541125
 40
0.6563668476
 40
0.7297254555
 40
0.8016835893
 40
0.8712593862
 40
0.9048846506
 40
0.937603458
 40
0.9693375014
 40
1.0
 40
1.0
 40
1.0
 40
1.0
 10
22.5250954009
 20
74.4219728965
 30
0.0
 10
22.6479507549
 20
74.4929085072
 30
0.0
 10
22.9044253997
 20
74.6198292205
 30
0.0
 10
23.3133369157
 20
74.7611900997
 30
0.0
 10
23.7450144502
 20
74.8532547088
 30
0.0
 10
24.1968703816
 20
74.8956492228
 30
0.0
 10
24.6663948385
 20
74.8882326816
 30
0.0
 10
25.1510205858
 20
74.8312688611
 30
0.0
 10
25.6481359612
 20
74.7251013339
 30
0.0
 10
26.1551195503
 20
74.5704773443
 30
0.0
 10
26.6692599515
 20
74.3682147559
 30
0.0
 10
27.1878599374
 20
74.1195063056
 30
0.0
 10
27.70813934
 20
73.8256627132
 30
0.0
 10
28.2273434554
 20
73.4883146013
 30
0.0
 10
28.7426988192
 20
73.1092582612
 30
0.0
 10
29.4295285437
 20
72.54394611
 30
0.0
 10
30.2592852291
 20
71.7447896618
 30
0.0
 10
31.1841116064
 20
70.6702418426
 30
0.0
 10
32.0308951104
 20
69.4909200809
 30
0.0
 10
32.7815153038
 20
68.2320581427
 30
0.0
 10
33.4199894135
 20
66.9204539142
 30
0.0
 10
33.932664756
 20
65.5841836589
 30
0.0
 10
34.2495920228
 20
64.4609414524
 30
0.0
 10
34.4290058008
 20
63.5744519198
 30
0.0
 10
34.5247758571
 20
62.9287794453
 30
0.0
 10
34.5826889808
 20
62.2984160363
 30
0.0
 10
34.5961664557
 20
61.8832682532
 30
0.0
 10
34.5961664557
 20
61.6793049808
 30
0.0
  0
SPLINE
  5
36C
100
AcDbEntity
  8
0
100
AcDbSpline
 62
7
  6
BYLAYER
 70
0
 71
3
 72
15
 73
11
 74
0
 42
0.0000001
 43
0.0000001
 44
0.0000000001
 40
0.0
 40
0.0
 40
0.0
 40
0.0
 40
0.1122810852
 40
0.2259890155
 40
0.3424611096
 40
0.462877048
 40
0.5882090699
 40
0.7192003993
 40
0.8563562275
 40
1.0
 40
1.0
 40
1.0
 40
1.0
 10
17.5753686683
 20
71.5642635949
 30
0.0
 10
17.4413556634
 20
71.4868857225
 30
0.0
 10
17.182160163
 20
71.3120506852
 30
0.0
 10
16.8299257583
 20
70.9958146892
 30
0.0
 10
16.5153595287
 20
70.6272406467
 30
0.0
 10
16.2405978444
 20
70.2089922146
 30
0.0
 10
16.0071817095
 20
69.7439906604
 30
0.0
 10
15.8164762278
 20
69.2353232024
 30
0.0
 10
15.669508406
 20
68.6863368178
 30
0.0
 10
15.6027809078
 20
68.3045823113
 30
0.0
 10
15.576420574
 20
68.108372957
 30
0.0
  0
SPLINE
  5
36D
100
AcDbEntity
  8
0
100
AcDbSpline
 62
7
  6
BYLAYER
 70
0
 71
3
 72
32
 73
28
 74
0
 42
0.0000001
 43
0.0000001
 44
0.0000000001
 40
0.0
 40
0.0
 40
0.0
 40
0.0
 40
0.0306624659
 40
0.0623963807
 40
0.0951150397
 40
0.128740212
 40
0.1983158385
 40
0.2702739376
 40
0.3436326901
 40
0.4173456447
 40
0.4903514599
 40
0.5616199703
 40
0.6302001495
 40
0.6632306545
 40
0.6952959083
 40
0.7263235845
 40
0.7562580473
 40
0.7850615151
 40
0.8127187352
 40
0.8392375229
 40
0.864654509
 40
0.8890351885
 40
0.9124790004
 40
0.9351180509
 40
0.9571180135
 40
0.9786731924
 40
1.0
 40
1.0
 40
1.0
 40
1.0
 10
29.6464395952
 20
58.8215959037
 30
0.0
 10
29.6464395952
 20
59.0255589589
 30
0.0
 10
29.6329623767
 20
59.4407056777
 30
0.0
 10
29.5750493202
 20
60.0710670225
 30
0.0
 10
29.4792800176
 20
60.7167371186
 30
0.0
 10
29.2998670389
 20
61.6032240232
 30
0.0
 10
28.9829412506
 20
62.72646457
 30
0.0
 10
28.4702669414
 20
64.0627347995
 30
0.0
 10
27.8317927116
 20
65.3743414112
 30
0.0
 10
27.081171074
 20
66.6332069596
 30
0.0
 10
26.2343852061
 20
67.8125324087
 30
0.0
 10
25.3095557781
 20
68.8870835782
 30
0.0
 10
24.4797958737
 20
69.6862421509
 30
0.0
 10
23.7929637723
 20
70.2515557337
 30
0.0
 10
23.2776067589
 20
70.6306121045
 30
0.0
 10
22.7584020004
 20
70.967960236
 30
0.0
 10
22.2381222156
 20
71.2618026744
 30
0.0
 10
21.7195229362
 20
71.5105103219
 30
0.0
 10
21.2053834658
 20
71.7127713425
 30
0.0
 10
20.6984013705
 20
71.867394402
 30
0.0
 10
20.2012874297
 20
71.9735607059
 30
0.0
 10
19.7166631339
 20
72.0305240406
 30
0.0
 10
19.247139911
 20
72.0379397778
 30
0.0
 10
18.7952850021
 20
71.9955453881
 30
0.0
 10
18.3636085305
 20
71.9034801723
 30
0.0
 10
17.954697659
 20
71.7621200531
 30
0.0
 10
17.6982237981
 20
71.6351990131
 30
0.0
 10
17.5753686683
 20
71.5642635949
 30
0.0
  0
SPLINE
  5
36E
100
AcDbEntity
  8
0
100
AcDbSpline
 62
7
  6
BYLAYER
 70
0
 71
3
 72
10
 73
6
 74
0
 42
0.0000001
 43
0.0000001
 44
0.0000000001
 40
0.0
 40
0.0
 40
0.0
 40
0.0
 40
0.4766162533
 40
0.7325650041
 40
1.0
 40
1.0
 40
1.0
 40
1.0
 10
29.2645205072
 20
56.3950292124
 30
0.0
 10
29.3966489331
 20
56.7639225793
 30
0.0
 10
29.5390694394
 20
57.3538762679
 30
0.0
 10
29.6313683605
 20
58.1711409035
 30
0.0
 10
29.6464395952
 20
58.60172868
 30
0.0
 10
29.6464395952
 20
58.8215959037
 30
0.0
  0
SPLINE
  5
36F
100
AcDbEntity
  8
0
100
AcDbSpline
 62
7
  6
BYLAYER
 70
0
 71
3
 72
11
 73
7
 74
0
 42
0.0000001
 43
0.0000001
 44
0.0000000001
 40
0.0
 40
0.0
 40
0.0
 40
0.0
 40
0.2897094328
 40
0.5490986131
 40
0.7822231695
 40
1.0
 40
1.0
 40
1.0
 40
1.0
 10
7.5067418709
 20
27.4553623152
 30
0.0
 10
7.4760268529
 20
27.4730926599
 30
0.0
 10
7.4203015363
 20
27.5114681413
 30
0.0
 10
7.3537002112
 20
27.5814516416
 30
0.0
 10
7.3115693883
 20
27.6588727454
 30
0.0
 10
7.3017160117
 20
27.7144399638
 30
0.0
 10
7.3017160176
 20
27.7410993987
 30
0.0
  0
SPLINE
  5
370
100
AcDbEntity
  8
0
100
AcDbSpline
 62
7
  6
BYLAYER
 70
0
 71
3
 72
15
 73
11
 74
0
 42
0.0000001
 43
0.0000001
 44
0.0000000001
 40
0.0
 40
0.0
 40
0.0
 40
0.0
 40
0.114121131
 40
0.2373441301
 40
0.3669700935
 40
0.4999994019
 40
0.6330287965
 40
0.7626549828
 40
0.8858784243
 40
1.0
 40
1.0
 40
1.0
 40
1.0
 10
26.5987003836
 20
17.0043354749
 30
0.0
 10
26.5648303833
 20
16.9847778597
 30
0.0
 10
26.4907336673
 20
16.9502852148
 30
0.0
 10
26.3700966308
 20
16.9135897298
 30
0.0
 10
26.2394634185
 20
16.8910296377
 30
0.0
 10
26.1037836232
 20
16.8833997607
 30
0.0
 10
25.9681037124
 20
16.8910289562
 30
0.0
 10
25.8374701338
 20
16.913588447
 30
0.0
 10
25.7168325305
 20
16.9502833239
 30
0.0
 10
25.6427352602
 20
16.9847755259
 30
0.0
 10
25.6088650382
 20
17.0043330619
 30
0.0
  0
SPLINE
  5
371
100
AcDbEntity
  8
0
100
AcDbSpline
 62
7
  6
BYLAYER
 70
0
 71
3
 72
11
 73
7
 74
0
 42
0.0000001
 43
0.0000001
 44
0.0000000001
 40
0.0
 40
0.0
 40
0.0
 40
0.0
 40
0.2689673411
 40
0.5273341554
 40
0.7716760409
 40
1.0
 40
1.0
 40
1.0
 40
1.0
 10
27.3023721649
 20
15.6989142188
 30
0.0
 10
27.6314978146
 20
15.7392566385
 30
0.0
 10
28.2732943183
 20
15.8517133421
 30
0.0
 10
29.1882458332
 20
16.120077666
 30
0.0
 10
30.017222179
 20
16.479824095
 30
0.0
 10
30.5154687528
 20
16.7875608709
 30
0.0
 10
30.7409047827
 20
16.9561170583
 30
0.0
  0
SPLINE
  5
372
100
AcDbEntity
  8
0
100
AcDbSpline
 62
7
  6
BYLAYER
 70
0
 71
3
 72
11
 73
7
 74
0
 42
0.0000001
 43
0.0000001
 44
0.0000000001
 40
0.0
 40
0.0
 40
0.0
 40
0.0
 40
0.2294159116
 40
0.4740818932
 40
0.7320134919
 40
1.0
 40
1.0
 40
1.0
 40
1.0
 10
21.5603681094
 20
16.8877001424
 30
0.0
 10
21.7832017046
 20
16.7293372828
 30
0.0
 10
22.271418023
 20
16.4401788872
 30
0.0
 10
23.0773304253
 20
16.1008968134
 30
0.0
 10
23.9616733821
 20
15.8467187192
 30
0.0
 10
24.5803605027
 20
15.7389764079
 30
0.0
 10
24.8972921695
 20
15.69986686
 30
0.0
  0
SPLINE
  5
373
100
AcDbEntity
  8
0
100
AcDbSpline
 62
7
  6
BYLAYER
 70
0
 71
3
 72
9
 73
5
 74
0
 42
0.0000001
 43
0.0000001
 44
0.0000000001
 40
0.0
 40
0.0
 40
0.0
 40
0.0
 40
0.5171930747
 40
1.0
 40
1.0
 40
1.0
 40
1.0
 10
7.3555968928
 20
33.2038346495
 30
0.0
 10
7.3387827771
 20
33.1805456671
 30
0.0
 10
7.3116717553
 20
33.1310620476
 30
0.0
 10
7.3017160131
 20
33.0751797373
 30
0.0
 10
7.3017160176
 20
33.04836511
 30
0.0
  0
SPLINE
  5
374
100
AcDbEntity
  8
0
100
AcDbSpline
 62
7
  6
BYLAYER
 70
0
 71
3
 72
15
 73
11
 74
0
 42
0.0000001
 43
0.0000001
 44
0.0000000001
 40
0.0
 40
0.0
 40
0.0
 40
0.0
 40
0.1420560512
 40
0.280999667
 40
0.4156709585
 40
0.5450638885
 40
0.6684332004
 40
0.7853382678
 40
0.8957383207
 40
1.0
 40
1.0
 40
1.0
 40
1.0
 10
27.616770598
 20
16.3161661761
 30
0.0
 10
28.0000590351
 20
16.3521037322
 30
0.0
 10
28.7559855033
 20
16.450666328
 30
0.0
 10
29.8598881407
 20
16.6803131724
 30
0.0
 10
30.9092206693
 20
16.9875966677
 30
0.0
 10
31.889061987
 20
17.368731251
 30
0.0
 10
32.7856724729
 20
17.8192701178
 30
0.0
 10
33.5866574323
 20
18.3344929457
 30
0.0
 10
34.2802812179
 20
18.9092852696
 30
0.0
 10
34.6744824748
 20
19.3405769419
 30
0.0
 10
34.8475054822
 20
19.5639512386
 30
0.0
  0
SPLINE
  5
375
100
AcDbEntity
  8
0
100
AcDbSpline
 62
7
  6
BYLAYER
 70
0
 71
3
 72
11
 73
7
 74
0
 42
0.0000001
 43
0.0000001
 44
0.0000000001
 40
0.0
 40
0.0
 40
0.0
 40
0.0
 40
0.2612282049
 40
0.5133283852
 40
0.7586433635
 40
1.0
 40
1.0
 40
1.0
 40
1.0
 10
35.3651395287
 20
20.2322215617
 30
0.0
 10
35.5031070088
 20
20.4103388496
 30
0.0
 10
35.7530433115
 20
20.7775978821
 30
0.0
 10
36.0433128627
 20
21.3665295274
 30
0.0
 10
36.2361389029
 20
21.9764635971
 30
0.0
 10
36.2966599761
 20
22.394091782
 30
0.0
 10
36.3092230283
 20
22.6018752582
 30
0.0
  0
SPLINE
  5
376
100
AcDbEntity
  8
0
100
AcDbSpline
 62
7
  6
BYLAYER
 70
0
 71
3
 72
11
 73
7
 74
0
 42
0.0000001
 43
0.0000001
 44
0.0000000001
 40
0.0
 40
0.0
 40
0.0
 40
0.0
 40
0.2323749737
 40
0.478252141
 40
0.7351916226
 40
1.0
 40
1.0
 40
1.0
 40
1.0
 10
19.4512126331
 20
17.8223870473
 30
0.0
 10
19.8145043677
 20
17.6165273289
 30
0.0
 10
20.5913001746
 20
17.2429615552
 30
0.0
 10
21.8413959249
 20
16.808469749
 30
0.0
 10
23.1857349683
 20
16.490061874
 30
0.0
 10
24.1158793891
 20
16.3607125834
 30
0.0
 10
24.5896428621
 20
16.3162628795
 30
0.0
  0
SPLINE
  5
377
100
AcDbEntity
  8
0
100
AcDbSpline
 62
7
  6
BYLAYER
 70
0
 71
3
 72
10
 73
6
 74
0
 42
0.0000001
 43
0.0000001
 44
0.0000000001
 40
0.0
 40
0.0
 40
0.0
 40
0.0
 40
0.2340546051
 40
0.6044863605
 40
1.0
 40
1.0
 40
1.0
 40
1.0
 10
17.3599050349
 20
19.5639512386
 30
0.0
 10
17.4906734428
 20
19.3951280193
 30
0.0
 10
17.8555486678
 20
18.9797165887
 30
0.0
 10
18.5484473339
 20
18.3807438057
 30
0.0
 10
19.1372573621
 20
18.0002901966
 30
0.0
 10
19.4512126331
 20
17.8223870473
 30
0.0
  0
SPLINE
  5
378
100
AcDbEntity
  8
0
100
AcDbSpline
 62
7
  6
BYLAYER
 70
0
 71
3
 72
11
 73
7
 74
0
 42
0.0000001
 43
0.0000001
 44
0.0000000001
 40
0.0
 40
0.0
 40
0.0
 40
0.0
 40
0.2413563737
 40
0.4866713799
 40
0.7387716784
 40
1.0
 40
1.0
 40
1.0
 40
1.0
 10
15.8981876641
 20
22.601871979
 30
0.0
 10
15.9107508136
 20
22.3940889995
 30
0.0
 10
15.9712720711
 20
21.9764615814
 30
0.0
 10
16.1640982508
 20
21.3665285319
 30
0.0
 10
16.454367423
 20
20.7775973809
 30
0.0
 10
16.7043036212
 20
20.4103387039
 30
0.0
 10
16.8422709884
 20
20.2322215617
 30
0.0
  0
SPLINE
  5
379
100
AcDbEntity
  8
0
100
AcDbSpline
 62
7
  6
BYLAYER
 70
0
 71
3
 72
13
 73
9
 74
0
 42
0.0000001
 43
0.0000001
 44
0.0000000001
 40
0.0
 40
0.0
 40
0.0
 40
0.0
 40
0.1125766634
 40
0.2283597354
 40
0.3480077663
 40
0.4719859997
 40
0.7309622422
 40
1.0
 40
1.0
 40
1.0
 40
1.0
 10
34.6180400914
 20
18.6421292596
 30
0.0
 10
34.6128972065
 20
18.6184770992
 30
0.0
 10
34.5972123137
 20
18.5715030858
 30
0.0
 10
34.5594370861
 20
18.5063821183
 30
0.0
 10
34.508346339
 20
18.4478011174
 30
0.0
 10
34.4237071077
 20
18.3798529859
 30
0.0
 10
34.2940447677
 20
18.3205809806
 30
0.0
 10
34.1798882347
 20
18.3047690762
 30
0.0
 10
34.1220430838
 20
18.3047689372
 30
0.0
  0
LINE
  5
37A
100
AcDbEntity
  8
0
100
AcDbLine
 62
7
  6
BYLAYER
 10
34.8110877719
 20
19.53009357
 11
34.6180400914
 21
18.6421292596
  0
SPLINE
  5
37B
100
AcDbEntity
  8
0
100
AcDbSpline
 62
7
  6
BYLAYER
 70
0
 71
3
 72
13
 73
9
 74
0
 42
0.0000001
 43
0.0000001
 44
0.0000000001
 40
0.0
 40
0.0
 40
0.0
 40
0.0
 40
0.2690364362
 40
0.5280161318
 40
0.6519959241
 40
0.7716437391
 40
0.8874245972
 40
1.0
 40
1.0
 40
1.0
 40
1.0
 10
18.085375731
 20
18.3047303898
 30
0.0
 10
18.027530962
 20
18.3047302507
 30
0.0
 10
17.9133740805
 20
18.320541596
 30
0.0
 10
17.7837110183
 20
18.3798134636
 30
0.0
 10
17.6990709686
 20
18.4477620267
 30
0.0
 10
17.6479808902
 20
18.5063431381
 30
0.0
 10
17.610205651
 20
18.5714630488
 30
0.0
 10
17.5945215763
 20
18.6184364732
 30
0.0
 10
17.5893787525
 20
18.6420883277
 30
0.0
  0
LINE
  5
37C
100
AcDbEntity
  8
0
100
AcDbLine
 62
7
  6
BYLAYER
 10
17.5893787525
 20
18.6420883277
 11
17.3981307432
 21
19.5217725408
  0
SPLINE
  5
37D
100
AcDbEntity
  8
0
100
AcDbSpline
 62
7
  6
BYLAYER
 70
0
 71
3
 72
12
 73
8
 74
0
 42
0.0000001
 43
0.0000001
 44
0.0000000001
 40
0.0
 40
0.0
 40
0.0
 40
0.0
 40
0.2662270782
 40
0.5240001094
 40
0.7695720822
 40
0.8868747596
 40
1.0
 40
1.0
 40
1.0
 40
1.0
 10
24.5892420966
 20
16.9896591608
 30
0.0
 10
24.0645552025
 20
17.0350731335
 30
0.0
 10
23.0351698428
 20
17.171548421
 30
0.0
 10
21.5499631599
 20
17.5160997747
 30
0.0
 10
20.3865431092
 20
17.9171096313
 30
0.0
 10
19.5266963602
 20
18.3020858152
 30
0.0
 10
19.1227870569
 20
18.5142174478
 30
0.0
 10
18.9283758747
 20
18.6250478929
 30
0.0
  0
SPLINE
  5
37E
100
AcDbEntity
  8
0
100
AcDbSpline
 62
7
  6
BYLAYER
 70
0
 71
3
 72
12
 73
8
 74
0
 42
0.0000001
 43
0.0000001
 44
0.0000000001
 40
0.0
 40
0.0
 40
0.0
 40
0.0
 40
0.1131354614
 40
0.2304427927
 40
0.4760121231
 40
0.7337758217
 40
1.0
 40
1.0
 40
1.0
 40
1.0
 10
18.975388924
 20
18.4555354933
 30
0.0
 10
19.1682168699
 20
18.3456076238
 30
0.0
 10
19.5688138794
 20
18.1351874766
 30
0.0
 10
20.4215460523
 20
17.7532470056
 30
0.0
 10
21.5752599266
 20
17.3552362943
 30
0.0
 10
23.0480687046
 20
17.0129446825
 30
0.0
 10
24.0688799607
 20
16.8770677876
 30
0.0
 10
24.5892150102
 20
16.8317260628
 30
0.0
  0
SPLINE
  5
37F
100
AcDbEntity
  8
0
100
AcDbSpline
 62
7
  6
BYLAYER
 70
0
 71
3
 72
11
 73
7
 74
0
 42
0.0000001
 43
0.0000001
 44
0.0000000001
 40
0.0
 40
0.0
 40
0.0
 40
0.0
 40
0.2371085551
 40
0.4811092451
 40
0.7346944994
 40
1.0
 40
1.0
 40
1.0
 40
1.0
 10
36.2699532823
 20
22.2613698035
 30
0.0
 10
36.2418013209
 20
22.0907616643
 30
0.0
 10
36.1587651944
 20
21.7483822276
 30
0.0
 10
35.9598847316
 20
21.2491651152
 30
0.0
 10
35.6873179642
 20
20.7624976989
 30
0.0
 10
35.4634029586
 20
20.456243912
 30
0.0
 10
35.3410356743
 20
20.3063769895
 30
0.0
  0
SPLINE
  5
380
100
AcDbEntity
  8
0
100
AcDbSpline
 62
7
  6
BYLAYER
 70
0
 71
3
 72
15
 73
11
 74
0
 42
0.0000001
 43
0.0000001
 44
0.0000000001
 40
0.0
 40
0.0
 40
0.0
 40
0.0
 40
0.1015570192
 40
0.2105150397
 40
0.3269774121
 40
0.4506195948
 40
0.5807736534
 40
0.7165068617
 40
0.8566662589
 40
1.0
 40
1.0
 40
1.0
 40
1.0
 10
35.3410356743
 20
20.3063769895
 30
0.0
 10
35.1567183732
 20
20.0806380033
 30
0.0
 10
34.7365673207
 20
19.6430373089
 30
0.0
 10
33.9998827568
 20
19.0582699424
 30
0.0
 10
33.1461907315
 20
18.5303576924
 30
0.0
 10
32.1882515026
 20
18.0669029162
 30
0.0
 10
31.1400862392
 20
17.6744178152
 30
0.0
 10
30.0171623074
 20
17.3586435007
 30
0.0
 10
28.8360976662
 20
17.1241364364
 30
0.0
 10
28.0277786468
 20
17.0251072988
 30
0.0
 10
27.6179982837
 20
16.9896431025
 30
0.0
  0
SPLINE
  5
381
100
AcDbEntity
  8
0
100
AcDbSpline
 62
7
  6
BYLAYER
 70
0
 71
3
 72
10
 73
6
 74
0
 42
0.0000001
 43
0.0000001
 44
0.0000000001
 40
0.0
 40
0.0
 40
0.0
 40
0.0
 40
0.2680020867
 40
0.5241440847
 40
1.0
 40
1.0
 40
1.0
 40
1.0
 10
18.8825766265
 20
18.6513228548
 30
0.0
 10
18.6823681902
 20
18.7669106344
 30
0.0
 10
18.2986766302
 20
19.0072637505
 30
0.0
 10
17.6063004997
 20
19.522351144
 30
0.0
 10
17.1485277421
 20
19.9648390564
 30
0.0
 10
16.8870300805
 20
20.281238485
 30
0.0
  0
SPLINE
  5
382
100
AcDbEntity
  8
0
100
AcDbSpline
 62
7
  6
BYLAYER
 70
0
 71
3
 72
11
 73
7
 74
0
 42
0.0000001
 43
0.0000001
 44
0.0000000001
 40
0.0
 40
0.0
 40
0.0
 40
0.0
 40
0.2670851119
 40
0.5205237349
 40
0.7634820107
 40
1.0
 40
1.0
 40
1.0
 40
1.0
 10
16.8870300805
 20
20.281238485
 30
0.0
 10
16.7419928357
 20
20.4567264841
 30
0.0
 10
16.4802198618
 20
20.8169427879
 30
0.0
 10
16.1760304103
 20
21.3950413814
 30
0.0
 10
15.9753026077
 20
21.9895318855
 30
0.0
 10
15.9119927022
 20
22.3957908834
 30
0.0
 10
15.8987853692
 20
22.5969681622
 30
0.0
  0
SPLINE
  5
383
100
AcDbEntity
  8
0
100
AcDbSpline
 62
7
  6
BYLAYER
 70
0
 71
3
 72
10
 73
6
 74
0
 42
0.0000001
 43
0.0000001
 44
0.0000000001
 40
0.0
 40
0.0
 40
0.0
 40
0.0
 40
0.2694160873
 40
0.5260165206
 40
1.0
 40
1.0
 40
1.0
 40
1.0
 10
19.3308439737
 20
17.9112104359
 30
0.0
 10
19.129764849
 20
18.0273008963
 30
0.0
 10
18.7455867324
 20
18.2693303385
 30
0.0
 10
18.0584033775
 20
18.7900631699
 30
0.0
 10
17.6100554326
 20
19.2410139713
 30
0.0
 10
17.3599219833
 20
19.5639556143
 30
0.0
  0
SPLINE
  5
384
100
AcDbEntity
  8
0
100
AcDbSpline
 62
7
  6
BYLAYER
 70
0
 71
3
 72
11
 73
7
 74
0
 42
0.0000001
 43
0.0000001
 44
0.0000000001
 40
0.0
 40
0.0
 40
0.0
 40
0.0
 40
0.2657364011
 40
0.5232034673
 40
0.7689095168
 40
1.0
 40
1.0
 40
1.0
 40
1.0
 10
24.5890203679
 20
16.3611316632
 30
0.0
 10
24.1144983829
 20
16.4049943648
 30
0.0
 10
23.1834331495
 20
16.5325895924
 30
0.0
 10
21.8385899606
 20
16.8464469987
 30
0.0
 10
20.5906034075
 20
17.2735076654
 30
0.0
 10
19.8153961581
 20
17.6400918213
 30
0.0
 10
19.4533504538
 20
17.8417405499
 30
0.0
  0
SPLINE
  5
385
100
AcDbEntity
  8
0
100
AcDbSpline
 62
7
  6
BYLAYER
 70
0
 71
3
 72
11
 73
7
 74
0
 42
0.0000001
 43
0.0000001
 44
0.0000000001
 40
0.0
 40
0.0
 40
0.0
 40
0.0
 40
0.2177770204
 40
0.4509016406
 40
0.7102907504
 40
1.0
 40
1.0
 40
1.0
 40
1.0
 10
7.3017160176
 20
33.04836511
 30
0.0
 10
7.301716022
 20
33.0217058246
 30
0.0
 10
7.311569239
 20
32.9661389277
 30
0.0
 10
7.3536996783
 20
32.8887182448
 30
0.0
 10
7.4203002299
 20
32.8187349416
 30
0.0
 10
7.4760249946
 20
32.7803594441
 30
0.0
 10
7.5067397942
 20
32.7626292255
 30
0.0
  0
SPLINE
  5
386
100
AcDbEntity
  8
0
100
AcDbSpline
 62
7
  6
BYLAYER
 70
0
 71
3
 72
15
 73
11
 74
0
 42
0.0000001
 43
0.0000001
 44
0.0000000001
 40
0.0
 40
0.0
 40
0.0
 40
0.0
 40
0.1141214722
 40
0.2373447568
 40
0.36697082
 40
0.5000001301
 40
0.6330294236
 40
0.7626554172
 40
0.8858786659
 40
1.0
 40
1.0
 40
1.0
 40
1.0
 10
25.6088650373
 20
22.3115987737
 30
0.0
 10
25.6427351305
 20
22.2920413121
 30
0.0
 10
25.7168320871
 20
22.2575492155
 30
0.0
 10
25.8374691891
 20
22.2208544028
 30
0.0
 10
25.9681022387
 20
22.1982948522
 30
0.0
 10
26.1037816671
 20
22.1906654941
 30
0.0
 10
26.2394610598
 20
22.1982950771
 30
0.0
 10
26.3700940251
 20
22.2208548868
 30
0.0
 10
26.4907309677
 20
22.2575499078
 30
0.0
 10
26.5648278298
 20
22.2920420967
 30
0.0
 10
26.5986977923
 20
22.3115996901
 30
0.0
  0
SPLINE
  5
387
100
AcDbEntity
  8
0
100
AcDbSpline
 62
7
  6
BYLAYER
 70
0
 71
3
 72
13
 73
9
 74
0
 42
0.0000001
 43
0.0000001
 44
0.0000000001
 40
0.0
 40
0.0
 40
0.0
 40
0.0
 40
0.2865950142
 40
0.5528924197
 40
0.6747917299
 40
0.7888280924
 40
0.8964559215
 40
1.0
 40
1.0
 40
1.0
 40
1.0
 10
25.7537386423
 20
14.8438428657
 30
0.0
 10
25.7344144146
 20
14.8438428192
 30
0.0
 10
25.696944087
 20
14.8387828204
 30
0.0
 10
25.6546995031
 20
14.8195926277
 30
0.0
 10
25.6287926227
 20
14.7974680625
 30
0.0
 10
25.6145813312
 20
14.7789117498
 30
0.0
 10
25.6057903758
 20
14.7585741934
 30
0.0
 10
25.6037392171
 20
14.7442709091
 30
0.0
 10
25.6037392574
 20
14.7372892477
 30
0.0
  0
SPLINE
  5
388
100
AcDbEntity
  8
0
100
AcDbSpline
 62
7
  6
BYLAYER
 70
0
 71
3
 72
15
 73
11
 74
0
 42
0.0000001
 43
0.0000001
 44
0.0000000001
 40
0.0
 40
0.0
 40
0.0
 40
0.0
 40
0.140514829
 40
0.2783279339
 40
0.4124409084
 40
0.5419008101
 40
0.6659031573
 40
0.7838179651
 40
0.8952314821
 40
1.0
 40
1.0
 40
1.0
 40
1.0
 10
27.6180404516
 20
16.8317113291
 30
0.0
 10
27.9852344455
 20
16.8637050577
 30
0.0
 10
28.7107648434
 20
16.9504729681
 30
0.0
 10
29.7748405406
 20
17.1502747538
 30
0.0
 10
30.7944849389
 20
17.4163535001
 30
0.0
 10
31.7574102626
 20
17.7455881079
 30
0.0
 10
32.6520145639
 20
18.1340196655
 30
0.0
 10
33.4676073204
 20
18.5771102343
 30
0.0
 10
34.1942795017
 20
19.0695824277
 30
0.0
 10
34.6269614425
 20
19.4385618529
 30
0.0
 10
34.8241266268
 20
19.6300071031
 30
0.0
  0
SPLINE
  5
389
100
AcDbEntity
  8
0
100
AcDbSpline
 62
7
  6
BYLAYER
 70
0
 71
3
 72
9
 73
5
 74
0
 42
0.0000001
 43
0.0000001
 44
0.0000000001
 40
0.0
 40
0.0
 40
0.0
 40
0.0
 40
0.2563585431
 40
1.0
 40
1.0
 40
1.0
 40
1.0
 10
34.8241266268
 20
19.6300071031
 30
0.0
 10
34.8737797004
 20
19.6782196977
 30
0.0
 10
35.0643711104
 20
19.8694301105
 30
0.0
 10
35.2421879968
 20
20.0735106334
 30
0.0
 10
35.3651305538
 20
20.2322238791
 30
0.0
  0
SPLINE
  5
38A
100
AcDbEntity
  8
0
100
AcDbSpline
 62
7
  6
BYLAYER
 70
0
 71
3
 72
9
 73
5
 74
0
 42
0.0000001
 43
0.0000001
 44
0.0000000001
 40
0.0
 40
0.0
 40
0.0
 40
0.0
 40
0.2451974522
 40
1.0
 40
1.0
 40
1.0
 40
1.0
 10
34.8475022316
 20
19.5639520778
 30
0.0
 10
34.8176220911
 20
19.525373753
 30
0.0
 10
34.693420663
 20
19.3698583566
 30
0.0
 10
34.5601382153
 20
19.2216444214
 30
0.0
 10
34.4554062499
 20
19.1139637819
 30
0.0
  0
SPLINE
  5
38B
100
AcDbEntity
  8
0
100
AcDbSpline
 62
7
  6
BYLAYER
 70
0
 71
3
 72
9
 73
5
 74
0
 42
0.0000001
 43
0.0000001
 44
0.0000000001
 40
0.0
 40
0.0
 40
0.0
 40
0.0
 40
0.4842280898
 40
1.0
 40
1.0
 40
1.0
 40
1.0
 10
34.4554062499
 20
19.1139637819
 30
0.0
 10
34.2743749427
 20
18.9278356323
 30
0.0
 10
33.8742880887
 20
18.5684776454
 30
0.0
 10
33.4359445092
 20
18.2577121632
 30
0.0
 10
33.2027328437
 20
18.1090591497
 30
0.0
  0
SPLINE
  5
38C
100
AcDbEntity
  8
0
100
AcDbSpline
 62
7
  6
BYLAYER
 70
0
 71
3
 72
11
 73
7
 74
0
 42
0.0000001
 43
0.0000001
 44
0.0000000001
 40
0.0
 40
0.0
 40
0.0
 40
0.0
 40
0.2306927994
 40
0.4763250721
 40
0.7339454243
 40
1.0
 40
1.0
 40
1.0
 40
1.0
 10
32.8037920743
 20
17.8696499528
 30
0.0
 10
32.4390832958
 20
17.6635541806
 30
0.0
 10
31.6565684007
 20
17.2889548522
 30
0.0
 10
30.3945406263
 20
16.8531783924
 30
0.0
 10
29.0323787211
 20
16.5335248571
 30
0.0
 10
28.0886816274
 20
16.4042863673
 30
0.0
 10
27.6075768711
 20
16.3601401588
 30
0.0
  0
SPLINE
  5
38D
100
AcDbEntity
  8
0
100
AcDbSpline
 62
7
  6
BYLAYER
 70
0
 71
3
 72
13
 73
9
 74
0
 42
0.0000001
 43
0.0000001
 44
0.0000000001
 40
0.0
 40
0.0
 40
0.0
 40
0.0
 40
0.1035440296
 40
0.2111720331
 40
0.3252085472
 40
0.4471079709
 40
0.7134054087
 40
1.0
 40
1.0
 40
1.0
 40
1.0
 10
26.6037392574
 20
14.7372916515
 30
0.0
 10
26.6037392171
 20
14.7442733242
 30
0.0
 10
26.6016878685
 20
14.7585766198
 30
0.0
 10
26.5928966784
 20
14.7789141403
 30
0.0
 10
26.5786851723
 20
14.797470387
 30
0.0
 10
26.5527780363
 20
14.8195947888
 30
0.0
 10
26.5105332859
 20
14.8387847684
 30
0.0
 10
26.4730628819
 20
14.8438445948
 30
0.0
 10
26.4537386423
 20
14.8438445484
 30
0.0
  0
SPLINE
  5
38E
100
AcDbEntity
  8
0
100
AcDbSpline
 62
7
  6
BYLAYER
 70
0
 71
3
 72
9
 73
5
 74
0
 42
0.0000001
 43
0.0000001
 44
0.0000000001
 40
0.0
 40
0.0
 40
0.0
 40
0.0
 40
0.2439315899
 40
1.0
 40
1.0
 40
1.0
 40
1.0
 10
16.8422858854
 20
20.2322254081
 30
0.0
 10
16.8824741471
 20
20.1803430272
 30
0.0
 10
17.0512335219
 20
19.9707697415
 30
0.0
 10
17.2353989282
 20
19.7737292139
 30
0.0
 10
17.3812679081
 20
19.6319609022
 30
0.0
  0
SPLINE
  5
38F
100
AcDbEntity
  8
0
100
AcDbSpline
 62
7
  6
BYLAYER
 70
0
 71
3
 72
9
 73
5
 74
0
 42
0.0000001
 43
0.0000001
 44
0.0000000001
 40
0.0
 40
0.0
 40
0.0
 40
0.0
 40
0.4828414929
 40
1.0
 40
1.0
 40
1.0
 40
1.0
 10
17.3812679081
 20
19.6319609022
 30
0.0
 10
17.6043447274
 20
19.4151552177
 30
0.0
 10
18.0995924378
 20
18.9996812726
 30
0.0
 10
18.6413418018
 20
18.6482277699
 30
0.0
 10
18.9298897543
 20
18.4816383006
 30
0.0
  0
SPLINE
  5
390
100
AcDbEntity
  8
0
100
AcDbSpline
 62
7
  6
BYLAYER
 70
0
 71
3
 72
11
 73
7
 74
0
 42
0.0000001
 43
0.0000001
 44
0.0000000001
 40
0.0
 40
0.0
 40
0.0
 40
0.0
 40
0.2661040756
 40
0.523211451
 40
0.7686204811
 40
1.0
 40
1.0
 40
1.0
 40
1.0
 10
24.7497471357
 20
15.8608490663
 30
0.0
 10
24.4833016002
 20
15.8966583532
 30
0.0
 10
23.9620003639
 20
15.9885298661
 30
0.0
 10
23.2109459142
 20
16.1898692112
 30
0.0
 10
22.5150632602
 20
16.4490551478
 30
0.0
 10
22.0827199293
 20
16.6641903557
 30
0.0
 10
21.880277233
 20
16.7810680568
 30
0.0
  0
SPLINE
  5
391
100
AcDbEntity
  8
0
100
AcDbSpline
 62
7
  6
BYLAYER
 70
0
 71
3
 72
11
 73
7
 74
0
 42
0.0000001
 43
0.0000001
 44
0.0000000001
 40
0.0
 40
0.0
 40
0.0
 40
0.0
 40
0.228509596
 40
0.4731868732
 40
0.7314388666
 40
1.0
 40
1.0
 40
1.0
 40
1.0
 10
30.5549446799
 20
16.9201090512
 30
0.0
 10
30.3439639146
 20
16.783964058
 30
0.0
 10
29.8863234773
 20
16.5334846841
 30
0.0
 10
29.1387939073
 20
16.2340035772
 30
0.0
 10
28.3215946712
 20
16.0032354103
 30
0.0
 10
27.7509404456
 20
15.9002900327
 30
0.0
 10
27.458469021
 20
15.8609578475
 30
0.0
  0
SPLINE
  5
392
100
AcDbEntity
  8
0
100
AcDbSpline
 62
7
  6
BYLAYER
 70
0
 71
3
 72
11
 73
7
 74
0
 42
0.0000001
 43
0.0000001
 44
0.0000000001
 40
0.0
 40
0.0
 40
0.0
 40
0.0
 40
0.2897052857
 40
0.5490919933
 40
0.7822182543
 40
1.0
 40
1.0
 40
1.0
 40
1.0
 10
7.5775096524
 20
32.7625943667
 30
0.0
 10
7.5467940492
 20
32.7803276273
 30
0.0
 10
7.4910681869
 20
32.8187092999
 30
0.0
 10
7.4244679284
 20
32.8887022337
 30
0.0
 10
7.3823387368
 20
32.9661315528
 30
0.0
 10
7.3724858239
 20
33.0217033792
 30
0.0
 10
7.3724858314
 20
33.0483652744
 30
0.0
  0
SPLINE
  5
393
100
AcDbEntity
  8
0
100
AcDbSpline
 62
7
  6
BYLAYER
 70
0
 71
3
 72
15
 73
11
 74
0
 42
0.0000001
 43
0.0000001
 44
0.0000000001
 40
0.0
 40
0.0
 40
0.0
 40
0.0
 40
0.1141231812
 40
0.2373468278
 40
0.366971913
 40
0.4999994099
 40
0.6330269884
 40
0.76265231
 40
0.885876356
 40
1.0
 40
1.0
 40
1.0
 40
1.0
 10
26.5987571373
 20
22.352457506
 30
0.0
 10
26.5648817049
 20
22.3328996327
 30
0.0
 10
26.4907743584
 20
22.298407328
 30
0.0
 10
26.3701225884
 20
22.2617127278
 30
0.0
 10
26.2394758518
 20
22.2391533407
 30
0.0
 10
26.1037832934
 20
22.2315236531
 30
0.0
 10
25.9680906174
 20
22.2391526812
 30
0.0
 10
25.8374435235
 20
22.2617114386
 30
0.0
 10
25.7167911925
 20
22.2984054796
 30
0.0
 10
25.6426833545
 20
22.3328974181
 30
0.0
 10
25.6088076437
 20
22.3524551264
 30
0.0
  0
SPLINE
  5
394
100
AcDbEntity
  8
0
100
AcDbSpline
 62
7
  6
BYLAYER
 70
0
 71
3
 72
9
 73
5
 74
0
 42
0.0000001
 43
0.0000001
 44
0.0000000001
 40
0.0
 40
0.0
 40
0.0
 40
0.0
 40
0.2539303945
 40
1.0
 40
1.0
 40
1.0
 40
1.0
 10
7.4137721096
 20
39.8804273421
 30
0.0
 10
7.4121240395
 20
39.877781245
 30
0.0
 10
7.4057872998
 20
39.8672661832
 30
0.0
 10
7.4000794227
 20
39.856369601
 30
0.0
 10
7.3962322133
 20
39.8480576871
 30
0.0
  0
SPLINE
  5
395
100
AcDbEntity
  8
0
100
AcDbSpline
 62
7
  6
BYLAYER
 70
0
 71
3
 72
9
 73
5
 74
0
 42
0.0000001
 43
0.0000001
 44
0.0000000001
 40
0.0
 40
0.0
 40
0.0
 40
0.0
 40
0.5078601242
 40
1.0
 40
1.0
 40
1.0
 40
1.0
 10
7.3962322133
 20
39.8480576871
 30
0.0
 10
7.389397892
 20
39.8332921039
 30
0.0
 10
7.3784514477
 20
39.8029638582
 30
0.0
 10
7.3735655672
 20
39.7710571044
 30
0.0
 10
7.3727770107
 20
39.7553099347
 30
0.0
  0
SPLINE
  5
396
100
AcDbEntity
  8
0
100
AcDbSpline
 62
7
  6
BYLAYER
 70
0
 71
3
 72
9
 73
5
 74
0
 42
0.0000001
 43
0.0000001
 44
0.0000000001
 40
0.0
 40
0.0
 40
0.0
 40
0.0
 40
0.4921411205
 40
1.0
 40
1.0
 40
1.0
 40
1.0
 10
7.3727768308
 20
39.7320639136
 30
0.0
 10
7.3735650935
 20
39.7163177212
 30
0.0
 10
7.3784499475
 20
39.6844129734
 30
0.0
 10
7.3893946915
 20
39.6540863745
 30
0.0
 10
7.3962280262
 20
39.6393215505
 30
0.0
  0
SPLINE
  5
397
100
AcDbEntity
  8
0
100
AcDbSpline
 62
7
  6
BYLAYER
 70
0
 71
3
 72
10
 73
6
 74
0
 42
0.0000001
 43
0.0000001
 44
0.0000000001
 40
0.0
 40
0.0
 40
0.0
 40
0.0
 40
0.4622861554
 40
0.7216672593
 40
1.0
 40
1.0
 40
1.0
 40
1.0
 10
7.3962280262
 20
39.6393215505
 30
0.0
 10
7.4130380095
 20
39.6030001272
 30
0.0
 10
7.4516302482
 20
39.5517504924
 30
0.0
 10
7.5175317709
 20
39.4955254568
 30
0.0
 10
7.556641042
 20
39.4699624124
 30
0.0
 10
7.5775096524
 20
39.4579141871
 30
0.0
  0
SPLINE
  5
398
100
AcDbEntity
  8
0
100
AcDbSpline
 62
7
  6
BYLAYER
 70
0
 71
3
 72
15
 73
11
 74
0
 42
0.0000001
 43
0.0000001
 44
0.0000000001
 40
0.0
 40
0.0
 40
0.0
 40
0.0
 40
0.1141236058
 40
0.2373475862
 40
0.3669728832
 40
0.5000004526
 40
0.6330279586
 40
0.7626530685
 40
0.8858767805
 40
1.0
 40
1.0
 40
1.0
 40
1.0
 10
25.6088076437
 20
29.0477749469
 30
0.0
 10
25.6426833431
 20
29.0282172451
 30
0.0
 10
25.7167911435
 20
28.9937253106
 30
0.0
 10
25.8374434331
 20
28.9570312839
 30
0.0
 10
25.9680904902
 20
28.9344725171
 30
0.0
 10
26.103783157
 20
28.9268434736
 30
0.0
 10
26.2394757246
 20
28.9344731457
 30
0.0
 10
26.370122498
 20
28.9570325234
 30
0.0
 10
26.4907743094
 20
28.993727138
 30
0.0
 10
26.5648816936
 20
29.0282194466
 30
0.0
 10
26.5987571373
 20
29.0477773264
 30
0.0
  0
SPLINE
  5
399
100
AcDbEntity
  8
0
100
AcDbSpline
 62
7
  6
BYLAYER
 70
0
 71
3
 72
11
 73
7
 74
0
 42
0.0000001
 43
0.0000001
 44
0.0000000001
 40
0.0
 40
0.0
 40
0.0
 40
0.0
 40
0.2897048043
 40
0.5490913404
 40
0.7822177947
 40
1.0
 40
1.0
 40
1.0
 40
1.0
 10
7.7189260039
 20
42.6014339506
 30
0.0
 10
7.6750473915
 20
42.5761007731
 30
0.0
 10
7.5954405276
 20
42.5212700215
 30
0.0
 10
7.5002992341
 20
42.421280857
 30
0.0
 10
7.440115971
 20
42.3106686157
 30
0.0
 10
7.4260407119
 20
42.2312812076
 30
0.0
 10
7.4260407189
 20
42.1931931961
 30
0.0
  0
SPLINE
  5
39A
100
AcDbEntity
  8
0
100
AcDbSpline
 62
7
  6
BYLAYER
 70
0
 71
3
 72
20
 73
16
 74
0
 42
0.0000001
 43
0.0000001
 44
0.0000000001
 40
0.0
 40
0.0
 40
0.0
 40
0.0
 40
0.1569565458
 40
0.3072161746
 40
0.448432698
 40
0.5151322746
 40
0.5790083451
 40
0.6399996224
 40
0.6981228592
 40
0.7534852927
 40
0.8062967693
 40
0.8568745524
 40
0.9056497288
 40
0.9531535437
 40
1.0
 40
1.0
 40
1.0
 40
1.0
 10
23.8978915808
 20
36.4732810565
 30
0.0
 10
23.3486862439
 20
36.5438827213
 30
0.0
 10
22.2795574285
 20
36.7352651884
 30
0.0
 10
20.7580262605
 20
37.1793795886
 30
0.0
 10
19.5918522402
 20
37.6759506045
 30
0.0
 10
18.7531023805
 20
38.1421212203
 30
0.0
 10
18.1880257278
 20
38.5141168437
 30
0.0
 10
17.6789979219
 20
38.9124465641
 30
0.0
 10
17.2296409588
 20
39.3344543791
 30
0.0
 10
16.8432046515
 20
39.7772875128
 30
0.0
 10
16.5225299866
 20
40.2379514343
 30
0.0
 10
16.2701815113
 20
40.713340356
 30
0.0
 10
16.0881765553
 20
41.2001167291
 30
0.0
 10
15.978305798
 20
41.694612464
 30
0.0
 10
15.9537097286
 20
42.0279667462
 30
0.0
 10
15.9537097159
 20
42.1932356881
 30
0.0
  0
SPLINE
  5
39B
100
AcDbEntity
  8
0
100
AcDbSpline
 62
7
  6
BYLAYER
 70
0
 71
3
 72
11
 73
7
 74
0
 42
0.0000001
 43
0.0000001
 44
0.0000000001
 40
0.0
 40
0.0
 40
0.0
 40
0.0
 40
0.2293899625
 40
0.4751491639
 40
0.7334512697
 40
1.0
 40
1.0
 40
1.0
 40
1.0
 10
46.2563324253
 20
30.5583741841
 30
0.0
 10
46.1525414296
 20
30.4984507825
 30
0.0
 10
45.9279692674
 20
30.3905419022
 30
0.0
 10
45.5639082647
 20
30.2683977023
 30
0.0
 10
45.1696675657
 20
30.1831412234
 30
0.0
 10
44.896615031
 20
30.1526945443
 30
0.0
 10
44.7576249254
 20
30.1440069309
 30
0.0
  0
SPLINE
  5
39C
100
AcDbEntity
  8
0
100
AcDbSpline
 62
7
  6
BYLAYER
 70
0
 71
3
 72
11
 73
7
 74
0
 42
0.0000001
 43
0.0000001
 44
0.0000000001
 40
0.0
 40
0.0
 40
0.0
 40
0.0
 40
0.2897052857
 40
0.5490919933
 40
0.7822182543
 40
1.0
 40
1.0
 40
1.0
 40
1.0
 10
7.7189318918
 20
39.3354417908
 30
0.0
 10
7.6750524586
 20
39.3607750203
 30
0.0
 10
7.5954440839
 20
39.4156059811
 30
0.0
 10
7.5003008575
 20
39.5155958866
 30
0.0
 10
7.440116298
 20
39.6262091995
 30
0.0
 10
7.4260407083
 20
39.705597523
 30
0.0
 10
7.4260407189
 20
39.7436859447
 30
0.0
  0
SPLINE
  5
39D
100
AcDbEntity
  8
0
100
AcDbSpline
 62
7
  6
BYLAYER
 70
0
 71
3
 72
15
 73
11
 74
0
 42
0.0000001
 43
0.0000001
 44
0.0000000001
 40
0.0
 40
0.0
 40
0.0
 40
0.0
 40
0.1141231812
 40
0.2373468278
 40
0.366971913
 40
0.4999994099
 40
0.6330269884
 40
0.76265231
 40
0.885876356
 40
1.0
 40
1.0
 40
1.0
 40
1.0
 10
26.8108885829
 20
29.1294263272
 30
0.0
 10
26.762495108
 20
29.1014865082
 30
0.0
 10
26.6566274702
 20
29.0522117873
 30
0.0
 10
26.4842677986
 20
28.9997909298
 30
0.0
 10
26.2976296036
 20
28.967563234
 30
0.0
 10
26.1037830916
 20
28.9566636803
 30
0.0
 10
25.9099364116
 20
28.9675622918
 30
0.0
 10
25.723297706
 20
28.999789088
 30
0.0
 10
25.5509372332
 20
29.0522091467
 30
0.0
 10
25.4450688931
 20
29.1014833445
 30
0.0
 10
25.3966750205
 20
29.1294229278
 30
0.0
  0
SPLINE
  5
39E
100
AcDbEntity
  8
0
100
AcDbSpline
 62
7
  6
BYLAYER
 70
0
 71
3
 72
15
 73
11
 74
0
 42
0.0000001
 43
0.0000001
 44
0.0000000001
 40
0.0
 40
0.0
 40
0.0
 40
0.0
 40
0.1141469224
 40
0.2373360366
 40
0.366976904
 40
0.5000005214
 40
0.6330240662
 40
0.7626647219
 40
0.8858535023
 40
1.0
 40
1.0
 40
1.0
 40
1.0
 10
32.1141791379
 20
30.5582876644
 30
0.0
 10
32.0173714247
 20
30.6141783593
 30
0.0
 10
31.8056564661
 20
30.7127503801
 30
0.0
 10
31.4609177314
 20
30.8175504341
 30
0.0
 10
31.0876662552
 20
30.88201927
 30
0.0
 10
30.6999631905
 20
30.9037962667
 30
0.0
 10
30.3122604358
 20
30.8820174298
 30
0.0
 10
29.9390098752
 20
30.8175468218
 30
0.0
 10
29.5942726247
 20
30.712745129
 30
0.0
 10
29.3825589631
 20
30.6141720507
 30
0.0
 10
29.2857520131
 20
30.5582808657
 30
0.0
  0
SPLINE
  5
39F
100
AcDbEntity
  8
0
100
AcDbSpline
 62
7
  6
BYLAYER
 70
0
 71
3
 72
11
 73
7
 74
0
 42
0.0000001
 43
0.0000001
 44
0.0000000001
 40
0.0
 40
0.0
 40
0.0
 40
0.0
 40
0.21837211
 40
0.45393655
 40
0.7136900673
 40
1.0
 40
1.0
 40
1.0
 40
1.0
 10
46.9782767043
 20
31.4482403453
 30
0.0
 10
46.9648960241
 20
31.3632686565
 30
0.0
 10
46.909556622
 20
31.1902158762
 30
0.0
 10
46.7547526577
 20
30.9524190232
 30
0.0
 10
46.5330882124
 20
30.7358683081
 30
0.0
 10
46.3540030133
 20
30.6147639879
 30
0.0
 10
46.2563324253
 20
30.5583741841
 30
0.0
  0
SPLINE
  5
3A0
100
AcDbEntity
  8
0
100
AcDbSpline
 62
7
  6
BYLAYER
 70
0
 71
3
 72
9
 73
5
 74
0
 42
0.0000001
 43
0.0000001
 44
0.0000000001
 40
0.0
 40
0.0
 40
0.0
 40
0.0
 40
0.2444205649
 40
1.0
 40
1.0
 40
1.0
 40
1.0
 10
45.7422605483
 20
30.3782057019
 30
0.0
 10
45.7043897241
 20
30.3908766316
 30
0.0
 10
45.548511026
 20
30.4398897782
 30
0.0
 10
45.3892247542
 20
30.4779168958
 30
0.0
 10
45.2679313244
 20
30.5008876347
 30
0.0
  0
SPLINE
  5
3A1
100
AcDbEntity
  8
0
100
AcDbSpline
 62
7
  6
BYLAYER
 70
0
 71
3
 72
23
 73
19
 74
0
 42
0.0000001
 43
0.0000001
 44
0.0000000001
 40
0.0
 40
0.0
 40
0.0
 40
0.0
 40
0.0428135004
 40
0.0873950506
 40
0.1351783771
 40
0.1870885091
 40
0.2435344052
 40
0.304491129
 40
0.3695894517
 40
0.4381967448
 40
0.5094936536
 40
0.5825294208
 40
0.656270407
 40
0.7296594684
 40
0.8016495826
 40
0.8712467175
 40
0.9376204021
 40
1.0
 40
1.0
 40
1.0
 40
1.0
 10
35.4204143331
 20
36.4262182501
 30
0.0
 10
35.4962190742
 20
36.469994074
 30
0.0
 10
35.66334167
 20
36.5394214167
 30
0.0
 10
35.93918709
 20
36.5798797903
 30
0.0
 10
36.2354175901
 20
36.558071542
 30
0.0
 10
36.5454321348
 20
36.4756875482
 30
0.0
 10
36.8631579079
 20
36.3352770743
 30
0.0
 10
37.1822678012
 20
36.1400614162
 30
0.0
 10
37.496262331
 20
35.8942239781
 30
0.0
 10
37.7986440576
 20
35.6030058162
 30
0.0
 10
38.0830522242
 20
35.2725767721
 30
0.0
 10
38.3434254457
 20
34.9099425229
 30
0.0
 10
38.5742397423
 20
34.5228440473
 30
0.0
 10
38.7705732353
 20
34.1195328371
 30
0.0
 10
38.9282248453
 20
33.7086246189
 30
0.0
 10
39.0438784832
 20
33.2987775086
 30
0.0
 10
39.1149485292
 20
32.898818878
 30
0.0
 10
39.1322646509
 20
32.6353965546
 30
0.0
 10
39.1322646509
 20
32.5078548486
 30
0.0
  0
SPLINE
  5
3A2
100
AcDbEntity
  8
0
100
AcDbSpline
 62
7
  6
BYLAYER
 70
0
 71
3
 72
11
 73
7
 74
0
 42
0.0000001
 43
0.0000001
 44
0.0000000001
 40
0.0
 40
0.0
 40
0.0
 40
0.0
 40
0.2177825102
 40
0.4509091639
 40
0.7102957096
 40
1.0
 40
1.0
 40
1.0
 40
1.0
 10
43.8825417868
 20
26.1610639796
 30
0.0
 10
43.8495551455
 20
26.1801083989
 30
0.0
 10
43.78783841
 20
26.2319930522
 30
0.0
 10
43.7221337176
 20
26.3394229973
 30
0.0
 10
43.6831090166
 20
26.4718170167
 30
0.0
 10
43.6754269712
 20
26.568177433
 30
0.0
 10
43.6754269712
 20
26.6188458061
 30
0.0
  0
SPLINE
  5
3A3
100
AcDbEntity
  8
0
100
AcDbSpline
 62
7
  6
BYLAYER
 70
0
 71
3
 72
14
 73
10
 74
0
 42
0.0000001
 43
0.0000001
 44
0.0000000001
 40
0.0
 40
0.0
 40
0.0
 40
0.0
 40
0.1080369937
 40
0.2181218304
 40
0.3321005481
 40
0.4514995878
 40
0.5774472889
 40
0.7107155971
 40
1.0
 40
1.0
 40
1.0
 40
1.0
 10
33.1901398951
 20
28.8701013028
 30
0.0
 10
33.1245640838
 20
28.9079615412
 30
0.0
 10
32.9984777601
 20
28.9959416331
 30
0.0
 10
32.8318815972
 20
29.1599108228
 30
0.0
 10
32.6885787209
 20
29.3545133428
 30
0.0
 10
32.5699470043
 20
29.5775671927
 30
0.0
 10
32.4768570217
 20
29.8268187266
 30
0.0
 10
32.3853590013
 20
30.2008780665
 30
0.0
 10
32.3616890326
 20
30.4984909213
 30
0.0
 10
32.3616890326
 20
30.7012431532
 30
0.0
  0
SPLINE
  5
3A4
100
AcDbEntity
  8
0
100
AcDbSpline
 62
7
  6
BYLAYER
 70
0
 71
3
 72
15
 73
11
 74
0
 42
0.0000001
 43
0.0000001
 44
0.0000000001
 40
0.0
 40
0.0
 40
0.0
 40
0.0
 40
0.1080123381
 40
0.2180614805
 40
0.3320057003
 40
0.4513563258
 40
0.5772595486
 40
0.7104998709
 40
0.8514745518
 40
1.0
 40
1.0
 40
1.0
 40
1.0
 10
42.3825681568
 20
23.5629746672
 30
0.0
 10
42.4481476875
 20
23.5251131659
 30
0.0
 10
42.587395078
 20
23.4599375564
 30
0.0
 10
42.8126809988
 20
23.3975963971
 30
0.0
 10
43.0528541034
 20
23.3708633
 30
0.0
 10
43.3053264368
 20
23.3795973073
 30
0.0
 10
43.5676923421
 20
23.4236272363
 30
0.0
 10
43.8375536672
 20
23.5022803232
 30
0.0
 10
44.1122495161
 20
23.6147732904
 30
0.0
 10
44.2923541796
 20
23.7090171013
 30
0.0
 10
44.3825308084
 20
23.7610802914
 30
0.0
  0
SPLINE
  5
3A5
100
AcDbEntity
  8
0
100
AcDbSpline
 62
7
  6
BYLAYER
 70
0
 71
3
 72
15
 73
11
 74
0
 42
0.0000001
 43
0.0000001
 44
0.0000000001
 40
0.0
 40
0.0
 40
0.0
 40
0.0
 40
0.1287551044
 40
0.2596265749
 40
0.3909553357
 40
0.5211137022
 40
0.648492951
 40
0.7715960822
 40
0.8891256545
 40
1.0
 40
1.0
 40
1.0
 40
1.0
 10
53.7197624848
 20
46.8911607928
 30
0.0
 10
53.9388612673
 20
46.6357599109
 30
0.0
 10
54.3588139609
 20
46.1016313862
 30
0.0
 10
54.9242169187
 20
45.2493375182
 30
0.0
 10
55.4223601495
 20
44.3517921792
 30
0.0
 10
55.8439592212
 20
43.4258567136
 30
0.0
 10
56.1811285972
 20
42.4886966522
 30
0.0
 10
56.4276708863
 20
41.5576609401
 30
0.0
 10
56.5788905146
 20
40.6501364509
 30
0.0
 10
56.6154271922
 20
40.0528393946
 30
0.0
 10
56.6154271922
 20
39.76306846
 30
0.0
  0
SPLINE
  5
3A6
100
AcDbEntity
  8
0
100
AcDbSpline
 62
7
  6
BYLAYER
 70
0
 71
3
 72
13
 73
9
 74
0
 42
0.0000001
 43
0.0000001
 44
0.0000000001
 40
0.0
 40
0.0
 40
0.0
 40
0.0
 40
0.1080841974
 40
0.2182170065
 40
0.3322483999
 40
0.4516832801
 40
0.7106139387
 40
1.0
 40
1.0
 40
1.0
 40
1.0
 10
32.1953426044
 20
47.4654825702
 30
0.0
 10
32.2281299279
 20
47.4844102848
 30
0.0
 10
32.2977418464
 20
47.5170194511
 30
0.0
 10
32.4103953795
 20
47.5481344115
 30
0.0
 10
32.53047646
 20
47.5615437165
 30
0.0
 10
32.7033715591
 20
47.5555539353
 30
0.0
 10
32.9330885479
 20
47.5001970163
 30
0.0
 10
33.1075543645
 20
47.4171153804
 30
0.0
 10
33.1953376923
 20
47.3664347991
 30
0.0
  0
SPLINE
  5
3A7
100
AcDbEntity
  8
0
100
AcDbSpline
 62
7
  6
BYLAYER
 70
0
 71
3
 72
15
 73
11
 74
0
 42
0.0000001
 43
0.0000001
 44
0.0000000001
 40
0.0
 40
0.0
 40
0.0
 40
0.0
 40
0.1141543519
 40
0.237325601
 40
0.366974755
 40
0.4999984147
 40
0.6330222943
 40
0.7626720931
 40
0.8858443543
 40
1.0
 40
1.0
 40
1.0
 40
1.0
 10
53.7870118433
 20
29.1907275379
 30
0.0
 10
53.9806396649
 20
29.3025179455
 30
0.0
 10
54.36308928
 20
29.5706124218
 30
0.0
 10
54.8893190677
 20
30.0629430908
 30
0.0
 10
55.3742682549
 20
30.6449146777
 30
0.0
 10
55.7996709727
 20
31.2946955654
 30
0.0
 10
56.1496935179
 20
31.9879984165
 30
0.0
 10
56.41121939
 20
32.6989670417
 30
0.0
 10
56.5744748803
 20
33.4008667432
 30
0.0
 10
56.6154271922
 20
33.8661294718
 30
0.0
 10
56.6154271922
 20
34.0897138219
 30
0.0
  0
SPLINE
  5
3A8
100
AcDbEntity
  8
0
100
AcDbSpline
 62
7
  6
BYLAYER
 70
0
 71
3
 72
13
 73
9
 74
0
 42
0.0000001
 43
0.0000001
 44
0.0000000001
 40
0.0
 40
0.0
 40
0.0
 40
0.0
 40
0.1080841974
 40
0.2182170065
 40
0.3322483999
 40
0.4516832801
 40
0.7106139387
 40
1.0
 40
1.0
 40
1.0
 40
1.0
 10
45.1353428254
 20
54.9363505861
 30
0.0
 10
45.168130149
 20
54.9552783007
 30
0.0
 10
45.2377420674
 20
54.9878874669
 30
0.0
 10
45.3503956005
 20
55.0190024274
 30
0.0
 10
45.470476681
 20
55.0324117324
 30
0.0
 10
45.6433717801
 20
55.0264219512
 30
0.0
 10
45.8730887689
 20
54.9710650322
 30
0.0
 10
46.0475545855
 20
54.8879833963
 30
0.0
 10
46.1353379133
 20
54.8373028149
 30
0.0
  0
SPLINE
  5
3A9
100
AcDbEntity
  8
0
100
AcDbSpline
 62
7
  6
BYLAYER
 70
0
 71
3
 72
11
 73
7
 74
0
 42
0.0000001
 43
0.0000001
 44
0.0000000001
 40
0.0
 40
0.0
 40
0.0
 40
0.0
 40
0.2372428334
 40
0.4999989082
 40
0.7627555772
 40
1.0
 40
1.0
 40
1.0
 40
1.0
 10
32.2202670876
 20
40.3269916376
 30
0.0
 10
32.2403452001
 20
40.3153997962
 30
0.0
 10
32.2783385859
 20
40.2834209298
 30
0.0
 10
32.3226830794
 20
40.2228226454
 30
0.0
 10
32.3529908604
 20
40.1541200396
 30
0.0
 10
32.3616890326
 20
40.1052272348
 30
0.0
 10
32.3616890326
 20
40.0820430033
 30
0.0
  0
SPLINE
  5
3AA
100
AcDbEntity
  8
0
100
AcDbSpline
 62
7
  6
BYLAYER
 70
0
 71
3
 72
14
 73
10
 74
0
 42
0.0000001
 43
0.0000001
 44
0.0000000001
 40
0.0
 40
0.0
 40
0.0
 40
0.0
 40
0.2892633979
 40
0.4225629345
 40
0.5485077999
 40
0.6678904832
 40
0.7818704106
 40
0.8919552009
 40
1.0
 40
1.0
 40
1.0
 40
1.0
 10
39.1322646509
 20
32.5078548486
 30
0.0
 10
39.1322646509
 20
32.3520008737
 30
0.0
 10
39.1140597142
 20
32.12320716
 30
0.0
 10
39.0437306576
 20
31.8356449847
 30
0.0
 10
38.972180912
 20
31.6440192051
 30
0.0
 10
38.8809488971
 20
31.4725775195
 30
0.0
 10
38.7708180118
 20
31.3229651707
 30
0.0
 10
38.6427370088
 20
31.1969144226
 30
0.0
 10
38.545802196
 20
31.1292840984
 30
0.0
 10
38.495390159
 20
31.1001720874
 30
0.0
  0
SPLINE
  5
3AB
100
AcDbEntity
  8
0
100
AcDbSpline
 62
7
  6
BYLAYER
 70
0
 71
3
 72
15
 73
11
 74
0
 42
0.0000001
 43
0.0000001
 44
0.0000000001
 40
0.0
 40
0.0
 40
0.0
 40
0.0
 40
0.1287551044
 40
0.2596265749
 40
0.3909553357
 40
0.5211137022
 40
0.648492951
 40
0.7715960822
 40
0.8891256545
 40
1.0
 40
1.0
 40
1.0
 40
1.0
 10
40.7797622638
 20
39.4202927769
 30
0.0
 10
40.9988610463
 20
39.1648918951
 30
0.0
 10
41.4188137399
 20
38.6307633704
 30
0.0
 10
41.9842166976
 20
37.7784695023
 30
0.0
 10
42.4823599285
 20
36.8809241634
 30
0.0
 10
42.9039590001
 20
35.9549886978
 30
0.0
 10
43.2411283762
 20
35.0178286363
 30
0.0
 10
43.4876706653
 20
34.0867929243
 30
0.0
 10
43.6388902936
 20
33.179268435
 30
0.0
 10
43.6754269712
 20
32.5819713787
 30
0.0
 10
43.6754269712
 20
32.2922004442
 30
0.0
  0
SPLINE
  5
3AC
100
AcDbEntity
  8
0
100
AcDbSpline
 62
7
  6
BYLAYER
 70
0
 71
3
 72
15
 73
11
 74
0
 42
0.0000001
 43
0.0000001
 44
0.0000000001
 40
0.0
 40
0.0
 40
0.0
 40
0.0
 40
0.1141236058
 40
0.2373475862
 40
0.3669728832
 40
0.5000004526
 40
0.6330279586
 40
0.7626530685
 40
0.8858767805
 40
1.0
 40
1.0
 40
1.0
 40
1.0
 10
25.3966750205
 20
31.5789301792
 30
0.0
 10
25.4450688769
 20
31.5509906053
 30
0.0
 10
25.5509371632
 20
31.5017164131
 30
0.0
 10
25.7232975769
 20
31.449296375
 30
0.0
 10
25.9099362298
 20
31.4170695653
 30
0.0
 10
26.1037828968
 20
31.4061709316
 30
0.0
 10
26.2976294218
 20
31.4170704632
 30
0.0
 10
26.4842676695
 20
31.4492981456
 30
0.0
 10
26.6566274002
 20
31.5017190237
 30
0.0
 10
26.7624950918
 20
31.5509937502
 30
0.0
 10
26.8108885829
 20
31.5789335786
 30
0.0
  0
SPLINE
  5
3AD
100
AcDbEntity
  8
0
100
AcDbSpline
 62
7
  6
BYLAYER
 70
0
 71
3
 72
15
 73
11
 74
0
 42
0.0000001
 43
0.0000001
 44
0.0000000001
 40
0.0
 40
0.0
 40
0.0
 40
0.0
 40
0.1141242661
 40
0.2373486253
 40
0.3669740476
 40
0.5000015346
 40
0.6330288076
 40
0.7626536034
 40
0.8858770013
 40
1.0
 40
1.0
 40
1.0
 40
1.0
 10
54.4941156805
 20
32.8649813603
 30
0.0
 10
54.4941156805
 20
32.8091008717
 30
0.0
 10
54.4838553303
 20
32.6927783919
 30
0.0
 10
54.4430735923
 20
32.5172987276
 30
0.0
 10
54.3776646824
 20
32.3395505901
 30
0.0
 10
54.2901807787
 20
32.166224482
 30
0.0
 10
54.1838189007
 20
32.0037978663
 30
0.0
 10
54.0625901332
 20
31.8582781744
 30
0.0
 10
53.9310124775
 20
31.7352209391
 30
0.0
 10
53.8354053009
 20
31.6681745983
 30
0.0
 10
53.7870118433
 20
31.6402347893
 30
0.0
  0
SPLINE
  5
3AE
100
AcDbEntity
  8
0
100
AcDbSpline
 62
7
  6
BYLAYER
 70
0
 71
3
 72
11
 73
7
 74
0
 42
0.0000001
 43
0.0000001
 44
0.0000000001
 40
0.0
 40
0.0
 40
0.0
 40
0.0
 40
0.2350381996
 40
0.4765287954
 40
0.7301038842
 40
1.0
 40
1.0
 40
1.0
 40
1.0
 10
15.9537097159
 20
42.1932356881
 30
0.0
 10
15.9537096981
 20
42.426618692
 30
0.0
 10
16.0033905206
 20
42.9011563379
 30
0.0
 10
16.2239681618
 20
43.5963891844
 30
0.0
 10
16.585761238
 20
44.2686638326
 30
0.0
 10
16.9057758729
 20
44.6813143597
 30
0.0
 10
17.0843956978
 20
44.8811055388
 30
0.0
  0
SPLINE
  5
3AF
100
AcDbEntity
  8
0
100
AcDbSpline
 62
7
  6
BYLAYER
 70
0
 71
3
 72
11
 73
7
 74
0
 42
0.0000001
 43
0.0000001
 44
0.0000000001
 40
0.0
 40
0.0
 40
0.0
 40
0.0
 40
0.289702809
 40
0.549088757
 40
0.7822160314
 40
1.0
 40
1.0
 40
1.0
 40
1.0
 10
44.3825308084
 20
26.2105875428
 30
0.0
 10
44.338652607
 20
26.1852546027
 30
0.0
 10
44.2513647276
 20
26.1437292236
 30
0.0
 10
44.1172013753
 20
26.1113299886
 30
0.0
 10
43.991316759
 20
26.1145162883
 30
0.0
 10
43.9155273424
 20
26.1420201872
 30
0.0
 10
43.8825417868
 20
26.1610639796
 30
0.0
  0
SPLINE
  5
3B0
100
AcDbEntity
  8
0
100
AcDbSpline
 62
7
  6
BYLAYER
 70
0
 71
3
 72
15
 73
11
 74
0
 42
0.0000001
 43
0.0000001
 44
0.0000000001
 40
0.0
 40
0.0
 40
0.0
 40
0.0
 40
0.1485262567
 40
0.2895015863
 40
0.4227423164
 40
0.5486456673
 40
0.6679961316
 40
0.7819399209
 40
0.8919884213
 40
1.0
 40
1.0
 40
1.0
 40
1.0
 10
41.5541154595
 20
25.3941133445
 30
0.0
 10
41.5541154595
 20
25.289981797
 30
0.0
 10
41.562550169
 20
25.0868755675
 30
0.0
 10
41.6024776238
 20
24.7927224526
 30
0.0
 10
41.6692954387
 20
24.5196774517
 30
0.0
 10
41.7623514345
 20
24.2704368922
 30
0.0
 10
41.8810290955
 20
24.0474142597
 30
0.0
 10
42.0242737412
 20
23.8527787244
 30
0.0
 10
42.1909133407
 20
23.6888422309
 30
0.0
 10
42.3169864834
 20
23.6008374055
 30
0.0
 10
42.3825681568
 20
23.5629746672
 30
0.0
  0
SPLINE
  5
3B1
100
AcDbEntity
  8
0
100
AcDbSpline
 62
7
  6
BYLAYER
 70
0
 71
3
 72
13
 73
9
 74
0
 42
0.0000001
 43
0.0000001
 44
0.0000000001
 40
0.0
 40
0.0
 40
0.0
 40
0.0
 40
0.2893860865
 40
0.5483167756
 40
0.6677516453
 40
0.7817830245
 40
0.8919158241
 40
1.0
 40
1.0
 40
1.0
 40
1.0
 10
31.0740261807
 20
46.1417023374
 30
0.0
 10
30.9862428454
 20
46.1923829231
 30
0.0
 10
30.8117770061
 20
46.2754645585
 30
0.0
 10
30.5820600027
 20
46.3308214743
 30
0.0
 10
30.4091649008
 20
46.336811262
 30
0.0
 10
30.2890838354
 20
46.3234019346
 30
0.0
 10
30.1764303167
 20
46.2922869853
 30
0.0
 10
30.1068184093
 20
46.2596778203
 30
0.0
 10
30.0740310927
 20
46.2407501088
 30
0.0
  0
SPLINE
  5
3B2
100
AcDbEntity
  8
0
100
AcDbSpline
 62
7
  6
BYLAYER
 70
0
 71
3
 72
15
 73
11
 74
0
 42
0.0000001
 43
0.0000001
 44
0.0000000001
 40
0.0
 40
0.0
 40
0.0
 40
0.0
 40
0.1108743455
 40
0.2284039178
 40
0.351507049
 40
0.4788862978
 40
0.6090446643
 40
0.7403734251
 40
0.8712448956
 40
1.0
 40
1.0
 40
1.0
 40
1.0
 10
41.5541154595
 20
31.0674679826
 30
0.0
 10
41.5541154595
 20
31.3572389171
 30
0.0
 10
41.5175787819
 20
31.9545359734
 30
0.0
 10
41.3663591536
 20
32.8620604627
 30
0.0
 10
41.1198168645
 20
33.7930961747
 30
0.0
 10
40.7826474885
 20
34.7302562362
 30
0.0
 10
40.3610484169
 20
35.6561917018
 30
0.0
 10
39.862905186
 20
36.5537370408
 30
0.0
 10
39.2975022282
 20
37.4060309088
 30
0.0
 10
38.8775495347
 20
37.9401594335
 30
0.0
 10
38.6584507521
 20
38.1955603154
 30
0.0
  0
SPLINE
  5
3B3
100
AcDbEntity
  8
0
100
AcDbSpline
 62
7
  6
BYLAYER
 70
0
 71
3
 72
9
 73
5
 74
0
 42
0.0000001
 43
0.0000001
 44
0.0000000001
 40
0.0
 40
0.0
 40
0.0
 40
0.0
 40
0.5089298052
 40
1.0
 40
1.0
 40
1.0
 40
1.0
 10
35.03664115
 20
36.048023362
 30
0.0
 10
35.0699065474
 20
36.1012914124
 30
0.0
 10
35.1429616004
 20
36.2014183825
 30
0.0
 10
35.231327979
 20
36.2884940744
 30
0.0
 10
35.278011698
 20
36.3271301293
 30
0.0
  0
SPLINE
  5
3B4
100
AcDbEntity
  8
0
100
AcDbSpline
 62
7
  6
BYLAYER
 70
0
 71
3
 72
11
 73
7
 74
0
 42
0.0000001
 43
0.0000001
 44
0.0000000001
 40
0.0
 40
0.0
 40
0.0
 40
0.0
 40
0.2177817009
 40
0.4509079353
 40
0.7102947134
 40
1.0
 40
1.0
 40
1.0
 40
1.0
 10
7.4260407189
 20
42.1931931961
 30
0.0
 10
7.426040726
 20
42.1551047823
 30
0.0
 10
7.4401162812
 20
42.0757164717
 30
0.0
 10
7.5003008451
 20
41.9651031536
 30
0.0
 10
7.5954440832
 20
41.8651132529
 30
0.0
 10
7.6750524586
 20
41.8102822717
 30
0.0
 10
7.7189318918
 20
41.7849490422
 30
0.0
  0
SPLINE
  5
3B5
100
AcDbEntity
  8
0
100
AcDbSpline
 62
7
  6
BYLAYER
 70
0
 71
3
 72
9
 73
5
 74
0
 42
0.0000001
 43
0.0000001
 44
0.0000000001
 40
0.0
 40
0.0
 40
0.0
 40
0.0
 40
0.4903042648
 40
1.0
 40
1.0
 40
1.0
 40
1.0
 10
38.3352703607
 20
31.0252475242
 30
0.0
 10
38.2751312438
 20
31.0031269082
 30
0.0
 10
38.1481273413
 20
30.9691785345
 30
0.0
 10
38.0173394776
 20
30.9572922829
 30
0.0
 10
37.9507345216
 20
30.956280451
 30
0.0
  0
SPLINE
  5
3B6
100
AcDbEntity
  8
0
100
AcDbSpline
 62
7
  6
BYLAYER
 70
0
 71
3
 72
15
 73
11
 74
0
 42
0.0000001
 43
0.0000001
 44
0.0000000001
 40
0.0
 40
0.0
 40
0.0
 40
0.0
 40
0.1141464977
 40
0.2373352781
 40
0.3669759338
 40
0.4999994786
 40
0.633023096
 40
0.7626639634
 40
0.8858530776
 40
1.0
 40
1.0
 40
1.0
 40
1.0
 10
29.2857520131
 20
33.0077881171
 30
0.0
 10
29.3825589631
 20
33.0636793021
 30
0.0
 10
29.5942726247
 20
33.1622523804
 30
0.0
 10
29.9390098752
 20
33.2670540732
 30
0.0
 10
30.3122604358
 20
33.3315246812
 30
0.0
 10
30.6999631905
 20
33.3533035181
 30
0.0
 10
31.0876662552
 20
33.3315265214
 30
0.0
 10
31.4609177314
 20
33.2670576855
 30
0.0
 10
31.8056564661
 20
33.1622576315
 30
0.0
 10
32.0173714247
 20
33.0636856106
 30
0.0
 10
32.1141791379
 20
33.0077949158
 30
0.0
  0
SPLINE
  5
3B7
100
AcDbEntity
  8
0
100
AcDbSpline
 62
7
  6
BYLAYER
 70
0
 71
3
 72
10
 73
6
 74
0
 42
0.0000001
 43
0.0000001
 44
0.0000000001
 40
0.0
 40
0.0
 40
0.0
 40
0.0
 40
0.2767570353
 40
0.535616265
 40
1.0
 40
1.0
 40
1.0
 40
1.0
 10
44.0140264017
 20
53.6125703533
 30
0.0
 10
43.9576803145
 20
53.645101046
 30
0.0
 10
43.8451464323
 20
53.7024848836
 30
0.0
 10
43.6243234398
 20
53.7835284325
 30
0.0
 10
43.4523602444
 20
53.8093446933
 30
0.0
 10
43.3432988503
 20
53.8044443024
 30
0.0
  0
SPLINE
  5
3B8
100
AcDbEntity
  8
0
100
AcDbSpline
 62
7
  6
BYLAYER
 70
0
 71
3
 72
15
 73
11
 74
0
 42
0.0000001
 43
0.0000001
 44
0.0000000001
 40
0.0
 40
0.0
 40
0.0
 40
0.0
 40
0.1108743455
 40
0.2284039178
 40
0.351507049
 40
0.4788862978
 40
0.6090446643
 40
0.7403734251
 40
0.8712448956
 40
1.0
 40
1.0
 40
1.0
 40
1.0
 10
54.4941156805
 20
38.5383359984
 30
0.0
 10
54.4941156805
 20
38.828106933
 30
0.0
 10
54.457579003
 20
39.4254039893
 30
0.0
 10
54.3063593746
 20
40.3329284785
 30
0.0
 10
54.0598170856
 20
41.2639641906
 30
0.0
 10
53.7226477095
 20
42.201124252
 30
0.0
 10
53.3010486379
 20
43.1270597176
 30
0.0
 10
52.802905407
 20
44.0246050566
 30
0.0
 10
52.2375024493
 20
44.8768989247
 30
0.0
 10
51.8175497557
 20
45.4110274493
 30
0.0
 10
51.5984509731
 20
45.6664283312
 30
0.0
  0
SPLINE
  5
3B9
100
AcDbEntity
  8
0
100
AcDbSpline
 62
7
  6
BYLAYER
 70
0
 71
3
 72
27
 73
23
 74
0
 42
0.0000001
 43
0.0000001
 44
0.0000000001
 40
0.0
 40
0.0
 40
0.0
 40
0.0
 40
0.0214633354
 40
0.0431939634
 40
0.0654422557
 40
0.0884293055
 40
0.1123383682
 40
0.1373102057
 40
0.1907474579
 40
0.2193470513
 40
0.2491800826
 40
0.3123442181
 40
0.3797053344
 40
0.4504042929
 40
0.5233843408
 40
0.5974650182
 40
0.6714096773
 40
0.7439864372
 40
0.814037027
 40
0.8805403006
 40
0.942697873
 40
1.0
 40
1.0
 40
1.0
 40
1.0
 10
27.0606172476
 20
74.7311278668
 30
0.0
 10
27.1666396977
 20
74.7923366807
 30
0.0
 10
27.3888109274
 20
74.9009271663
 30
0.0
 10
27.7444021526
 20
75.0179045908
 30
0.0
 10
28.1207744496
 20
75.0889430313
 30
0.0
 10
28.5153256408
 20
75.1135860346
 30
0.0
 10
28.9255282164
 20
75.0919081808
 30
0.0
 10
29.5026727593
 20
74.9995698423
 30
0.0
 10
30.0882616175
 20
74.8143241509
 30
0.0
 10
30.670133963
 20
74.5516421377
 30
0.0
 10
31.2800649252
 20
74.2201951696
 30
0.0
 10
32.036482723
 20
73.7012167635
 30
0.0
 10
32.9023637113
 20
72.9444850394
 30
0.0
 10
33.722483176
 20
72.0605777319
 30
0.0
 10
34.4766125974
 20
71.0713710888
 30
0.0
 10
35.1461853332
 20
70.0012573721
 30
0.0
 10
35.714611502
 20
68.87672605
 30
0.0
 10
36.167856933
 20
67.7255899918
 30
0.0
 10
36.4946795385
 20
66.5762707759
 30
0.0
 10
36.6870460785
 20
65.4567858411
 30
0.0
 10
36.7400097847
 20
64.3947269585
 30
0.0
 10
36.6784609082
 20
63.7129026086
 30
0.0
 10
36.6209335469
 20
63.3911653674
 30
0.0
  0
SPLINE
  5
3BA
100
AcDbEntity
  8
0
100
AcDbSpline
 62
7
  6
BYLAYER
 70
0
 71
3
 72
11
 73
7
 74
0
 42
0.0000001
 43
0.0000001
 44
0.0000000001
 40
0.0
 40
0.0
 40
0.0
 40
0.0
 40
0.2294861542
 40
0.4681006774
 40
0.7233029195
 40
1.0
 40
1.0
 40
1.0
 40
1.0
 10
17.6055151957
 20
64.653484762
 30
0.0
 10
17.702216708
 20
64.709311422
 30
0.0
 10
17.914883925
 20
64.7983514085
 30
0.0
 10
18.2656870938
 20
64.8522827451
 30
0.0
 10
18.6422961203
 20
64.8284173171
 30
0.0
 10
18.8945744225
 20
64.7645724923
 30
0.0
 10
19.022270288
 20
64.7219216176
 30
0.0
  0
SPLINE
  5
3BB
100
AcDbEntity
  8
0
100
AcDbSpline
 62
7
  6
BYLAYER
 70
0
 71
3
 72
9
 73
5
 74
0
 42
0.0000001
 43
0.0000001
 44
0.0000000001
 40
0.0
 40
0.0
 40
0.0
 40
0.0
 40
0.2441239656
 40
1.0
 40
1.0
 40
1.0
 40
1.0
 10
19.022270288
 20
64.7219216176
 30
0.0
 10
19.0485140488
 20
64.7131561079
 30
0.0
 10
19.1554565783
 20
64.6755867784
 30
0.0
 10
19.2601120663
 20
64.6315889481
 30
0.0
 10
19.3377208167
 20
64.5953073745
 30
0.0
  0
SPLINE
  5
3BC
100
AcDbEntity
  8
0
100
AcDbSpline
 62
7
  6
BYLAYER
 70
0
 71
3
 72
15
 73
11
 74
0
 42
0.0000001
 43
0.0000001
 44
0.0000000001
 40
0.0
 40
0.0
 40
0.0
 40
0.0
 40
0.1141540665
 40
0.2373241489
 40
0.3669721401
 40
0.499995094
 40
0.633018716
 40
0.7626666501
 40
0.8858388605
 40
1.0
 40
1.0
 40
1.0
 40
1.0
 10
19.0399100718
 20
64.781936091
 30
0.0
 10
19.2722528993
 20
64.6477811147
 30
0.0
 10
19.7311830581
 20
64.326081536
 30
0.0
 10
20.3626388362
 20
63.7352958397
 30
0.0
 10
20.9445646331
 20
63.0369520009
 30
0.0
 10
21.4550377384
 20
62.2572357379
 30
0.0
 10
21.8750585682
 20
61.425297476
 30
0.0
 10
22.1888868384
 20
60.5721570431
 30
0.0
 10
22.3847899738
 20
59.7298891751
 30
0.0
 10
22.433970974
 20
59.1715713688
 30
0.0
 10
22.4339450348
 20
58.9032624671
 30
0.0
  0
SPLINE
  5
3BD
100
AcDbEntity
  8
0
100
AcDbSpline
 62
7
  6
BYLAYER
 70
0
 71
3
 72
9
 73
5
 74
0
 42
0.0000001
 43
0.0000001
 44
0.0000000001
 40
0.0
 40
0.0
 40
0.0
 40
0.0
 40
0.2542647316
 40
1.0
 40
1.0
 40
1.0
 40
1.0
 10
22.4177572559
 20
59.2170728939
 30
0.0
 10
22.415804295
 20
59.1971828775
 30
0.0
 10
22.4073898416
 20
59.1190318667
 30
0.0
 10
22.3959958832
 20
59.0411950693
 30
0.0
 10
22.3856788057
 20
58.9834940387
 30
0.0
  0
SPLINE
  5
3BE
100
AcDbEntity
  8
0
100
AcDbSpline
 62
7
  6
BYLAYER
 70
0
 71
3
 72
24
 73
20
 74
0
 42
0.0000001
 43
0.0000001
 44
0.0000000001
 40
0.0
 40
0.0
 40
0.0
 40
0.0
 40
0.0216544015
 40
0.0434586793
 40
0.0880326171
 40
0.1347997821
 40
0.1845353141
 40
0.2377361613
 40
0.2946365317
 40
0.3552411963
 40
0.4193652087
 40
0.4866734717
 40
0.5567110706
 40
0.6289285018
 40
0.7027124702
 40
0.7774008284
 40
0.85229887
 40
0.9267423349
 40
1.0
 40
1.0
 40
1.0
 40
1.0
 10
18.0096848408
 20
69.5056084285
 30
0.0
 10
18.0884100139
 20
69.5510632072
 30
0.0
 10
18.2512141491
 20
69.6342566385
 30
0.0
 10
18.5961686826
 20
69.7682860035
 30
0.0
 10
19.062940675
 20
69.872492738
 30
0.0
 10
19.6577770476
 20
69.8927035228
 30
0.0
 10
20.2833579629
 20
69.8104325786
 30
0.0
 10
20.9310870506
 20
69.6277142363
 30
0.0
 10
21.5925002067
 20
69.3476347262
 30
0.0
 10
22.2588804981
 20
68.9742903594
 30
0.0
 10
22.9213838757
 20
68.5129298162
 30
0.0
 10
23.5710888752
 20
67.9698868716
 30
0.0
 10
24.1991429064
 20
67.3525863789
 30
0.0
 10
24.796988202
 20
66.6695264879
 30
0.0
 10
25.3564147722
 20
65.9300877107
 30
0.0
 10
25.8696959047
 20
65.1444627929
 30
0.0
 10
26.3298465308
 20
64.3233985398
 30
0.0
 10
26.7303588319
 20
63.4783356873
 30
0.0
 10
26.9565364498
 20
62.9003412178
 30
0.0
 10
27.0580014262
 20
62.6100250241
 30
0.0
  0
SPLINE
  5
3BF
100
AcDbEntity
  8
0
100
AcDbSpline
 62
7
  6
BYLAYER
 70
0
 71
3
 72
13
 73
9
 74
0
 42
0.0000001
 43
0.0000001
 44
0.0000000001
 40
0.0
 40
0.0
 40
0.0
 40
0.0
 40
0.1136036376
 40
0.2284753105
 40
0.3458000712
 40
0.4666406104
 40
0.7220491497
 40
1.0
 40
1.0
 40
1.0
 40
1.0
 10
15.0398517551
 20
67.7909777166
 30
0.0
 10
14.939666998
 20
67.7331393887
 30
0.0
 10
14.7455364857
 20
67.6035096221
 30
0.0
 10
14.4797108575
 20
67.3712067115
 30
0.0
 10
14.2398969294
 20
67.102165187
 30
0.0
 10
13.9515912404
 20
66.6892234042
 30
0.0
 10
13.6654827502
 20
66.0819683585
 30
0.0
 10
13.5292952789
 20
65.5531671328
 30
0.0
 10
13.4794780011
 20
65.2745506074
 30
0.0
  0
SPLINE
  5
3C0
100
AcDbEntity
  8
0
100
AcDbSpline
 62
7
  6
BYLAYER
 70
0
 71
3
 72
12
 73
8
 74
0
 42
0.0000001
 43
0.0000001
 44
0.0000000001
 40
0.0
 40
0.0
 40
0.0
 40
0.0
 40
0.2160534597
 40
0.3331654089
 40
0.4561660361
 40
0.7186527328
 40
1.0
 40
1.0
 40
1.0
 40
1.0
 10
23.3945845751
 20
49.0878154611
 30
0.0
 10
23.5704181519
 20
49.0578003627
 30
0.0
 10
23.8363965912
 20
48.9777296071
 30
0.0
 10
24.1787728174
 20
48.820356247
 30
0.0
 10
24.5400221931
 20
48.6151361637
 30
0.0
 10
24.9846826895
 20
48.2870968107
 30
0.0
 10
25.3087715501
 20
47.9745019701
 30
0.0
 10
25.4664448193
 20
47.8039286664
 30
0.0
  0
SPLINE
  5
3C1
100
AcDbEntity
  8
0
100
AcDbSpline
 62
7
  6
BYLAYER
 70
0
 71
3
 72
11
 73
7
 74
0
 42
0.0000001
 43
0.0000001
 44
0.0000000001
 40
0.0
 40
0.0
 40
0.0
 40
0.0
 40
0.2803904836
 40
0.5421332459
 40
0.7822759987
 40
1.0
 40
1.0
 40
1.0
 40
1.0
 10
20.0141031779
 20
50.3737037272
 30
0.0
 10
20.1450993997
 20
50.2412191392
 30
0.0
 10
20.4127563361
 20
49.9986566792
 30
0.0
 10
20.8402377142
 20
49.7001284233
 30
0.0
 10
21.2699168197
 20
49.4860712566
 30
0.0
 10
21.564321745
 20
49.4002445196
 30
0.0
 10
21.7069307408
 20
49.3759009152
 30
0.0
  0
SPLINE
  5
3C2
100
AcDbEntity
  8
0
100
AcDbSpline
 62
7
  6
BYLAYER
 70
0
 71
3
 72
9
 73
5
 74
0
 42
0.0000001
 43
0.0000001
 44
0.0000000001
 40
0.0
 40
0.0
 40
0.0
 40
0.0
 40
0.2451313565
 40
1.0
 40
1.0
 40
1.0
 40
1.0
 10
50.7209894256
 20
45.9022862413
 30
0.0
 10
50.7884085343
 20
45.8443075501
 30
0.0
 10
51.0599350089
 20
45.6037285663
 30
0.0
 10
51.3175442739
 20
45.347534426
 30
0.0
 10
51.5040264361
 20
45.1470223841
 30
0.0
  0
SPLINE
  5
3C3
100
AcDbEntity
  8
0
100
AcDbSpline
 62
7
  6
BYLAYER
 70
0
 71
3
 72
15
 73
11
 74
0
 42
0.0000001
 43
0.0000001
 44
0.0000000001
 40
0.0
 40
0.0
 40
0.0
 40
0.0
 40
0.1308208032
 40
0.2647617479
 40
0.3993245566
 40
0.5319737513
 40
0.6602850477
 40
0.7821019667
 40
0.8957040884
 40
1.0
 40
1.0
 40
1.0
 40
1.0
 10
51.5040264361
 20
45.1470223841
 30
0.0
 10
51.7640090143
 20
44.8674801641
 30
0.0
 10
52.2598347556
 20
44.2728407441
 30
0.0
 10
52.9145215688
 20
43.3067524951
 30
0.0
 10
53.4755280492
 20
42.2772062394
 30
0.0
 10
53.9271242729
 20
41.2129632737
 30
0.0
 10
54.2567918141
 20
40.143548511
 30
0.0
 10
54.4553599861
 20
39.0983057807
 30
0.0
 10
54.5172147917
 20
38.1061676047
 30
0.0
 10
54.4632213246
 20
37.4692418925
 30
0.0
 10
54.4096525605
 20
37.1696441707
 30
0.0
  0
SPLINE
  5
3C4
100
AcDbEntity
  8
0
100
AcDbSpline
 62
7
  6
BYLAYER
 70
0
 71
3
 72
13
 73
9
 74
0
 42
0.0000001
 43
0.0000001
 44
0.0000000001
 40
0.0
 40
0.0
 40
0.0
 40
0.0
 40
0.2779670966
 40
0.5333525135
 40
0.6542019879
 40
0.7715322043
 40
0.8863942701
 40
1.0
 40
1.0
 40
1.0
 40
1.0
 10
54.4096525605
 20
37.1696441707
 30
0.0
 10
54.3660597975
 20
36.9258399189
 30
0.0
 10
54.2469081269
 20
36.4631422349
 30
0.0
 10
53.9965601513
 20
35.9317861802
 30
0.0
 10
53.7442658287
 20
35.5704930674
 30
0.0
 10
53.5344687088
 20
35.3350378081
 30
0.0
 10
53.3018405375
 20
35.1318086304
 30
0.0
 10
53.1319979854
 20
35.0183644384
 30
0.0
 10
53.0443357332
 20
34.967752744
 30
0.0
  0
SPLINE
  5
3C5
100
AcDbEntity
  8
0
100
AcDbSpline
 62
7
  6
BYLAYER
 70
0
 71
3
 72
11
 73
7
 74
0
 42
0.0000001
 43
0.0000001
 44
0.0000000001
 40
0.0
 40
0.0
 40
0.0
 40
0.0
 40
0.276868324
 40
0.5321518617
 40
0.7706567503
 40
1.0
 40
1.0
 40
1.0
 40
1.0
 10
22.3745666396
 20
58.9250080251
 30
0.0
 10
22.3478450794
 20
58.7923004762
 30
0.0
 10
22.2772687599
 20
58.5403742994
 30
0.0
 10
22.1095502867
 20
58.2001731146
 30
0.0
 10
21.8867671578
 20
57.921741986
 30
0.0
 10
21.7026101841
 20
57.7813354155
 30
0.0
 10
21.6054972591
 20
57.7252712432
 30
0.0
  0
SPLINE
  5
3C6
100
AcDbEntity
  8
0
100
AcDbSpline
 62
7
  6
BYLAYER
 70
0
 71
3
 72
27
 73
23
 74
0
 42
0.0000001
 43
0.0000001
 44
0.0000000001
 40
0.0
 40
0.0
 40
0.0
 40
0.0
 40
0.0573014403
 40
0.1194582313
 40
0.1859615323
 40
0.2560125105
 40
0.3285901961
 40
0.4025361101
 40
0.4766180992
 40
0.5495992021
 40
0.6202987305
 40
0.6876598866
 40
0.7508235911
 40
0.7806562682
 40
0.8092554229
 40
0.8626917194
 40
0.8876631148
 40
0.9115717483
 40
0.9345584341
 40
0.956806432
 40
0.9785368186
 40
1.0
 40
1.0
 40
1.0
 40
1.0
 10
13.4794780011
 20
65.2745506074
 30
0.0
 10
13.4219513274
 20
64.952817212
 30
0.0
 10
13.3604009262
 20
64.2710014614
 30
0.0
 10
13.4133636235
 20
63.2089507261
 30
0.0
 10
13.6057258549
 20
62.0894671729
 30
0.0
 10
13.9325497004
 20
60.9401401989
 30
0.0
 10
14.3857996795
 20
59.7889901199
 30
0.0
 10
14.9542355492
 20
58.6644412258
 30
0.0
 10
15.6238216041
 20
57.5943113231
 30
0.0
 10
16.3779649613
 20
56.6050940778
 30
0.0
 10
17.198095421
 20
55.7211839061
 30
0.0
 10
18.0639819475
 20
54.9644567388
 30
0.0
 10
18.820400665
 20
54.4454872004
 30
0.0
 10
19.4303277751
 20
54.1140476995
 30
0.0
 10
20.0121938908
 20
53.8513759618
 30
0.0
 10
20.597774108
 20
53.666138593
 30
0.0
 10
21.1749087926
 20
53.5738045353
 30
0.0
 10
21.5851045256
 20
53.5521300795
 30
0.0
 10
21.9796492757
 20
53.5767748356
 30
0.0
 10
22.356016603
 20
53.6478121507
 30
0.0
 10
22.7116033556
 20
53.7647905672
 30
0.0
 10
22.9337727421
 20
53.873379482
 30
0.0
 10
23.0397945602
 20
53.9345876424
 30
0.0
  0
SPLINE
  5
3C7
100
AcDbEntity
  8
0
100
AcDbSpline
 62
7
  6
BYLAYER
 70
0
 71
3
 72
13
 73
9
 74
0
 42
0.0000001
 43
0.0000001
 44
0.0000000001
 40
0.0
 40
0.0
 40
0.0
 40
0.0
 40
0.277955902
 40
0.5333539206
 40
0.6541964342
 40
0.7715238288
 40
0.8863952802
 40
1.0
 40
1.0
 40
1.0
 40
1.0
 10
25.6608240701
 20
57.0633809824
 30
0.0
 10
25.6110058165
 20
56.7847589999
 30
0.0
 10
25.4748271416
 20
56.2559611252
 30
0.0
 10
25.1887204024
 20
55.6487056099
 30
0.0
 10
24.9004062676
 20
55.2357778844
 30
0.0
 10
24.660609303
 20
54.9667141404
 30
0.0
 10
24.3947665411
 20
54.7344228867
 30
0.0
 10
24.2006360169
 20
54.6047930809
 30
0.0
 10
24.1004522491
 20
54.5469505089
 30
0.0
  0
SPLINE
  5
3C8
100
AcDbEntity
  8
0
100
AcDbSpline
 62
7
  6
BYLAYER
 70
0
 71
3
 72
11
 73
7
 74
0
 42
0.0000001
 43
0.0000001
 44
0.0000000001
 40
0.0
 40
0.0
 40
0.0
 40
0.0
 40
0.2738821938
 40
0.5338858883
 40
0.77662867
 40
1.0
 40
1.0
 40
1.0
 40
1.0
 10
25.1488210658
 20
61.5077658085
 30
0.0
 10
25.2849064136
 20
61.1183922374
 30
0.0
 10
25.5131039594
 20
60.3456577799
 30
0.0
 10
25.7208584592
 20
59.1920396447
 30
0.0
 10
25.7817226393
 20
58.09728831
 30
0.0
 10
25.7200340465
 20
57.3945287009
 30
0.0
 10
25.6608240701
 20
57.0633809824
 30
0.0
  0
SPLINE
  5
3C9
100
AcDbEntity
  8
0
100
AcDbSpline
 62
7
  6
BYLAYER
 70
0
 71
3
 72
19
 73
15
 74
0
 42
0.0000001
 43
0.0000001
 44
0.0000000001
 40
0.0
 40
0.0
 40
0.0
 40
0.0
 40
0.0516537092
 40
0.1063872047
 40
0.1640197421
 40
0.2243338051
 40
0.3515729467
 40
0.4848911602
 40
0.6203679949
 40
0.7538764913
 40
0.8186810616
 40
0.8815551615
 40
0.9421047062
 40
1.0
 40
1.0
 40
1.0
 40
1.0
 10
44.2980676883
 20
31.3317527704
 30
0.0
 10
44.3315965749
 20
31.5192720865
 30
0.0
 10
44.3781446091
 20
31.9097444408
 30
0.0
 10
44.3894217936
 20
32.515357547
 30
0.0
 10
44.3440045848
 20
33.151375539
 30
0.0
 10
44.2062138511
 20
34.045857454
 30
0.0
 10
43.8935363175
 20
35.1916131652
 30
0.0
 10
43.3267379608
 20
36.5417265038
 30
0.0
 10
42.5867646543
 20
37.8318635601
 30
0.0
 10
41.8456178453
 20
38.8192911704
 30
0.0
 10
41.1934074426
 20
39.5289736656
 30
0.0
 10
40.6888013857
 20
40.0065826455
 30
0.0
 10
40.1698886122
 20
40.4293045273
 30
0.0
 10
39.8095307504
 20
40.6772909158
 30
0.0
 10
39.6283138129
 20
40.7901961811
 30
0.0
  0
SPLINE
  5
3CA
100
AcDbEntity
  8
0
100
AcDbSpline
 62
7
  6
BYLAYER
 70
0
 71
3
 72
13
 73
9
 74
0
 42
0.0000001
 43
0.0000001
 44
0.0000000001
 40
0.0
 40
0.0
 40
0.0
 40
0.0
 40
0.1136036376
 40
0.2284753105
 40
0.3458000712
 40
0.4666406104
 40
0.7220491497
 40
1.0
 40
1.0
 40
1.0
 40
1.0
 10
23.0397945602
 20
53.9345876424
 30
0.0
 10
23.1399793173
 20
53.9924259704
 30
0.0
 10
23.3341098296
 20
54.122055737
 30
0.0
 10
23.5999354578
 20
54.3543586475
 30
0.0
 10
23.8397493859
 20
54.623400172
 30
0.0
 10
24.1280550749
 20
55.0363419549
 30
0.0
 10
24.4141635651
 20
55.6435970005
 30
0.0
 10
24.5503510364
 20
56.1723982263
 30
0.0
 10
24.6001683142
 20
56.4510147516
 30
0.0
  0
SPLINE
  5
3CB
100
AcDbEntity
  8
0
100
AcDbSpline
 62
7
  6
BYLAYER
 70
0
 71
3
 72
11
 73
7
 74
0
 42
0.0000001
 43
0.0000001
 44
0.0000000001
 40
0.0
 40
0.0
 40
0.0
 40
0.0
 40
0.2339319521
 40
0.479418251
 40
0.7353739901
 40
1.0
 40
1.0
 40
1.0
 40
1.0
 10
39.4613269838
 20
41.0128239567
 30
0.0
 10
39.6422848916
 20
40.9116295971
 30
0.0
 10
40.00331867
 20
40.6863121625
 30
0.0
 10
40.5256635497
 20
40.2954098309
 30
0.0
 10
41.0366447771
 20
39.8474022398
 30
0.0
 10
41.3612655612
 20
39.5189270185
 30
0.0
 10
41.5204661125
 20
39.3467014781
 30
0.0
  0
SPLINE
  5
3CC
100
AcDbEntity
  8
0
100
AcDbSpline
 62
7
  6
BYLAYER
 70
0
 71
3
 72
9
 73
5
 74
0
 42
0.0000001
 43
0.0000001
 44
0.0000000001
 40
0.0
 40
0.0
 40
0.0
 40
0.0
 40
0.2541801534
 40
1.0
 40
1.0
 40
1.0
 40
1.0
 10
17.1289199685
 20
64.1967952094
 30
0.0
 10
17.1408434249
 20
64.2148692963
 30
0.0
 10
17.1891392276
 20
64.2850483941
 30
0.0
 10
17.2430976562
 20
64.3513619629
 30
0.0
 10
17.2863420998
 20
64.3979073208
 30
0.0
  0
SPLINE
  5
3CD
100
AcDbEntity
  8
0
100
AcDbSpline
 62
7
  6
BYLAYER
 70
0
 71
3
 72
9
 73
5
 74
0
 42
0.0000001
 43
0.0000001
 44
0.0000000001
 40
0.0
 40
0.0
 40
0.0
 40
0.0
 40
0.5037612635
 40
1.0
 40
1.0
 40
1.0
 40
1.0
 10
17.2863420998
 20
64.3979073208
 30
0.0
 10
17.3332076004
 20
64.4483501366
 30
0.0
 10
17.4335066864
 20
64.5420119041
 30
0.0
 10
17.5467753896
 20
64.6195737393
 30
0.0
 10
17.6055151957
 20
64.653484762
 30
0.0
  0
SPLINE
  5
3CE
100
AcDbEntity
  8
0
100
AcDbSpline
 62
7
  6
BYLAYER
 70
0
 71
3
 72
9
 73
5
 74
0
 42
0.0000001
 43
0.0000001
 44
0.0000000001
 40
0.0
 40
0.0
 40
0.0
 40
0.0
 40
0.4966020552
 40
1.0
 40
1.0
 40
1.0
 40
1.0
 10
21.6054972591
 20
57.7252712432
 30
0.0
 10
21.549771736
 20
57.6931003934
 30
0.0
 10
21.4326861324
 20
57.6364244187
 30
0.0
 10
21.3087439979
 20
57.5970497512
 30
0.0
 10
21.2453831681
 20
57.5815643959
 30
0.0
  0
SPLINE
  5
3CF
100
AcDbEntity
  8
0
100
AcDbSpline
 62
7
  6
BYLAYER
 70
0
 71
3
 72
9
 73
5
 74
0
 42
0.0000001
 43
0.0000001
 44
0.0000000001
 40
0.0
 40
0.0
 40
0.0
 40
0.0
 40
0.2439262762
 40
1.0
 40
1.0
 40
1.0
 40
1.0
 10
19.9783346255
 20
57.7366299844
 30
0.0
 10
19.9494530226
 20
57.7488709169
 30
0.0
 10
19.8318252102
 20
57.800872549
 30
0.0
 10
19.7173342225
 20
57.8598968618
 30
0.0
 10
19.6327261258
 20
57.9078045321
 30
0.0
  0
SPLINE
  5
3D0
100
AcDbEntity
  8
0
100
AcDbSpline
 62
7
  6
BYLAYER
 70
0
 71
3
 72
9
 73
5
 74
0
 42
0.0000001
 43
0.0000001
 44
0.0000000001
 40
0.0
 40
0.0
 40
0.0
 40
0.0
 40
0.255231568
 40
1.0
 40
1.0
 40
1.0
 40
1.0
 10
16.7772119539
 20
62.8544987588
 30
0.0
 10
16.7774568145
 20
62.882616675
 30
0.0
 10
16.7796684083
 20
62.9927664958
 30
0.0
 10
16.786965496
 20
63.1028299509
 30
0.0
 10
16.7955710868
 20
63.1844289139
 30
0.0
  0
SPLINE
  5
3D1
100
AcDbEntity
  8
0
100
AcDbSpline
 62
7
  6
BYLAYER
 70
0
 71
3
 72
21
 73
17
 74
0
 42
0.0000001
 43
0.0000001
 44
0.0000000001
 40
0.0
 40
0.0
 40
0.0
 40
0.0
 40
0.0687295796
 40
0.1341899247
 40
0.2559203704
 40
0.3133504865
 40
0.3692670024
 40
0.4244249207
 40
0.4796370495
 40
0.5357154635
 40
0.5934140131
 40
0.6533724481
 40
0.7161032314
 40
0.781973863
 40
0.8512151081
 40
1.0
 40
1.0
 40
1.0
 40
1.0
 10
15.7036160637
 20
63.5098434363
 30
0.0
 10
15.7211833769
 20
63.6080933603
 30
0.0
 10
15.7641444832
 20
63.798585352
 30
0.0
 10
15.8818499496
 20
64.1514463787
 30
0.0
 10
16.0497878562
 20
64.4693563707
 30
0.0
 10
16.2678279698
 20
64.7332875227
 30
0.0
 10
16.4495607506
 20
64.8984790446
 30
0.0
 10
16.6511034675
 20
65.0331360519
 30
0.0
 10
16.8708559884
 20
65.1359732587
 30
0.0
 10
17.1068613179
 20
65.2063259344
 30
0.0
 10
17.3571933602
 20
65.2435699537
 30
0.0
 10
17.6198167922
 20
65.2477450968
 30
0.0
 10
17.8927199465
 20
65.2188394626
 30
0.0
 10
18.1739086378
 20
65.157283534
 30
0.0
 10
18.5663569071
 20
65.0293486251
 30
0.0
 10
18.8527978927
 20
64.8899748465
 30
0.0
 10
19.0399100718
 20
64.781936091
 30
0.0
  0
SPLINE
  5
3D2
100
AcDbEntity
  8
0
100
AcDbSpline
 62
7
  6
BYLAYER
 70
0
 71
3
 72
31
 73
27
 74
0
 42
0.0000001
 43
0.0000001
 44
0.0000000001
 40
0.0
 40
0.0
 40
0.0
 40
0.0
 40
0.0279593028
 40
0.0544126
 40
0.079463306
 40
0.1033451773
 40
0.1263769831
 40
0.1489385096
 40
0.1714491997
 40
0.1943363315
 40
0.2179941694
 40
0.2427491355
 40
0.2688507634
 40
0.2964608117
 40
0.3256672036
 40
0.3564830231
 40
0.3888668538
 40
0.4227222688
 40
0.4942368997
 40
0.5696232201
 40
0.6470869005
 40
0.7246662877
 40
0.8003889751
 40
0.872435427
 40
0.9393009355
 40
1.0
 40
1.0
 40
1.0
 40
1.0
 10
22.3760302516
 20
58.2157219228
 30
0.0
 10
22.3561839582
 20
58.1047261891
 30
0.0
 10
22.3065873274
 20
57.8904436203
 30
0.0
 10
22.1986027869
 20
57.5878979851
 30
0.0
 10
22.0596716334
 20
57.3164018649
 30
0.0
 10
21.8911078766
 20
57.0787949719
 30
0.0
 10
21.6942462251
 20
56.8776899683
 30
0.0
 10
21.4711315828
 20
56.7152563086
 30
0.0
 10
21.2240447401
 20
56.5936127853
 30
0.0
 10
20.9558946676
 20
56.5138684737
 30
0.0
 10
20.6695981198
 20
56.4768424785
 30
0.0
 10
20.3681591696
 20
56.4824046776
 30
0.0
 10
20.0545311777
 20
56.5304168972
 30
0.0
 10
19.7316300808
 20
56.6200032973
 30
0.0
 10
19.4024953956
 20
56.7503422902
 30
0.0
 10
19.07010935
 20
56.9199552799
 30
0.0
 10
18.7376277257
 20
57.1273341127
 30
0.0
 10
18.2901828952
 20
57.4573873347
 30
0.0
 10
17.752316407
 20
57.9530153113
 30
0.0
 10
17.1670133301
 20
58.6457156891
 30
0.0
 10
16.6518173052
 20
59.4215382187
 30
0.0
 10
16.2261044389
 20
60.2513280703
 30
0.0
 10
15.9057683701
 20
61.1040407168
 30
0.0
 10
15.7028110047
 20
61.9481109321
 30
0.0
 10
15.6248190222
 20
62.7520774305
 30
0.0
 10
15.6605301738
 20
63.2688740084
 30
0.0
 10
15.7036160637
 20
63.5098434363
 30
0.0
  0
SPLINE
  5
3D3
100
AcDbEntity
  8
0
100
AcDbSpline
 62
7
  6
BYLAYER
 70
0
 71
3
 72
11
 73
7
 74
0
 42
0.0000001
 43
0.0000001
 44
0.0000000001
 40
0.0
 40
0.0
 40
0.0
 40
0.0
 40
0.2325130524
 40
0.475722686
 40
0.7312935673
 40
1.0
 40
1.0
 40
1.0
 40
1.0
 10
43.6850657397
 20
29.8117315826
 30
0.0
 10
43.7609073978
 20
29.914923108
 30
0.0
 10
43.901516692
 20
30.1370771348
 30
0.0
 10
44.0730423073
 20
30.5025164142
 30
0.0
 10
44.2082357916
 20
30.9038887409
 30
0.0
 10
44.2720182652
 20
31.186064365
 30
0.0
 10
44.2980676883
 20
31.3317527704
 30
0.0
  0
SPLINE
  5
3D4
100
AcDbEntity
  8
0
100
AcDbSpline
 62
7
  6
BYLAYER
 70
0
 71
3
 72
27
 73
23
 74
0
 42
0.0000001
 43
0.0000001
 44
0.0000000001
 40
0.0
 40
0.0
 40
0.0
 40
0.0
 40
0.0573014403
 40
0.1194582313
 40
0.1859615323
 40
0.2560125105
 40
0.3285901961
 40
0.4025361101
 40
0.4766180992
 40
0.5495992021
 40
0.6202987305
 40
0.6876598866
 40
0.7508235911
 40
0.7806562682
 40
0.8092554229
 40
0.8626917194
 40
0.8876631148
 40
0.9115717483
 40
0.9345584341
 40
0.956806432
 40
0.9785368186
 40
1.0
 40
1.0
 40
1.0
 40
1.0
 10
24.6001683142
 20
56.4510147516
 30
0.0
 10
24.6576949879
 20
56.772748147
 30
0.0
 10
24.7192453891
 20
57.4545638976
 30
0.0
 10
24.6662826918
 20
58.5166146329
 30
0.0
 10
24.4739204604
 20
59.6360981861
 30
0.0
 10
24.1470966149
 20
60.7854251601
 30
0.0
 10
23.6938466358
 20
61.9365752392
 30
0.0
 10
23.1254107661
 20
63.0611241332
 30
0.0
 10
22.4558247112
 20
64.1312540359
 30
0.0
 10
21.701681354
 20
65.1204712813
 30
0.0
 10
20.8815508944
 20
66.0043814529
 30
0.0
 10
20.0156643678
 20
66.7611086202
 30
0.0
 10
19.2592456503
 20
67.2800781586
 30
0.0
 10
18.6493185402
 20
67.6115176595
 30
0.0
 10
18.0674524245
 20
67.8741893972
 30
0.0
 10
17.4818722073
 20
68.059426766
 30
0.0
 10
16.9047375227
 20
68.1517608237
 30
0.0
 10
16.4945417897
 20
68.1734352795
 30
0.0
 10
16.0999970396
 20
68.1487905235
 30
0.0
 10
15.7236297123
 20
68.0777532083
 30
0.0
 10
15.3680429597
 20
67.9607747919
 30
0.0
 10
15.1458735732
 20
67.8521858771
 30
0.0
 10
15.0398517551
 20
67.7909777166
 30
0.0
  0
ELLIPSE
  5
3D5
100
AcDbEntity
  8
0
100
AcDbEllipse
 62
7
  6
BYLAYER
 10
11.643446847
 20
42.4021735932
 30
0.0
 11
-0.0214162884
 21
0.4999995303
 31
0.0
 40
0.0301984672
 41
-0.0012933764
 42
0.6141761941
  0
ELLIPSE
  5
3D6
100
AcDbEntity
  8
0
100
AcDbEllipse
 62
7
  6
BYLAYER
 10
11.6434321968
 20
44.4337355178
 30
0.0
 11
-0.0214162884
 21
0.4999995303
 31
0.0
 40
0.0301984672
 41
0.6141761941
 42
1.7224602691
  0
ELLIPSE
  5
3D7
100
AcDbEntity
  8
0
100
AcDbEllipse
 62
7
  6
BYLAYER
 10
12.2797070732
 20
42.4021751226
 30
0.0
 11
0.0214138935
 21
0.4999996331
 31
0.0
 40
0.0302052536
 41
-0.6141759029
 42
0.0012936676
  0
ELLIPSE
  5
3D8
100
AcDbEntity
  8
0
100
AcDbEllipse
 62
7
  6
BYLAYER
 10
12.2796924229
 20
44.4337370471
 30
0.0
 11
0.0214138935
 21
0.4999996331
 31
0.0
 40
0.0302052536
 41
-1.7224599779
 42
-0.6141759029
  0
ELLIPSE
  5
3D9
100
AcDbEntity
  8
0
100
AcDbEllipse
 62
7
  6
BYLAYER
 10
25.78564135
 20
34.2373585028
 30
0.0
 11
-0.0214162884
 21
0.4999995303
 31
0.0
 40
0.0301984672
 41
-0.0012933764
 42
0.6141761941
  0
ELLIPSE
  5
3DA
100
AcDbEntity
  8
0
100
AcDbEllipse
 62
7
  6
BYLAYER
 10
25.7856266997
 20
36.2689204274
 30
0.0
 11
-0.0214162884
 21
0.4999995303
 31
0.0
 40
0.0301984672
 41
0.6141761941
 42
1.7224602691
  0
ELLIPSE
  5
3DB
100
AcDbEntity
  8
0
100
AcDbEllipse
 62
7
  6
BYLAYER
 10
26.4219015761
 20
34.2373600321
 30
0.0
 11
0.0214138935
 21
0.4999996331
 31
0.0
 40
0.0302052536
 41
-0.6141759029
 42
0.0012936676
  0
ELLIPSE
  5
3DC
100
AcDbEntity
  8
0
100
AcDbEllipse
 62
7
  6
BYLAYER
 10
26.4218869258
 20
36.2689219567
 30
0.0
 11
0.0214138935
 21
0.4999996331
 31
0.0
 40
0.0302052536
 41
-1.7224599779
 42
-0.6141759029
  0
ENDSEC
  0
SECTION
  2
OBJECTS
  0
DICTIONARY
  5
C
100
AcDbDictionary
280
0
281
1
  3
ACAD_GROUP
350
D
  3
ACAD_MLINESTYLE
350
17
  3
ACAD_LAYOUT
350
1A
  3
ACAD_PLOTSETTINGS
350
19
  3
ACAD_PLOTSTYLENAME
350
E
  0
DICTIONARY
  5
D
102
{ACAD_REACTORS
330
C
102
}
100
AcDbDictionary
280
0
281
1
  0
ACDBDICTIONARYWDFLT
  5
E
102
{ACAD_REACTORS
330
C
102
}
100
AcDbDictionary
281
1
  3
Normal
350
F
100
AcDbDictionaryWithDefault
340
F
  0
DICTIONARY
  5
17
102
{ACAD_REACTORS
330
C
102
}
100
AcDbDictionary
280
0
281
1
  3
Standard
350
18
  0
DICTIONARY
  5
19
102
{ACAD_REACTORS
330
C
102
}
100
AcDbDictionary
281
1
  0
DICTIONARY
  5
1A
102
{ACAD_REACTORS
330
C
102
}
100
AcDbDictionary
281
1
  3
Model
350
3DD
  3
Layout1
350
3DE
  0
ACDBPLACEHOLDER
  5
F
102
{ACAD_REACTORS
330
E
102
}
  0
MLINESTYLE
  5
18
102
{ACAD_REACTORS
330
17
102
}
100
AcDbMlineStyle
  2
STANDARD
 70
0
  3

 62
256
 51
90.0
 52
90.0
 71
2
 49
0.5
 62
256
  6
BYLAYER
 49
-0.5
 62
256
  6
BYLAYER
  0
LAYOUT
  5
3DD
102
{ACAD_REACTORS
330
1A
102
}
100
AcDbPlotSettings
  1

  2
none_device
  4

  6

 40
0.0
 41
0.0
 42
0.0
 43
0.0
 44
210.0
 45
297.0
 46
0.0
 47
0.0
 48
0.0
 49
0.0
140
0.0
141
0.0
142
1.0
143
1.0
 70
1024
 72
1
 73
0
 74
0
  7

 75
0
147
1.0
148
0.0
149
0.0
100
AcDbLayout
  1
Model
 70
0
 71
0
 10
0.0
 20
0.0
 11
210.0
 21
297.0
 12
0.0
 22
0.0
 32
0.0
 14
0.0
 24
0.0
 34
0.0
 15
0.0
 25
0.0
 35
0.0
146
0.0
 13
0.0
 23
0.0
 33
0.0
 16
1.0
 26
0.0
 36
0.0
 17
0.0
 27
1.0
 37
0.0
 76
0
330
210
345
0
346
0
  0
LAYOUT
  5
3DE
102
{ACAD_REACTORS
330
1A
102
}
100
AcDbPlotSettings
  1

  2
none_device
  4

  6

 40
0.0
 41
0.0
 42
0.0
 43
0.0
 44
210.0
 45
297.0
 46
0.0
 47
0.0
 48
0.0
 49
0.0
140
0.0
141
0.0
142
1.0
143
1.0
 70
0
 72
1
 73
0
 74
0
  7

 75
0
147
1.0
148
0.0
149
0.0
100
AcDbLayout
  1
Layout1
 70
0
 71
1
 10
0.0
 20
0.0
 11
210.0
 21
297.0
 12
0.0
 22
0.0
 32
0.0
 14
0.0
 24
0.0
 34
0.0
 15
0.0
 25
0.0
 35
0.0
146
0.0
 13
0.0
 23
0.0
 33
0.0
 16
1.0
 26
0.0
 36
0.0
 17
0.0
 27
1.0
 37
0.0
 76
0
330
211
345
0
346
0
  0
ENDSEC
  0
EOF
