999
DXF file: C:\Users\sesa63760\Dev\_Creo\CAD\MCADID0005146_3D-CAD\drw0001_1.dxf
999
Pro/ENGINEER 2019471 by Parametric Technology Corporation
  0
SECTION
  2
HEADER
  9
$ACADVER
  1
AC1024
  9
$DWGCODEPAGE
  3
ANSI_1252
  9
$EXTMAX
 10
150.7158655684
 20
213.1552955895
 30
0.0
  9
$EXTMIN
 10
0.0
 20
0.0
 30
0.0
  9
$LIMMIN
 10
0.0
 20
0.0
  9
$LIMMAX
 10
150.7158655684
 20
213.1552955895
  9
$VIEWCTR
 10
75.3579327842
 20
106.5776477948
  9
$VIEWSIZE
 40
213.1552955895
  9
$CLAYER
  8
0
  9
$LTSCALE
 40
13.8945674162
  9
$CELTYPE
  6
BYLAYER
  9
$DIMSCALE
 40
1.0
  9
$DIMASZ
 40
1.7942364949
  9
$DIMEXO
 40
1.0
  9
$DIMDLI
 40
9.5998829421
  9
$DIMEXE
 40
1.0
  9
$DIMCEN
 40
2.2736564863
  9
$DIMLFAC
 40
1.0
  9
$DIMBLK
  1
_FILLED
  9
$DIMALT
 70
0
  9
$DIMALTF
 40
0.0393700787
  9
$DIMTXT
 40
2.5119310928
  9
$DIMTOL
 70
1
  9
$DIMLIM
 70
0
  9
$DIMTFAC
 40
1.0
  9
$DIMTP
 40
0.01
  9
$DIMTM
 40
0.01
  9
$DIMGAP
 40
0.625
  9
$DIMDSEP
 70
46
  9
$AUNITS
 70
0
  9
$PDMODE
 70
3
  9
$PDSIZE
 40
0.3125
  9
$HANDSEED
  5
2D1
  9
$TILEMODE
 70
1
  9
$MEASUREMENT
 70
1
  9
$INSUNITS
 70
4
  0
ENDSEC
  0
SECTION
  2
CLASSES
  0
CLASS
  1
ACDBDICTIONARYWDFLT
  2
AcDbDictionaryWithDefault
  3
AutoCAD 2000
 90
0
 91
1
280
0
281
0
  0
CLASS
  1
ACDBPLACEHOLDER
  2
AcDbPlaceHolder
  3
AutoCAD 2000
 90
0
 91
1
280
0
281
0
  0
CLASS
  1
LAYOUT
  2
AcDbLayout
  3
AutoCAD 2000
 90
0
 91
0
280
0
281
0
  0
ENDSEC
  0
SECTION
  2
TABLES
  0
TABLE
  2
VPORT
  5
8
100
AcDbSymbolTable
 70
2
  0
VPORT
  5
1F4
100
AcDbSymbolTableRecord
100
AcDbViewportTableRecord
  2
*ACTIVE
 70
0
 10
0.0
 20
0.0
 11
1.0
 21
1.0
 12
75.3579327842
 22
106.5776477948
 13
0.0
 23
0.0
 14
1.0
 24
1.0
 15
0.0
 25
0.0
 16
0.0
 26
0.0
 36
1.0
 17
0.0
 27
0.0
 37
0.0
 40
213.1552955895
 41
0.7070707071
 42
50.0
 43
0.0
 44
0.0
 50
0.0
 51
0.0
 71
0
 72
100
 73
1
 74
1
 75
0
 76
0
 77
0
 78
0
  0
ENDTAB
  0
TABLE
  2
LTYPE
  5
5
100
AcDbSymbolTable
 70
6
  0
LTYPE
  5
14
100
AcDbSymbolTableRecord
100
AcDbLinetypeTableRecord
  2
BYBLOCK
 70
0
  3

 72
65
 73
0
 40
0.0
  0
LTYPE
  5
15
100
AcDbSymbolTableRecord
100
AcDbLinetypeTableRecord
  2
BYLAYER
 70
0
  3

 72
65
 73
0
 40
0.0
  0
LTYPE
  5
16
100
AcDbSymbolTableRecord
100
AcDbLinetypeTableRecord
  2
CONTINUOUS
 70
64
  3
Solid line
 72
65
 73
0
 40
0.0
  0
LTYPE
  5
1F5
100
AcDbSymbolTableRecord
100
AcDbLinetypeTableRecord
  2
CENTER
 70
64
  3
____ _ ____ _ ____ _ ____ _ ____ _ ____ _ ____
 72
65
 73
4
 40
0.6
 49
0.375
 74
0
 49
-0.075
 74
0
 49
0.075
 74
0
 49
-0.075
 74
0
  0
LTYPE
  5
1F6
100
AcDbSymbolTableRecord
100
AcDbLinetypeTableRecord
  2
HIDDEN
 70
64
  3
- - - - - - - - - - - - - - - - - - - -
 72
65
 73
2
 40
0.2
 49
0.1
 74
0
 49
-0.1
 74
0
  0
LTYPE
  5
1F7
100
AcDbSymbolTableRecord
100
AcDbLinetypeTableRecord
  2
PHANTOM
 70
64
  3
_____ _ _ _____ _ _ _____ _ _ _____
 72
65
 73
6
 40
0.8
 49
0.45
 74
0
 49
-0.05
 74
0
 49
0.1
 74
0
 49
-0.05
 74
0
 49
0.1
 74
0
 49
-0.05
 74
0
  0
LTYPE
  5
1F8
100
AcDbSymbolTableRecord
100
AcDbLinetypeTableRecord
  2
DOT
 70
64
  3
. . . . . . . . . . . . . . . . . . . .
 72
65
 73
2
 40
0.2
 49
0.1
 74
0
 49
-0.1
 74
0
  0
LTYPE
  5
1F9
100
AcDbSymbolTableRecord
100
AcDbLinetypeTableRecord
  2
DASHED
 70
64
  3
- - - - - - - - - - - - - - - - - - - -
 72
65
 73
2
 40
0.2
 49
0.1
 74
0
 49
-0.1
 74
0
  0
ENDTAB
  0
TABLE
  2
LAYER
  5
2
100
AcDbSymbolTable
 70
36
  0
LAYER
  5
10
100
AcDbSymbolTableRecord
100
AcDbLayerTableRecord
  2
0
 70
0
 62
7
  6
CONTINUOUS
370
-3
390
F
  0
LAYER
  5
1FA
100
AcDbSymbolTableRecord
100
AcDbLayerTableRecord
  2
DEFAULT_1
 70
0
 62
7
  6
CENTER
370
-3
390
F
  0
LAYER
  5
1FB
100
AcDbSymbolTableRecord
100
AcDbLayerTableRecord
  2
DEFAULT_2
 70
0
 62
7
  6
HIDDEN
370
-3
390
F
  0
LAYER
  5
1FC
100
AcDbSymbolTableRecord
100
AcDbLayerTableRecord
  2
DEFAULT_3
 70
0
 62
7
  6
PHANTOM
370
-3
390
F
  0
LAYER
  5
1FD
100
AcDbSymbolTableRecord
100
AcDbLayerTableRecord
  2
00_COMPONENTS
 70
0
 62
7
  6
CONTINUOUS
370
-3
390
F
  0
LAYER
  5
1FE
100
AcDbSymbolTableRecord
100
AcDbLayerTableRecord
  2
01_1_DEFAULT_DATUMS
 70
0
 62
7
  6
CONTINUOUS
370
-3
390
F
  0
LAYER
  5
1FF
100
AcDbSymbolTableRecord
100
AcDbLayerTableRecord
  2
01_PLANES
 70
0
 62
7
  6
CONTINUOUS
370
-3
390
F
  0
LAYER
  5
200
100
AcDbSymbolTableRecord
100
AcDbLayerTableRecord
  2
02_COORD_SYS
 70
0
 62
7
  6
CONTINUOUS
370
-3
390
F
  0
LAYER
  5
201
100
AcDbSymbolTableRecord
100
AcDbLayerTableRecord
  2
03_AXES
 70
0
 62
7
  6
CONTINUOUS
370
-3
390
F
  0
LAYER
  5
202
100
AcDbSymbolTableRecord
100
AcDbLayerTableRecord
  2
04_POINTS
 70
0
 62
7
  6
CONTINUOUS
370
-3
390
F
  0
LAYER
  5
203
100
AcDbSymbolTableRecord
100
AcDbLayerTableRecord
  2
05_CURVES
 70
0
 62
7
  6
CONTINUOUS
370
-3
390
F
  0
LAYER
  5
204
100
AcDbSymbolTableRecord
100
AcDbLayerTableRecord
  2
06_SURFS
 70
0
 62
7
  6
CONTINUOUS
370
-3
390
F
  0
LAYER
  5
205
100
AcDbSymbolTableRecord
100
AcDbLayerTableRecord
  2
07_COSMETICS
 70
0
 62
7
  6
CONTINUOUS
370
-3
390
F
  0
LAYER
  5
206
100
AcDbSymbolTableRecord
100
AcDbLayerTableRecord
  2
10_NOTES
 70
0
 62
7
  6
CONTINUOUS
370
-3
390
F
  0
LAYER
  5
207
100
AcDbSymbolTableRecord
100
AcDbLayerTableRecord
  2
11_NOTES_PUB
 70
0
 62
7
  6
CONTINUOUS
370
-3
390
F
  0
LAYER
  5
208
100
AcDbSymbolTableRecord
100
AcDbLayerTableRecord
  2
13_REF_GTOL
 70
0
 62
7
  6
CONTINUOUS
370
-3
390
F
  0
LAYER
  5
209
100
AcDbSymbolTableRecord
100
AcDbLayerTableRecord
  2
16_MISC
 70
0
 62
7
  6
CONTINUOUS
370
-3
390
F
  0
LAYER
  5
20A
100
AcDbSymbolTableRecord
100
AcDbLayerTableRecord
  2
17_NO_PRINT
 70
0
 62
7
  6
CONTINUOUS
370
-3
390
F
  0
LAYER
  5
20B
100
AcDbSymbolTableRecord
100
AcDbLayerTableRecord
  2
18_DATUM_CAMS_JOINTS
 70
0
 62
7
  6
CONTINUOUS
370
-3
390
F
  0
LAYER
  5
20C
100
AcDbSymbolTableRecord
100
AcDbLayerTableRecord
  2
19_DATUM_FUNCTIONAL
 70
0
 62
7
  6
CONTINUOUS
370
-3
390
F
  0
LAYER
  5
20D
100
AcDbSymbolTableRecord
100
AcDbLayerTableRecord
  2
20_DATUM_KINEMATIC_SCHEME
 70
0
 62
7
  6
CONTINUOUS
370
-3
390
F
  0
LAYER
  5
20E
100
AcDbSymbolTableRecord
100
AcDbLayerTableRecord
  2
INTFCLR_16229
 70
0
 62
7
  6
CONTINUOUS
370
-3
390
F
  0
ENDTAB
  0
TABLE
  2
STYLE
  5
3
100
AcDbSymbolTable
 70
1
  0
STYLE
  5
11
100
AcDbSymbolTableRecord
100
AcDbTextStyleTableRecord
  2
STANDARD
 70
0
 40
0.0
 41
1.0
 50
0.0
 71
0
 42
0.2
  3
ARIAL.TTF
  4

  0
STYLE
  5
20F
100
AcDbSymbolTableRecord
100
AcDbTextStyleTableRecord
  2
TEXTSTYLE_1
 70
0
 40
0.0
 41
0.8
 50
0.0
 71
0
 42
0.2
  3
gdt
  4

  0
ENDTAB
  0
TABLE
  2
VIEW
  5
6
100
AcDbSymbolTable
 70
0
  0
ENDTAB
  0
TABLE
  2
UCS
  5
7
100
AcDbSymbolTable
 70
0
  0
ENDTAB
  0
TABLE
  2
APPID
  5
9
100
AcDbSymbolTable
 70
1
  0
APPID
  5
210
100
AcDbSymbolTableRecord
100
AcDbRegAppTableRecord
  2
ACAD
 70
0
  0
ENDTAB
  0
TABLE
  2
BLOCK_RECORD
  5
1
100
AcDbSymbolTable
 70
0
  0
BLOCK_RECORD
  5
211
100
AcDbSymbolTableRecord
100
AcDbBlockTableRecord
  2
*Model_Space
  0
BLOCK_RECORD
  5
212
100
AcDbSymbolTableRecord
100
AcDbBlockTableRecord
  2
*Paper_Space
  0
BLOCK_RECORD
  5
213
100
AcDbSymbolTableRecord
100
AcDbBlockTableRecord
  2
_FILLED
  0
ENDTAB
  0
TABLE
  2
DIMSTYLE
  5
A
100
AcDbSymbolTable
 70
1
100
AcDbDimStyleTable
 71
0
  0
DIMSTYLE
105
214
100
AcDbSymbolTableRecord
100
AcDbDimStyleTableRecord
  2
STANDARD
 70
0
  3

  4

 40
1.0
 41
1.7942364949
 42
1.0
 43
0.38
 44
1.0
 45
0.0
 46
0.0
 47
0.01
 48
0.01
140
2.5119310928
141
0.09
142
0.0
143
25.4
144
1.0
145
0.0
146
1.0
147
0.625
 71
1
 72
0
 73
0
 74
0
 75
0
 76
0
 77
1
 78
8
 79
2
170
0
171
1
172
0
173
0
174
0
175
0
176
0
177
0
178
0
270
2
179
2
271
2
272
2
273
2
274
2
275
0
280
0
281
0
282
0
283
1
284
8
285
0
286
0
287
3
288
0
340
11
278
46
341
213
342
213
343
213
344
213
  0
ENDTAB
  0
ENDSEC
  0
SECTION
  2
BLOCKS
  0
BLOCK
  5
20
100
AcDbEntity
  8
0
100
AcDbBlockBegin
  2
*Model_Space
 70
0
 10
0.0
 20
0.0
 30
0.0
  3
*Model_Space
  1

  0
ENDBLK
  5
21
100
AcDbEntity
  8
0
100
AcDbBlockEnd
  0
BLOCK
  5
1C
100
AcDbEntity
  8
0
100
AcDbBlockBegin
  2
*Paper_Space
 70
0
 10
0.0
 20
0.0
 30
0.0
  3
*Paper_Space
  1

  0
ENDBLK
  5
1D
100
AcDbEntity
  8
0
100
AcDbBlockEnd
  0
BLOCK
  5
215
100
AcDbEntity
  8
0
100
AcDbBlockBegin
  2
_FILLED
 70
64
 10
0.0
 20
0.0
  3
_FILLED
  1

  0
SOLID
  5
216
100
AcDbEntity
  8
0
  6
BYBLOCK
 62
0
100
AcDbTrace
 10
0.0
 20
0.0
 11
-1.0
 21
0.25
 12
-1.0
 22
-0.25
 13
-1.0
 23
-0.25
  0
ENDBLK
  5
217
100
AcDbEntity
  8
0
  6
BYBLOCK
 62
0
100
AcDbBlockEnd
  0
ENDSEC
  0
SECTION
  2
ENTITIES
  0
LINE
  5
218
100
AcDbEntity
  8
0
100
AcDbLine
 62
7
  6
BYLAYER
 10
17.4847744331
 20
108.18150564
 11
17.4847744331
 21
122.4702979398
  0
LINE
  5
219
100
AcDbEntity
  8
0
100
AcDbLine
 62
7
  6
BYLAYER
 10
18.1397382782
 20
120.9927864445
 11
18.0361768732
 21
120.763902867
  0
LINE
  5
21A
100
AcDbEntity
  8
0
100
AcDbLine
 62
7
  6
BYLAYER
 10
18.0361768732
 20
113.4153811129
 11
18.0361768732
 21
120.763902867
  0
LINE
  5
21B
100
AcDbEntity
  8
0
100
AcDbLine
 62
7
  6
BYLAYER
 10
20.1110825186
 20
126.2960267602
 11
20.1458686333
 21
126.3161145649
  0
LINE
  5
21C
100
AcDbEntity
  8
0
100
AcDbLine
 62
7
  6
BYLAYER
 10
20.1458686333
 20
126.3161145649
 11
28.1644298735
 21
130.9456548344
  0
LINE
  5
21D
100
AcDbEntity
  8
0
100
AcDbLine
 62
7
  6
BYLAYER
 10
19.9277389374
 20
125.6128216361
 11
23.8941043372
 21
127.9028581739
  0
LINE
  5
21E
100
AcDbEntity
  8
0
100
AcDbLine
 62
7
  6
BYLAYER
 10
81.0131316865
 20
160.0475648711
 11
84.7009341155
 21
162.1767058869
  0
LINE
  5
21F
100
AcDbEntity
  8
0
100
AcDbLine
 62
7
  6
BYLAYER
 10
18.4393634358
 20
123.1847245292
 11
20.6070480137
 21
124.4362303333
  0
LINE
  5
220
100
AcDbEntity
  8
0
100
AcDbLine
 62
7
  6
BYLAYER
 10
17.4847744331
 20
122.4702979398
 11
18.5807853808
 21
123.1030763783
  0
LINE
  5
221
100
AcDbEntity
  8
0
100
AcDbLine
 62
7
  6
BYLAYER
 10
28.7314388463
 20
130.695677884
 11
28.847788217
 21
130.7628430777
  0
LINE
  5
222
100
AcDbEntity
  8
0
100
AcDbLine
 62
7
  6
BYLAYER
 10
18.139732855
 20
120.9927958378
 11
18.2811536224
 21
121.0744446686
  0
LINE
  5
223
100
AcDbEntity
  8
0
100
AcDbLine
 62
7
  6
BYLAYER
 10
18.3897317358
 20
120.9680336983
 11
18.5311525032
 21
121.0496825291
  0
LINE
  5
224
100
AcDbEntity
  8
0
100
AcDbLine
 62
7
  6
BYLAYER
 10
30.4814461322
 20
127.6645931774
 11
25.6441116231
 21
124.8717734673
  0
LINE
  5
225
100
AcDbEntity
  8
0
100
AcDbLine
 62
7
  6
BYLAYER
 10
27.8380432687
 20
124.9837440942
 11
30.2875228133
 21
126.397943327
  0
LINE
  5
226
100
AcDbEntity
  8
0
100
AcDbLine
 62
7
  6
BYLAYER
 10
22.5916261199
 20
120.7999643811
 11
31.6837345104
 21
126.0493247481
  0
LINE
  5
227
100
AcDbEntity
  8
0
100
AcDbLine
 62
7
  6
BYLAYER
 10
22.5911479665
 20
120.7996883176
 11
22.639852429
 21
120.7153301823
  0
LINE
  5
228
100
AcDbEntity
  8
0
100
AcDbLine
 62
7
  6
BYLAYER
 10
22.6777503867
 20
120.8496885258
 11
19.9277389374
 21
125.6128216361
  0
LINE
  5
229
100
AcDbEntity
  8
0
100
AcDbLine
 62
7
  6
BYLAYER
 10
42.7850172534
 20
106.4754764588
 11
42.7850172534
 21
99.1269547046
  0
LINE
  5
22A
100
AcDbEntity
  8
0
100
AcDbLine
 62
7
  6
BYLAYER
 10
42.9264380208
 20
99.2086035354
 11
42.9264380208
 21
106.5571252896
  0
LINE
  5
22B
100
AcDbEntity
  8
0
100
AcDbLine
 62
7
  6
BYLAYER
 10
25.6441116231
 20
124.8717734673
 11
23.8941043372
 21
127.9028581739
  0
LINE
  5
22C
100
AcDbEntity
  8
0
100
AcDbLine
 62
7
  6
BYLAYER
 10
42.6814558484
 20
98.8980711272
 11
42.7850172534
 21
99.1269547046
  0
LINE
  5
22D
100
AcDbEntity
  8
0
100
AcDbLine
 62
7
  6
BYLAYER
 10
42.9264380208
 20
99.2086035354
 11
42.8228766158
 21
98.9797199579
  0
LINE
  5
22E
100
AcDbEntity
  8
0
100
AcDbLine
 62
7
  6
BYLAYER
 10
34.2763664354
 20
118.3086041732
 11
33.2492387825
 21
117.7155952861
  0
LINE
  5
22F
100
AcDbEntity
  8
0
100
AcDbLine
 62
7
  6
BYLAYER
 10
82.9776031977
 20
68.0671702553
 11
83.0198076113
 21
68.043246803
  0
LINE
  5
230
100
AcDbEntity
  8
0
100
AcDbLine
 62
7
  6
BYLAYER
 10
17.4847744331
 20
108.18150564
 11
91.7312955736
 21
65.3162264154
  0
LINE
  5
231
100
AcDbEntity
  8
0
100
AcDbLine
 62
7
  6
BYLAYER
 10
28.7314388463
 20
130.695677884
 11
30.4814461322
 21
127.6645931774
  0
LINE
  5
232
100
AcDbEntity
  8
0
100
AcDbLine
 62
7
  6
BYLAYER
 10
31.5977996663
 20
125.9997099674
 11
28.847788217
 21
130.7628430777
  0
LINE
  5
233
100
AcDbEntity
  8
0
100
AcDbLine
 62
7
  6
BYLAYER
 10
31.6844020865
 20
126.0497101755
 11
34.8544723632
 21
120.5590178728
  0
LINE
  5
234
100
AcDbEntity
  8
0
100
AcDbLine
 62
7
  6
BYLAYER
 10
42.4314623908
 20
98.9228238733
 11
18.3897317358
 21
112.803009527
  0
LINE
  5
235
100
AcDbEntity
  8
0
100
AcDbLine
 62
7
  6
BYLAYER
 10
128.389810523
 20
51.6109633223
 11
93.0343242656
 21
72.0230010483
  0
LINE
  5
236
100
AcDbEntity
  8
0
100
AcDbLine
 62
7
  6
BYLAYER
 10
42.5728831582
 20
107.1694968754
 11
42.4314623908
 21
107.0878480446
  0
LINE
  5
237
100
AcDbEntity
  8
0
100
AcDbLine
 62
7
  6
BYLAYER
 10
42.7850172534
 20
106.4754764588
 11
42.9264380208
 21
106.5571252896
  0
LINE
  5
238
100
AcDbEntity
  8
0
100
AcDbLine
 62
7
  6
BYLAYER
 10
18.3897317358
 20
120.9680336983
 11
42.4314623908
 21
107.0878480446
  0
LINE
  5
239
100
AcDbEntity
  8
0
100
AcDbLine
 62
7
  6
BYLAYER
 10
42.5728831582
 20
107.1694968754
 11
18.5311525032
 21
121.0496825291
  0
LINE
  5
23A
100
AcDbEntity
  8
0
100
AcDbLine
 62
7
  6
BYLAYER
 10
17.4847744331
 20
122.4702979398
 11
91.7312955736
 21
79.6050187152
  0
LINE
  5
23B
100
AcDbEntity
  8
0
100
AcDbLine
 62
7
  6
BYLAYER
 10
42.9264380208
 20
99.2086035354
 11
42.7850172534
 21
99.1269547046
  0
LINE
  5
23C
100
AcDbEntity
  8
0
100
AcDbLine
 62
7
  6
BYLAYER
 10
42.4314623908
 20
98.9228238733
 11
42.6814558484
 21
98.8980711272
  0
LINE
  5
23D
100
AcDbEntity
  8
0
100
AcDbLine
 62
7
  6
BYLAYER
 10
18.5807853808
 20
123.1030763783
 11
18.4393634358
 21
123.1847245292
  0
LINE
  5
23E
100
AcDbEntity
  8
0
100
AcDbLine
 62
7
  6
BYLAYER
 10
42.6814612716
 20
98.8980617338
 11
42.822882039
 21
98.9797105646
  0
LINE
  5
23F
100
AcDbEntity
  8
0
100
AcDbLine
 62
7
  6
BYLAYER
 10
134.3397095692
 20
61.9167239123
 11
98.9842233118
 21
82.3287616384
  0
LINE
  5
240
100
AcDbEntity
  8
0
100
AcDbLine
 62
7
  6
BYLAYER
 10
33.3280782031
 20
123.2027954343
 11
80.3294053428
 21
96.0671804475
  0
LINE
  5
241
100
AcDbEntity
  8
0
100
AcDbLine
 62
7
  6
BYLAYER
 10
90.8294053428
 20
90.0051397627
 11
100.2872520039
 21
84.544772977
  0
LINE
  5
242
100
AcDbEntity
  8
0
100
AcDbLine
 62
7
  6
BYLAYER
 10
82.2469649597
 20
67.9032071857
 11
82.1393203135
 21
68.2678380514
  0
LINE
  5
243
100
AcDbEntity
  8
0
100
AcDbLine
 62
7
  6
BYLAYER
 10
82.391853672
 20
66.7825182164
 11
82.2893676854
 21
67.1313170864
  0
LINE
  5
244
100
AcDbEntity
  8
0
100
AcDbLine
 62
7
  6
BYLAYER
 10
82.2888892278
 20
67.1312955661
 11
82.1393203136
 21
68.2678380514
  0
LINE
  5
245
100
AcDbEntity
  8
0
100
AcDbLine
 62
7
  6
BYLAYER
 10
82.1393203135
 20
68.2678380514
 11
82.1294053428
 21
68.4187387225
  0
LINE
  5
246
100
AcDbEntity
  8
0
100
AcDbLine
 62
7
  6
BYLAYER
 10
80.3294053428
 20
154.6413939713
 11
80.3294053428
 21
88.0964469753
  0
LINE
  5
247
100
AcDbEntity
  8
0
100
AcDbLine
 62
7
  6
BYLAYER
 10
80.4294053428
 20
154.6413939713
 11
80.4294053428
 21
159.1321572655
  0
LINE
  5
248
100
AcDbEntity
  8
0
100
AcDbLine
 62
7
  6
BYLAYER
 10
80.4294053428
 20
159.1321572655
 11
80.4402317292
 21
159.3427021457
  0
LINE
  5
249
100
AcDbEntity
  8
0
100
AcDbLine
 62
7
  6
BYLAYER
 10
18.3897317358
 20
120.9680336983
 11
18.1397382782
 21
120.9927864445
  0
LINE
  5
24A
100
AcDbEntity
  8
0
100
AcDbLine
 62
7
  6
BYLAYER
 10
18.2811590457
 20
121.0744352753
 11
18.5311525032
 21
121.0496825291
  0
LINE
  5
24B
100
AcDbEntity
  8
0
100
AcDbLine
 62
7
  6
BYLAYER
 10
90.7294053428
 20
154.6413939713
 11
90.7294053428
 21
159.1321572655
  0
LINE
  5
24C
100
AcDbEntity
  8
0
100
AcDbLine
 62
7
  6
BYLAYER
 10
90.8294053428
 20
154.6413939713
 11
90.8294053428
 21
88.0964469753
  0
LINE
  5
24D
100
AcDbEntity
  8
0
100
AcDbLine
 62
7
  6
BYLAYER
 10
91.7312955736
 20
65.3162264154
 11
91.7312955736
 21
79.6050187152
  0
LINE
  5
24E
100
AcDbEntity
  8
0
100
AcDbLine
 62
7
  6
BYLAYER
 10
100.2872520039
 20
84.544772977
 11
100.2872520039
 21
81.5764746913
  0
LINE
  5
24F
100
AcDbEntity
  8
0
100
AcDbLine
 62
7
  6
BYLAYER
 10
91.7312955736
 20
79.6050187152
 11
100.2872520039
 21
84.544772977
  0
LINE
  5
250
100
AcDbEntity
  8
0
100
AcDbLine
 62
7
  6
BYLAYER
 10
98.1911247389
 20
69.0457882604
 11
91.7312955736
 21
65.3162264154
  0
ARC
  5
251
100
AcDbEntity
  8
0
100
AcDbCircle
 62
7
  6
BYLAYER
 10
85.5653114997
 20
154.385742575
 40
7.8387663309
100
AcDbArc
 50
93.892963921
 51
96.3308552639
  0
ARC
  5
252
100
AcDbEntity
  8
0
100
AcDbCircle
 62
7
  6
BYLAYER
 10
85.7407244798
 20
73.4793555002
 40
6.1967848525
100
AcDbArc
 50
261.5732627124
 51
275.4400238381
  0
ARC
  5
253
100
AcDbEntity
  8
0
100
AcDbCircle
 62
7
  6
BYLAYER
 10
84.3769710543
 20
75.7372233636
 40
5.9488215123
100
AcDbArc
 50
240.0540030274
 51
243.6471687116
  0
ARC
  5
254
100
AcDbEntity
  8
0
100
AcDbCircle
 62
7
  6
BYLAYER
 10
85.9708448573
 20
72.42685244
 40
5.1182331602
100
AcDbArc
 50
284.906384692
 51
290.1009539126
  0
ARC
  5
255
100
AcDbEntity
  8
0
100
AcDbCircle
 62
7
  6
BYLAYER
 10
85.3991914021
 20
71.3600177009
 40
4.915484447
100
AcDbArc
 50
254.3351168868
 51
255.5446726656
  0
ARC
  5
256
100
AcDbEntity
  8
0
100
AcDbCircle
 62
7
  6
BYLAYER
 10
86.7677901802
 20
157.8001070991
 40
4.200975924
100
AcDbArc
 50
57.5916414325
 51
60.0132272498
  0
ARC
  5
257
100
AcDbEntity
  8
0
100
AcDbCircle
 62
7
  6
BYLAYER
 10
84.3474628912
 20
161.2091386844
 40
4.1172155837
100
AcDbArc
 50
236.5499418256
 51
240.0404438273
  0
ARC
  5
258
100
AcDbEntity
  8
0
100
AcDbCircle
 62
7
  6
BYLAYER
 10
38.7210777652
 20
97.1720936309
 40
3.6645509648
100
AcDbArc
 50
24.2130801775
 51
38.739396238
  0
ARC
  5
259
100
AcDbEntity
  8
0
100
AcDbCircle
 62
7
  6
BYLAYER
 10
84.3772047676
 20
71.2610556938
 40
3.4687472781
100
AcDbArc
 50
238.9971945272
 51
240.4471654728
  0
ARC
  5
25A
100
AcDbEntity
  8
0
100
AcDbCircle
 62
7
  6
BYLAYER
 10
84.5460598472
 20
70.3058983634
 40
2.7692551564
100
AcDbArc
 50
233.12591041
 51
235.6805606305
  0
ARC
  5
25B
100
AcDbEntity
  8
0
100
AcDbCircle
 62
7
  6
BYLAYER
 10
86.8556842307
 20
69.1558361365
 40
2.4361092621
100
AcDbArc
 50
308.7158484254
 51
310.4603522634
  0
ARC
  5
25C
100
AcDbEntity
  8
0
100
AcDbCircle
 62
7
  6
BYLAYER
 10
84.1438750489
 20
69.8219137644
 40
2.1394056092
100
AcDbArc
 50
224.8128045421
 51
226.6398126598
  0
ARC
  5
25D
100
AcDbEntity
  8
0
100
AcDbCircle
 62
7
  6
BYLAYER
 10
89.0809629368
 20
154.6409439213
 40
1.7484073424
100
AcDbArc
 50
0.0147364318
 51
0.584901956
  0
ARC
  5
25E
100
AcDbEntity
  8
0
100
AcDbCircle
 62
7
  6
BYLAYER
 10
82.0778477476
 20
154.6418440214
 40
1.7484073412
100
AcDbArc
 50
180.0147364317
 51
180.5849019563
  0
ARC
  5
25F
100
AcDbEntity
  8
0
100
AcDbCircle
 62
7
  6
BYLAYER
 10
89.0820403349
 20
154.6409441898
 40
1.7473299443
100
AcDbArc
 50
359.2704503392
 51
0.0147367112
  0
ARC
  5
260
100
AcDbEntity
  8
0
100
AcDbCircle
 62
7
  6
BYLAYER
 10
82.07677035
 20
154.6418437528
 40
1.7473299436
100
AcDbArc
 50
179.270450339
 51
180.0147367113
  0
ARC
  5
261
100
AcDbEntity
  8
0
100
AcDbCircle
 62
7
  6
BYLAYER
 10
83.6753974108
 20
68.9082657487
 40
1.5819046691
100
AcDbArc
 50
210.8224369606
 51
213.6731374065
  0
ARC
  5
262
100
AcDbEntity
  8
0
100
AcDbCircle
 62
7
  6
BYLAYER
 10
83.7000363437
 20
68.8660305186
 40
1.4451852861
100
AcDbArc
 50
208.4779602526
 51
211.5418680551
  0
ARC
  5
263
100
AcDbEntity
  8
0
100
AcDbCircle
 62
7
  6
BYLAYER
 10
83.6206163442
 20
68.8230431537
 40
1.3548777976
100
AcDbArc
 50
204.9171820444
 51
208.4814777432
  0
ARC
  5
264
100
AcDbEntity
  8
0
100
AcDbCircle
 62
7
  6
BYLAYER
 10
83.4699821604
 20
68.7976060992
 40
1.3483937041
100
AcDbArc
 50
202.219636619
 51
204.903556017
  0
ARC
  5
265
100
AcDbEntity
  8
0
100
AcDbCircle
 62
7
  6
BYLAYER
 10
83.5578013069
 20
68.7936057286
 40
1.285507532
100
AcDbArc
 50
201.6172082111
 51
204.906803482
  0
ARC
  5
266
100
AcDbEntity
  8
0
100
AcDbCircle
 62
7
  6
BYLAYER
 10
83.4095736868
 20
68.7736048895
 40
1.283395002
100
AcDbArc
 50
195.4213031112
 51
202.2475412008
  0
ARC
  5
267
100
AcDbEntity
  8
0
100
AcDbCircle
 62
7
  6
BYLAYER
 10
83.4954440803
 20
68.769502747
 40
1.2186566472
100
AcDbArc
 50
194.4684155644
 51
201.6437681589
  0
ARC
  5
268
100
AcDbEntity
  8
0
100
AcDbCircle
 62
7
  6
BYLAYER
 10
82.7859325815
 20
70.5502267217
 40
1.2116928463
100
AcDbArc
 50
187.0512371118
 51
188.4596164497
  0
ARC
  5
269
100
AcDbEntity
  8
0
100
AcDbCircle
 62
7
  6
BYLAYER
 10
18.935244427
 20
122.490184191
 40
0.8612598343
100
AcDbArc
 50
150.0002170472
 51
153.7071019323
  0
ARC
  5
26A
100
AcDbEntity
  8
0
100
AcDbCircle
 62
7
  6
BYLAYER
 10
20.3607510383
 20
125.862822677
 40
0.5
100
AcDbArc
 50
120.0001377247
 51
210.0001377247
  0
ARC
  5
26B
100
AcDbEntity
  8
0
100
AcDbCircle
 62
7
  6
BYLAYER
 10
28.4147761161
 20
130.5128420369
 40
0.5
100
AcDbArc
 50
30.0001377247
 51
120.0001377247
  0
SPLINE
  5
26C
100
AcDbEntity
  8
0
100
AcDbSpline
 62
7
  6
BYLAYER
 70
0
 71
3
 72
9
 73
5
 74
0
 42
0.0000001
 43
0.0000001
 44
0.0000000001
 40
0.0
 40
0.0
 40
0.0
 40
0.0
 40
0.4708958163
 40
1.0
 40
1.0
 40
1.0
 40
1.0
 10
85.045535933
 20
162.3001276868
 30
0.0
 10
84.9878520622
 20
162.2964832171
 30
0.0
 10
84.8673126141
 20
162.2639152148
 30
0.0
 10
84.7571769376
 20
162.2091775016
 30
0.0
 10
84.7009341155
 20
162.1767058869
 30
0.0
  0
SPLINE
  5
26D
100
AcDbEntity
  8
0
100
AcDbSpline
 62
7
  6
BYLAYER
 70
0
 71
3
 72
10
 73
6
 74
0
 42
0.0000001
 43
0.0000001
 44
0.0000000001
 40
0.0
 40
0.0
 40
0.0
 40
0.0
 40
0.5207962688
 40
0.7686551673
 40
1.0
 40
1.0
 40
1.0
 40
1.0
 10
85.0455305117
 20
162.3000543583
 30
0.0
 10
85.7741271574
 20
162.3457150543
 30
0.0
 10
86.8662308448
 20
162.2773851279
 30
0.0
 10
88.2208269606
 20
161.9044809495
 30
0.0
 10
88.8365911019
 20
161.6256487543
 30
0.0
 10
89.1174339441
 20
161.4635077319
 30
0.0
  0
SPLINE
  5
26E
100
AcDbEntity
  8
0
100
AcDbSpline
 62
7
  6
BYLAYER
 70
0
 71
3
 72
11
 73
7
 74
0
 42
0.0000001
 43
0.0000001
 44
0.0000000001
 40
0.0
 40
0.0
 40
0.0
 40
0.0
 40
0.274717163
 40
0.5290474139
 40
0.7683347182
 40
1.0
 40
1.0
 40
1.0
 40
1.0
 10
89.1174339441
 20
161.4635077319
 30
0.0
 10
89.352316202
 20
161.3279014649
 30
0.0
 10
89.7846222055
 20
161.0284269614
 30
0.0
 10
90.3081554138
 20
160.4699150221
 30
0.0
 10
90.6489132158
 20
159.8290623708
 30
0.0
 10
90.7294053428
 20
159.3608710215
 30
0.0
 10
90.7294053428
 20
159.1321572655
 30
0.0
  0
SPLINE
  5
26F
100
AcDbEntity
  8
0
100
AcDbSpline
 62
7
  6
BYLAYER
 70
0
 71
3
 72
9
 73
5
 74
0
 42
0.0000001
 43
0.0000001
 44
0.0000000001
 40
0.0
 40
0.0
 40
0.0
 40
0.0
 40
0.2477638517
 40
1.0
 40
1.0
 40
1.0
 40
1.0
 10
90.8292791769
 20
154.6587921663
 30
0.0
 10
90.8288194547
 20
154.7038262289
 30
0.0
 10
90.8199817247
 20
154.8854749749
 30
0.0
 10
90.78274258
 20
155.0655392182
 30
0.0
 10
90.7408442442
 20
155.1956968796
 30
0.0
  0
SPLINE
  5
270
100
AcDbEntity
  8
0
100
AcDbSpline
 62
7
  6
BYLAYER
 70
0
 71
3
 72
9
 73
5
 74
0
 42
0.0000001
 43
0.0000001
 44
0.0000000001
 40
0.0
 40
0.0
 40
0.0
 40
0.0
 40
0.2670409942
 40
1.0
 40
1.0
 40
1.0
 40
1.0
 10
18.1893698999
 20
122.9208112827
 30
0.0
 10
18.2056423554
 20
122.9489961589
 30
0.0
 10
18.2723632126
 20
123.050757295
 30
0.0
 10
18.3620031747
 20
123.1400608283
 30
0.0
 10
18.4393634358
 20
123.1847245292
 30
0.0
  0
SPLINE
  5
271
100
AcDbEntity
  8
0
100
AcDbSpline
 62
7
  6
BYLAYER
 70
0
 71
3
 72
11
 73
7
 74
0
 42
0.0000001
 43
0.0000001
 44
0.0000000001
 40
0.0
 40
0.0
 40
0.0
 40
0.0
 40
0.2895453772
 40
0.5491366158
 40
0.7822776227
 40
1.0
 40
1.0
 40
1.0
 40
1.0
 10
22.1870541054
 20
109.1409654996
 30
0.0
 10
22.1870541054
 20
109.0320898732
 30
0.0
 10
22.1704294499
 20
108.8249158229
 30
0.0
 10
22.0866779634
 20
108.5402186223
 30
0.0
 10
21.9453904349
 20
108.3091520544
 30
0.0
 10
21.8126188233
 20
108.1977377096
 30
0.0
 10
21.7417192241
 20
108.1568023177
 30
0.0
  0
SPLINE
  5
272
100
AcDbEntity
  8
0
100
AcDbSpline
 62
7
  6
BYLAYER
 70
0
 71
3
 72
10
 73
6
 74
0
 42
0.0000001
 43
0.0000001
 44
0.0000000001
 40
0.0
 40
0.0
 40
0.0
 40
0.0
 40
0.5217771307
 40
0.7717449251
 40
1.0
 40
1.0
 40
1.0
 40
1.0
 10
21.426801486
 20
111.1001546413
 30
0.0
 10
21.6592456116
 20
110.8109788714
 30
0.0
 10
21.9397586523
 20
110.3260426447
 30
0.0
 10
22.1468120807
 20
109.6438385012
 30
0.0
 10
22.1870541054
 20
109.3032690726
 30
0.0
 10
22.1870541054
 20
109.1409654996
 30
0.0
  0
SPLINE
  5
273
100
AcDbEntity
  8
0
100
AcDbSpline
 62
7
  6
BYLAYER
 70
0
 71
3
 72
11
 73
7
 74
0
 42
0.0000001
 43
0.0000001
 44
0.0000000001
 40
0.0
 40
0.0
 40
0.0
 40
0.0
 40
0.2895453772
 40
0.5491366158
 40
0.7822776227
 40
1.0
 40
1.0
 40
1.0
 40
1.0
 10
36.6828034709
 20
100.7720300319
 30
0.0
 10
36.6828034709
 20
100.6631544055
 30
0.0
 10
36.6661788154
 20
100.4559803552
 30
0.0
 10
36.5824273289
 20
100.1712831546
 30
0.0
 10
36.4411398004
 20
99.9402165867
 30
0.0
 10
36.3083681889
 20
99.828802242
 30
0.0
 10
36.2374685896
 20
99.78786685
 30
0.0
  0
SPLINE
  5
274
100
AcDbEntity
  8
0
100
AcDbSpline
 62
7
  6
BYLAYER
 70
0
 71
3
 72
10
 73
6
 74
0
 42
0.0000001
 43
0.0000001
 44
0.0000000001
 40
0.0
 40
0.0
 40
0.0
 40
0.0
 40
0.5217771307
 40
0.7717449251
 40
1.0
 40
1.0
 40
1.0
 40
1.0
 10
35.9225508516
 20
102.7312191736
 30
0.0
 10
36.1549949771
 20
102.4420434037
 30
0.0
 10
36.4355080178
 20
101.9571071771
 30
0.0
 10
36.6425614463
 20
101.2749030335
 30
0.0
 10
36.6828034709
 20
100.9343336049
 30
0.0
 10
36.6828034709
 20
100.7720300319
 30
0.0
  0
SPLINE
  5
275
100
AcDbEntity
  8
0
100
AcDbSpline
 62
7
  6
BYLAYER
 70
0
 71
3
 72
11
 73
7
 74
0
 42
0.0000001
 43
0.0000001
 44
0.0000000001
 40
0.0
 40
0.0
 40
0.0
 40
0.0
 40
0.2895453772
 40
0.5491366158
 40
0.7822776227
 40
1.0
 40
1.0
 40
1.0
 40
1.0
 10
42.3396812721
 20
97.5061039957
 30
0.0
 10
42.3396812721
 20
97.3972283694
 30
0.0
 10
42.3230566165
 20
97.1900543191
 30
0.0
 10
42.2393051301
 20
96.9053571185
 30
0.0
 10
42.0980176016
 20
96.6742905506
 30
0.0
 10
41.96524599
 20
96.5628762058
 30
0.0
 10
41.8943463908
 20
96.5219408139
 30
0.0
  0
SPLINE
  5
276
100
AcDbEntity
  8
0
100
AcDbSpline
 62
7
  6
BYLAYER
 70
0
 71
3
 72
9
 73
5
 74
0
 42
0.0000001
 43
0.0000001
 44
0.0000000001
 40
0.0
 40
0.0
 40
0.0
 40
0.0
 40
0.5242254963
 40
1.0
 40
1.0
 40
1.0
 40
1.0
 10
42.0632453929
 20
98.6750405099
 30
0.0
 10
42.1499069376
 20
98.4826289976
 30
0.0
 10
42.2839327109
 20
98.1005278239
 30
0.0
 10
42.3396812721
 20
97.6976270864
 30
0.0
 10
42.3396812721
 20
97.5061039957
 30
0.0
  0
SPLINE
  5
277
100
AcDbEntity
  8
0
100
AcDbSpline
 62
7
  6
BYLAYER
 70
0
 71
3
 72
11
 73
7
 74
0
 42
0.0000001
 43
0.0000001
 44
0.0000000001
 40
0.0
 40
0.0
 40
0.0
 40
0.0
 40
0.2895453772
 40
0.5491366158
 40
0.7822776227
 40
1.0
 40
1.0
 40
1.0
 40
1.0
 10
90.0695877195
 20
69.9498530656
 30
0.0
 10
90.0695877195
 20
69.8409774392
 30
0.0
 10
90.052963064
 20
69.6338033889
 30
0.0
 10
89.9692115775
 20
69.3491061883
 30
0.0
 10
89.827924049
 20
69.1180396204
 30
0.0
 10
89.6951524375
 20
69.0066252757
 30
0.0
 10
89.6242528382
 20
68.9656898838
 30
0.0
  0
SPLINE
  5
278
100
AcDbEntity
  8
0
100
AcDbSpline
 62
7
  6
BYLAYER
 70
0
 71
3
 72
11
 73
7
 74
0
 42
0.0000001
 43
0.0000001
 44
0.0000000001
 40
0.0
 40
0.0
 40
0.0
 40
0.0
 40
0.2372444228
 40
0.5000010918
 40
0.7627571666
 40
1.0
 40
1.0
 40
1.0
 40
1.0
 10
18.0361768732
 20
113.4153811129
 30
0.0
 10
18.0361768732
 20
113.3574205341
 30
0.0
 10
18.0579223037
 20
113.2351885219
 30
0.0
 10
18.1336917563
 20
113.0634320076
 30
0.0
 10
18.24455299
 20
112.9119362964
 30
0.0
 10
18.3395364546
 20
112.8319891305
 30
0.0
 10
18.3897317358
 20
112.803009527
 30
0.0
  0
SPLINE
  5
279
100
AcDbEntity
  8
0
100
AcDbSpline
 62
7
  6
BYLAYER
 70
0
 71
3
 72
11
 73
7
 74
0
 42
0.0000001
 43
0.0000001
 44
0.0000000001
 40
0.0
 40
0.0
 40
0.0
 40
0.0
 40
0.2897475625
 40
0.5490806792
 40
0.7822227961
 40
1.0
 40
1.0
 40
1.0
 40
1.0
 10
135.5720278775
 20
59.1928963328
 30
0.0
 10
135.5720278775
 20
59.494419407
 30
0.0
 10
135.5263869819
 20
60.0677645341
 30
0.0
 10
135.2941088136
 20
60.85550106
 30
0.0
 10
134.9031795079
 20
61.4946503418
 30
0.0
 10
134.5359781465
 20
61.8034154784
 30
0.0
 10
134.3396924589
 20
61.9166942828
 30
0.0
  0
SPLINE
  5
27A
100
AcDbEntity
  8
0
100
AcDbSpline
 62
7
  6
BYLAYER
 70
0
 71
3
 72
17
 73
13
 74
0
 42
0.0000001
 43
0.0000001
 44
0.0000000001
 40
0.0
 40
0.0
 40
0.0
 40
0.0
 40
0.1286891333
 40
0.2702803493
 40
0.4174326844
 40
0.5617743804
 40
0.6954465661
 40
0.8127104963
 40
0.8646756522
 40
0.91250911
 40
0.9571392634
 40
1.0
 40
1.0
 40
1.0
 40
1.0
 10
129.2434485344
 20
55.5391111557
 30
0.0
 10
129.2434485344
 20
55.7955355241
 30
0.0
 10
129.315186702
 20
56.334706723
 30
0.0
 10
129.5829243379
 20
57.1263608525
 30
0.0
 10
129.9955078152
 20
57.8889692552
 30
0.0
 10
130.5197527638
 20
58.560006889
 30
0.0
 10
131.1128304093
 20
59.0852725633
 30
0.0
 10
131.6496486437
 20
59.3788119582
 30
0.0
 10
132.0695748767
 20
59.4905138
 30
0.0
 10
132.3585877132
 20
59.5117981153
 30
0.0
 10
132.6277067454
 20
59.4723591268
 30
0.0
 10
132.790757699
 20
59.4046107127
 30
0.0
 10
132.8647029838
 20
59.361880173
 30
0.0
  0
SPLINE
  5
27B
100
AcDbEntity
  8
0
100
AcDbSpline
 62
7
  6
BYLAYER
 70
0
 71
3
 72
9
 73
5
 74
0
 42
0.0000001
 43
0.0000001
 44
0.0000000001
 40
0.0
 40
0.0
 40
0.0
 40
0.0
 40
0.2605517983
 40
1.0
 40
1.0
 40
1.0
 40
1.0
 10
82.5905222626
 20
68.2878464336
 30
0.0
 10
82.5505330848
 20
68.3118819693
 30
0.0
 10
82.3989940499
 20
68.4072729943
 30
0.0
 10
82.2553940748
 20
68.5156311417
 30
0.0
 10
82.1564164987
 20
68.6035876924
 30
0.0
  0
SPLINE
  5
27C
100
AcDbEntity
  8
0
100
AcDbSpline
 62
7
  6
BYLAYER
 70
0
 71
3
 72
9
 73
5
 74
0
 42
0.0000001
 43
0.0000001
 44
0.0000000001
 40
0.0
 40
0.0
 40
0.0
 40
0.0
 40
0.2678129513
 40
1.0
 40
1.0
 40
1.0
 40
1.0
 10
82.1564164987
 20
68.6035876924
 30
0.0
 10
82.1083067104
 20
68.6463405178
 30
0.0
 10
81.9351407993
 20
68.8127816612
 30
0.0
 10
81.7888782356
 20
69.0096565322
 30
0.0
 10
81.7108820405
 20
69.1673858755
 30
0.0
  0
SPLINE
  5
27D
100
AcDbEntity
  8
0
100
AcDbSpline
 62
7
  6
BYLAYER
 70
0
 71
3
 72
9
 73
5
 74
0
 42
0.0000001
 43
0.0000001
 44
0.0000000001
 40
0.0
 40
0.0
 40
0.0
 40
0.0
 40
0.2451942898
 40
1.0
 40
1.0
 40
1.0
 40
1.0
 10
81.5874231986
 20
70.3719718117
 30
0.0
 10
81.5923278081
 20
70.3389920611
 30
0.0
 10
81.6178334496
 20
70.2053316416
 30
0.0
 10
81.665292786
 20
70.076121911
 30
0.0
 10
81.7107738506
 20
69.9841071291
 30
0.0
  0
SPLINE
  5
27E
100
AcDbEntity
  8
0
100
AcDbSpline
 62
7
  6
BYLAYER
 70
0
 71
3
 72
9
 73
5
 74
0
 42
0.0000001
 43
0.0000001
 44
0.0000000001
 40
0.0
 40
0.0
 40
0.0
 40
0.0
 40
0.2446969392
 40
1.0
 40
1.0
 40
1.0
 40
1.0
 10
87.287461605
 20
67.4808610307
 30
0.0
 10
87.2106400305
 20
67.4603250356
 30
0.0
 10
86.8948415132
 20
67.3834265912
 30
0.0
 10
86.5725466233
 20
67.3337636469
 30
0.0
 10
86.3282028466
 20
67.3104810749
 30
0.0
  0
SPLINE
  5
27F
100
AcDbEntity
  8
0
100
AcDbSpline
 62
7
  6
BYLAYER
 70
0
 71
3
 72
9
 73
5
 74
0
 42
0.0000001
 43
0.0000001
 44
0.0000000001
 40
0.0
 40
0.0
 40
0.0
 40
0.0
 40
0.2565231553
 40
1.0
 40
1.0
 40
1.0
 40
1.0
 10
84.832618749
 20
67.3494707958
 30
0.0
 10
84.7525937851
 20
67.3614153036
 30
0.0
 10
84.4416491519
 20
67.4144269774
 30
0.0
 10
84.1350818648
 20
67.4939706856
 30
0.0
 10
83.9128787333
 20
67.568924508
 30
0.0
  0
SPLINE
  5
280
100
AcDbEntity
  8
0
100
AcDbSpline
 62
7
  6
BYLAYER
 70
0
 71
3
 72
9
 73
5
 74
0
 42
0.0000001
 43
0.0000001
 44
0.0000000001
 40
0.0
 40
0.0
 40
0.0
 40
0.0
 40
0.2643496423
 40
1.0
 40
1.0
 40
1.0
 40
1.0
 10
83.9128787333
 20
67.568924508
 30
0.0
 10
83.8266189541
 20
67.5980217584
 30
0.0
 10
83.5036779767
 20
67.7173607451
 30
0.0
 10
83.1939248461
 20
67.8758497464
 30
0.0
 10
82.9847363549
 20
68.0187509974
 30
0.0
  0
SPLINE
  5
281
100
AcDbEntity
  8
0
100
AcDbSpline
 62
7
  6
BYLAYER
 70
0
 71
3
 72
9
 73
5
 74
0
 42
0.0000001
 43
0.0000001
 44
0.0000000001
 40
0.0
 40
0.0
 40
0.0
 40
0.0
 40
0.2424455694
 40
1.0
 40
1.0
 40
1.0
 40
1.0
 10
82.3168076061
 20
70.1052729476
 30
0.0
 10
82.343736363
 20
70.0848973566
 30
0.0
 10
82.4563131704
 20
70.002853603
 30
0.0
 10
82.5745507041
 20
69.9286627514
 30
0.0
 10
82.6663274307
 20
69.8766011539
 30
0.0
  0
SPLINE
  5
282
100
AcDbEntity
  8
0
100
AcDbSpline
 62
7
  6
BYLAYER
 70
0
 71
3
 72
9
 73
5
 74
0
 42
0.0000001
 43
0.0000001
 44
0.0000000001
 40
0.0
 40
0.0
 40
0.0
 40
0.0
 40
0.238388702
 40
1.0
 40
1.0
 40
1.0
 40
1.0
 10
81.7107738506
 20
69.9841071291
 30
0.0
 10
81.7291727139
 20
69.9468835634
 30
0.0
 10
81.8130630666
 20
69.7940662464
 30
0.0
 10
81.9217224912
 20
69.6555124572
 30
0.0
 10
82.0128282752
 20
69.5590881959
 30
0.0
  0
SPLINE
  5
283
100
AcDbEntity
  8
0
100
AcDbSpline
 62
7
  6
BYLAYER
 70
0
 71
3
 72
9
 73
5
 74
0
 42
0.0000001
 43
0.0000001
 44
0.0000000001
 40
0.0
 40
0.0
 40
0.0
 40
0.0
 40
0.245602956
 40
1.0
 40
1.0
 40
1.0
 40
1.0
 10
82.0128282752
 20
69.5590881959
 30
0.0
 10
82.0240633557
 20
69.5471972457
 30
0.0
 10
82.070361339
 20
69.4993064222
 30
0.0
 10
82.1188140785
 20
69.4535075133
 30
0.0
 10
82.156374311
 20
69.4201280752
 30
0.0
  0
SPLINE
  5
284
100
AcDbEntity
  8
0
100
AcDbSpline
 62
7
  6
BYLAYER
 70
0
 71
3
 72
9
 73
5
 74
0
 42
0.0000001
 43
0.0000001
 44
0.0000000001
 40
0.0
 40
0.0
 40
0.0
 40
0.0
 40
0.2382478319
 40
1.0
 40
1.0
 40
1.0
 40
1.0
 10
82.156374311
 20
69.4201280752
 30
0.0
 10
82.1934701273
 20
69.3871613596
 30
0.0
 10
82.3533623303
 20
69.253521634
 30
0.0
 10
82.5283042375
 20
69.1383657077
 30
0.0
 10
82.6663287234
 20
69.0600905932
 30
0.0
  0
SPLINE
  5
285
100
AcDbEntity
  8
0
100
AcDbSpline
 62
7
  6
BYLAYER
 70
0
 71
3
 72
9
 73
5
 74
0
 42
0.0000001
 43
0.0000001
 44
0.0000000001
 40
0.0
 40
0.0
 40
0.0
 40
0.0
 40
0.5085254688
 40
1.0
 40
1.0
 40
1.0
 40
1.0
 10
81.7108820405
 20
69.1673858755
 30
0.0
 10
81.6676641515
 20
69.2547841036
 30
0.0
 10
81.5998393328
 20
69.4359353944
 30
0.0
 10
81.5751236192
 20
69.6281142244
 30
0.0
 10
81.5744268482
 20
69.7223423898
 30
0.0
  0
SPLINE
  5
286
100
AcDbEntity
  8
0
100
AcDbSpline
 62
7
  6
BYLAYER
 70
0
 71
3
 72
18
 73
14
 74
0
 42
0.0000001
 43
0.0000001
 44
0.0000000001
 40
0.0
 40
0.0
 40
0.0
 40
0.0
 40
0.0453219139
 40
0.0945424819
 40
0.1488123147
 40
0.2085003443
 40
0.3422699352
 40
0.4890401816
 40
0.6379731185
 40
0.7777029946
 40
0.8412709302
 40
0.8995861338
 40
1.0
 40
1.0
 40
1.0
 40
1.0
 10
88.8498106749
 20
67.0210579415
 30
0.0
 10
88.8238966495
 20
66.9101605406
 30
0.0
 10
88.7349223305
 20
66.6860957127
 30
0.0
 10
88.5120809294
 20
66.3820097553
 30
0.0
 10
88.2052525074
 20
66.1063237444
 30
0.0
 10
87.6762611447
 20
65.7737753779
 30
0.0
 10
86.8623851958
 20
65.4814776039
 30
0.0
 10
85.7861370628
 20
65.338283954
 30
0.0
 10
84.6873277014
 20
65.4042599696
 30
0.0
 10
83.8243370409
 20
65.6346083007
 30
0.0
 10
83.2312036258
 20
65.9239913274
 30
0.0
 10
82.7703454292
 20
66.2397470454
 30
0.0
 10
82.4980764961
 20
66.5536469238
 30
0.0
 10
82.391853672
 20
66.7825182164
 30
0.0
  0
SPLINE
  5
287
100
AcDbEntity
  8
0
100
AcDbSpline
 62
7
  6
BYLAYER
 70
0
 71
3
 72
11
 73
7
 74
0
 42
0.0000001
 43
0.0000001
 44
0.0000000001
 40
0.0
 40
0.0
 40
0.0
 40
0.0
 40
0.2177651606
 40
0.4508956102
 40
0.7103690052
 40
1.0
 40
1.0
 40
1.0
 40
1.0
 10
129.8648171083
 20
54.1658070616
 30
0.0
 10
129.7658880952
 20
54.2229748734
 30
0.0
 10
129.5806380492
 20
54.3784762076
 30
0.0
 10
129.3835505508
 20
54.7008686799
 30
0.0
 10
129.2665482942
 20
55.0980621632
 30
0.0
 10
129.2434485344
 20
55.3871450004
 30
0.0
 10
129.2434485344
 20
55.5391111557
 30
0.0
  0
SPLINE
  5
288
100
AcDbEntity
  8
0
100
AcDbSpline
 62
7
  6
BYLAYER
 70
0
 71
3
 72
17
 73
13
 74
0
 42
0.0000001
 43
0.0000001
 44
0.0000000001
 40
0.0
 40
0.0
 40
0.0
 40
0.0
 40
0.0428579375
 40
0.0874865664
 40
0.135318056
 40
0.1872832763
 40
0.3045435526
 40
0.4382108045
 40
0.5825543192
 40
0.7297150605
 40
0.8713048746
 40
1.0
 40
1.0
 40
1.0
 40
1.0
 10
128.3898276332
 20
51.6109929518
 30
0.0
 10
128.5365248134
 20
51.5263322646
 30
0.0
 10
128.8598389207
 20
51.3918674934
 30
0.0
 10
129.3935971642
 20
51.3137777956
 30
0.0
 10
129.9667989716
 20
51.3558035807
 30
0.0
 10
130.7996135151
 20
51.5774856026
 30
0.0
 10
131.8643138943
 20
52.1595267041
 30
0.0
 10
133.0405778947
 20
53.201313001
 30
0.0
 10
134.0803530041
 20
54.5322160699
 30
0.0
 10
134.8986448389
 20
56.0447689231
 30
0.0
 10
135.4297559222
 20
57.6149109453
 30
0.0
 10
135.5720278775
 20
58.6842954133
 30
0.0
 10
135.5720278775
 20
59.1928963328
 30
0.0
  0
SPLINE
  5
289
100
AcDbEntity
  8
0
100
AcDbSpline
 62
7
  6
BYLAYER
 70
0
 71
3
 72
16
 73
12
 74
0
 42
0.0000001
 43
0.0000001
 44
0.0000000001
 40
0.0
 40
0.0
 40
0.0
 40
0.0
 40
0.0428757513
 40
0.0875233495
 40
0.186923412
 40
0.3042342846
 40
0.4379543358
 40
0.5823556103
 40
0.7295669663
 40
0.8712579545
 40
1.0
 40
1.0
 40
1.0
 40
1.0
 10
87.4743507826
 20
72.6894514919
 30
0.0
 10
87.5273515194
 20
72.7200525948
 30
0.0
 10
87.6441463674
 20
72.7687179006
 30
0.0
 10
87.9104754639
 20
72.8076156855
 30
0.0
 10
88.2863972941
 20
72.7342917733
 30
0.0
 10
88.7292650765
 20
72.4913621083
 30
0.0
 10
89.1549746737
 20
72.1148679078
 30
0.0
 10
89.5304581926
 20
71.6340093368
 30
0.0
 10
89.8262948738
 20
71.0874698893
 30
0.0
 10
90.0181310079
 20
70.5200662828
 30
0.0
 10
90.0695877195
 20
70.1336185262
 30
0.0
 10
90.0695877195
 20
69.9498530656
 30
0.0
  0
SPLINE
  5
28A
100
AcDbEntity
  8
0
100
AcDbSpline
 62
7
  6
BYLAYER
 70
0
 71
3
 72
9
 73
5
 74
0
 42
0.0000001
 43
0.0000001
 44
0.0000000001
 40
0.0
 40
0.0
 40
0.0
 40
0.0
 40
0.2461681825
 40
1.0
 40
1.0
 40
1.0
 40
1.0
 10
19.5917842927
 20
111.8806211757
 30
0.0
 10
19.6132280646
 20
111.8930089687
 30
0.0
 10
19.7028971631
 20
111.9388619551
 30
0.0
 10
19.8020923995
 20
111.9652655876
 30
0.0
 10
19.8773505332
 20
111.9746111752
 30
0.0
  0
SPLINE
  5
28B
100
AcDbEntity
  8
0
100
AcDbSpline
 62
7
  6
BYLAYER
 70
0
 71
3
 72
9
 73
5
 74
0
 42
0.0000001
 43
0.0000001
 44
0.0000000001
 40
0.0
 40
0.0
 40
0.0
 40
0.0
 40
0.2461681825
 40
1.0
 40
1.0
 40
1.0
 40
1.0
 10
34.0875336582
 20
103.511685708
 30
0.0
 10
34.1089774301
 20
103.5240735011
 30
0.0
 10
34.1986465286
 20
103.5699264874
 30
0.0
 10
34.297841765
 20
103.5963301199
 30
0.0
 10
34.3730998987
 20
103.6056757075
 30
0.0
  0
SPLINE
  5
28C
100
AcDbEntity
  8
0
100
AcDbSpline
 62
7
  6
BYLAYER
 70
0
 71
3
 72
9
 73
5
 74
0
 42
0.0000001
 43
0.0000001
 44
0.0000000001
 40
0.0
 40
0.0
 40
0.0
 40
0.0
 40
0.2461681825
 40
1.0
 40
1.0
 40
1.0
 40
1.0
 10
39.7444114593
 20
100.2457596718
 30
0.0
 10
39.7658552313
 20
100.2581474649
 30
0.0
 10
39.8555243298
 20
100.3040004513
 30
0.0
 10
39.9547195661
 20
100.3304040837
 30
0.0
 10
40.0299776999
 20
100.3397496714
 30
0.0
  0
SPLINE
  5
28D
100
AcDbEntity
  8
0
100
AcDbSpline
 62
7
  6
BYLAYER
 70
0
 71
3
 72
9
 73
5
 74
0
 42
0.0000001
 43
0.0000001
 44
0.0000000001
 40
0.0
 40
0.0
 40
0.0
 40
0.0
 40
0.5233280362
 40
1.0
 40
1.0
 40
1.0
 40
1.0
 10
84.3618227126
 20
69.545577768
 30
0.0
 10
83.8874475149
 20
69.608984605
 30
0.0
 10
82.9888257001
 20
69.8025462558
 30
0.0
 10
82.138527849
 20
70.1605286593
 30
0.0
 10
81.7609883048
 20
70.378463227
 30
0.0
  0
SPLINE
  5
28E
100
AcDbEntity
  8
0
100
AcDbSpline
 62
7
  6
BYLAYER
 70
0
 71
3
 72
9
 73
5
 74
0
 42
0.0000001
 43
0.0000001
 44
0.0000000001
 40
0.0
 40
0.0
 40
0.0
 40
0.0
 40
0.5376141362
 40
1.0
 40
1.0
 40
1.0
 40
1.0
 10
81.4074173768
 20
70.5825916269
 30
0.0
 10
81.0644753678
 20
70.7805593862
 30
0.0
 10
80.4605810845
 20
71.2166116562
 30
0.0
 10
80.009864437
 20
71.822461152
 30
0.0
 10
79.8697822388
 20
72.1328891001
 30
0.0
  0
SPLINE
  5
28F
100
AcDbEntity
  8
0
100
AcDbSpline
 62
7
  6
BYLAYER
 70
0
 71
3
 72
10
 73
6
 74
0
 42
0.0000001
 43
0.0000001
 44
0.0000000001
 40
0.0
 40
0.0
 40
0.0
 40
0.0
 40
0.4759897998
 40
0.7417340731
 40
1.0
 40
1.0
 40
1.0
 40
1.0
 10
81.0131316865
 20
160.0475648711
 30
0.0
 10
80.8849175374
 20
159.9735408394
 30
0.0
 10
80.6996036175
 20
159.827716985
 30
0.0
 10
80.5119847123
 20
159.5787835257
 30
0.0
 10
80.448812248
 20
159.4226191762
 30
0.0
 10
80.4403192229
 20
159.3427400819
 30
0.0
  0
SPLINE
  5
290
100
AcDbEntity
  8
0
100
AcDbSpline
 62
7
  6
BYLAYER
 70
0
 71
3
 72
9
 73
5
 74
0
 42
0.0000001
 43
0.0000001
 44
0.0000000001
 40
0.0
 40
0.0
 40
0.0
 40
0.0
 40
0.2522091715
 40
1.0
 40
1.0
 40
1.0
 40
1.0
 10
80.3795930448
 20
155.0592817977
 30
0.0
 10
80.3717319534
 20
155.026688603
 30
0.0
 10
80.3440583405
 20
154.8966431792
 30
0.0
 10
80.3308478626
 20
154.7634925905
 30
0.0
 10
80.3295820521
 20
154.6640919801
 30
0.0
  0
SPLINE
  5
291
100
AcDbEntity
  8
0
100
AcDbSpline
 62
7
  6
BYLAYER
 70
0
 71
3
 72
11
 73
7
 74
0
 42
0.0000001
 43
0.0000001
 44
0.0000000001
 40
0.0
 40
0.0
 40
0.0
 40
0.0
 40
0.2896174318
 40
0.5491494224
 40
0.782279962
 40
1.0
 40
1.0
 40
1.0
 40
1.0
 10
19.1464822872
 20
110.896400744
 30
0.0
 10
19.1464822872
 20
111.0053042585
 30
0.0
 10
19.1630594925
 20
111.2124931014
 30
0.0
 10
19.2469082001
 20
111.4971692375
 30
0.0
 10
19.3881735213
 20
111.728201861
 30
0.0
 10
19.5208946389
 20
111.8396691284
 30
0.0
 10
19.5917842927
 20
111.8806211757
 30
0.0
  0
SPLINE
  5
292
100
AcDbEntity
  8
0
100
AcDbSpline
 62
7
  6
BYLAYER
 70
0
 71
3
 72
9
 73
5
 74
0
 42
0.0000001
 43
0.0000001
 44
0.0000000001
 40
0.0
 40
0.0
 40
0.0
 40
0.0
 40
0.2428687288
 40
1.0
 40
1.0
 40
1.0
 40
1.0
 10
83.6652324825
 20
69.6556579631
 30
0.0
 10
83.7392653983
 20
69.6290506104
 30
0.0
 10
84.0466087041
 20
69.5265853799
 30
0.0
 10
84.3629766606
 20
69.4515583672
 30
0.0
 10
84.6046073495
 20
69.4095978506
 30
0.0
  0
SPLINE
  5
293
100
AcDbEntity
  8
0
100
AcDbSpline
 62
7
  6
BYLAYER
 70
0
 71
3
 72
11
 73
7
 74
0
 42
0.0000001
 43
0.0000001
 44
0.0000000001
 40
0.0
 40
0.0
 40
0.0
 40
0.0
 40
0.2896174318
 40
0.5491494224
 40
0.782279962
 40
1.0
 40
1.0
 40
1.0
 40
1.0
 10
33.6422316528
 20
102.5274652763
 30
0.0
 10
33.6422316528
 20
102.6363687908
 30
0.0
 10
33.658808858
 20
102.8435576338
 30
0.0
 10
33.7426575656
 20
103.1282337698
 30
0.0
 10
33.8839228868
 20
103.3592663933
 30
0.0
 10
34.0166440044
 20
103.4707336608
 30
0.0
 10
34.0875336582
 20
103.511685708
 30
0.0
  0
SPLINE
  5
294
100
AcDbEntity
  8
0
100
AcDbSpline
 62
7
  6
BYLAYER
 70
0
 71
3
 72
9
 73
5
 74
0
 42
0.0000001
 43
0.0000001
 44
0.0000000001
 40
0.0
 40
0.0
 40
0.0
 40
0.0
 40
0.2467281822
 40
1.0
 40
1.0
 40
1.0
 40
1.0
 10
82.2469649597
 20
68.2298081526
 30
0.0
 10
82.2521410239
 20
68.2186556294
 30
0.0
 10
82.2737276042
 20
68.1737377407
 30
0.0
 10
82.2976966511
 20
68.1299712894
 30
0.0
 10
82.3169220397
 20
68.0977307105
 30
0.0
  0
SPLINE
  5
295
100
AcDbEntity
  8
0
100
AcDbSpline
 62
7
  6
BYLAYER
 70
0
 71
3
 72
9
 73
5
 74
0
 42
0.0000001
 43
0.0000001
 44
0.0000000001
 40
0.0
 40
0.0
 40
0.0
 40
0.0
 40
0.2414959415
 40
1.0
 40
1.0
 40
1.0
 40
1.0
 10
82.3589139385
 20
68.0311718829
 30
0.0
 10
82.3760049119
 20
68.0055054739
 30
0.0
 10
82.4497861823
 20
67.9012402194
 30
0.0
 10
82.5349284821
 20
67.8051798004
 30
0.0
 10
82.6039412859
 20
67.7372275758
 30
0.0
  0
SPLINE
  5
296
100
AcDbEntity
  8
0
100
AcDbSpline
 62
7
  6
BYLAYER
 70
0
 71
3
 72
9
 73
5
 74
0
 42
0.0000001
 43
0.0000001
 44
0.0000000001
 40
0.0
 40
0.0
 40
0.0
 40
0.0
 40
0.4712807812
 40
1.0
 40
1.0
 40
1.0
 40
1.0
 10
82.6039412859
 20
67.7372275758
 30
0.0
 10
82.743437634
 20
67.5998749882
 30
0.0
 10
83.0794725178
 20
67.3485335659
 30
0.0
 10
83.4564488573
 20
67.16891182
 30
0.0
 10
83.6613273096
 20
67.0897856288
 30
0.0
  0
SPLINE
  5
297
100
AcDbEntity
  8
0
100
AcDbSpline
 62
7
  6
BYLAYER
 70
0
 71
3
 72
11
 73
7
 74
0
 42
0.0000001
 43
0.0000001
 44
0.0000000001
 40
0.0
 40
0.0
 40
0.0
 40
0.0
 40
0.2427284612
 40
0.4999156957
 40
0.7571479125
 40
1.0
 40
1.0
 40
1.0
 40
1.0
 10
83.6613273096
 20
67.0897856288
 30
0.0
 10
83.9561099273
 20
66.9759375131
 30
0.0
 10
84.5899335064
 20
66.8080932284
 30
0.0
 10
85.5765815323
 20
66.7257449748
 30
0.0
 10
86.5634747229
 20
66.8071703992
 30
0.0
 10
87.1976620694
 20
66.9744363715
 30
0.0
 10
87.4927467311
 20
67.0879483659
 30
0.0
  0
SPLINE
  5
298
100
AcDbEntity
  8
0
100
AcDbSpline
 62
7
  6
BYLAYER
 70
0
 71
3
 72
9
 73
5
 74
0
 42
0.0000001
 43
0.0000001
 44
0.0000000001
 40
0.0
 40
0.0
 40
0.0
 40
0.0
 40
0.260428028
 40
1.0
 40
1.0
 40
1.0
 40
1.0
 10
87.4927467311
 20
67.0879483659
 30
0.0
 10
87.5500440165
 20
67.1099892578
 30
0.0
 10
87.7681647147
 20
67.1993603675
 30
0.0
 10
87.9785034666
 20
67.3084640389
 30
0.0
 10
88.1259010989
 20
67.4015651807
 30
0.0
  0
SPLINE
  5
299
100
AcDbEntity
  8
0
100
AcDbSpline
 62
7
  6
BYLAYER
 70
0
 71
3
 72
9
 73
5
 74
0
 42
0.0000001
 43
0.0000001
 44
0.0000000001
 40
0.0
 40
0.0
 40
0.0
 40
0.0
 40
0.2400508654
 40
1.0
 40
1.0
 40
1.0
 40
1.0
 10
88.0197932197
 20
67.4629036202
 30
0.0
 10
87.9768298706
 20
67.4356524531
 30
0.0
 10
87.7948834481
 20
67.3268336884
 30
0.0
 10
87.6022007128
 20
67.2363804967
 30
0.0
 10
87.4525476659
 20
67.1768309336
 30
0.0
  0
SPLINE
  5
29A
100
AcDbEntity
  8
0
100
AcDbSpline
 62
7
  6
BYLAYER
 70
0
 71
3
 72
11
 73
7
 74
0
 42
0.0000001
 43
0.0000001
 44
0.0000000001
 40
0.0
 40
0.0
 40
0.0
 40
0.0
 40
0.2424392184
 40
0.5000308063
 40
0.7576047513
 40
1.0
 40
1.0
 40
1.0
 40
1.0
 10
87.4525476659
 20
67.1768309336
 30
0.0
 10
87.1653536574
 20
67.0625514177
 30
0.0
 10
86.5452355404
 20
66.8942306845
 30
0.0
 10
85.5783164619
 20
66.8122118481
 30
0.0
 10
84.6114881171
 20
66.8945951458
 30
0.0
 10
83.9915065499
 20
67.0631519867
 30
0.0
 10
83.7044317509
 20
67.1775793179
 30
0.0
  0
SPLINE
  5
29B
100
AcDbEntity
  8
0
100
AcDbSpline
 62
7
  6
BYLAYER
 70
0
 71
3
 72
9
 73
5
 74
0
 42
0.0000001
 43
0.0000001
 44
0.0000000001
 40
0.0
 40
0.0
 40
0.0
 40
0.0
 40
0.5293871489
 40
1.0
 40
1.0
 40
1.0
 40
1.0
 10
83.7044317509
 20
67.1775793179
 30
0.0
 10
83.5088767745
 20
67.2555270658
 30
0.0
 10
83.1500404298
 20
67.4319312994
 30
0.0
 10
82.8324392537
 20
67.6783266997
 30
0.0
 10
82.7020261665
 20
67.8125493596
 30
0.0
  0
SPLINE
  5
29C
100
AcDbEntity
  8
0
100
AcDbSpline
 62
7
  6
BYLAYER
 70
0
 71
3
 72
9
 73
5
 74
0
 42
0.0000001
 43
0.0000001
 44
0.0000000001
 40
0.0
 40
0.0
 40
0.0
 40
0.0
 40
0.2594275433
 40
1.0
 40
1.0
 40
1.0
 40
1.0
 10
82.7020261665
 20
67.8125493596
 30
0.0
 10
82.6792058009
 20
67.8360363443
 30
0.0
 10
82.5935150649
 20
67.9287233518
 30
0.0
 10
82.5172467264
 20
68.0303384196
 30
0.0
 10
82.4683654363
 20
68.1100230536
 30
0.0
  0
SPLINE
  5
29D
100
AcDbEntity
  8
0
100
AcDbSpline
 62
7
  6
BYLAYER
 70
0
 71
3
 72
11
 73
7
 74
0
 42
0.0000001
 43
0.0000001
 44
0.0000000001
 40
0.0
 40
0.0
 40
0.0
 40
0.0
 40
0.2896174318
 40
0.5491494224
 40
0.782279962
 40
1.0
 40
1.0
 40
1.0
 40
1.0
 10
39.2991094539
 20
99.2615392402
 30
0.0
 10
39.2991094539
 20
99.3704427547
 30
0.0
 10
39.3156866592
 20
99.5776315976
 30
0.0
 10
39.3995353667
 20
99.8623077337
 30
0.0
 10
39.540800688
 20
100.0933403572
 30
0.0
 10
39.6735218056
 20
100.2048076246
 30
0.0
 10
39.7444114593
 20
100.2457596718
 30
0.0
  0
SPLINE
  5
29E
100
AcDbEntity
  8
0
100
AcDbSpline
 62
7
  6
BYLAYER
 70
0
 71
3
 72
17
 73
13
 74
0
 42
0.0000001
 43
0.0000001
 44
0.0000000001
 40
0.0
 40
0.0
 40
0.0
 40
0.0
 40
0.0428601227
 40
0.0874885245
 40
0.1353230468
 40
0.1872847723
 40
0.3045492157
 40
0.4382191214
 40
0.5825636989
 40
0.729723395
 40
0.8713074543
 40
1.0
 40
1.0
 40
1.0
 40
1.0
 10
90.8293397802
 20
88.0964467916
 30
0.0
 10
90.8293818724
 20
87.9469919875
 30
0.0
 10
90.7893695912
 20
87.6406181909
 30
0.0
 10
90.6137273869
 20
87.1982217502
 30
0.0
 10
90.3285349637
 20
86.7788804985
 30
0.0
 10
89.7918823042
 20
86.2401457444
 30
0.0
 10
88.8772527576
 20
85.6834866762
 30
0.0
 10
87.5622579218
 20
85.244244498
 30
0.0
 10
86.0865201463
 20
85.0368730813
 30
0.0
 10
84.5697328635
 20
85.0788777365
 30
0.0
 10
83.1356447635
 20
85.3657357969
 30
0.0
 10
82.255746143
 20
85.7287911757
 30
0.0
 10
81.8671101974
 20
85.9531651674
 30
0.0
  0
SPLINE
  5
29F
100
AcDbEntity
  8
0
100
AcDbSpline
 62
7
  6
BYLAYER
 70
0
 71
3
 72
11
 73
7
 74
0
 42
0.0000001
 43
0.0000001
 44
0.0000000001
 40
0.0
 40
0.0
 40
0.0
 40
0.0
 40
0.2895453772
 40
0.5491366158
 40
0.7822776227
 40
1.0
 40
1.0
 40
1.0
 40
1.0
 10
87.0290159014
 20
71.7052883101
 30
0.0
 10
87.0290159014
 20
71.8141639364
 30
0.0
 10
87.0456405569
 20
72.0213379867
 30
0.0
 10
87.1293920433
 20
72.3060351873
 30
0.0
 10
87.2706795718
 20
72.5371017552
 30
0.0
 10
87.4034511834
 20
72.6485161
 30
0.0
 10
87.4743507826
 20
72.6894514919
 30
0.0
  0
SPLINE
  5
2A0
100
AcDbEntity
  8
0
100
AcDbSpline
 62
7
  6
BYLAYER
 70
0
 71
3
 72
9
 73
5
 74
0
 42
0.0000001
 43
0.0000001
 44
0.0000000001
 40
0.0
 40
0.0
 40
0.0
 40
0.0
 40
0.7473866839
 40
1.0
 40
1.0
 40
1.0
 40
1.0
 10
82.1299240141
 20
68.7127625403
 30
0.0
 10
82.1319793907
 20
68.6420379746
 30
0.0
 10
82.1435656791
 20
68.5473681519
 30
0.0
 10
82.1660425568
 20
68.4553896987
 30
0.0
 10
82.1723852667
 20
68.4323314736
 30
0.0
  0
SPLINE
  5
2A1
100
AcDbEntity
  8
0
100
AcDbSpline
 62
7
  6
BYLAYER
 70
0
 71
3
 72
11
 73
7
 74
0
 42
0.0000001
 43
0.0000001
 44
0.0000000001
 40
0.0
 40
0.0
 40
0.0
 40
0.0
 40
0.2843407883
 40
0.5418933767
 40
0.7772269998
 40
1.0
 40
1.0
 40
1.0
 40
1.0
 10
81.5512812967
 20
86.1525340369
 30
0.0
 10
81.3654355133
 20
86.2808985761
 30
0.0
 10
81.0292953996
 20
86.5540477837
 30
0.0
 10
80.6335332282
 20
87.0343546786
 30
0.0
 10
80.3863667084
 20
87.5535490263
 30
0.0
 10
80.3294751566
 20
87.9194864095
 30
0.0
 10
80.3294329127
 20
88.0964471998
 30
0.0
  0
SPLINE
  5
2A2
100
AcDbEntity
  8
0
100
AcDbSpline
 62
7
  6
BYLAYER
 70
0
 71
3
 72
9
 73
5
 74
0
 42
0.0000001
 43
0.0000001
 44
0.0000000001
 40
0.0
 40
0.0
 40
0.0
 40
0.0
 40
0.4705761263
 40
1.0
 40
1.0
 40
1.0
 40
1.0
 10
88.379369488
 20
67.2550437823
 30
0.0
 10
88.1867540067
 20
67.1005997127
 30
0.0
 10
87.7296391571
 20
66.8313450259
 30
0.0
 10
87.2300950708
 20
66.6614934065
 30
0.0
 10
86.960772637
 20
66.593541619
 30
0.0
  0
SPLINE
  5
2A3
100
AcDbEntity
  8
0
100
AcDbSpline
 62
7
  6
BYLAYER
 70
0
 71
3
 72
9
 73
5
 74
0
 42
0.0000001
 43
0.0000001
 44
0.0000000001
 40
0.0
 40
0.0
 40
0.0
 40
0.0
 40
0.5002837808
 40
1.0
 40
1.0
 40
1.0
 40
1.0
 10
86.960772637
 20
66.593541619
 30
0.0
 10
86.5065352277
 20
66.4789345902
 30
0.0
 10
85.5656833205
 20
66.3727971014
 30
0.0
 10
84.6252837745
 20
66.4833096383
 30
0.0
 10
84.1721632149
 20
66.60014489
 30
0.0
  0
SPLINE
  5
2A4
100
AcDbEntity
  8
0
100
AcDbSpline
 62
7
  6
BYLAYER
 70
0
 71
3
 72
9
 73
5
 74
0
 42
0.0000001
 43
0.0000001
 44
0.0000000001
 40
0.0
 40
0.0
 40
0.0
 40
0.0
 40
0.5338102159
 40
1.0
 40
1.0
 40
1.0
 40
1.0
 10
84.0719596951
 20
66.6271070379
 30
0.0
 10
83.7909596004
 20
66.7059240088
 30
0.0
 10
83.2759590269
 20
66.9001355632
 30
0.0
 10
82.8151335564
 20
67.2092606793
 30
0.0
 10
82.6304769854
 20
67.3849400078
 30
0.0
  0
SPLINE
  5
2A5
100
AcDbEntity
  8
0
100
AcDbSpline
 62
7
  6
BYLAYER
 70
0
 71
3
 72
9
 73
5
 74
0
 42
0.0000001
 43
0.0000001
 44
0.0000000001
 40
0.0
 40
0.0
 40
0.0
 40
0.0
 40
0.2658100828
 40
1.0
 40
1.0
 40
1.0
 40
1.0
 10
82.6304769854
 20
67.3849400078
 30
0.0
 10
82.5889583764
 20
67.4244401529
 30
0.0
 10
82.4387601305
 20
67.5789822952
 30
0.0
 10
82.3136008985
 20
67.7596311363
 30
0.0
 10
82.2469649597
 20
67.9032071857
 30
0.0
  0
SPLINE
  5
2A6
100
AcDbEntity
  8
0
100
AcDbSpline
 62
7
  6
BYLAYER
 70
0
 71
3
 72
9
 73
5
 74
0
 42
0.0000001
 43
0.0000001
 44
0.0000000001
 40
0.0
 40
0.0
 40
0.0
 40
0.0
 40
0.2543689826
 40
1.0
 40
1.0
 40
1.0
 40
1.0
 10
81.8671101974
 20
85.9531651674
 30
0.0
 10
81.8396804157
 20
85.969001401
 30
0.0
 10
81.7324470451
 20
86.0322912868
 30
0.0
 10
81.6276733385
 20
86.0997697017
 30
0.0
 10
81.5512812967
 20
86.1525340369
 30
0.0
  0
SPLINE
  5
2A7
100
AcDbEntity
  8
0
100
AcDbSpline
 62
7
  6
BYLAYER
 70
0
 71
3
 72
11
 73
7
 74
0
 42
0.0000001
 43
0.0000001
 44
0.0000000001
 40
0.0
 40
0.0
 40
0.0
 40
0.0
 40
0.2177827477
 40
0.4509152641
 40
0.7103063952
 40
1.0
 40
1.0
 40
1.0
 40
1.0
 10
90.7293816639
 20
154.6413940301
 30
0.0
 10
90.7293548624
 20
154.4452400131
 30
0.0
 10
90.6569090696
 20
154.0363882634
 30
0.0
 10
90.3469425302
 20
153.466723789
 30
0.0
 10
89.8569586703
 20
152.9517896603
 30
0.0
 10
89.4469868578
 20
152.6694150863
 30
0.0
 10
89.2210204273
 20
152.5389540856
 30
0.0
  0
SPLINE
  5
2A8
100
AcDbEntity
  8
0
100
AcDbSpline
 62
7
  6
BYLAYER
 70
0
 71
3
 72
11
 73
7
 74
0
 42
0.0000001
 43
0.0000001
 44
0.0000000001
 40
0.0
 40
0.0
 40
0.0
 40
0.0
 40
0.2177651606
 40
0.4508956102
 40
0.7103690052
 40
1.0
 40
1.0
 40
1.0
 40
1.0
 10
132.8647029838
 20
59.361880173
 30
0.0
 10
132.9636319969
 20
59.3047123612
 30
0.0
 10
133.1488820429
 20
59.149211027
 30
0.0
 10
133.3459695414
 20
58.8268185547
 30
0.0
 10
133.4629717979
 20
58.4296250714
 30
0.0
 10
133.4860715577
 20
58.1405422342
 30
0.0
 10
133.4860715577
 20
57.9885760789
 30
0.0
  0
SPLINE
  5
2A9
100
AcDbEntity
  8
0
100
AcDbSpline
 62
7
  6
BYLAYER
 70
0
 71
3
 72
11
 73
7
 74
0
 42
0.0000001
 43
0.0000001
 44
0.0000000001
 40
0.0
 40
0.0
 40
0.0
 40
0.0
 40
0.2178398114
 40
0.4509789711
 40
0.7102331102
 40
1.0
 40
1.0
 40
1.0
 40
1.0
 10
80.4294403553
 20
159.1321572685
 30
0.0
 10
80.4294904867
 20
158.9359466154
 30
0.0
 10
80.5017904022
 20
158.5269888021
 30
0.0
 10
80.811971697
 20
157.9574818941
 30
0.0
 10
81.3017586921
 20
157.4424400227
 30
0.0
 10
81.7117900047
 20
157.160195735
 30
0.0
 10
81.9378205812
 20
157.0296998731
 30
0.0
  0
SPLINE
  5
2AA
100
AcDbEntity
  8
0
100
AcDbSpline
 62
7
  6
BYLAYER
 70
0
 71
3
 72
17
 73
13
 74
0
 42
0.0000001
 43
0.0000001
 44
0.0000000001
 40
0.0
 40
0.0
 40
0.0
 40
0.0
 40
0.0428579375
 40
0.0874865664
 40
0.135318056
 40
0.1872832763
 40
0.3045435526
 40
0.4382108045
 40
0.5825543192
 40
0.7297150605
 40
0.8713048746
 40
1.0
 40
1.0
 40
1.0
 40
1.0
 10
134.3396924589
 20
61.9166942828
 30
0.0
 10
134.1929952787
 20
62.00135497
 30
0.0
 10
133.8696811714
 20
62.1358197412
 30
0.0
 10
133.3359229279
 20
62.2139094391
 30
0.0
 10
132.7627211206
 20
62.1718836539
 30
0.0
 10
131.9299065771
 20
61.950201632
 30
0.0
 10
130.8652061979
 20
61.3681605305
 30
0.0
 10
129.6889421974
 20
60.3263742336
 30
0.0
 10
128.6491670881
 20
58.9954711647
 30
0.0
 10
127.8308752533
 20
57.4829183115
 30
0.0
 10
127.2997641699
 20
55.9127762893
 30
0.0
 10
127.1574922146
 20
54.8433918213
 30
0.0
 10
127.1574922146
 20
54.3347909018
 30
0.0
  0
SPLINE
  5
2AB
100
AcDbEntity
  8
0
100
AcDbSpline
 62
7
  6
BYLAYER
 70
0
 71
3
 72
11
 73
7
 74
0
 42
0.0000001
 43
0.0000001
 44
0.0000000001
 40
0.0
 40
0.0
 40
0.0
 40
0.0
 40
0.2177797705
 40
0.4509237741
 40
0.7102596546
 40
1.0
 40
1.0
 40
1.0
 40
1.0
 10
93.0343419161
 20
72.0230315991
 30
0.0
 10
92.8380533109
 20
72.1363103492
 30
0.0
 10
92.4708532593
 20
72.4450846773
 30
0.0
 10
92.0799197509
 20
73.0842383952
 30
0.0
 10
91.8476470156
 20
73.8719737657
 30
0.0
 10
91.8020059573
 20
74.4453132917
 30
0.0
 10
91.8020059573
 20
74.7468286278
 30
0.0
  0
SPLINE
  5
2AC
100
AcDbEntity
  8
0
100
AcDbSpline
 62
7
  6
BYLAYER
 70
0
 71
3
 72
11
 73
7
 74
0
 42
0.0000001
 43
0.0000001
 44
0.0000000001
 40
0.0
 40
0.0
 40
0.0
 40
0.0
 40
0.2372444228
 40
0.5000010918
 40
0.7627571666
 40
1.0
 40
1.0
 40
1.0
 40
1.0
 10
42.7850172534
 20
106.4754764588
 30
0.0
 10
42.7850172534
 20
106.5334370376
 30
0.0
 10
42.7632718229
 20
106.6556690498
 30
0.0
 10
42.6875023702
 20
106.8274255641
 30
0.0
 10
42.5766411365
 20
106.9789212752
 30
0.0
 10
42.481657672
 20
107.0588684411
 30
0.0
 10
42.4314623908
 20
107.0878480446
 30
0.0
  0
SPLINE
  5
2AD
100
AcDbEntity
  8
0
100
AcDbSpline
 62
7
  6
BYLAYER
 70
0
 71
3
 72
16
 73
12
 74
0
 42
0.0000001
 43
0.0000001
 44
0.0000000001
 40
0.0
 40
0.0
 40
0.0
 40
0.0
 40
0.0428757513
 40
0.0875233495
 40
0.186923412
 40
0.3042342846
 40
0.4379543358
 40
0.5823556103
 40
0.7295669663
 40
0.8712579545
 40
1.0
 40
1.0
 40
1.0
 40
1.0
 10
89.6242528382
 20
68.9656898838
 30
0.0
 10
89.5712521014
 20
68.9350887808
 30
0.0
 10
89.4544572534
 20
68.886423475
 30
0.0
 10
89.188128157
 20
68.8475256902
 30
0.0
 10
88.8122063267
 20
68.9208496024
 30
0.0
 10
88.3693385443
 20
69.1637792674
 30
0.0
 10
87.9436289471
 20
69.5402734678
 30
0.0
 10
87.5681454282
 20
70.0211320389
 30
0.0
 10
87.272308747
 20
70.5676714863
 30
0.0
 10
87.0804726129
 20
71.1350750929
 30
0.0
 10
87.0290159014
 20
71.5215228495
 30
0.0
 10
87.0290159014
 20
71.7052883101
 30
0.0
  0
SPLINE
  5
2AE
100
AcDbEntity
  8
0
100
AcDbSpline
 62
7
  6
BYLAYER
 70
0
 71
3
 72
16
 73
12
 74
0
 42
0.0000001
 43
0.0000001
 44
0.0000000001
 40
0.0
 40
0.0
 40
0.0
 40
0.0
 40
0.0428757513
 40
0.0875233495
 40
0.186923412
 40
0.3042342846
 40
0.4379543358
 40
0.5823556103
 40
0.7295669663
 40
0.8712579545
 40
1.0
 40
1.0
 40
1.0
 40
1.0
 10
21.7417192241
 20
108.1568023177
 30
0.0
 10
21.6887184873
 20
108.1262012148
 30
0.0
 10
21.5719236393
 20
108.077535909
 30
0.0
 10
21.3055945429
 20
108.0386381241
 30
0.0
 10
20.9296727126
 20
108.1119620363
 30
0.0
 10
20.4868049302
 20
108.3548917013
 30
0.0
 10
20.061095333
 20
108.7313859018
 30
0.0
 10
19.6856118141
 20
109.2122444728
 30
0.0
 10
19.3897751329
 20
109.7587839203
 30
0.0
 10
19.1979389988
 20
110.3261875268
 30
0.0
 10
19.1464822872
 20
110.7126352834
 30
0.0
 10
19.1464822872
 20
110.896400744
 30
0.0
  0
SPLINE
  5
2AF
100
AcDbEntity
  8
0
100
AcDbSpline
 62
7
  6
BYLAYER
 70
0
 71
3
 72
11
 73
7
 74
0
 42
0.0000001
 43
0.0000001
 44
0.0000000001
 40
0.0
 40
0.0
 40
0.0
 40
0.0
 40
0.2227485002
 40
0.4582245351
 40
0.7158383824
 40
1.0
 40
1.0
 40
1.0
 40
1.0
 10
80.3295315088
 20
154.6239957764
 30
0.0
 10
80.3313246223
 20
154.448343631
 30
0.0
 10
80.3909335128
 20
154.0855890974
 30
0.0
 10
80.6390804444
 20
153.5714882249
 30
0.0
 10
81.0331379064
 20
153.0957266902
 30
0.0
 10
81.3668962255
 20
152.8248366515
 30
0.0
 10
81.5512812967
 20
152.697481033
 30
0.0
  0
SPLINE
  5
2B0
100
AcDbEntity
  8
0
100
AcDbSpline
 62
7
  6
BYLAYER
 70
0
 71
3
 72
16
 73
12
 74
0
 42
0.0000001
 43
0.0000001
 44
0.0000000001
 40
0.0
 40
0.0
 40
0.0
 40
0.0
 40
0.0428757513
 40
0.0875233495
 40
0.186923412
 40
0.3042342846
 40
0.4379543358
 40
0.5823556103
 40
0.7295669663
 40
0.8712579545
 40
1.0
 40
1.0
 40
1.0
 40
1.0
 10
36.2374685896
 20
99.78786685
 30
0.0
 10
36.1844678528
 20
99.7572657471
 30
0.0
 10
36.0676730048
 20
99.7086004413
 30
0.0
 10
35.8013439084
 20
99.6697026565
 30
0.0
 10
35.4254220781
 20
99.7430265687
 30
0.0
 10
34.9825542957
 20
99.9859562337
 30
0.0
 10
34.5568446985
 20
100.3624504341
 30
0.0
 10
34.1813611796
 20
100.8433090052
 30
0.0
 10
33.8855244984
 20
101.3898484526
 30
0.0
 10
33.6936883643
 20
101.9572520591
 30
0.0
 10
33.6422316528
 20
102.3436998158
 30
0.0
 10
33.6422316528
 20
102.5274652763
 30
0.0
  0
SPLINE
  5
2B1
100
AcDbEntity
  8
0
100
AcDbSpline
 62
7
  6
BYLAYER
 70
0
 71
3
 72
16
 73
12
 74
0
 42
0.0000001
 43
0.0000001
 44
0.0000000001
 40
0.0
 40
0.0
 40
0.0
 40
0.0
 40
0.0428757513
 40
0.0875233495
 40
0.186923412
 40
0.3042342846
 40
0.4379543358
 40
0.5823556103
 40
0.7295669663
 40
0.8712579545
 40
1.0
 40
1.0
 40
1.0
 40
1.0
 10
41.8943463908
 20
96.5219408139
 30
0.0
 10
41.841345654
 20
96.491339711
 30
0.0
 10
41.724550806
 20
96.4426744052
 30
0.0
 10
41.4582217095
 20
96.4037766203
 30
0.0
 10
41.0822998793
 20
96.4771005325
 30
0.0
 10
40.6394320969
 20
96.7200301975
 30
0.0
 10
40.2137224997
 20
97.0965243979
 30
0.0
 10
39.8382389808
 20
97.577382969
 30
0.0
 10
39.5424022996
 20
98.1239224165
 30
0.0
 10
39.3505661655
 20
98.691326023
 30
0.0
 10
39.2991094539
 20
99.0777737796
 30
0.0
 10
39.2991094539
 20
99.2615392402
 30
0.0
  0
SPLINE
  5
2B2
100
AcDbEntity
  8
0
100
AcDbSpline
 62
7
  6
BYLAYER
 70
0
 71
3
 72
17
 73
13
 74
0
 42
0.0000001
 43
0.0000001
 44
0.0000000001
 40
0.0
 40
0.0
 40
0.0
 40
0.0
 40
0.1286939644
 40
0.2702788153
 40
0.4174348601
 40
0.5617788753
 40
0.6954492743
 40
0.8127116408
 40
0.8646776689
 40
0.9125100964
 40
0.9571399046
 40
1.0
 40
1.0
 40
1.0
 40
1.0
 10
91.8020059573
 20
74.7468286278
 30
0.0
 10
91.8020059573
 20
75.2554249005
 30
0.0
 10
91.9442727956
 20
76.3247850653
 30
0.0
 10
92.4753604851
 20
77.8948888149
 30
0.0
 10
93.2936177622
 20
79.4074181829
 30
0.0
 10
94.3333720116
 20
80.7383321259
 30
0.0
 10
95.5096445237
 20
81.7801445179
 30
0.0
 10
96.5743590758
 20
82.3622059781
 30
0.0
 10
97.4071818683
 20
82.5839145714
 30
0.0
 10
97.9803959895
 20
82.6259488602
 30
0.0
 10
98.5141694428
 20
82.5478534467
 30
0.0
 10
98.8375005493
 20
82.4133950532
 30
0.0
 10
98.9842056613
 20
82.3287310876
 30
0.0
  0
SPLINE
  5
2B3
100
AcDbEntity
  8
0
100
AcDbSpline
 62
7
  6
BYLAYER
 70
0
 71
3
 72
9
 73
5
 74
0
 42
0.0000001
 43
0.0000001
 44
0.0000000001
 40
0.0
 40
0.0
 40
0.0
 40
0.0
 40
0.4623630193
 40
1.0
 40
1.0
 40
1.0
 40
1.0
 10
83.0198172889
 20
68.0432635624
 30
0.0
 10
83.2792448686
 20
67.8960867393
 30
0.0
 10
83.8860425706
 20
67.6572973122
 30
0.0
 10
84.526497914
 20
67.5500490447
 30
0.0
 10
84.8722549146
 20
67.5228313452
 30
0.0
  0
SPLINE
  5
2B4
100
AcDbEntity
  8
0
100
AcDbSpline
 62
7
  6
BYLAYER
 70
0
 71
3
 72
9
 73
5
 74
0
 42
0.0000001
 43
0.0000001
 44
0.0000000001
 40
0.0
 40
0.0
 40
0.0
 40
0.0
 40
0.253986879
 40
1.0
 40
1.0
 40
1.0
 40
1.0
 10
84.8722549146
 20
67.5228313452
 30
0.0
 10
84.9941618912
 20
67.5132349308
 30
0.0
 10
85.4751777462
 20
67.4904284391
 30
0.0
 10
85.9589701686
 20
67.5230250588
 30
0.0
 10
86.3136191743
 20
67.5798601073
 30
0.0
  0
SPLINE
  5
2B5
100
AcDbEntity
  8
0
100
AcDbSpline
 62
7
  6
BYLAYER
 70
0
 71
3
 72
9
 73
5
 74
0
 42
0.0000001
 43
0.0000001
 44
0.0000000001
 40
0.0
 40
0.0
 40
0.0
 40
0.0
 40
0.2542828123
 40
1.0
 40
1.0
 40
1.0
 40
1.0
 10
86.3136191743
 20
67.5798601073
 30
0.0
 10
86.4019222601
 20
67.5940113106
 30
0.0
 10
86.7478288466
 20
67.6574942329
 30
0.0
 10
87.0882222921
 20
67.753432121
 30
0.0
 10
87.33351387
 20
67.846247518
 30
0.0
  0
SPLINE
  5
2B6
100
AcDbEntity
  8
0
100
AcDbSpline
 62
7
  6
BYLAYER
 70
0
 71
3
 72
9
 73
5
 74
0
 42
0.0000001
 43
0.0000001
 44
0.0000000001
 40
0.0
 40
0.0
 40
0.0
 40
0.0
 40
0.5181500469
 40
1.0
 40
1.0
 40
1.0
 40
1.0
 10
84.095890222
 20
69.6943040969
 30
0.0
 10
83.6736466218
 20
69.7576408929
 30
0.0
 10
82.8657161175
 20
69.9340213032
 30
0.0
 10
82.092046747
 20
70.2302676811
 30
0.0
 10
81.736303257
 20
70.4066182414
 30
0.0
  0
SPLINE
  5
2B7
100
AcDbEntity
  8
0
100
AcDbSpline
 62
7
  6
BYLAYER
 70
0
 71
3
 72
11
 73
7
 74
0
 42
0.0000001
 43
0.0000001
 44
0.0000000001
 40
0.0
 40
0.0
 40
0.0
 40
0.0
 40
0.259065855
 40
0.5228845259
 40
0.7746813458
 40
1.0
 40
1.0
 40
1.0
 40
1.0
 10
87.2315733081
 20
67.8839950385
 30
0.0
 10
86.8438072579
 20
67.7692744337
 30
0.0
 10
86.0358189044
 20
67.6189813566
 30
0.0
 10
84.8210314963
 20
67.6058549892
 30
0.0
 10
83.6740661753
 20
67.7962116969
 30
0.0
 10
82.9722604544
 20
68.0700912737
 30
0.0
 10
82.66632864
 20
68.2435881207
 30
0.0
  0
SPLINE
  5
2B8
100
AcDbEntity
  8
0
100
AcDbSpline
 62
7
  6
BYLAYER
 70
0
 71
3
 72
11
 73
7
 74
0
 42
0.0000001
 43
0.0000001
 44
0.0000000001
 40
0.0
 40
0.0
 40
0.0
 40
0.0
 40
0.2183648132
 40
0.4685726323
 40
0.7366402033
 40
1.0
 40
1.0
 40
1.0
 40
1.0
 10
83.0198251373
 20
68.8597392852
 30
0.0
 10
83.2324400204
 20
68.739215396
 30
0.0
 10
83.7193008902
 20
68.5333172067
 30
0.0
 10
84.5277880757
 20
68.3541664382
 30
0.0
 10
85.4040512978
 20
68.2998254144
 30
0.0
 10
85.9993402487
 20
68.347234243
 30
0.0
 10
86.2905689534
 20
68.3927172629
 30
0.0
  0
SPLINE
  5
2B9
100
AcDbEntity
  8
0
100
AcDbSpline
 62
7
  6
BYLAYER
 70
0
 71
3
 72
13
 73
9
 74
0
 42
0.0000001
 43
0.0000001
 44
0.0000000001
 40
0.0
 40
0.0
 40
0.0
 40
0.0
 40
0.1142253587
 40
0.237559206
 40
0.5000004539
 40
0.7624414493
 40
0.885775028
 40
1.0
 40
1.0
 40
1.0
 40
1.0
 10
82.2913724998
 20
157.6420731586
 30
0.0
 10
82.5164039319
 20
157.5121541399
 30
0.0
 10
83.0087123062
 20
157.282972125
 30
0.0
 10
84.0996116589
 20
156.9515335206
 30
0.0
 10
85.5794237787
 20
156.7906394996
 30
0.0
 10
87.0592346654
 20
156.9515401934
 30
0.0
 10
88.1501302231
 20
157.2829842628
 30
0.0
 10
88.6424358313
 20
157.5121687639
 30
0.0
 10
88.8674655647
 20
157.6420889656
 30
0.0
  0
SPLINE
  5
2BA
100
AcDbEntity
  8
0
100
AcDbSpline
 62
7
  6
BYLAYER
 70
0
 71
3
 72
15
 73
11
 74
0
 42
0.0000001
 43
0.0000001
 44
0.0000000001
 40
0.0
 40
0.0
 40
0.0
 40
0.0
 40
0.1459926259
 40
0.2771810219
 40
0.3953202604
 40
0.5053749865
 40
0.614467476
 40
0.7300251516
 40
0.8576514051
 40
1.0
 40
1.0
 40
1.0
 40
1.0
 10
88.8674655647
 20
157.6420889656
 30
0.0
 10
89.0656696489
 20
157.7565214638
 30
0.0
 10
89.4262617529
 20
158.0037754926
 30
0.0
 10
89.8613275864
 20
158.4520978035
 30
0.0
 10
90.144445415
 20
158.9476816035
 30
0.0
 10
90.2575874436
 20
159.4739486368
 30
0.0
 10
90.1891398674
 20
160.0041028925
 30
0.0
 10
89.9467598613
 20
160.5091747524
 30
0.0
 10
89.5478904098
 20
160.9705227206
 30
0.0
 10
89.2076733
 20
161.2271383514
 30
0.0
 10
89.0193030739
 20
161.3467799629
 30
0.0
  0
SPLINE
  5
2BB
100
AcDbEntity
  8
0
100
AcDbSpline
 62
7
  6
BYLAYER
 70
0
 71
3
 72
10
 73
6
 74
0
 42
0.0000001
 43
0.0000001
 44
0.0000000001
 40
0.0
 40
0.0
 40
0.0
 40
0.0
 40
0.2279609931
 40
0.4757495365
 40
1.0
 40
1.0
 40
1.0
 40
1.0
 10
88.8674381858
 20
161.4387437896
 30
0.0
 10
88.6070855619
 20
161.5890550466
 30
0.0
 10
88.0311176644
 20
161.8479258187
 30
0.0
 10
86.7553509228
 20
162.1937810243
 30
0.0
 10
85.7228797591
 20
162.2534421188
 30
0.0
 10
85.0331159261
 20
162.2064219228
 30
0.0
  0
SPLINE
  5
2BC
100
AcDbEntity
  8
0
100
AcDbSpline
 62
7
  6
BYLAYER
 70
0
 71
3
 72
11
 73
7
 74
0
 42
0.0000001
 43
0.0000001
 44
0.0000000001
 40
0.0
 40
0.0
 40
0.0
 40
0.0
 40
0.2265537224
 40
0.4568382958
 40
0.7108253893
 40
1.0
 40
1.0
 40
1.0
 40
1.0
 10
81.0131316865
 20
160.0475648711
 30
0.0
 10
80.9486734437
 20
159.8541166157
 30
0.0
 10
80.8900389839
 20
159.4343121049
 30
0.0
 10
81.0650783286
 20
158.8028366484
 30
0.0
 10
81.4768027414
 20
158.2279893971
 30
0.0
 10
81.8608912658
 20
157.9173851993
 30
0.0
 10
82.0780128197
 20
157.7738715134
 30
0.0
  0
SPLINE
  5
2BD
100
AcDbEntity
  8
0
100
AcDbSpline
 62
7
  6
BYLAYER
 70
0
 71
3
 72
11
 73
7
 74
0
 42
0.0000001
 43
0.0000001
 44
0.0000000001
 40
0.0
 40
0.0
 40
0.0
 40
0.0
 40
0.2240782865
 40
0.4710185773
 40
0.7329102688
 40
1.0
 40
1.0
 40
1.0
 40
1.0
 10
82.6663287234
 20
69.0600905932
 30
0.0
 10
82.9000539142
 20
68.9275426183
 30
0.0
 10
83.4230276506
 20
68.7034835661
 30
0.0
 10
84.2811579894
 20
68.4990892207
 30
0.0
 10
85.2109740028
 20
68.4177632543
 30
0.0
 10
85.8468358498
 20
68.4478552244
 30
0.0
 10
86.1649465419
 20
68.4849766089
 30
0.0
  0
SPLINE
  5
2BE
100
AcDbEntity
  8
0
100
AcDbSpline
 62
7
  6
BYLAYER
 70
0
 71
3
 72
11
 73
7
 74
0
 42
0.0000001
 43
0.0000001
 44
0.0000000001
 40
0.0
 40
0.0
 40
0.0
 40
0.0
 40
0.2897475625
 40
0.5490806792
 40
0.7822227961
 40
1.0
 40
1.0
 40
1.0
 40
1.0
 10
127.1574922146
 20
54.3347909018
 30
0.0
 10
127.1574922146
 20
54.0332678276
 30
0.0
 10
127.2031331103
 20
53.4599227005
 30
0.0
 10
127.4354112785
 20
52.6721861746
 30
0.0
 10
127.8263405843
 20
52.0330368928
 30
0.0
 10
128.1935419456
 20
51.7242717563
 30
0.0
 10
128.3898276332
 20
51.6109929518
 30
0.0
  0
SPLINE
  5
2BF
100
AcDbEntity
  8
0
100
AcDbSpline
 62
7
  6
BYLAYER
 70
0
 71
3
 72
9
 73
5
 74
0
 42
0.0000001
 43
0.0000001
 44
0.0000000001
 40
0.0
 40
0.0
 40
0.0
 40
0.0
 40
0.2417341268
 40
1.0
 40
1.0
 40
1.0
 40
1.0
 10
83.0198251373
 20
69.6762417023
 30
0.0
 10
83.0529939564
 20
69.657439467
 30
0.0
 10
83.1916284462
 20
69.5821837807
 30
0.0
 10
83.3355599479
 20
69.5167845777
 30
0.0
 10
83.4466422617
 20
69.4724658229
 30
0.0
  0
SPLINE
  5
2C0
100
AcDbEntity
  8
0
100
AcDbSpline
 62
7
  6
BYLAYER
 70
0
 71
3
 72
9
 73
5
 74
0
 42
0.0000001
 43
0.0000001
 44
0.0000000001
 40
0.0
 40
0.0
 40
0.0
 40
0.0
 40
0.4757548246
 40
1.0
 40
1.0
 40
1.0
 40
1.0
 10
83.4466422617
 20
69.4724658229
 30
0.0
 10
83.6747115934
 20
69.3814725005
 30
0.0
 10
84.1727972477
 20
69.2360866669
 30
0.0
 10
84.6862688488
 20
69.167207331
 30
0.0
 10
84.9562878895
 20
69.1498158432
 30
0.0
  0
SPLINE
  5
2C1
100
AcDbEntity
  8
0
100
AcDbSpline
 62
7
  6
BYLAYER
 70
0
 71
3
 72
17
 73
13
 74
0
 42
0.0000001
 43
0.0000001
 44
0.0000000001
 40
0.0
 40
0.0
 40
0.0
 40
0.0
 40
0.1286891333
 40
0.2702803493
 40
0.4174326844
 40
0.5617743804
 40
0.6954465661
 40
0.8127104963
 40
0.8646756522
 40
0.91250911
 40
0.9571392634
 40
1.0
 40
1.0
 40
1.0
 40
1.0
 10
133.4860715577
 20
57.9885760789
 30
0.0
 10
133.4860715577
 20
57.7321517105
 30
0.0
 10
133.4143333901
 20
57.1929805117
 30
0.0
 10
133.1465957543
 20
56.4013263821
 30
0.0
 10
132.7340122769
 20
55.6387179794
 30
0.0
 10
132.2097673283
 20
54.9676803456
 30
0.0
 10
131.6166896828
 20
54.4424146713
 30
0.0
 10
131.0798714485
 20
54.1488752765
 30
0.0
 10
130.6599452155
 20
54.0371734347
 30
0.0
 10
130.370932379
 20
54.0158891193
 30
0.0
 10
130.1018133467
 20
54.0553281078
 30
0.0
 10
129.9387623932
 20
54.1230765219
 30
0.0
 10
129.8648171083
 20
54.1658070616
 30
0.0
  0
SPLINE
  5
2C2
100
AcDbEntity
  8
0
100
AcDbSpline
 62
7
  6
BYLAYER
 70
0
 71
3
 72
9
 73
5
 74
0
 42
0.0000001
 43
0.0000001
 44
0.0000000001
 40
0.0
 40
0.0
 40
0.0
 40
0.0
 40
0.4723627011
 40
1.0
 40
1.0
 40
1.0
 40
1.0
 10
82.6663274307
 20
69.8766011539
 30
0.0
 10
82.9687622345
 20
69.7050408941
 30
0.0
 10
83.6616961207
 20
69.4333241092
 30
0.0
 10
84.3918500051
 20
69.3099252788
 30
0.0
 10
84.778881633
 20
69.2774221521
 30
0.0
  0
SPLINE
  5
2C3
100
AcDbEntity
  8
0
100
AcDbSpline
 62
7
  6
BYLAYER
 70
0
 71
3
 72
11
 73
7
 74
0
 42
0.0000001
 43
0.0000001
 44
0.0000000001
 40
0.0
 40
0.0
 40
0.0
 40
0.0
 40
0.2372428334
 40
0.4999989082
 40
0.7627555772
 40
1.0
 40
1.0
 40
1.0
 40
1.0
 10
42.5728831582
 20
107.1694968754
 30
0.0
 10
42.6230784394
 20
107.1405172719
 30
0.0
 10
42.718061904
 20
107.060570106
 30
0.0
 10
42.8289231377
 20
106.9090743948
 30
0.0
 10
42.9046925903
 20
106.7373178805
 30
0.0
 10
42.9264380208
 20
106.6150858683
 30
0.0
 10
42.9264380208
 20
106.5571252896
 30
0.0
  0
SPLINE
  5
2C4
100
AcDbEntity
  8
0
100
AcDbSpline
 62
7
  6
BYLAYER
 70
0
 71
3
 72
13
 73
9
 74
0
 42
0.0000001
 43
0.0000001
 44
0.0000000001
 40
0.0
 40
0.0
 40
0.0
 40
0.0
 40
0.1256992184
 40
0.251434349
 40
0.3774157508
 40
0.5034359294
 40
0.7538911553
 40
1.0
 40
1.0
 40
1.0
 40
1.0
 10
25.6441116231
 20
124.8717734673
 30
0.0
 10
25.6947416257
 20
124.7840802171
 30
0.0
 10
25.8396112563
 20
124.6312600072
 30
0.0
 10
26.1251252706
 20
124.5098628417
 30
0.0
 10
26.431382269
 20
124.4806657178
 30
0.0
 10
26.8353772527
 20
124.528209364
 30
0.0
 10
27.3127764629
 20
124.6968638366
 30
0.0
 10
27.666346823
 20
124.884615006
 30
0.0
 10
27.8380432687
 20
124.9837440942
 30
0.0
  0
SPLINE
  5
2C5
100
AcDbEntity
  8
0
100
AcDbSpline
 62
7
  6
BYLAYER
 70
0
 71
3
 72
14
 73
10
 74
0
 42
0.0000001
 43
0.0000001
 44
0.0000000001
 40
0.0
 40
0.0
 40
0.0
 40
0.0
 40
0.1119992805
 40
0.2142609981
 40
0.3092133144
 40
0.4032692312
 40
0.6351979504
 40
0.8021678885
 40
1.0
 40
1.0
 40
1.0
 40
1.0
 10
30.2875228133
 20
126.397943327
 30
0.0
 10
30.3359849932
 20
126.4259224859
 30
0.0
 10
30.4273465866
 20
126.4819282619
 30
0.0
 10
30.5500290671
 20
126.5766712934
 30
0.0
 10
30.6480788641
 20
126.6856611218
 30
0.0
 10
30.7437688885
 20
126.8773894004
 30
0.0
 10
30.7194957786
 20
127.1386099349
 30
0.0
 10
30.6140187574
 20
127.4157526634
 30
0.0
 10
30.5308685245
 20
127.578991558
 30
0.0
 10
30.4814461322
 20
127.6645931774
 30
0.0
  0
SPLINE
  5
2C6
100
AcDbEntity
  8
0
100
AcDbSpline
 62
7
  6
BYLAYER
 70
0
 71
3
 72
9
 73
5
 74
0
 42
0.0000001
 43
0.0000001
 44
0.0000000001
 40
0.0
 40
0.0
 40
0.0
 40
0.0
 40
0.248268619
 40
1.0
 40
1.0
 40
1.0
 40
1.0
 10
27.9066717654
 20
130.7968506378
 30
0.0
 10
27.9351477772
 20
130.8132911727
 30
0.0
 10
28.0526444753
 20
130.8741301958
 30
0.0
 10
28.1844844051
 20
130.9107298557
 30
0.0
 10
28.2839440325
 20
130.9152189277
 30
0.0
  0
SPLINE
  5
2C7
100
AcDbEntity
  8
0
100
AcDbSpline
 62
7
  6
BYLAYER
 70
0
 71
3
 72
10
 73
6
 74
0
 42
0.0000001
 43
0.0000001
 44
0.0000000001
 40
0.0
 40
0.0
 40
0.0
 40
0.0
 40
0.4736234226
 40
0.7308844217
 40
1.0
 40
1.0
 40
1.0
 40
1.0
 10
28.2839440325
 20
130.9152189277
 30
0.0
 10
28.3661667094
 20
130.9189300167
 30
0.0
 10
28.4976196602
 20
130.8997242365
 30
0.0
 10
28.6476395057
 20
130.8077374974
 30
0.0
 10
28.7080552664
 20
130.7361792075
 30
0.0
 10
28.7314388463
 20
130.695677884
 30
0.0
  0
SPLINE
  5
2C8
100
AcDbEntity
  8
0
100
AcDbSpline
 62
7
  6
BYLAYER
 70
0
 71
3
 72
13
 73
9
 74
0
 42
0.0000001
 43
0.0000001
 44
0.0000000001
 40
0.0
 40
0.0
 40
0.0
 40
0.0
 40
0.1142237901
 40
0.2375561812
 40
0.5000005226
 40
0.762444578
 40
0.8857766349
 40
1.0
 40
1.0
 40
1.0
 40
1.0
 10
81.9378205812
 20
157.0296998731
 30
0.0
 10
82.1870457723
 20
156.8858128971
 30
0.0
 10
82.7322810341
 20
156.6319844119
 30
0.0
 10
83.9404813223
 20
156.2649014704
 30
0.0
 10
85.5794262091
 20
156.0866935573
 30
0.0
 10
87.2183695201
 20
156.264909048
 30
0.0
 10
88.4265652794
 20
156.6319979332
 30
0.0
 10
88.9717972009
 20
156.8858291418
 30
0.0
 10
89.2210204273
 20
157.0297173798
 30
0.0
  0
SPLINE
  5
2C9
100
AcDbEntity
  8
0
100
AcDbSpline
 62
7
  6
BYLAYER
 70
0
 71
3
 72
11
 73
7
 74
0
 42
0.0000001
 43
0.0000001
 44
0.0000000001
 40
0.0
 40
0.0
 40
0.0
 40
0.0
 40
0.2897018299
 40
0.5490862149
 40
0.782215308
 40
1.0
 40
1.0
 40
1.0
 40
1.0
 10
89.2210204273
 20
157.0297173798
 30
0.0
 10
89.4469942512
 20
157.160182649
 30
0.0
 10
89.856971809
 20
157.4425543962
 30
0.0
 10
90.3469544589
 20
157.9574959329
 30
0.0
 10
90.6569124737
 20
158.527148327
 30
0.0
 10
90.7294053334
 20
158.9360006469
 30
0.0
 10
90.7294053428
 20
159.1321572655
 30
0.0
  0
SPLINE
  5
2CA
100
AcDbEntity
  8
0
100
AcDbSpline
 62
7
  6
BYLAYER
 70
0
 71
3
 72
11
 73
7
 74
0
 42
0.0000001
 43
0.0000001
 44
0.0000000001
 40
0.0
 40
0.0
 40
0.0
 40
0.0
 40
0.2757824055
 40
0.5282037857
 40
0.7664730218
 40
1.0
 40
1.0
 40
1.0
 40
1.0
 10
23.8941043372
 20
127.9028581739
 30
0.0
 10
23.8519642747
 20
127.9758464979
 30
0.0
 10
23.8171554342
 20
128.1458174709
 30
0.0
 10
23.8961672472
 20
128.3738018572
 30
0.0
 10
24.0388779791
 20
128.5470377516
 30
0.0
 10
24.1570641178
 20
128.6320265754
 30
0.0
 10
24.2188693363
 20
128.6677096219
 30
0.0
  0
SPLINE
  5
2CB
100
AcDbEntity
  8
0
100
AcDbSpline
 62
7
  6
BYLAYER
 70
0
 71
3
 72
17
 73
13
 74
0
 42
0.0000001
 43
0.0000001
 44
0.0000000001
 40
0.0
 40
0.0
 40
0.0
 40
0.0
 40
0.1286926208
 40
0.2702795078
 40
0.4174383051
 40
0.5617803148
 40
0.6954501289
 40
0.8127134773
 40
0.8646759206
 40
0.9125113962
 40
0.9571388332
 40
1.0
 40
1.0
 40
1.0
 40
1.0
 10
89.2210204273
 20
152.5389540856
 30
0.0
 10
88.8397876679
 20
152.3188505631
 30
0.0
 10
87.9766397934
 20
151.9627012636
 30
0.0
 10
86.5698593115
 20
151.6812995617
 30
0.0
 10
85.0819609919
 20
151.6400913736
 30
0.0
 10
83.6343461494
 20
151.8435283517
 30
0.0
 10
82.3444016337
 20
152.2743955555
 30
0.0
 10
81.4472161241
 20
152.8204746481
 30
0.0
 10
80.9207397137
 20
153.3489049697
 30
0.0
 10
80.6409793731
 20
153.7602713122
 30
0.0
 10
80.468729737
 20
154.1942566963
 30
0.0
 10
80.4294089894
 20
154.4947819953
 30
0.0
 10
80.4294290217
 20
154.6413939125
 30
0.0
  0
SPLINE
  5
2CC
100
AcDbEntity
  8
0
100
AcDbSpline
 62
7
  6
BYLAYER
 70
0
 71
3
 72
17
 73
13
 74
0
 42
0.0000001
 43
0.0000001
 44
0.0000000001
 40
0.0
 40
0.0
 40
0.0
 40
0.0
 40
0.1241233534
 40
0.2632286189
 40
0.4100286438
 40
0.555650035
 40
0.6914552504
 40
0.8108545446
 40
0.8636493773
 40
0.9120674495
 40
0.9570206211
 40
1.0
 40
1.0
 40
1.0
 40
1.0
 10
81.5512812967
 20
152.697481033
 30
0.0
 10
81.9192869892
 20
152.4432978052
 30
0.0
 10
82.7824872991
 20
152.0225632811
 30
0.0
 10
84.2244134177
 20
151.666326202
 30
0.0
 10
85.7842377086
 20
151.5671832163
 30
0.0
 10
87.3263749671
 20
151.7351370268
 30
0.0
 10
88.7172701538
 20
152.154786382
 30
0.0
 10
89.6951506674
 20
152.7110460234
 30
0.0
 10
90.2753179063
 20
153.2599159964
 30
0.0
 10
90.5857556571
 20
153.6900367753
 30
0.0
 10
90.7799811917
 20
154.146176617
 30
0.0
 10
90.8272566351
 20
154.463840361
 30
0.0
 10
90.8292286335
 20
154.6186959626
 30
0.0
  0
ELLIPSE
  5
2CD
100
AcDbEntity
  8
0
100
AcDbEllipse
 62
7
  6
BYLAYER
 10
28.5127807512
 20
121.0431326914
 30
0.0
 11
6.4296108189
 21
-1.7227580863
 31
0.0
 40
0.5176304373
 41
5.9429936695
 42
6.8914846114
  0
ELLIPSE
  5
2CE
100
AcDbEntity
  8
0
100
AcDbEllipse
 62
7
  6
BYLAYER
 10
28.5127807512
 20
121.0431326914
 30
0.0
 11
6.4296108189
 21
-1.7227580863
 31
0.0
 40
0.5176304373
 41
-2.864792305
 42
-0.615129201
  0
ENDSEC
  0
SECTION
  2
OBJECTS
  0
DICTIONARY
  5
C
100
AcDbDictionary
280
0
281
1
  3
ACAD_GROUP
350
D
  3
ACAD_MLINESTYLE
350
17
  3
ACAD_LAYOUT
350
1A
  3
ACAD_PLOTSETTINGS
350
19
  3
ACAD_PLOTSTYLENAME
350
E
  0
DICTIONARY
  5
D
102
{ACAD_REACTORS
330
C
102
}
100
AcDbDictionary
280
0
281
1
  0
ACDBDICTIONARYWDFLT
  5
E
102
{ACAD_REACTORS
330
C
102
}
100
AcDbDictionary
281
1
  3
Normal
350
F
100
AcDbDictionaryWithDefault
340
F
  0
DICTIONARY
  5
17
102
{ACAD_REACTORS
330
C
102
}
100
AcDbDictionary
280
0
281
1
  3
Standard
350
18
  0
DICTIONARY
  5
19
102
{ACAD_REACTORS
330
C
102
}
100
AcDbDictionary
281
1
  0
DICTIONARY
  5
1A
102
{ACAD_REACTORS
330
C
102
}
100
AcDbDictionary
281
1
  3
Model
350
2CF
  3
Layout1
350
2D0
  0
ACDBPLACEHOLDER
  5
F
102
{ACAD_REACTORS
330
E
102
}
  0
MLINESTYLE
  5
18
102
{ACAD_REACTORS
330
17
102
}
100
AcDbMlineStyle
  2
STANDARD
 70
0
  3

 62
256
 51
90.0
 52
90.0
 71
2
 49
0.5
 62
256
  6
BYLAYER
 49
-0.5
 62
256
  6
BYLAYER
  0
LAYOUT
  5
2CF
102
{ACAD_REACTORS
330
1A
102
}
100
AcDbPlotSettings
  1

  2
none_device
  4

  6

 40
0.0
 41
0.0
 42
0.0
 43
0.0
 44
210.0
 45
297.0
 46
0.0
 47
0.0
 48
0.0
 49
0.0
140
0.0
141
0.0
142
1.0
143
1.0
 70
1024
 72
1
 73
0
 74
0
  7

 75
0
147
1.0
148
0.0
149
0.0
100
AcDbLayout
  1
Model
 70
0
 71
0
 10
0.0
 20
0.0
 11
210.0
 21
297.0
 12
0.0
 22
0.0
 32
0.0
 14
0.0
 24
0.0
 34
0.0
 15
0.0
 25
0.0
 35
0.0
146
0.0
 13
0.0
 23
0.0
 33
0.0
 16
1.0
 26
0.0
 36
0.0
 17
0.0
 27
1.0
 37
0.0
 76
0
330
211
345
0
346
0
  0
LAYOUT
  5
2D0
102
{ACAD_REACTORS
330
1A
102
}
100
AcDbPlotSettings
  1

  2
none_device
  4

  6

 40
0.0
 41
0.0
 42
0.0
 43
0.0
 44
210.0
 45
297.0
 46
0.0
 47
0.0
 48
0.0
 49
0.0
140
0.0
141
0.0
142
1.0
143
1.0
 70
0
 72
1
 73
0
 74
0
  7

 75
0
147
1.0
148
0.0
149
0.0
100
AcDbLayout
  1
Layout1
 70
0
 71
1
 10
0.0
 20
0.0
 11
210.0
 21
297.0
 12
0.0
 22
0.0
 32
0.0
 14
0.0
 24
0.0
 34
0.0
 15
0.0
 25
0.0
 35
0.0
146
0.0
 13
0.0
 23
0.0
 33
0.0
 16
1.0
 26
0.0
 36
0.0
 17
0.0
 27
1.0
 37
0.0
 76
0
330
212
345
0
346
0
  0
ENDSEC
  0
EOF
