999
DXF file: C:\Users\sesa63760\Dev\_Creo\CAD\MCADID0005145_3D-CAD\drw0001_1.dxf
999
Pro/ENGINEER 2019471 by Parametric Technology Corporation
  0
SECTION
  2
HEADER
  9
$ACADVER
  1
AC1024
  9
$DWGCODEPAGE
  3
ANSI_1252
  9
$EXTMAX
 10
123.6411429792
 20
174.8639022134
 30
0.0
  9
$EXTMIN
 10
0.0
 20
0.0
 30
0.0
  9
$LIMMIN
 10
0.0
 20
0.0
  9
$LIMMAX
 10
123.6411429792
 20
174.8639022134
  9
$VIEWCTR
 10
61.8205714896
 20
87.4319511067
  9
$VIEWSIZE
 40
174.8639022134
  9
$CLAYER
  8
0
  9
$LTSCALE
 40
11.398535848
  9
$CELTYPE
  6
BYLAYER
  9
$DIMSCALE
 40
1.0
  9
$DIMASZ
 40
1.4719183688
  9
$DIMEXO
 40
1.0
  9
$DIMDLI
 40
7.8753520404
  9
$DIMEXE
 40
1.0
  9
$DIMCEN
 40
1.8652149569
  9
$DIMLFAC
 40
1.0
  9
$DIMBLK
  1
_FILLED
  9
$DIMALT
 70
0
  9
$DIMALTF
 40
0.0393700787
  9
$DIMTXT
 40
2.0606857163
  9
$DIMTOL
 70
1
  9
$DIMLIM
 70
0
  9
$DIMTFAC
 40
1.0
  9
$DIMTP
 40
0.01
  9
$DIMTM
 40
0.01
  9
$DIMGAP
 40
0.625
  9
$DIMDSEP
 70
46
  9
$AUNITS
 70
0
  9
$PDMODE
 70
3
  9
$PDSIZE
 40
0.3125
  9
$HANDSEED
  5
2C8
  9
$TILEMODE
 70
1
  9
$MEASUREMENT
 70
1
  9
$INSUNITS
 70
4
  0
ENDSEC
  0
SECTION
  2
CLASSES
  0
CLASS
  1
ACDBDICTIONARYWDFLT
  2
AcDbDictionaryWithDefault
  3
AutoCAD 2000
 90
0
 91
1
280
0
281
0
  0
CLASS
  1
ACDBPLACEHOLDER
  2
AcDbPlaceHolder
  3
AutoCAD 2000
 90
0
 91
1
280
0
281
0
  0
CLASS
  1
LAYOUT
  2
AcDbLayout
  3
AutoCAD 2000
 90
0
 91
0
280
0
281
0
  0
ENDSEC
  0
SECTION
  2
TABLES
  0
TABLE
  2
VPORT
  5
8
100
AcDbSymbolTable
 70
2
  0
VPORT
  5
1F4
100
AcDbSymbolTableRecord
100
AcDbViewportTableRecord
  2
*ACTIVE
 70
0
 10
0.0
 20
0.0
 11
1.0
 21
1.0
 12
61.8205714896
 22
87.4319511067
 13
0.0
 23
0.0
 14
1.0
 24
1.0
 15
0.0
 25
0.0
 16
0.0
 26
0.0
 36
1.0
 17
0.0
 27
0.0
 37
0.0
 40
174.8639022134
 41
0.7070707071
 42
50.0
 43
0.0
 44
0.0
 50
0.0
 51
0.0
 71
0
 72
100
 73
1
 74
1
 75
0
 76
0
 77
0
 78
0
  0
ENDTAB
  0
TABLE
  2
LTYPE
  5
5
100
AcDbSymbolTable
 70
6
  0
LTYPE
  5
14
100
AcDbSymbolTableRecord
100
AcDbLinetypeTableRecord
  2
BYBLOCK
 70
0
  3

 72
65
 73
0
 40
0.0
  0
LTYPE
  5
15
100
AcDbSymbolTableRecord
100
AcDbLinetypeTableRecord
  2
BYLAYER
 70
0
  3

 72
65
 73
0
 40
0.0
  0
LTYPE
  5
16
100
AcDbSymbolTableRecord
100
AcDbLinetypeTableRecord
  2
CONTINUOUS
 70
64
  3
Solid line
 72
65
 73
0
 40
0.0
  0
LTYPE
  5
1F5
100
AcDbSymbolTableRecord
100
AcDbLinetypeTableRecord
  2
CENTER
 70
64
  3
____ _ ____ _ ____ _ ____ _ ____ _ ____ _ ____
 72
65
 73
4
 40
0.6
 49
0.375
 74
0
 49
-0.075
 74
0
 49
0.075
 74
0
 49
-0.075
 74
0
  0
LTYPE
  5
1F6
100
AcDbSymbolTableRecord
100
AcDbLinetypeTableRecord
  2
HIDDEN
 70
64
  3
- - - - - - - - - - - - - - - - - - - -
 72
65
 73
2
 40
0.2
 49
0.1
 74
0
 49
-0.1
 74
0
  0
LTYPE
  5
1F7
100
AcDbSymbolTableRecord
100
AcDbLinetypeTableRecord
  2
PHANTOM
 70
64
  3
_____ _ _ _____ _ _ _____ _ _ _____
 72
65
 73
6
 40
0.8
 49
0.45
 74
0
 49
-0.05
 74
0
 49
0.1
 74
0
 49
-0.05
 74
0
 49
0.1
 74
0
 49
-0.05
 74
0
  0
LTYPE
  5
1F8
100
AcDbSymbolTableRecord
100
AcDbLinetypeTableRecord
  2
DOT
 70
64
  3
. . . . . . . . . . . . . . . . . . . .
 72
65
 73
2
 40
0.2
 49
0.1
 74
0
 49
-0.1
 74
0
  0
LTYPE
  5
1F9
100
AcDbSymbolTableRecord
100
AcDbLinetypeTableRecord
  2
DASHED
 70
64
  3
- - - - - - - - - - - - - - - - - - - -
 72
65
 73
2
 40
0.2
 49
0.1
 74
0
 49
-0.1
 74
0
  0
ENDTAB
  0
TABLE
  2
LAYER
  5
2
100
AcDbSymbolTable
 70
36
  0
LAYER
  5
10
100
AcDbSymbolTableRecord
100
AcDbLayerTableRecord
  2
0
 70
0
 62
7
  6
CONTINUOUS
370
-3
390
F
  0
LAYER
  5
1FA
100
AcDbSymbolTableRecord
100
AcDbLayerTableRecord
  2
DEFAULT_1
 70
0
 62
7
  6
CENTER
370
-3
390
F
  0
LAYER
  5
1FB
100
AcDbSymbolTableRecord
100
AcDbLayerTableRecord
  2
DEFAULT_2
 70
0
 62
7
  6
HIDDEN
370
-3
390
F
  0
LAYER
  5
1FC
100
AcDbSymbolTableRecord
100
AcDbLayerTableRecord
  2
DEFAULT_3
 70
0
 62
7
  6
PHANTOM
370
-3
390
F
  0
LAYER
  5
1FD
100
AcDbSymbolTableRecord
100
AcDbLayerTableRecord
  2
00_COMPONENTS
 70
0
 62
7
  6
CONTINUOUS
370
-3
390
F
  0
LAYER
  5
1FE
100
AcDbSymbolTableRecord
100
AcDbLayerTableRecord
  2
01_1_DEFAULT_DATUMS
 70
0
 62
7
  6
CONTINUOUS
370
-3
390
F
  0
LAYER
  5
1FF
100
AcDbSymbolTableRecord
100
AcDbLayerTableRecord
  2
01_PLANES
 70
0
 62
7
  6
CONTINUOUS
370
-3
390
F
  0
LAYER
  5
200
100
AcDbSymbolTableRecord
100
AcDbLayerTableRecord
  2
02_COORD_SYS
 70
0
 62
7
  6
CONTINUOUS
370
-3
390
F
  0
LAYER
  5
201
100
AcDbSymbolTableRecord
100
AcDbLayerTableRecord
  2
03_AXES
 70
0
 62
7
  6
CONTINUOUS
370
-3
390
F
  0
LAYER
  5
202
100
AcDbSymbolTableRecord
100
AcDbLayerTableRecord
  2
04_POINTS
 70
0
 62
7
  6
CONTINUOUS
370
-3
390
F
  0
LAYER
  5
203
100
AcDbSymbolTableRecord
100
AcDbLayerTableRecord
  2
05_CURVES
 70
0
 62
7
  6
CONTINUOUS
370
-3
390
F
  0
LAYER
  5
204
100
AcDbSymbolTableRecord
100
AcDbLayerTableRecord
  2
06_SURFS
 70
0
 62
7
  6
CONTINUOUS
370
-3
390
F
  0
LAYER
  5
205
100
AcDbSymbolTableRecord
100
AcDbLayerTableRecord
  2
07_COSMETICS
 70
0
 62
7
  6
CONTINUOUS
370
-3
390
F
  0
LAYER
  5
206
100
AcDbSymbolTableRecord
100
AcDbLayerTableRecord
  2
10_NOTES
 70
0
 62
7
  6
CONTINUOUS
370
-3
390
F
  0
LAYER
  5
207
100
AcDbSymbolTableRecord
100
AcDbLayerTableRecord
  2
11_NOTES_PUB
 70
0
 62
7
  6
CONTINUOUS
370
-3
390
F
  0
LAYER
  5
208
100
AcDbSymbolTableRecord
100
AcDbLayerTableRecord
  2
13_REF_GTOL
 70
0
 62
7
  6
CONTINUOUS
370
-3
390
F
  0
LAYER
  5
209
100
AcDbSymbolTableRecord
100
AcDbLayerTableRecord
  2
16_MISC
 70
0
 62
7
  6
CONTINUOUS
370
-3
390
F
  0
LAYER
  5
20A
100
AcDbSymbolTableRecord
100
AcDbLayerTableRecord
  2
17_NO_PRINT
 70
0
 62
7
  6
CONTINUOUS
370
-3
390
F
  0
LAYER
  5
20B
100
AcDbSymbolTableRecord
100
AcDbLayerTableRecord
  2
18_DATUM_CAMS_JOINTS
 70
0
 62
7
  6
CONTINUOUS
370
-3
390
F
  0
LAYER
  5
20C
100
AcDbSymbolTableRecord
100
AcDbLayerTableRecord
  2
19_DATUM_FUNCTIONAL
 70
0
 62
7
  6
CONTINUOUS
370
-3
390
F
  0
LAYER
  5
20D
100
AcDbSymbolTableRecord
100
AcDbLayerTableRecord
  2
20_DATUM_KINEMATIC_SCHEME
 70
0
 62
7
  6
CONTINUOUS
370
-3
390
F
  0
LAYER
  5
20E
100
AcDbSymbolTableRecord
100
AcDbLayerTableRecord
  2
INTF_BLUE
 70
0
 62
7
  6
CONTINUOUS
370
-3
390
F
  0
ENDTAB
  0
TABLE
  2
STYLE
  5
3
100
AcDbSymbolTable
 70
1
  0
STYLE
  5
11
100
AcDbSymbolTableRecord
100
AcDbTextStyleTableRecord
  2
STANDARD
 70
0
 40
0.0
 41
1.0
 50
0.0
 71
0
 42
0.2
  3
ARIAL.TTF
  4

  0
STYLE
  5
20F
100
AcDbSymbolTableRecord
100
AcDbTextStyleTableRecord
  2
TEXTSTYLE_1
 70
0
 40
0.0
 41
0.8
 50
0.0
 71
0
 42
0.2
  3
gdt
  4

  0
ENDTAB
  0
TABLE
  2
VIEW
  5
6
100
AcDbSymbolTable
 70
0
  0
ENDTAB
  0
TABLE
  2
UCS
  5
7
100
AcDbSymbolTable
 70
0
  0
ENDTAB
  0
TABLE
  2
APPID
  5
9
100
AcDbSymbolTable
 70
1
  0
APPID
  5
210
100
AcDbSymbolTableRecord
100
AcDbRegAppTableRecord
  2
ACAD
 70
0
  0
ENDTAB
  0
TABLE
  2
BLOCK_RECORD
  5
1
100
AcDbSymbolTable
 70
0
  0
BLOCK_RECORD
  5
211
100
AcDbSymbolTableRecord
100
AcDbBlockTableRecord
  2
*Model_Space
  0
BLOCK_RECORD
  5
212
100
AcDbSymbolTableRecord
100
AcDbBlockTableRecord
  2
*Paper_Space
  0
BLOCK_RECORD
  5
213
100
AcDbSymbolTableRecord
100
AcDbBlockTableRecord
  2
_FILLED
  0
ENDTAB
  0
TABLE
  2
DIMSTYLE
  5
A
100
AcDbSymbolTable
 70
1
100
AcDbDimStyleTable
 71
0
  0
DIMSTYLE
105
214
100
AcDbSymbolTableRecord
100
AcDbDimStyleTableRecord
  2
STANDARD
 70
0
  3

  4

 40
1.0
 41
1.4719183688
 42
1.0
 43
0.38
 44
1.0
 45
0.0
 46
0.0
 47
0.01
 48
0.01
140
2.0606857163
141
0.09
142
0.0
143
25.4
144
1.0
145
0.0
146
1.0
147
0.625
 71
1
 72
0
 73
0
 74
0
 75
0
 76
0
 77
1
 78
8
 79
2
170
0
171
1
172
0
173
0
174
0
175
0
176
0
177
0
178
0
270
2
179
2
271
2
272
2
273
2
274
2
275
0
280
0
281
0
282
0
283
1
284
8
285
0
286
0
287
3
288
0
340
11
278
46
341
213
342
213
343
213
344
213
  0
ENDTAB
  0
ENDSEC
  0
SECTION
  2
BLOCKS
  0
BLOCK
  5
20
100
AcDbEntity
  8
0
100
AcDbBlockBegin
  2
*Model_Space
 70
0
 10
0.0
 20
0.0
 30
0.0
  3
*Model_Space
  1

  0
ENDBLK
  5
21
100
AcDbEntity
  8
0
100
AcDbBlockEnd
  0
BLOCK
  5
1C
100
AcDbEntity
  8
0
100
AcDbBlockBegin
  2
*Paper_Space
 70
0
 10
0.0
 20
0.0
 30
0.0
  3
*Paper_Space
  1

  0
ENDBLK
  5
1D
100
AcDbEntity
  8
0
100
AcDbBlockEnd
  0
BLOCK
  5
215
100
AcDbEntity
  8
0
100
AcDbBlockBegin
  2
_FILLED
 70
64
 10
0.0
 20
0.0
  3
_FILLED
  1

  0
SOLID
  5
216
100
AcDbEntity
  8
0
  6
BYBLOCK
 62
0
100
AcDbTrace
 10
0.0
 20
0.0
 11
-1.0
 21
0.25
 12
-1.0
 22
-0.25
 13
-1.0
 23
-0.25
  0
ENDBLK
  5
217
100
AcDbEntity
  8
0
  6
BYBLOCK
 62
0
100
AcDbBlockEnd
  0
ENDSEC
  0
SECTION
  2
ENTITIES
  0
LINE
  5
218
100
AcDbEntity
  8
0
100
AcDbLine
 62
7
  6
BYLAYER
 10
14.3437951107
 20
89.0024385469
 11
14.3437951107
 21
103.2912308466
  0
LINE
  5
219
100
AcDbEntity
  8
0
100
AcDbLine
 62
7
  6
BYLAYER
 10
14.8951975508
 20
94.2363140197
 11
14.8951975508
 21
101.5848357739
  0
LINE
  5
21A
100
AcDbEntity
  8
0
100
AcDbLine
 62
7
  6
BYLAYER
 10
14.9987589558
 20
101.8137193513
 11
14.8951975508
 21
101.5848357739
  0
LINE
  5
21B
100
AcDbEntity
  8
0
100
AcDbLine
 62
7
  6
BYLAYER
 10
16.9699131615
 20
107.1168499498
 11
25.0234505511
 21
111.7665877412
  0
LINE
  5
21C
100
AcDbEntity
  8
0
100
AcDbLine
 62
7
  6
BYLAYER
 10
16.7867596149
 20
106.433754543
 11
20.7531250147
 21
108.7237910807
  0
LINE
  5
21D
100
AcDbEntity
  8
0
100
AcDbLine
 62
7
  6
BYLAYER
 10
56.6588606096
 20
128.6206478996
 11
60.3466630387
 21
130.7497889155
  0
LINE
  5
21E
100
AcDbEntity
  8
0
100
AcDbLine
 62
7
  6
BYLAYER
 10
25.5904595238
 20
111.5166107908
 11
25.7068088946
 21
111.5837759845
  0
LINE
  5
21F
100
AcDbEntity
  8
0
100
AcDbLine
 62
7
  6
BYLAYER
 10
15.2983841134
 20
104.005657436
 11
17.4660686913
 21
105.2571632402
  0
LINE
  5
220
100
AcDbEntity
  8
0
100
AcDbLine
 62
7
  6
BYLAYER
 10
14.3437951107
 20
103.2912308466
 11
15.4398060584
 21
103.9240092851
  0
LINE
  5
221
100
AcDbEntity
  8
0
100
AcDbLine
 62
7
  6
BYLAYER
 10
14.9987535326
 20
101.8137287447
 11
15.1401743
 21
101.8953775754
  0
LINE
  5
222
100
AcDbEntity
  8
0
100
AcDbLine
 62
7
  6
BYLAYER
 10
15.2487524134
 20
101.7889666052
 11
15.3901731808
 21
101.8706154359
  0
LINE
  5
223
100
AcDbEntity
  8
0
100
AcDbLine
 62
7
  6
BYLAYER
 10
27.3404668098
 20
108.4855260842
 11
22.5031323007
 21
105.6927063741
  0
LINE
  5
224
100
AcDbEntity
  8
0
100
AcDbLine
 62
7
  6
BYLAYER
 10
24.6970639463
 20
105.804677001
 11
27.1465434909
 21
107.2188762338
  0
LINE
  5
225
100
AcDbEntity
  8
0
100
AcDbLine
 62
7
  6
BYLAYER
 10
19.4504687348
 20
101.6207944829
 11
19.5420315603
 21
101.6736671516
  0
LINE
  5
226
100
AcDbEntity
  8
0
100
AcDbLine
 62
7
  6
BYLAYER
 10
19.5420315603
 20
101.6736671516
 11
28.5431226733
 21
106.8704698239
  0
LINE
  5
227
100
AcDbEntity
  8
0
100
AcDbLine
 62
7
  6
BYLAYER
 10
19.4501686441
 20
101.6206212244
 11
19.5713347247
 21
101.4107565815
  0
LINE
  5
228
100
AcDbEntity
  8
0
100
AcDbLine
 62
7
  6
BYLAYER
 10
19.5367710643
 20
101.6706214326
 11
16.7867596149
 21
106.433754543
  0
LINE
  5
229
100
AcDbEntity
  8
0
100
AcDbLine
 62
7
  6
BYLAYER
 10
31.135387113
 20
99.12953708
 11
30.1082594601
 21
98.5365281929
  0
LINE
  5
22A
100
AcDbEntity
  8
0
100
AcDbLine
 62
7
  6
BYLAYER
 10
22.5031323007
 20
105.6927063741
 11
20.7531250147
 21
108.7237910807
  0
LINE
  5
22B
100
AcDbEntity
  8
0
100
AcDbLine
 62
7
  6
BYLAYER
 10
39.6440379309
 20
87.2964093656
 11
39.6440379309
 21
79.9478876115
  0
LINE
  5
22C
100
AcDbEntity
  8
0
100
AcDbLine
 62
7
  6
BYLAYER
 10
39.7854586984
 20
80.0295364422
 11
39.7854586984
 21
87.3780581964
  0
LINE
  5
22D
100
AcDbEntity
  8
0
100
AcDbLine
 62
7
  6
BYLAYER
 10
58.6076830669
 20
61.1441960285
 11
58.6655368353
 21
61.1114021749
  0
LINE
  5
22E
100
AcDbEntity
  8
0
100
AcDbLine
 62
7
  6
BYLAYER
 10
14.3437951107
 20
89.0024385469
 11
67.3770244967
 21
58.3843819578
  0
LINE
  5
22F
100
AcDbEntity
  8
0
100
AcDbLine
 62
7
  6
BYLAYER
 10
58.3120387441
 20
62.1282414337
 11
57.3565568633
 21
63.0521532524
  0
LINE
  5
230
100
AcDbEntity
  8
0
100
AcDbLine
 62
7
  6
BYLAYER
 10
39.5404765259
 20
79.719004034
 11
39.6440379309
 21
79.9478876115
  0
LINE
  5
231
100
AcDbEntity
  8
0
100
AcDbLine
 62
7
  6
BYLAYER
 10
39.7854586984
 20
80.0295364422
 11
39.6818972934
 21
79.8006528648
  0
LINE
  5
232
100
AcDbEntity
  8
0
100
AcDbLine
 62
7
  6
BYLAYER
 10
39.2904830684
 20
79.7437567802
 11
15.2487524134
 21
93.6239424339
  0
LINE
  5
233
100
AcDbEntity
  8
0
100
AcDbLine
 62
7
  6
BYLAYER
 10
25.5904595238
 20
111.5166107908
 11
27.3404668098
 21
108.4855260842
  0
LINE
  5
234
100
AcDbEntity
  8
0
100
AcDbLine
 62
7
  6
BYLAYER
 10
28.4568203439
 20
106.8206428742
 11
25.7068088946
 21
111.5837759845
  0
LINE
  5
235
100
AcDbEntity
  8
0
100
AcDbLine
 62
7
  6
BYLAYER
 10
28.5434227641
 20
106.8706430823
 11
31.6337225996
 21
101.5181164697
  0
LINE
  5
236
100
AcDbEntity
  8
0
100
AcDbLine
 62
7
  6
BYLAYER
 10
104.0355394461
 20
44.6791188647
 11
68.6800531888
 21
65.0911565907
  0
LINE
  5
237
100
AcDbEntity
  8
0
100
AcDbLine
 62
7
  6
BYLAYER
 10
58.0375825952
 20
59.8506737588
 11
57.934795193
 21
60.1994589946
  0
LINE
  5
238
100
AcDbEntity
  8
0
100
AcDbLine
 62
7
  6
BYLAYER
 10
56.075134266
 20
127.7052402941
 11
56.0859606524
 21
127.9157851743
  0
LINE
  5
239
100
AcDbEntity
  8
0
100
AcDbLine
 62
7
  6
BYLAYER
 10
39.4319038358
 20
87.9904297822
 11
39.2904830684
 21
87.9087809515
  0
LINE
  5
23A
100
AcDbEntity
  8
0
100
AcDbLine
 62
7
  6
BYLAYER
 10
39.6440379309
 20
87.2964093656
 11
39.7854586984
 21
87.3780581964
  0
LINE
  5
23B
100
AcDbEntity
  8
0
100
AcDbLine
 62
7
  6
BYLAYER
 10
39.2904830684
 20
79.7437567802
 11
39.5404765259
 21
79.719004034
  0
LINE
  5
23C
100
AcDbEntity
  8
0
100
AcDbLine
 62
7
  6
BYLAYER
 10
15.2487524134
 20
101.7889666052
 11
39.2904830684
 21
87.9087809515
  0
LINE
  5
23D
100
AcDbEntity
  8
0
100
AcDbLine
 62
7
  6
BYLAYER
 10
39.4319038358
 20
87.9904297822
 11
15.3901731808
 21
101.8706154359
  0
LINE
  5
23E
100
AcDbEntity
  8
0
100
AcDbLine
 62
7
  6
BYLAYER
 10
14.3437951107
 20
103.2912308466
 11
67.3770244967
 21
72.6731742576
  0
LINE
  5
23F
100
AcDbEntity
  8
0
100
AcDbLine
 62
7
  6
BYLAYER
 10
15.4398060584
 20
103.9240092851
 11
15.2983841134
 21
104.005657436
  0
LINE
  5
240
100
AcDbEntity
  8
0
100
AcDbLine
 62
7
  6
BYLAYER
 10
57.8926938829
 20
60.9713627281
 11
57.7850492366
 21
61.3359935938
  0
LINE
  5
241
100
AcDbEntity
  8
0
100
AcDbLine
 62
7
  6
BYLAYER
 10
57.9346181509
 20
60.1994511086
 11
57.7850492368
 21
61.3359935938
  0
LINE
  5
242
100
AcDbEntity
  8
0
100
AcDbLine
 62
7
  6
BYLAYER
 10
57.7850492366
 20
61.3359935938
 11
57.775134266
 21
61.4868942649
  0
LINE
  5
243
100
AcDbEntity
  8
0
100
AcDbLine
 62
7
  6
BYLAYER
 10
55.975134266
 20
123.2144769999
 11
55.975134266
 21
81.1646025177
  0
LINE
  5
244
100
AcDbEntity
  8
0
100
AcDbLine
 62
7
  6
BYLAYER
 10
56.075134266
 20
123.2144769999
 11
56.075134266
 21
127.7052402941
  0
LINE
  5
245
100
AcDbEntity
  8
0
100
AcDbLine
 62
7
  6
BYLAYER
 10
57.775134266
 20
61.4868942662
 11
57.775134266
 21
61.8134952317
  0
LINE
  5
246
100
AcDbEntity
  8
0
100
AcDbLine
 62
7
  6
BYLAYER
 10
39.7854586984
 20
80.0295364422
 11
39.6440379309
 21
79.9478876115
  0
LINE
  5
247
100
AcDbEntity
  8
0
100
AcDbLine
 62
7
  6
BYLAYER
 10
39.5404819491
 20
79.7189946407
 11
39.6819027166
 21
79.8006434714
  0
LINE
  5
248
100
AcDbEntity
  8
0
100
AcDbLine
 62
7
  6
BYLAYER
 10
109.9854384923
 20
54.9848794548
 11
74.629952235
 21
75.3969171808
  0
LINE
  5
249
100
AcDbEntity
  8
0
100
AcDbLine
 62
7
  6
BYLAYER
 10
30.1870988807
 20
104.0237283411
 11
55.975134266
 21
89.13533599
  0
LINE
  5
24A
100
AcDbEntity
  8
0
100
AcDbLine
 62
7
  6
BYLAYER
 10
66.475134266
 20
83.0732953052
 11
75.932980927
 21
77.6129285195
  0
LINE
  5
24B
100
AcDbEntity
  8
0
100
AcDbLine
 62
7
  6
BYLAYER
 10
66.375134266
 20
123.2144769999
 11
66.375134266
 21
127.7052402941
  0
LINE
  5
24C
100
AcDbEntity
  8
0
100
AcDbLine
 62
7
  6
BYLAYER
 10
66.475134266
 20
123.2144769999
 11
66.475134266
 21
81.1646025177
  0
LINE
  5
24D
100
AcDbEntity
  8
0
100
AcDbLine
 62
7
  6
BYLAYER
 10
67.3770244967
 20
58.3843819578
 11
67.3770244967
 21
72.6731742576
  0
LINE
  5
24E
100
AcDbEntity
  8
0
100
AcDbLine
 62
7
  6
BYLAYER
 10
75.932980927
 20
77.6129285195
 11
75.932980927
 21
74.6446302337
  0
LINE
  5
24F
100
AcDbEntity
  8
0
100
AcDbLine
 62
7
  6
BYLAYER
 10
15.2487524134
 20
101.7889666052
 11
14.9987589558
 21
101.8137193513
  0
LINE
  5
250
100
AcDbEntity
  8
0
100
AcDbLine
 62
7
  6
BYLAYER
 10
15.1401797232
 20
101.8953681821
 11
15.3901731808
 21
101.8706154359
  0
LINE
  5
251
100
AcDbEntity
  8
0
100
AcDbLine
 62
7
  6
BYLAYER
 10
67.3770244967
 20
72.6731742576
 11
75.932980927
 21
77.6129285195
  0
LINE
  5
252
100
AcDbEntity
  8
0
100
AcDbLine
 62
7
  6
BYLAYER
 10
73.8368536621
 20
62.1139438029
 11
67.3770244967
 21
58.3843819578
  0
ARC
  5
253
100
AcDbEntity
  8
0
100
AcDbCircle
 62
7
  6
BYLAYER
 10
61.2110404228
 20
122.9588256035
 40
7.8387663309
100
AcDbArc
 50
93.892963921
 51
96.3308552639
  0
ARC
  5
254
100
AcDbEntity
  8
0
100
AcDbCircle
 62
7
  6
BYLAYER
 10
61.3862751064
 20
66.5475700843
 40
6.1968586495
100
AcDbArc
 50
261.6363294665
 51
275.4152733938
  0
ARC
  5
255
100
AcDbEntity
  8
0
100
AcDbCircle
 62
7
  6
BYLAYER
 10
60.0175484711
 20
68.7948764762
 40
5.93715818
100
AcDbArc
 50
240.0464392584
 51
243.7642305527
  0
ARC
  5
256
100
AcDbEntity
  8
0
100
AcDbCircle
 62
7
  6
BYLAYER
 10
61.3328018
 20
66.1337271256
 40
5.7796436097
100
AcDbArc
 50
261.277445569
 51
261.564048786
  0
ARC
  5
257
100
AcDbEntity
  8
0
100
AcDbCircle
 62
7
  6
BYLAYER
 10
61.6211576975
 20
65.4803806758
 40
5.1029116752
100
AcDbArc
 50
285.0420234966
 51
290.1440110267
  0
ARC
  5
258
100
AcDbEntity
  8
0
100
AcDbCircle
 62
7
  6
BYLAYER
 10
59.9474729288
 20
83.2388254302
 40
4.8697831416
100
AcDbArc
 50
238.9207598015
 51
240.0035018262
  0
ARC
  5
259
100
AcDbEntity
  8
0
100
AcDbCircle
 62
7
  6
BYLAYER
 10
62.4293680707
 20
126.3990059033
 40
4.1706945938
100
AcDbArc
 50
57.3257959717
 51
60.0245568926
  0
ARC
  5
25A
100
AcDbEntity
  8
0
100
AcDbCircle
 62
7
  6
BYLAYER
 10
59.9931918143
 20
129.7822217128
 40
4.1172155836
100
AcDbArc
 50
236.5499418255
 51
240.0404438273
  0
ARC
  5
25B
100
AcDbEntity
  8
0
100
AcDbCircle
 62
7
  6
BYLAYER
 10
35.5862838286
 20
77.9964803421
 40
3.65749423
100
AcDbArc
 50
24.2012769685
 51
38.7665841944
  0
ARC
  5
25C
100
AcDbEntity
  8
0
100
AcDbCircle
 62
7
  6
BYLAYER
 10
60.0229541934
 20
64.3291293583
 40
3.4686839288
100
AcDbArc
 50
238.9962044137
 51
240.4462158008
  0
ARC
  5
25D
100
AcDbEntity
  8
0
100
AcDbCircle
 62
7
  6
BYLAYER
 10
60.1891133899
 20
63.3707588696
 40
2.7650133702
100
AcDbArc
 50
232.5014430749
 51
235.7460963472
  0
ARC
  5
25E
100
AcDbEntity
  8
0
100
AcDbCircle
 62
7
  6
BYLAYER
 10
57.7224846838
 20
123.2142252897
 40
1.7473298286
100
AcDbArc
 50
179.4172062925
 51
179.9917462693
  0
ARC
  5
25F
100
AcDbEntity
  8
0
100
AcDbCircle
 62
7
  6
BYLAYER
 10
64.7277838486
 20
123.2147287101
 40
1.7473298281
100
AcDbArc
 50
359.4172062926
 51
359.9917462696
  0
ARC
  5
260
100
AcDbEntity
  8
0
100
AcDbCircle
 62
7
  6
BYLAYER
 10
64.7287797927
 20
123.2147285202
 40
1.746333884
100
AcDbArc
 50
359.9917477925
 51
0.7415507369
  0
ARC
  5
261
100
AcDbEntity
  8
0
100
AcDbCircle
 62
7
  6
BYLAYER
 10
57.7214887381
 20
123.2142254795
 40
1.7463338829
100
AcDbArc
 50
179.9917477923
 51
180.7415507372
  0
ARC
  5
262
100
AcDbEntity
  8
0
100
AcDbCircle
 62
7
  6
BYLAYER
 10
59.3508997944
 20
61.9953540401
 40
1.6172055038
100
AcDbArc
 50
212.0231609267
 51
214.5750076514
  0
ARC
  5
263
100
AcDbEntity
  8
0
100
AcDbCircle
 62
7
  6
BYLAYER
 10
59.3638387539
 20
61.9445817565
 40
1.4660436146
100
AcDbArc
 50
209.3181381084
 51
212.0493798451
  0
ARC
  5
264
100
AcDbEntity
  8
0
100
AcDbCircle
 62
7
  6
BYLAYER
 10
59.2786079545
 20
61.8971798834
 40
1.368518991
100
AcDbArc
 50
204.9279870323
 51
209.335036214
  0
ARC
  5
265
100
AcDbEntity
  8
0
100
AcDbCircle
 62
7
  6
BYLAYER
 10
59.1181051123
 20
61.8668763667
 40
1.3510345329
100
AcDbArc
 50
202.2249140798
 51
204.9036819287
  0
ARC
  5
266
100
AcDbEntity
  8
0
100
AcDbCircle
 62
7
  6
BYLAYER
 10
59.2056952896
 20
61.8627715021
 40
1.2878966803
100
AcDbArc
 50
201.6219963336
 51
204.9070024643
  0
ARC
  5
267
100
AcDbEntity
  8
0
100
AcDbCircle
 62
7
  6
BYLAYER
 10
59.0479893297
 20
61.8394759596
 40
1.2757644203
100
AcDbArc
 50
195.4095656483
 51
202.276835702
  0
ARC
  5
268
100
AcDbEntity
  8
0
100
AcDbCircle
 62
7
  6
BYLAYER
 10
59.147185651
 20
61.8398277471
 40
1.22504974
100
AcDbArc
 50
194.4950332325
 51
201.6327720911
  0
ARC
  5
269
100
AcDbEntity
  8
0
100
AcDbCircle
 62
7
  6
BYLAYER
 10
58.4313228482
 20
63.6182771353
 40
1.2113414586
100
AcDbArc
 50
187.0830966007
 51
188.4526655016
  0
ARC
  5
26A
100
AcDbEntity
  8
0
100
AcDbCircle
 62
7
  6
BYLAYER
 10
17.2197717159
 20
106.6837555838
 40
0.5
100
AcDbArc
 50
120.0001377247
 51
210.0001377247
  0
ARC
  5
26B
100
AcDbEntity
  8
0
100
AcDbCircle
 62
7
  6
BYLAYER
 10
25.2737967936
 20
111.3337749437
 40
0.5
100
AcDbArc
 50
30.0001377247
 51
120.0001377247
  0
SPLINE
  5
26C
100
AcDbEntity
  8
0
100
AcDbSpline
 62
7
  6
BYLAYER
 70
0
 71
3
 72
9
 73
5
 74
0
 42
0.0000001
 43
0.0000001
 44
0.0000000001
 40
0.0
 40
0.0
 40
0.0
 40
0.0
 40
0.4708823091
 40
1.0
 40
1.0
 40
1.0
 40
1.0
 10
60.6912588232
 20
130.8731916044
 30
0.0
 10
60.6335793541
 20
130.8695357206
 30
0.0
 10
60.5130434823
 20
130.8369900178
 30
0.0
 10
60.4029053365
 20
130.7822602275
 30
0.0
 10
60.3466630387
 20
130.7497889155
 30
0.0
  0
SPLINE
  5
26D
100
AcDbEntity
  8
0
100
AcDbSpline
 62
7
  6
BYLAYER
 70
0
 71
3
 72
11
 73
7
 74
0
 42
0.0000001
 43
0.0000001
 44
0.0000000001
 40
0.0
 40
0.0
 40
0.0
 40
0.0
 40
0.2627518057
 40
0.5213325233
 40
0.7689140545
 40
1.0
 40
1.0
 40
1.0
 40
1.0
 10
60.6912594349
 20
130.8731373868
 30
0.0
 10
61.0592623708
 20
130.8961999006
 30
0.0
 10
61.7932326303
 20
130.8946954853
 30
0.0
 10
62.8660485941
 20
130.753057099
 30
0.0
 10
63.866742038
 20
130.4774957085
 30
0.0
 10
64.4823200251
 20
130.1987317829
 30
0.0
 10
64.7631628673
 20
130.0365907604
 30
0.0
  0
SPLINE
  5
26E
100
AcDbEntity
  8
0
100
AcDbSpline
 62
7
  6
BYLAYER
 70
0
 71
3
 72
11
 73
7
 74
0
 42
0.0000001
 43
0.0000001
 44
0.0000000001
 40
0.0
 40
0.0
 40
0.0
 40
0.0
 40
0.274717163
 40
0.5290474139
 40
0.7683347182
 40
1.0
 40
1.0
 40
1.0
 40
1.0
 10
64.7631628673
 20
130.0365907604
 30
0.0
 10
64.9980451252
 20
129.9009844934
 30
0.0
 10
65.4303511286
 20
129.6015099899
 30
0.0
 10
65.953884337
 20
129.0429980506
 30
0.0
 10
66.2946421389
 20
128.4021453994
 30
0.0
 10
66.375134266
 20
127.9339540501
 30
0.0
 10
66.375134266
 20
127.7052402941
 30
0.0
  0
SPLINE
  5
26F
100
AcDbEntity
  8
0
100
AcDbSpline
 62
7
  6
BYLAYER
 70
0
 71
3
 72
9
 73
5
 74
0
 42
0.0000001
 43
0.0000001
 44
0.0000000001
 40
0.0
 40
0.0
 40
0.0
 40
0.0
 40
0.2486816133
 40
1.0
 40
1.0
 40
1.0
 40
1.0
 10
66.474967416
 20
123.2373298189
 30
0.0
 10
66.4745391535
 20
123.2704159361
 30
0.0
 10
66.4690442952
 20
123.4033933751
 30
0.0
 10
66.4482678034
 20
123.5356835073
 30
0.0
 10
66.4248003186
 20
123.6328583403
 30
0.0
  0
SPLINE
  5
270
100
AcDbEntity
  8
0
100
AcDbSpline
 62
7
  6
BYLAYER
 70
0
 71
3
 72
17
 73
13
 74
0
 42
0.0000001
 43
0.0000001
 44
0.0000000001
 40
0.0
 40
0.0
 40
0.0
 40
0.0
 40
0.042857965
 40
0.0874854797
 40
0.1353180708
 40
0.1872814984
 40
0.3045423159
 40
0.4382097446
 40
0.5825520305
 40
0.7297107839
 40
0.8713099826
 40
1.0
 40
1.0
 40
1.0
 40
1.0
 10
63.1200548318
 20
65.7576503609
 30
0.0
 10
63.1730453872
 20
65.7882726808
 30
0.0
 10
63.2898947642
 20
65.836813371
 30
0.0
 10
63.4827514285
 20
65.8650994573
 30
0.0
 10
63.689870906
 20
65.8498370046
 30
0.0
 10
63.9908171985
 20
65.7698138228
 30
0.0
 10
64.3755311327
 20
65.5594513824
 30
0.0
 10
64.8005766591
 20
65.1830335222
 30
0.0
 10
65.1762997884
 20
64.70212587
 30
0.0
 10
65.4720091913
 20
64.1555757461
 30
0.0
 10
65.6639002199
 20
63.58820148
 30
0.0
 10
65.7153166427
 20
63.2017814299
 30
0.0
 10
65.7153166427
 20
63.018008608
 30
0.0
  0
SPLINE
  5
271
100
AcDbEntity
  8
0
100
AcDbSpline
 62
7
  6
BYLAYER
 70
0
 71
3
 72
9
 73
5
 74
0
 42
0.0000001
 43
0.0000001
 44
0.0000000001
 40
0.0
 40
0.0
 40
0.0
 40
0.0
 40
0.2461681825
 40
1.0
 40
1.0
 40
1.0
 40
1.0
 10
30.9465543357
 20
84.3326186148
 30
0.0
 10
30.9679981077
 20
84.3450064079
 30
0.0
 10
31.0576672062
 20
84.3908593942
 30
0.0
 10
31.1568624425
 20
84.4172630267
 30
0.0
 10
31.2321205763
 20
84.4266086143
 30
0.0
  0
SPLINE
  5
272
100
AcDbEntity
  8
0
100
AcDbSpline
 62
7
  6
BYLAYER
 70
0
 71
3
 72
9
 73
5
 74
0
 42
0.0000001
 43
0.0000001
 44
0.0000000001
 40
0.0
 40
0.0
 40
0.0
 40
0.0
 40
0.2461681825
 40
1.0
 40
1.0
 40
1.0
 40
1.0
 10
36.6034321369
 20
81.0666925787
 30
0.0
 10
36.6248759088
 20
81.0790803717
 30
0.0
 10
36.7145450074
 20
81.1249333581
 30
0.0
 10
36.8137402437
 20
81.1513369906
 30
0.0
 10
36.8889983774
 20
81.1606825782
 30
0.0
  0
SPLINE
  5
273
100
AcDbEntity
  8
0
100
AcDbSpline
 62
7
  6
BYLAYER
 70
0
 71
3
 72
9
 73
5
 74
0
 42
0.0000001
 43
0.0000001
 44
0.0000000001
 40
0.0
 40
0.0
 40
0.0
 40
0.0
 40
0.5249096129
 40
1.0
 40
1.0
 40
1.0
 40
1.0
 10
15.0221100559
 20
103.6926208109
 30
0.0
 10
15.0547941306
 20
103.758775243
 30
0.0
 10
15.1331069338
 20
103.8773085617
 30
0.0
 10
15.240546777
 20
103.9722652336
 30
0.0
 10
15.2983841134
 20
104.005657436
 30
0.0
  0
SPLINE
  5
274
100
AcDbEntity
  8
0
100
AcDbSpline
 62
7
  6
BYLAYER
 70
0
 71
3
 72
9
 73
5
 74
0
 42
0.0000001
 43
0.0000001
 44
0.0000000001
 40
0.0
 40
0.0
 40
0.0
 40
0.0
 40
0.2461681825
 40
1.0
 40
1.0
 40
1.0
 40
1.0
 10
16.4508049702
 20
92.7015540825
 30
0.0
 10
16.4722487421
 20
92.7139418756
 30
0.0
 10
16.5619178407
 20
92.7597948619
 30
0.0
 10
16.661113077
 20
92.7861984944
 30
0.0
 10
16.7363712107
 20
92.795544082
 30
0.0
  0
SPLINE
  5
275
100
AcDbEntity
  8
0
100
AcDbSpline
 62
7
  6
BYLAYER
 70
0
 71
3
 72
11
 73
7
 74
0
 42
0.0000001
 43
0.0000001
 44
0.0000000001
 40
0.0
 40
0.0
 40
0.0
 40
0.0
 40
0.2896413964
 40
0.5491107671
 40
0.7822355978
 40
1.0
 40
1.0
 40
1.0
 40
1.0
 10
19.046074783
 20
89.9618984064
 30
0.0
 10
19.046074783
 20
89.8529853922
 30
0.0
 10
19.0295199645
 20
89.6458070597
 30
0.0
 10
18.945667009
 20
89.3611506895
 30
0.0
 10
18.8044170177
 20
89.1301115647
 30
0.0
 10
18.6716631918
 20
89.018662859
 30
0.0
 10
18.6007647757
 20
88.977691898
 30
0.0
  0
SPLINE
  5
276
100
AcDbEntity
  8
0
100
AcDbSpline
 62
7
  6
BYLAYER
 70
0
 71
3
 72
11
 73
7
 74
0
 42
0.0000001
 43
0.0000001
 44
0.0000000001
 40
0.0
 40
0.0
 40
0.0
 40
0.0
 40
0.2613931745
 40
0.5224868675
 40
0.7720853847
 40
1.0
 40
1.0
 40
1.0
 40
1.0
 10
18.285416901
 20
91.9214788683
 30
0.0
 10
18.4021468678
 20
91.7764176684
 30
0.0
 10
18.6126988476
 20
91.4674619082
 30
0.0
 10
18.852443673
 20
90.9702461461
 30
0.0
 10
19.0058445452
 20
90.4647650411
 30
0.0
 10
19.046074783
 20
90.124246172
 30
0.0
 10
19.046074783
 20
89.9618984064
 30
0.0
  0
SPLINE
  5
277
100
AcDbEntity
  8
0
100
AcDbSpline
 62
7
  6
BYLAYER
 70
0
 71
3
 72
11
 73
7
 74
0
 42
0.0000001
 43
0.0000001
 44
0.0000000001
 40
0.0
 40
0.0
 40
0.0
 40
0.0
 40
0.2896413964
 40
0.5491107671
 40
0.7822355978
 40
1.0
 40
1.0
 40
1.0
 40
1.0
 10
33.5418241485
 20
81.5929629387
 30
0.0
 10
33.5418241485
 20
81.4840499245
 30
0.0
 10
33.52526933
 20
81.276871592
 30
0.0
 10
33.4414163745
 20
80.9922152219
 30
0.0
 10
33.3001663832
 20
80.761176097
 30
0.0
 10
33.1674125573
 20
80.6497273914
 30
0.0
 10
33.0965141412
 20
80.6087564303
 30
0.0
  0
SPLINE
  5
278
100
AcDbEntity
  8
0
100
AcDbSpline
 62
7
  6
BYLAYER
 70
0
 71
3
 72
11
 73
7
 74
0
 42
0.0000001
 43
0.0000001
 44
0.0000000001
 40
0.0
 40
0.0
 40
0.0
 40
0.0
 40
0.2613931745
 40
0.5224868675
 40
0.7720853847
 40
1.0
 40
1.0
 40
1.0
 40
1.0
 10
32.7811662665
 20
83.5525434007
 30
0.0
 10
32.8978962333
 20
83.4074822008
 30
0.0
 10
33.1084482131
 20
83.0985264405
 30
0.0
 10
33.3481930385
 20
82.6013106785
 30
0.0
 10
33.5015939108
 20
82.0958295734
 30
0.0
 10
33.5418241485
 20
81.7553107043
 30
0.0
 10
33.5418241485
 20
81.5929629387
 30
0.0
  0
SPLINE
  5
279
100
AcDbEntity
  8
0
100
AcDbSpline
 62
7
  6
BYLAYER
 70
0
 71
3
 72
11
 73
7
 74
0
 42
0.0000001
 43
0.0000001
 44
0.0000000001
 40
0.0
 40
0.0
 40
0.0
 40
0.0
 40
0.2896413964
 40
0.5491107671
 40
0.7822355978
 40
1.0
 40
1.0
 40
1.0
 40
1.0
 10
39.1987019496
 20
78.3270369026
 30
0.0
 10
39.1987019496
 20
78.2181238884
 30
0.0
 10
39.1821471312
 20
78.0109455559
 30
0.0
 10
39.0982941757
 20
77.7262891857
 30
0.0
 10
38.9570441844
 20
77.4952500609
 30
0.0
 10
38.8242903585
 20
77.3838013552
 30
0.0
 10
38.7533919423
 20
77.3428303942
 30
0.0
  0
SPLINE
  5
27A
100
AcDbEntity
  8
0
100
AcDbSpline
 62
7
  6
BYLAYER
 70
0
 71
3
 72
9
 73
5
 74
0
 42
0.0000001
 43
0.0000001
 44
0.0000000001
 40
0.0
 40
0.0
 40
0.0
 40
0.0
 40
0.5242255527
 40
1.0
 40
1.0
 40
1.0
 40
1.0
 10
38.9223244746
 20
79.4958458248
 30
0.0
 10
39.0089624076
 20
79.3034504114
 30
0.0
 10
39.1429680036
 20
78.9213930739
 30
0.0
 10
39.1987019496
 20
78.518537828
 30
0.0
 10
39.1987019496
 20
78.3270369026
 30
0.0
  0
SPLINE
  5
27B
100
AcDbEntity
  8
0
100
AcDbSpline
 62
7
  6
BYLAYER
 70
0
 71
3
 72
11
 73
7
 74
0
 42
0.0000001
 43
0.0000001
 44
0.0000000001
 40
0.0
 40
0.0
 40
0.0
 40
0.0
 40
0.2896413964
 40
0.5491107671
 40
0.7822355978
 40
1.0
 40
1.0
 40
1.0
 40
1.0
 10
65.7153166427
 20
63.018008608
 30
0.0
 10
65.7153166427
 20
62.9090955939
 30
0.0
 10
65.6987618242
 20
62.7019172614
 30
0.0
 10
65.6149088687
 20
62.4172608912
 30
0.0
 10
65.4736588774
 20
62.1862217663
 30
0.0
 10
65.3409050515
 20
62.0747730607
 30
0.0
 10
65.2700066354
 20
62.0338020997
 30
0.0
  0
SPLINE
  5
27C
100
AcDbEntity
  8
0
100
AcDbSpline
 62
7
  6
BYLAYER
 70
0
 71
3
 72
18
 73
14
 74
0
 42
0.0000001
 43
0.0000001
 44
0.0000000001
 40
0.0
 40
0.0
 40
0.0
 40
0.0
 40
0.0428462721
 40
0.0874635218
 40
0.1352850893
 40
0.1872347748
 40
0.2437273234
 40
0.3047339998
 40
0.4383676378
 40
0.5826733807
 40
0.729790074
 40
0.8713405342
 40
1.0
 40
1.0
 40
1.0
 40
1.0
 10
104.0355596519
 20
44.6791538611
 30
0.0
 10
104.1822422154
 20
44.5944700695
 30
0.0
 10
104.5055748124
 20
44.4600595949
 30
0.0
 10
105.0393358239
 20
44.3818314166
 30
0.0
 10
105.6125061727
 20
44.4240692495
 30
0.0
 10
106.2123762277
 20
44.5834000267
 30
0.0
 10
106.827191752
 20
44.8551109826
 30
0.0
 10
107.6758940014
 20
45.3746176254
 30
0.0
 10
108.6869568242
 20
46.2700444843
 30
0.0
 10
109.7259838842
 20
47.600277537
 30
0.0
 10
110.5444552676
 20
49.1130037372
 30
0.0
 10
111.075465755
 20
50.6830777994
 30
0.0
 10
111.2177568007
 20
51.7524567775
 30
0.0
 10
111.2177568007
 20
52.2610518753
 30
0.0
  0
SPLINE
  5
27D
100
AcDbEntity
  8
0
100
AcDbSpline
 62
7
  6
BYLAYER
 70
0
 71
3
 72
11
 73
7
 74
0
 42
0.0000001
 43
0.0000001
 44
0.0000000001
 40
0.0
 40
0.0
 40
0.0
 40
0.0
 40
0.2177830968
 40
0.450915839
 40
0.7103069095
 40
1.0
 40
1.0
 40
1.0
 40
1.0
 10
105.510521344
 20
47.2339201797
 30
0.0
 10
105.4115688098
 20
47.2910671672
 30
0.0
 10
105.2264031229
 20
47.4467020743
 30
0.0
 10
105.0292899045
 20
47.7690066881
 30
0.0
 10
104.9122226569
 20
48.166188918
 30
0.0
 10
104.8891774576
 20
48.4552672447
 30
0.0
 10
104.8891774576
 20
48.6072666981
 30
0.0
  0
SPLINE
  5
27E
100
AcDbEntity
  8
0
100
AcDbSpline
 62
7
  6
BYLAYER
 70
0
 71
3
 72
9
 73
5
 74
0
 42
0.0000001
 43
0.0000001
 44
0.0000000001
 40
0.0
 40
0.0
 40
0.0
 40
0.0
 40
0.2398061371
 40
1.0
 40
1.0
 40
1.0
 40
1.0
 10
57.8619653289
 20
63.2533652564
 30
0.0
 10
57.8954706381
 20
63.2253877464
 30
0.0
 10
58.0381159598
 20
63.1122401585
 30
0.0
 10
58.1915444101
 20
63.0129511388
 30
0.0
 10
58.3118880281
 20
62.944654164
 30
0.0
  0
SPLINE
  5
27F
100
AcDbEntity
  8
0
100
AcDbSpline
 62
7
  6
BYLAYER
 70
0
 71
3
 72
9
 73
5
 74
0
 42
0.0000001
 43
0.0000001
 44
0.0000000001
 40
0.0
 40
0.0
 40
0.0
 40
0.0
 40
0.2241276617
 40
1.0
 40
1.0
 40
1.0
 40
1.0
 10
57.3565568633
 20
62.2356508353
 30
0.0
 10
57.3980778149
 20
62.151666108
 30
0.0
 10
57.6199632464
 20
61.7948377577
 30
0.0
 10
57.9582797273
 20
61.5230878547
 30
0.0
 10
58.2362529403
 20
61.3560052724
 30
0.0
  0
SPLINE
  5
280
100
AcDbEntity
  8
0
100
AcDbSpline
 62
7
  6
BYLAYER
 70
0
 71
3
 72
9
 73
5
 74
0
 42
0.0000001
 43
0.0000001
 44
0.0000000001
 40
0.0
 40
0.0
 40
0.0
 40
0.0
 40
0.2445959546
 40
1.0
 40
1.0
 40
1.0
 40
1.0
 10
62.9455032611
 20
60.5523165129
 30
0.0
 10
62.8675360908
 20
60.5312778326
 30
0.0
 10
62.5468421482
 20
60.4525361276
 30
0.0
 10
62.2193884191
 20
60.4018887327
 30
0.0
 10
61.9710955727
 20
60.3783689898
 30
0.0
  0
SPLINE
  5
281
100
AcDbEntity
  8
0
100
AcDbSpline
 62
7
  6
BYLAYER
 70
0
 71
3
 72
9
 73
5
 74
0
 42
0.0000001
 43
0.0000001
 44
0.0000000001
 40
0.0
 40
0.0
 40
0.0
 40
0.0
 40
0.2563107503
 40
1.0
 40
1.0
 40
1.0
 40
1.0
 10
60.4563192614
 20
60.4209293333
 30
0.0
 10
60.3792486855
 20
60.4327540691
 30
0.0
 10
60.0795431222
 20
60.4849841569
 30
0.0
 10
59.7839378861
 20
60.5616147641
 30
0.0
 10
59.5694089405
 20
60.633454835
 30
0.0
  0
SPLINE
  5
282
100
AcDbEntity
  8
0
100
AcDbSpline
 62
7
  6
BYLAYER
 70
0
 71
3
 72
9
 73
5
 74
0
 42
0.0000001
 43
0.0000001
 44
0.0000000001
 40
0.0
 40
0.0
 40
0.0
 40
0.0
 40
0.2644184031
 40
1.0
 40
1.0
 40
1.0
 40
1.0
 10
59.5694089405
 20
60.633454835
 30
0.0
 10
59.4823482034
 20
60.6626091737
 30
0.0
 10
59.1564503045
 20
60.7821637934
 30
0.0
 10
58.8438659603
 20
60.9415133655
 30
0.0
 10
58.6327945267
 20
61.0853331908
 30
0.0
  0
SPLINE
  5
283
100
AcDbEntity
  8
0
100
AcDbSpline
 62
7
  6
BYLAYER
 70
0
 71
3
 72
9
 73
5
 74
0
 42
0.0000001
 43
0.0000001
 44
0.0000000001
 40
0.0
 40
0.0
 40
0.0
 40
0.0
 40
0.5067592816
 40
1.0
 40
1.0
 40
1.0
 40
1.0
 10
57.3565568633
 20
62.2356508353
 30
0.0
 10
57.2938659807
 20
62.3624561342
 30
0.0
 10
57.2063439395
 20
62.6336267593
 30
0.0
 10
57.2185777118
 20
62.9190392372
 30
0.0
 10
57.2474505606
 20
63.0536599998
 30
0.0
  0
SPLINE
  5
284
100
AcDbEntity
  8
0
100
AcDbSpline
 62
7
  6
BYLAYER
 70
0
 71
3
 72
9
 73
5
 74
0
 42
0.0000001
 43
0.0000001
 44
0.0000000001
 40
0.0
 40
0.0
 40
0.0
 40
0.0
 40
0.2472877422
 40
1.0
 40
1.0
 40
1.0
 40
1.0
 10
57.2474505606
 20
63.0536599998
 30
0.0
 10
57.2508969823
 20
63.0697290727
 30
0.0
 10
57.2661080057
 20
63.1344322482
 30
0.0
 10
57.2863809107
 20
63.1979314997
 30
0.0
 10
57.3041909564
 20
63.2446782186
 30
0.0
  0
SPLINE
  5
285
100
AcDbEntity
  8
0
100
AcDbSpline
 62
7
  6
BYLAYER
 70
0
 71
3
 72
18
 73
14
 74
0
 42
0.0000001
 43
0.0000001
 44
0.0000000001
 40
0.0
 40
0.0
 40
0.0
 40
0.0
 40
0.0455255893
 40
0.0950547042
 40
0.1496557409
 40
0.2096266194
 40
0.3437246024
 40
0.4904441347
 40
0.6390447426
 40
0.7783255719
 40
0.8416873736
 40
0.8998160547
 40
1.0
 40
1.0
 40
1.0
 40
1.0
 10
64.4880668983
 20
60.0590565001
 30
0.0
 10
64.4592112065
 20
59.9488398649
 30
0.0
 10
64.3645928183
 20
59.72689431
 30
0.0
 10
64.1358696902
 20
59.4266455808
 30
0.0
 10
63.8245456797
 20
59.1551976914
 30
0.0
 10
63.2921921488
 20
58.8285939524
 30
0.0
 10
62.478399082
 20
58.5431314541
 30
0.0
 10
61.4060574052
 20
58.4059551297
 30
0.0
 10
60.3141360318
 20
58.4758375436
 30
0.0
 10
59.4578632185
 20
58.7074222233
 30
0.0
 10
58.8698844771
 20
58.9963837199
 30
0.0
 10
58.412961628
 20
59.3111252392
 30
0.0
 10
58.1431311126
 20
59.6232553501
 30
0.0
 10
58.0375825952
 20
59.8506737588
 30
0.0
  0
SPLINE
  5
286
100
AcDbEntity
  8
0
100
AcDbSpline
 62
7
  6
BYLAYER
 70
0
 71
3
 72
9
 73
5
 74
0
 42
0.0000001
 43
0.0000001
 44
0.0000000001
 40
0.0
 40
0.0
 40
0.0
 40
0.0
 40
0.2451867124
 40
1.0
 40
1.0
 40
1.0
 40
1.0
 10
57.2331394196
 20
63.4402192774
 30
0.0
 10
57.2380424729
 20
63.4072226541
 30
0.0
 10
57.2635502421
 20
63.2734896649
 30
0.0
 10
57.3110435704
 20
63.1442133179
 30
0.0
 10
57.3565568633
 20
63.0521532524
 30
0.0
  0
SPLINE
  5
287
100
AcDbEntity
  8
0
100
AcDbSpline
 62
7
  6
BYLAYER
 70
0
 71
3
 72
9
 73
5
 74
0
 42
0.0000001
 43
0.0000001
 44
0.0000000001
 40
0.0
 40
0.0
 40
0.0
 40
0.0
 40
0.523327527
 40
1.0
 40
1.0
 40
1.0
 40
1.0
 10
60.007893329
 20
62.6136873892
 30
0.0
 10
59.5334568492
 20
62.6770842024
 30
0.0
 10
58.6347158118
 20
62.8706415507
 30
0.0
 10
57.7843044102
 20
63.2286565042
 30
0.0
 10
57.4067174374
 20
63.4466189375
 30
0.0
  0
SPLINE
  5
288
100
AcDbEntity
  8
0
100
AcDbSpline
 62
7
  6
BYLAYER
 70
0
 71
3
 72
10
 73
6
 74
0
 42
0.0000001
 43
0.0000001
 44
0.0000000001
 40
0.0
 40
0.0
 40
0.0
 40
0.0
 40
0.278252396
 40
0.5372645643
 40
1.0
 40
1.0
 40
1.0
 40
1.0
 10
57.0531378201
 20
63.6507422685
 30
0.0
 10
56.8791359906
 20
63.7512199444
 30
0.0
 10
56.5529582969
 20
63.9638222358
 30
0.0
 10
56.0024659874
 20
64.4318424566
 30
0.0
 10
55.6783778853
 20
64.8570590207
 30
0.0
 10
55.5350429645
 20
65.1589009982
 30
0.0
  0
SPLINE
  5
289
100
AcDbEntity
  8
0
100
AcDbSpline
 62
7
  6
BYLAYER
 70
0
 71
3
 72
12
 73
8
 74
0
 42
0.0000001
 43
0.0000001
 44
0.0000000001
 40
0.0
 40
0.0
 40
0.0
 40
0.0
 40
0.2895566129
 40
0.5486538211
 40
0.7816347086
 40
0.8918411347
 40
1.0
 40
1.0
 40
1.0
 40
1.0
 10
111.2177568007
 20
52.2610518753
 30
0.0
 10
111.2177568007
 20
52.562606598
 30
0.0
 10
111.1720101224
 20
53.136024709
 30
0.0
 10
110.9402605261
 20
53.9234613235
 30
0.0
 10
110.6069301177
 20
54.4666505553
 30
0.0
 10
110.2705671396
 20
54.7976683937
 30
0.0
 10
110.0829688525
 20
54.9285258913
 30
0.0
 10
109.9854182866
 20
54.9848444583
 30
0.0
  0
SPLINE
  5
28A
100
AcDbEntity
  8
0
100
AcDbSpline
 62
7
  6
BYLAYER
 70
0
 71
3
 72
17
 73
13
 74
0
 42
0.0000001
 43
0.0000001
 44
0.0000000001
 40
0.0
 40
0.0
 40
0.0
 40
0.0
 40
0.1286933065
 40
0.2702801751
 40
0.4174384432
 40
0.5617797022
 40
0.6954488753
 40
0.8127120148
 40
0.8646745954
 40
0.9125103814
 40
0.9571382807
 40
1.0
 40
1.0
 40
1.0
 40
1.0
 10
104.8891774576
 20
48.6072666981
 30
0.0
 10
104.8891774576
 20
48.8636996915
 30
0.0
 10
104.9609065978
 20
49.4028739209
 30
0.0
 10
105.2286820404
 20
50.1945285035
 30
0.0
 10
105.6412563881
 20
50.9571439661
 30
0.0
 10
106.1655167198
 20
51.6281802318
 30
0.0
 10
106.7585891831
 20
52.1534330795
 30
0.0
 10
107.2953898853
 20
52.446990396
 30
0.0
 10
107.7153150058
 20
52.5586742085
 30
0.0
 10
108.0043259471
 20
52.5799918622
 30
0.0
 10
108.2734347835
 20
52.5404849946
 30
0.0
 10
108.4364983841
 20
52.4727904255
 30
0.0
 10
108.5104565945
 20
52.4300781397
 30
0.0
  0
SPLINE
  5
28B
100
AcDbEntity
  8
0
100
AcDbSpline
 62
7
  6
BYLAYER
 70
0
 71
3
 72
10
 73
6
 74
0
 42
0.0000001
 43
0.0000001
 44
0.0000000001
 40
0.0
 40
0.0
 40
0.0
 40
0.0
 40
0.4760173945
 40
0.7417668224
 40
1.0
 40
1.0
 40
1.0
 40
1.0
 10
56.6588606096
 20
128.6206478996
 30
0.0
 10
56.5306392814
 20
128.5466197231
 30
0.0
 10
56.3453317824
 20
128.4007722375
 30
0.0
 10
56.1577042566
 20
128.1518491961
 30
0.0
 10
56.0945325555
 20
127.9956915598
 30
0.0
 10
56.0860465111
 20
127.915822127
 30
0.0
  0
SPLINE
  5
28C
100
AcDbEntity
  8
0
100
AcDbSpline
 62
7
  6
BYLAYER
 70
0
 71
3
 72
9
 73
5
 74
0
 42
0.0000001
 43
0.0000001
 44
0.0000000001
 40
0.0
 40
0.0
 40
0.0
 40
0.0
 40
0.2538952141
 40
1.0
 40
1.0
 40
1.0
 40
1.0
 10
56.0638773738
 20
123.769354299
 30
0.0
 10
56.0497033933
 20
123.7253926303
 30
0.0
 10
56.0000865059
 20
123.5503156157
 30
0.0
 10
55.9766258192
 20
123.3677271118
 30
0.0
 10
55.9752452463
 20
123.2319982439
 30
0.0
  0
SPLINE
  5
28D
100
AcDbEntity
  8
0
100
AcDbSpline
 62
7
  6
BYLAYER
 70
0
 71
3
 72
11
 73
7
 74
0
 42
0.0000001
 43
0.0000001
 44
0.0000000001
 40
0.0
 40
0.0
 40
0.0
 40
0.0
 40
0.2372444228
 40
0.5000010918
 40
0.7627571666
 40
1.0
 40
1.0
 40
1.0
 40
1.0
 10
14.8951975508
 20
94.2363140197
 30
0.0
 10
14.8951975508
 20
94.1783534409
 30
0.0
 10
14.9169429813
 20
94.0561214287
 30
0.0
 10
14.9927124339
 20
93.8843649144
 30
0.0
 10
15.1035736676
 20
93.7328692033
 30
0.0
 10
15.1985571322
 20
93.6529220374
 30
0.0
 10
15.2487524134
 20
93.6239424339
 30
0.0
  0
SPLINE
  5
28E
100
AcDbEntity
  8
0
100
AcDbSpline
 62
7
  6
BYLAYER
 70
0
 71
3
 72
17
 73
13
 74
0
 42
0.0000001
 43
0.0000001
 44
0.0000000001
 40
0.0
 40
0.0
 40
0.0
 40
0.0
 40
0.042857965
 40
0.0874854797
 40
0.1353180708
 40
0.1872814984
 40
0.3045423159
 40
0.4382097446
 40
0.5825520305
 40
0.7297107839
 40
0.8713099826
 40
1.0
 40
1.0
 40
1.0
 40
1.0
 10
65.2700066354
 20
62.0338020997
 30
0.0
 10
65.21701608
 20
62.0031797798
 30
0.0
 10
65.100166703
 20
61.9546390895
 30
0.0
 10
64.9073100386
 20
61.9263530032
 30
0.0
 10
64.7001905612
 20
61.9416154559
 30
0.0
 10
64.3992442686
 20
62.0216386378
 30
0.0
 10
64.0145303345
 20
62.2320010781
 30
0.0
 10
63.589484808
 20
62.6084189383
 30
0.0
 10
63.2137616788
 20
63.0893265905
 30
0.0
 10
62.9180522759
 20
63.6358767144
 30
0.0
 10
62.7261612473
 20
64.2032509805
 30
0.0
 10
62.6747448245
 20
64.5896710307
 30
0.0
 10
62.6747448245
 20
64.7734438525
 30
0.0
  0
SPLINE
  5
28F
100
AcDbEntity
  8
0
100
AcDbSpline
 62
7
  6
BYLAYER
 70
0
 71
3
 72
17
 73
13
 74
0
 42
0.0000001
 43
0.0000001
 44
0.0000000001
 40
0.0
 40
0.0
 40
0.0
 40
0.0
 40
0.042857965
 40
0.0874854797
 40
0.1353180708
 40
0.1872814984
 40
0.3045423159
 40
0.4382097446
 40
0.5825520305
 40
0.7297107839
 40
0.8713099826
 40
1.0
 40
1.0
 40
1.0
 40
1.0
 10
33.0965141412
 20
80.6087564303
 30
0.0
 10
33.0435235858
 20
80.5781341104
 30
0.0
 10
32.9266742088
 20
80.5295934202
 30
0.0
 10
32.7338175444
 20
80.5013073339
 30
0.0
 10
32.526698067
 20
80.5165697866
 30
0.0
 10
32.2257517744
 20
80.5965929685
 30
0.0
 10
31.8410378403
 20
80.8069554088
 30
0.0
 10
31.4159923139
 20
81.183373269
 30
0.0
 10
31.0402691846
 20
81.6642809212
 30
0.0
 10
30.7445597817
 20
82.2108310451
 30
0.0
 10
30.5526687531
 20
82.7782053112
 30
0.0
 10
30.5012523303
 20
83.1646253613
 30
0.0
 10
30.5012523303
 20
83.3483981832
 30
0.0
  0
SPLINE
  5
290
100
AcDbEntity
  8
0
100
AcDbSpline
 62
7
  6
BYLAYER
 70
0
 71
3
 72
9
 73
5
 74
0
 42
0.0000001
 43
0.0000001
 44
0.0000000001
 40
0.0
 40
0.0
 40
0.0
 40
0.0
 40
0.470609941
 40
1.0
 40
1.0
 40
1.0
 40
1.0
 10
64.0323380361
 20
60.3290544234
 30
0.0
 10
63.8424625135
 20
60.1756358992
 30
0.0
 10
63.3917268257
 20
59.9074893251
 30
0.0
 10
62.8987234845
 20
59.7370332543
 30
0.0
 10
62.632828515
 20
59.6684383209
 30
0.0
  0
SPLINE
  5
291
100
AcDbEntity
  8
0
100
AcDbSpline
 62
7
  6
BYLAYER
 70
0
 71
3
 72
9
 73
5
 74
0
 42
0.0000001
 43
0.0000001
 44
0.0000000001
 40
0.0
 40
0.0
 40
0.0
 40
0.0
 40
0.4999975002
 40
1.0
 40
1.0
 40
1.0
 40
1.0
 10
62.632828515
 20
59.6684383209
 30
0.0
 10
62.1750870508
 20
59.5503512984
 30
0.0
 10
61.2252784677
 20
59.43980208
 30
0.0
 10
60.2754644529
 20
59.5503017936
 30
0.0
 10
59.8177118125
 20
59.668364414
 30
0.0
  0
SPLINE
  5
292
100
AcDbEntity
  8
0
100
AcDbSpline
 62
7
  6
BYLAYER
 70
0
 71
3
 72
11
 73
7
 74
0
 42
0.0000001
 43
0.0000001
 44
0.0000000001
 40
0.0
 40
0.0
 40
0.0
 40
0.0
 40
0.2923181907
 40
0.4291961811
 40
0.5588915522
 40
1.0
 40
1.0
 40
1.0
 40
1.0
 10
59.8177118125
 20
59.668364414
 30
0.0
 10
59.5929115382
 20
59.7263444388
 30
0.0
 10
59.2679003711
 20
59.8343567688
 30
0.0
 10
58.8670864623
 20
60.0274535555
 30
0.0
 10
58.3868793947
 20
60.3156598082
 30
0.0
 10
58.0401753556
 20
60.6535941545
 30
0.0
 10
57.8926938829
 20
60.9713627281
 30
0.0
  0
SPLINE
  5
293
100
AcDbEntity
  8
0
100
AcDbSpline
 62
7
  6
BYLAYER
 70
0
 71
3
 72
12
 73
8
 74
0
 42
0.0000001
 43
0.0000001
 44
0.0000000001
 40
0.0
 40
0.0
 40
0.0
 40
0.0
 40
0.141749196
 40
0.2779975402
 40
0.5296430308
 40
0.7671791786
 40
1.0
 40
1.0
 40
1.0
 40
1.0
 10
20.7531250147
 20
108.7237910807
 30
0.0
 10
20.7313982711
 20
108.7614226957
 30
0.0
 10
20.7009181585
 20
108.8428500931
 30
0.0
 10
20.6910244262
 20
109.0068887328
 30
0.0
 10
20.7550290003
 20
109.1950841469
 30
0.0
 10
20.8979479771
 20
109.3678397106
 30
0.0
 10
21.0160805012
 20
109.452957003
 30
0.0
 10
21.0778900139
 20
109.4886425288
 30
0.0
  0
SPLINE
  5
294
100
AcDbEntity
  8
0
100
AcDbSpline
 62
7
  6
BYLAYER
 70
0
 71
3
 72
17
 73
13
 74
0
 42
0.0000001
 43
0.0000001
 44
0.0000000001
 40
0.0
 40
0.0
 40
0.0
 40
0.0
 40
0.042857965
 40
0.0874854797
 40
0.1353180708
 40
0.1872814984
 40
0.3045423159
 40
0.4382097446
 40
0.5825520305
 40
0.7297107839
 40
0.8713099826
 40
1.0
 40
1.0
 40
1.0
 40
1.0
 10
38.7533919423
 20
77.3428303942
 30
0.0
 10
38.700401387
 20
77.3122080743
 30
0.0
 10
38.58355201
 20
77.2636673841
 30
0.0
 10
38.3906953456
 20
77.2353812977
 30
0.0
 10
38.1835758682
 20
77.2506437504
 30
0.0
 10
37.8826295756
 20
77.3306669323
 30
0.0
 10
37.4979156415
 20
77.5410293726
 30
0.0
 10
37.072870115
 20
77.9174472328
 30
0.0
 10
36.6971469858
 20
78.398354885
 30
0.0
 10
36.4014375829
 20
78.9449050089
 30
0.0
 10
36.2095465543
 20
79.512279275
 30
0.0
 10
36.1581301315
 20
79.8986993252
 30
0.0
 10
36.1581301315
 20
80.082472147
 30
0.0
  0
SPLINE
  5
295
100
AcDbEntity
  8
0
100
AcDbSpline
 62
7
  6
BYLAYER
 70
0
 71
3
 72
9
 73
5
 74
0
 42
0.0000001
 43
0.0000001
 44
0.0000000001
 40
0.0
 40
0.0
 40
0.0
 40
0.0
 40
0.2483158161
 40
1.0
 40
1.0
 40
1.0
 40
1.0
 10
57.7756134202
 20
61.7809134095
 30
0.0
 10
57.7762909079
 20
61.7574147057
 30
0.0
 10
57.7819186965
 20
61.6628817455
 30
0.0
 10
57.7992005921
 20
61.5690947317
 30
0.0
 10
57.8180872935
 20
61.5004835739
 30
0.0
  0
SPLINE
  5
296
100
AcDbEntity
  8
0
100
AcDbSpline
 62
7
  6
BYLAYER
 70
0
 71
3
 72
14
 73
10
 74
0
 42
0.0000001
 43
0.0000001
 44
0.0000000001
 40
0.0
 40
0.0
 40
0.0
 40
0.0
 40
0.1256246785
 40
0.2512898499
 40
0.3772385045
 40
0.5032002846
 40
0.6288961771
 40
0.7539563232
 40
1.0
 40
1.0
 40
1.0
 40
1.0
 10
22.5031323007
 20
105.6927063741
 30
0.0
 10
22.5537494125
 20
105.6050354514
 30
0.0
 10
22.6986350891
 20
105.4523348106
 30
0.0
 10
22.984001633
 20
105.3306867116
 30
0.0
 10
23.2902748605
 20
105.3017219401
 30
0.0
 10
23.5939939626
 20
105.337404286
 30
0.0
 10
23.8874656625
 20
105.4181950649
 30
0.0
 10
24.2605780636
 20
105.5646720881
 30
0.0
 10
24.5253548444
 20
105.7055406058
 30
0.0
 10
24.6970639463
 20
105.804677001
 30
0.0
  0
SPLINE
  5
297
100
AcDbEntity
  8
0
100
AcDbSpline
 62
7
  6
BYLAYER
 70
0
 71
3
 72
15
 73
11
 74
0
 42
0.0000001
 43
0.0000001
 44
0.0000000001
 40
0.0
 40
0.0
 40
0.0
 40
0.0
 40
0.1117430776
 40
0.2136303383
 40
0.3082527761
 40
0.4022200639
 40
0.5063169245
 40
0.6359658733
 40
0.8026063888
 40
1.0
 40
1.0
 40
1.0
 40
1.0
 10
27.1465434909
 20
107.2188762338
 30
0.0
 10
27.1949910802
 20
107.246846969
 30
0.0
 10
27.2862792217
 20
107.3027810235
 30
0.0
 10
27.4087703353
 20
107.3974859771
 30
0.0
 10
27.506497994
 20
107.5067060078
 30
0.0
 10
27.5731516435
 20
107.6398940478
 30
0.0
 10
27.5933672565
 20
107.8056201444
 30
0.0
 10
27.5605669258
 20
108.0052911788
 30
0.0
 10
27.4729205917
 20
108.2373366718
 30
0.0
 10
27.389877839
 20
108.3999441461
 30
0.0
 10
27.3404668098
 20
108.4855260842
 30
0.0
  0
SPLINE
  5
298
100
AcDbEntity
  8
0
100
AcDbSpline
 62
7
  6
BYLAYER
 70
0
 71
3
 72
9
 73
5
 74
0
 42
0.0000001
 43
0.0000001
 44
0.0000000001
 40
0.0
 40
0.0
 40
0.0
 40
0.0
 40
0.239752233
 40
1.0
 40
1.0
 40
1.0
 40
1.0
 10
63.6634450481
 20
60.5297064105
 30
0.0
 10
63.6189090248
 20
60.501504905
 30
0.0
 10
63.4299401938
 20
60.3889686783
 30
0.0
 10
63.229523325
 20
60.2961396472
 30
0.0
 10
63.0738230723
 20
60.2353262075
 30
0.0
  0
SPLINE
  5
299
100
AcDbEntity
  8
0
100
AcDbSpline
 62
7
  6
BYLAYER
 70
0
 71
3
 72
11
 73
7
 74
0
 42
0.0000001
 43
0.0000001
 44
0.0000000001
 40
0.0
 40
0.0
 40
0.0
 40
0.0
 40
0.242634437
 40
0.4999763848
 40
0.7573310479
 40
1.0
 40
1.0
 40
1.0
 40
1.0
 10
63.0738230723
 20
60.2353262075
 30
0.0
 10
62.7898394452
 20
60.1244078185
 30
0.0
 10
62.1782517161
 20
59.961082751
 30
0.0
 10
61.2257055487
 20
59.881147565
 30
0.0
 10
60.2731005451
 20
59.9608950837
 30
0.0
 10
59.6614200957
 20
60.1241023055
 30
0.0
 10
59.3773711534
 20
60.2349726542
 30
0.0
  0
SPLINE
  5
29A
100
AcDbEntity
  8
0
100
AcDbSpline
 62
7
  6
BYLAYER
 70
0
 71
3
 72
9
 73
5
 74
0
 42
0.0000001
 43
0.0000001
 44
0.0000000001
 40
0.0
 40
0.0
 40
0.0
 40
0.0
 40
0.5294756756
 40
1.0
 40
1.0
 40
1.0
 40
1.0
 10
59.3773711534
 20
60.2349726542
 30
0.0
 10
59.1789270611
 20
60.3124296077
 30
0.0
 10
58.8145737804
 20
60.4882190603
 30
0.0
 10
58.4913836685
 20
60.7350674581
 30
0.0
 10
58.3583982574
 20
60.8697968345
 30
0.0
  0
SPLINE
  5
29B
100
AcDbEntity
  8
0
100
AcDbSpline
 62
7
  6
BYLAYER
 70
0
 71
3
 72
9
 73
5
 74
0
 42
0.0000001
 43
0.0000001
 44
0.0000000001
 40
0.0
 40
0.0
 40
0.0
 40
0.0
 40
0.2594099583
 40
1.0
 40
1.0
 40
1.0
 40
1.0
 10
58.3583982574
 20
60.8697968345
 30
0.0
 10
58.3352937023
 20
60.8932043817
 30
0.0
 10
58.2484878412
 20
60.9856131484
 30
0.0
 10
58.1710425849
 20
61.0870288866
 30
0.0
 10
58.1212332703
 20
61.1666257859
 30
0.0
  0
SPLINE
  5
29C
100
AcDbEntity
  8
0
100
AcDbSpline
 62
7
  6
BYLAYER
 70
0
 71
3
 72
10
 73
6
 74
0
 42
0.0000001
 43
0.0000001
 44
0.0000000001
 40
0.0
 40
0.0
 40
0.0
 40
0.0
 40
0.4622877073
 40
0.7240681004
 40
1.0
 40
1.0
 40
1.0
 40
1.0
 10
58.6655465118
 20
61.1114189349
 30
0.0
 10
58.9207403223
 20
60.9666440248
 30
0.0
 10
59.3530270718
 20
60.7952043135
 30
0.0
 10
59.9718432893
 20
60.6528547707
 30
0.0
 10
60.3109337214
 20
60.6083619391
 30
0.0
 10
60.485439571
 20
60.5936403993
 30
0.0
  0
SPLINE
  5
29D
100
AcDbEntity
  8
0
100
AcDbSpline
 62
7
  6
BYLAYER
 70
0
 71
3
 72
9
 73
5
 74
0
 42
0.0000001
 43
0.0000001
 44
0.0000000001
 40
0.0
 40
0.0
 40
0.0
 40
0.0
 40
0.5133447432
 40
1.0
 40
1.0
 40
1.0
 40
1.0
 10
60.485439571
 20
60.5936403993
 30
0.0
 10
60.9153826915
 20
60.55736984
 30
0.0
 10
61.7621365202
 20
60.5759351995
 30
0.0
 10
62.5891695099
 20
60.767559487
 30
0.0
 10
62.9719826866
 20
60.9116630233
 30
0.0
  0
SPLINE
  5
29E
100
AcDbEntity
  8
0
100
AcDbSpline
 62
7
  6
BYLAYER
 70
0
 71
3
 72
11
 73
7
 74
0
 42
0.0000001
 43
0.0000001
 44
0.0000000001
 40
0.0
 40
0.0
 40
0.0
 40
0.0
 40
0.2253062165
 40
0.477075269
 40
0.7408969485
 40
1.0
 40
1.0
 40
1.0
 40
1.0
 10
58.3120592982
 20
61.3117452503
 30
0.0
 10
58.6179156679
 20
61.1382845282
 30
0.0
 10
59.3195178354
 20
60.8644374149
 30
0.0
 10
60.4662104373
 20
60.6740912877
 30
0.0
 10
61.6807917416
 20
60.6870929946
 30
0.0
 10
62.4887160807
 20
60.8372515417
 30
0.0
 10
62.8764849899
 20
60.9519075581
 30
0.0
  0
SPLINE
  5
29F
100
AcDbEntity
  8
0
100
AcDbSpline
 62
7
  6
BYLAYER
 70
0
 71
3
 72
12
 73
8
 74
0
 42
0.0000001
 43
0.0000001
 44
0.0000000001
 40
0.0
 40
0.0
 40
0.0
 40
0.0
 40
0.2183523487
 40
0.3400128016
 40
0.468866289
 40
0.7368922437
 40
1.0
 40
1.0
 40
1.0
 40
1.0
 10
58.665554361
 20
61.9278946573
 30
0.0
 10
58.8790971442
 20
61.8068448056
 30
0.0
 10
59.2342256607
 20
61.6565924595
 30
0.0
 10
59.743124514
 20
61.5181942484
 30
0.0
 10
60.3171279422
 20
61.4125694014
 30
0.0
 10
61.0606996031
 20
61.3680348263
 30
0.0
 10
61.6581261672
 20
61.4167266094
 30
0.0
 10
61.9502520509
 20
61.4630692963
 30
0.0
  0
SPLINE
  5
2A0
100
AcDbEntity
  8
0
100
AcDbSpline
 62
7
  6
BYLAYER
 70
0
 71
3
 72
11
 73
7
 74
0
 42
0.0000001
 43
0.0000001
 44
0.0000000001
 40
0.0
 40
0.0
 40
0.0
 40
0.0
 40
0.2670851697
 40
0.5289370431
 40
0.7758831382
 40
1.0
 40
1.0
 40
1.0
 40
1.0
 10
61.8097065369
 20
61.5530151104
 30
0.0
 10
61.4916826494
 20
61.5159507086
 30
0.0
 10
60.8560466853
 20
61.4859299305
 30
0.0
 10
59.926535313
 20
61.5673195924
 30
0.0
 10
59.0686635188
 20
61.7717479867
 30
0.0
 10
58.545758135
 20
61.9957074108
 30
0.0
 10
58.312057492
 20
62.1282438528
 30
0.0
  0
SPLINE
  5
2A1
100
AcDbEntity
  8
0
100
AcDbSpline
 62
7
  6
BYLAYER
 70
0
 71
3
 72
9
 73
5
 74
0
 42
0.0000001
 43
0.0000001
 44
0.0000000001
 40
0.0
 40
0.0
 40
0.0
 40
0.0
 40
0.4615789152
 40
1.0
 40
1.0
 40
1.0
 40
1.0
 10
58.665554361
 20
62.7443970744
 30
0.0
 10
58.9465169714
 20
62.5851293071
 30
0.0
 10
59.6084765354
 20
62.3330310601
 30
0.0
 10
60.3060904274
 20
62.2325234646
 30
0.0
 10
60.6823324793
 20
62.2133388926
 30
0.0
  0
SPLINE
  5
2A2
100
AcDbEntity
  8
0
100
AcDbSpline
 62
7
  6
BYLAYER
 70
0
 71
3
 72
9
 73
5
 74
0
 42
0.0000001
 43
0.0000001
 44
0.0000000001
 40
0.0
 40
0.0
 40
0.0
 40
0.0
 40
0.4725587314
 40
1.0
 40
1.0
 40
1.0
 40
1.0
 10
58.3118880281
 20
62.944654164
 30
0.0
 10
58.61005057
 20
62.7754420367
 30
0.0
 10
59.2925087018
 20
62.5068109158
 30
0.0
 10
60.01153475
 20
62.382556407
 30
0.0
 10
60.39267083
 20
62.348574636
 30
0.0
  0
SPLINE
  5
2A3
100
AcDbEntity
  8
0
100
AcDbSpline
 62
7
  6
BYLAYER
 70
0
 71
3
 72
11
 73
7
 74
0
 42
0.0000001
 43
0.0000001
 44
0.0000000001
 40
0.0
 40
0.0
 40
0.0
 40
0.0
 40
0.2372428334
 40
0.4999989082
 40
0.7627555772
 40
1.0
 40
1.0
 40
1.0
 40
1.0
 10
39.4319038358
 20
87.9904297822
 30
0.0
 10
39.482099117
 20
87.9614501787
 30
0.0
 10
39.5770825816
 20
87.8815030128
 30
0.0
 10
39.6879438153
 20
87.7300073017
 30
0.0
 10
39.7637132679
 20
87.5582507874
 30
0.0
 10
39.7854586984
 20
87.4360187752
 30
0.0
 10
39.7854586984
 20
87.3780581964
 30
0.0
  0
SPLINE
  5
2A4
100
AcDbEntity
  8
0
100
AcDbSpline
 62
7
  6
BYLAYER
 70
0
 71
3
 72
11
 73
7
 74
0
 42
0.0000001
 43
0.0000001
 44
0.0000000001
 40
0.0
 40
0.0
 40
0.0
 40
0.0
 40
0.2177796362
 40
0.4509239467
 40
0.7102593534
 40
1.0
 40
1.0
 40
1.0
 40
1.0
 10
66.375103456
 20
123.2144770037
 30
0.0
 10
66.3751382059
 20
123.0183253926
 30
0.0
 10
66.3026002106
 20
122.60946375
 30
0.0
 10
65.9926904141
 20
122.0398424331
 30
0.0
 10
65.5027541889
 20
121.5248439905
 30
0.0
 10
65.0927529329
 20
121.2425195644
 30
0.0
 10
64.8667493505
 20
121.1120371141
 30
0.0
  0
SPLINE
  5
2A5
100
AcDbEntity
  8
0
100
AcDbSpline
 62
7
  6
BYLAYER
 70
0
 71
3
 72
17
 73
13
 74
0
 42
0.0000001
 43
0.0000001
 44
0.0000000001
 40
0.0
 40
0.0
 40
0.0
 40
0.0
 40
0.042857965
 40
0.0874854797
 40
0.1353180708
 40
0.1872814984
 40
0.3045423159
 40
0.4382097446
 40
0.5825520305
 40
0.7297107839
 40
0.8713099826
 40
1.0
 40
1.0
 40
1.0
 40
1.0
 10
18.6007647757
 20
88.977691898
 30
0.0
 10
18.5477742203
 20
88.9470695781
 30
0.0
 10
18.4309248433
 20
88.8985288879
 30
0.0
 10
18.2380681789
 20
88.8702428016
 30
0.0
 10
18.0309487015
 20
88.8855052543
 30
0.0
 10
17.7300024089
 20
88.9655284361
 30
0.0
 10
17.3452884748
 20
89.1758908765
 30
0.0
 10
16.9202429483
 20
89.5523087366
 30
0.0
 10
16.5445198191
 20
90.0332163889
 30
0.0
 10
16.2488104162
 20
90.5797665127
 30
0.0
 10
16.0569193876
 20
91.1471407788
 30
0.0
 10
16.0055029648
 20
91.533560829
 30
0.0
 10
16.0055029648
 20
91.7173336508
 30
0.0
  0
SPLINE
  5
2A6
100
AcDbEntity
  8
0
100
AcDbSpline
 62
7
  6
BYLAYER
 70
0
 71
3
 72
11
 73
7
 74
0
 42
0.0000001
 43
0.0000001
 44
0.0000000001
 40
0.0
 40
0.0
 40
0.0
 40
0.0
 40
0.2896174318
 40
0.5491494224
 40
0.782279962
 40
1.0
 40
1.0
 40
1.0
 40
1.0
 10
16.0055029648
 20
91.7173336508
 30
0.0
 10
16.0055029648
 20
91.8262371653
 30
0.0
 10
16.02208017
 20
92.0334260082
 30
0.0
 10
16.1059288776
 20
92.3181021443
 30
0.0
 10
16.2471941989
 20
92.5491347678
 30
0.0
 10
16.3799153165
 20
92.6606020352
 30
0.0
 10
16.4508049702
 20
92.7015540825
 30
0.0
  0
SPLINE
  5
2A7
100
AcDbEntity
  8
0
100
AcDbSpline
 62
7
  6
BYLAYER
 70
0
 71
3
 72
11
 73
7
 74
0
 42
0.0000001
 43
0.0000001
 44
0.0000000001
 40
0.0
 40
0.0
 40
0.0
 40
0.0
 40
0.2896174318
 40
0.5491494224
 40
0.782279962
 40
1.0
 40
1.0
 40
1.0
 40
1.0
 10
30.5012523303
 20
83.3483981832
 30
0.0
 10
30.5012523303
 20
83.4573016976
 30
0.0
 10
30.5178295356
 20
83.6644905406
 30
0.0
 10
30.6016782431
 20
83.9491666766
 30
0.0
 10
30.7429435644
 20
84.1801993001
 30
0.0
 10
30.875664682
 20
84.2916665676
 30
0.0
 10
30.9465543357
 20
84.3326186148
 30
0.0
  0
SPLINE
  5
2A8
100
AcDbEntity
  8
0
100
AcDbSpline
 62
7
  6
BYLAYER
 70
0
 71
3
 72
11
 73
7
 74
0
 42
0.0000001
 43
0.0000001
 44
0.0000000001
 40
0.0
 40
0.0
 40
0.0
 40
0.0
 40
0.2896174318
 40
0.5491494224
 40
0.782279962
 40
1.0
 40
1.0
 40
1.0
 40
1.0
 10
36.1581301315
 20
80.082472147
 30
0.0
 10
36.1581301315
 20
80.1913756615
 30
0.0
 10
36.1747073367
 20
80.3985645044
 30
0.0
 10
36.2585560443
 20
80.6832406405
 30
0.0
 10
36.3998213656
 20
80.914273264
 30
0.0
 10
36.5325424831
 20
81.0257405314
 30
0.0
 10
36.6034321369
 20
81.0666925787
 30
0.0
  0
SPLINE
  5
2A9
100
AcDbEntity
  8
0
100
AcDbSpline
 62
7
  6
BYLAYER
 70
0
 71
3
 72
9
 73
5
 74
0
 42
0.0000001
 43
0.0000001
 44
0.0000000001
 40
0.0
 40
0.0
 40
0.0
 40
0.0
 40
0.5172950571
 40
1.0
 40
1.0
 40
1.0
 40
1.0
 10
59.562791082
 20
62.7909936659
 30
0.0
 10
59.1752997433
 20
62.8567049141
 30
0.0
 10
58.4331807482
 20
63.0303318355
 30
0.0
 10
57.7218497507
 20
63.3071319372
 30
0.0
 10
57.3929331763
 20
63.4693491024
 30
0.0
  0
SPLINE
  5
2AA
100
AcDbEntity
  8
0
100
AcDbSpline
 62
7
  6
BYLAYER
 70
0
 71
3
 72
9
 73
5
 74
0
 42
0.0000001
 43
0.0000001
 44
0.0000000001
 40
0.0
 40
0.0
 40
0.0
 40
0.0
 40
0.2544016052
 40
1.0
 40
1.0
 40
1.0
 40
1.0
 10
60.2747857972
 20
62.4734483542
 30
0.0
 10
60.2152046638
 20
62.4835703319
 30
0.0
 10
59.9816105197
 20
62.5268208952
 30
0.0
 10
59.7505447825
 20
62.5839574114
 30
0.0
 10
59.580878661
 20
62.6348059493
 30
0.0
  0
SPLINE
  5
2AB
100
AcDbEntity
  8
0
100
AcDbSpline
 62
7
  6
BYLAYER
 70
0
 71
3
 72
11
 73
7
 74
0
 42
0.0000001
 43
0.0000001
 44
0.0000000001
 40
0.0
 40
0.0
 40
0.0
 40
0.0
 40
0.2178358594
 40
0.4509760769
 40
0.7102319209
 40
1.0
 40
1.0
 40
1.0
 40
1.0
 10
56.0751685093
 20
127.7052402969
 30
0.0
 10
56.0752172915
 20
127.5090332156
 30
0.0
 10
56.1475202391
 20
127.1000787754
 30
0.0
 10
56.4576948779
 20
126.5305701255
 30
0.0
 10
56.9474852692
 20
126.0155257051
 30
0.0
 10
57.3575180146
 20
125.7332792909
 30
0.0
 10
57.5835495043
 20
125.6027829017
 30
0.0
  0
SPLINE
  5
2AC
100
AcDbEntity
  8
0
100
AcDbSpline
 62
7
  6
BYLAYER
 70
0
 71
3
 72
11
 73
7
 74
0
 42
0.0000001
 43
0.0000001
 44
0.0000000001
 40
0.0
 40
0.0
 40
0.0
 40
0.0
 40
0.2896413964
 40
0.5491107671
 40
0.7822355978
 40
1.0
 40
1.0
 40
1.0
 40
1.0
 10
62.6747448245
 20
64.7734438525
 30
0.0
 10
62.6747448245
 20
64.8823568667
 30
0.0
 10
62.691299643
 20
65.0895351992
 30
0.0
 10
62.7751525985
 20
65.3741915693
 30
0.0
 10
62.9164025898
 20
65.6052306942
 30
0.0
 10
63.0491564157
 20
65.7166793998
 30
0.0
 10
63.1200548318
 20
65.7576503609
 30
0.0
  0
SPLINE
  5
2AD
100
AcDbEntity
  8
0
100
AcDbSpline
 62
7
  6
BYLAYER
 70
0
 71
3
 72
18
 73
14
 74
0
 42
0.0000001
 43
0.0000001
 44
0.0000000001
 40
0.0
 40
0.0
 40
0.0
 40
0.0
 40
0.0428462721
 40
0.0874635218
 40
0.1352850893
 40
0.1872347748
 40
0.2437273234
 40
0.3047339998
 40
0.4383676378
 40
0.5826733807
 40
0.729790074
 40
0.8713405342
 40
1.0
 40
1.0
 40
1.0
 40
1.0
 10
109.9854182866
 20
54.9848444583
 30
0.0
 10
109.8387357231
 20
55.0695282499
 30
0.0
 10
109.515403126
 20
55.2039387246
 30
0.0
 10
108.9816421146
 20
55.2821669028
 30
0.0
 10
108.4084717657
 20
55.23992907
 30
0.0
 10
107.8086017108
 20
55.0805982927
 30
0.0
 10
107.1937861865
 20
54.8088873369
 30
0.0
 10
106.3450839371
 20
54.2893806941
 30
0.0
 10
105.3340211143
 20
53.3939538351
 30
0.0
 10
104.2949940543
 20
52.0637207825
 30
0.0
 10
103.4765226709
 20
50.5509945822
 30
0.0
 10
102.9455121835
 20
48.9809205201
 30
0.0
 10
102.8032211378
 20
47.911541542
 30
0.0
 10
102.8032211378
 20
47.4029464442
 30
0.0
  0
SPLINE
  5
2AE
100
AcDbEntity
  8
0
100
AcDbSpline
 62
7
  6
BYLAYER
 70
0
 71
3
 72
18
 73
14
 74
0
 42
0.0000001
 43
0.0000001
 44
0.0000000001
 40
0.0
 40
0.0
 40
0.0
 40
0.0
 40
0.1286579521
 40
0.2702049237
 40
0.4173189354
 40
0.5616261078
 40
0.6952626525
 40
0.7562699978
 40
0.8127631344
 40
0.864712974
 40
0.9125346127
 40
0.9571525917
 40
1.0
 40
1.0
 40
1.0
 40
1.0
 10
67.4477348805
 20
67.8149841702
 30
0.0
 10
67.4477348805
 20
68.3235732612
 30
0.0
 10
67.5900217114
 20
69.3929322869
 30
0.0
 10
68.1210118959
 20
70.9629803797
 30
0.0
 10
68.9394635359
 20
72.4756963097
 30
0.0
 10
69.9784885552
 20
73.8059380209
 30
0.0
 10
70.9895546425
 20
74.7013926973
 30
0.0
 10
71.8382721238
 20
75.2209057767
 30
0.0
 10
72.453087854
 20
75.4926288436
 30
0.0
 10
73.0529613657
 20
75.6519641641
 30
0.0
 10
73.6261342568
 20
75.6941958456
 30
0.0
 10
74.1599069594
 20
75.6159865584
 30
0.0
 10
74.4832424591
 20
75.4815628041
 30
0.0
 10
74.6299303632
 20
75.3968792954
 30
0.0
  0
SPLINE
  5
2AF
100
AcDbEntity
  8
0
100
AcDbSpline
 62
7
  6
BYLAYER
 70
0
 71
3
 72
9
 73
5
 74
0
 42
0.0000001
 43
0.0000001
 44
0.0000000001
 40
0.0
 40
0.0
 40
0.0
 40
0.0
 40
0.2482683031
 40
1.0
 40
1.0
 40
1.0
 40
1.0
 10
24.765692443
 20
111.6177835446
 30
0.0
 10
24.7942812512
 20
111.6342892022
 30
0.0
 10
24.9122546396
 20
111.6953466089
 30
0.0
 10
25.0447068186
 20
111.731924315
 30
0.0
 10
25.1445706995
 20
111.7362011995
 30
0.0
  0
SPLINE
  5
2B0
100
AcDbEntity
  8
0
100
AcDbSpline
 62
7
  6
BYLAYER
 70
0
 71
3
 72
10
 73
6
 74
0
 42
0.0000001
 43
0.0000001
 44
0.0000000001
 40
0.0
 40
0.0
 40
0.0
 40
0.0
 40
0.4737172853
 40
0.7309654523
 40
1.0
 40
1.0
 40
1.0
 40
1.0
 10
25.1445706995
 20
111.7362011995
 30
0.0
 10
25.226567475
 20
111.7397128871
 30
0.0
 10
25.3575754378
 20
111.7202596117
 30
0.0
 10
25.5069908701
 20
111.6283349246
 30
0.0
 10
25.5671541901
 20
111.5569765889
 30
0.0
 10
25.5904595238
 20
111.5166107908
 30
0.0
  0
SPLINE
  5
2B1
100
AcDbEntity
  8
0
100
AcDbSpline
 62
7
  6
BYLAYER
 70
0
 71
3
 72
11
 73
7
 74
0
 42
0.0000001
 43
0.0000001
 44
0.0000000001
 40
0.0
 40
0.0
 40
0.0
 40
0.0
 40
0.218958736
 40
0.452806462
 40
0.7117691993
 40
1.0
 40
1.0
 40
1.0
 40
1.0
 10
55.975301116
 20
123.1916241809
 30
0.0
 10
55.9777954285
 20
122.9989219818
 30
0.0
 10
56.0513881336
 20
122.598842299
 30
0.0
 10
56.3511518163
 20
122.0396727873
 30
0.0
 10
56.8220876721
 20
121.5308888555
 30
0.0
 10
57.2163126502
 20
121.2489249811
 30
0.0
 10
57.4335786403
 20
121.1179537739
 30
0.0
  0
SPLINE
  5
2B2
100
AcDbEntity
  8
0
100
AcDbSpline
 62
7
  6
BYLAYER
 70
0
 71
3
 72
12
 73
8
 74
0
 42
0.0000001
 43
0.0000001
 44
0.0000000001
 40
0.0
 40
0.0
 40
0.0
 40
0.0
 40
0.108158953
 40
0.2183662792
 40
0.4513476202
 40
0.7104475609
 40
1.0
 40
1.0
 40
1.0
 40
1.0
 10
68.6800750606
 20
65.0911944761
 30
0.0
 10
68.5825235195
 20
65.1475113677
 30
0.0
 10
68.3949239708
 20
65.2783693479
 30
0.0
 10
68.0585653058
 20
65.609392818
 30
0.0
 10
67.7252271311
 20
66.1525809583
 30
0.0
 10
67.4934828842
 20
66.9400185585
 30
0.0
 10
67.4477348805
 20
67.5134340205
 30
0.0
 10
67.4477348805
 20
67.8149841702
 30
0.0
  0
SPLINE
  5
2B3
100
AcDbEntity
  8
0
100
AcDbSpline
 62
7
  6
BYLAYER
 70
0
 71
3
 72
9
 73
5
 74
0
 42
0.0000001
 43
0.0000001
 44
0.0000000001
 40
0.0
 40
0.0
 40
0.0
 40
0.0
 40
0.2460358021
 40
1.0
 40
1.0
 40
1.0
 40
1.0
 10
57.8926938829
 20
61.297963695
 30
0.0
 10
57.8989901537
 20
61.2843975369
 30
0.0
 10
57.9254806186
 20
61.2296788836
 30
0.0
 10
57.9554830866
 20
61.1766742382
 30
0.0
 10
57.9797782821
 20
61.1378113648
 30
0.0
  0
SPLINE
  5
2B4
100
AcDbEntity
  8
0
100
AcDbSpline
 62
7
  6
BYLAYER
 70
0
 71
3
 72
9
 73
5
 74
0
 42
0.0000001
 43
0.0000001
 44
0.0000000001
 40
0.0
 40
0.0
 40
0.0
 40
0.0
 40
0.2414408307
 40
1.0
 40
1.0
 40
1.0
 40
1.0
 10
58.0193186854
 20
61.077614757
 30
0.0
 10
58.0370584388
 20
61.0518647296
 30
0.0
 10
58.1135373593
 20
60.9472944874
 30
0.0
 10
58.2013654573
 20
60.8511926789
 30
0.0
 10
58.2723929517
 20
60.7833214041
 30
0.0
  0
SPLINE
  5
2B5
100
AcDbEntity
  8
0
100
AcDbSpline
 62
7
  6
BYLAYER
 70
0
 71
3
 72
15
 73
11
 74
0
 42
0.0000001
 43
0.0000001
 44
0.0000000001
 40
0.0
 40
0.0
 40
0.0
 40
0.0
 40
0.1047538395
 40
0.2224653152
 40
0.3507526325
 40
0.4857685825
 40
0.6228660935
 40
0.7571653776
 40
0.8841022923
 40
1.0
 40
1.0
 40
1.0
 40
1.0
 10
58.2723929517
 20
60.7833214041
 30
0.0
 10
58.4194879277
 20
60.6427628272
 30
0.0
 10
58.7734678927
 20
60.3870824165
 30
0.0
 10
59.3965041306
 20
60.1038922994
 30
0.0
 10
60.1135026031
 20
59.9093788002
 30
0.0
 10
60.8876488003
 20
59.8136430545
 30
0.0
 10
61.6792395312
 20
59.821331796
 30
0.0
 10
62.4474586229
 20
59.9321848426
 30
0.0
 10
63.1524089345
 20
60.1403331085
 30
0.0
 10
63.579373717
 20
60.3484115099
 30
0.0
 10
63.7697603755
 20
60.4685033614
 30
0.0
  0
SPLINE
  5
2B6
100
AcDbEntity
  8
0
100
AcDbSpline
 62
7
  6
BYLAYER
 70
0
 71
3
 72
18
 73
14
 74
0
 42
0.0000001
 43
0.0000001
 44
0.0000000001
 40
0.0
 40
0.0
 40
0.0
 40
0.0
 40
0.0428466629
 40
0.0874628838
 40
0.135281812
 40
0.187233497
 40
0.2437231288
 40
0.3047276245
 40
0.4383598305
 40
0.5826663922
 40
0.7297882477
 40
0.871340182
 40
1.0
 40
1.0
 40
1.0
 40
1.0
 10
66.4751126623
 20
81.1646025164
 30
0.0
 10
66.4750888814
 20
81.015154822
 30
0.0
 10
66.4351741888
 20
80.7087823781
 30
0.0
 10
66.2593941927
 20
80.2664496016
 30
0.0
 10
65.9743730513
 20
79.8470270088
 30
0.0
 10
65.5878842425
 20
79.4590298177
 30
0.0
 10
65.1090661145
 20
79.1090668958
 30
0.0
 10
64.337698039
 20
78.6897062387
 30
0.0
 10
63.2074137333
 20
78.3121725427
 30
0.0
 10
61.7325221079
 20
78.1050834435
 30
0.0
 10
60.2154739644
 20
78.1470104726
 30
0.0
 10
58.7814165904
 20
78.4338884266
 30
0.0
 10
57.9014797879
 20
78.7969439921
 30
0.0
 10
57.5128391206
 20
79.0213207099
 30
0.0
  0
SPLINE
  5
2B7
100
AcDbEntity
  8
0
100
AcDbSpline
 62
7
  6
BYLAYER
 70
0
 71
3
 72
11
 73
7
 74
0
 42
0.0000001
 43
0.0000001
 44
0.0000000001
 40
0.0
 40
0.0
 40
0.0
 40
0.0
 40
0.2884852195
 40
0.5473742319
 40
0.7810228081
 40
1.0
 40
1.0
 40
1.0
 40
1.0
 10
57.4335786403
 20
79.0680792917
 30
0.0
 10
57.2142591028
 20
79.2002884082
 30
0.0
 10
56.8166731512
 20
79.4850779667
 30
0.0
 10
56.3432301968
 20
79.9998152881
 30
0.0
 10
56.0447420489
 20
80.5658413342
 30
0.0
 10
55.9751242772
 20
80.9702178346
 30
0.0
 10
55.9751539904
 20
81.1646025185
 30
0.0
  0
SPLINE
  5
2B8
100
AcDbEntity
  8
0
100
AcDbSpline
 62
7
  6
BYLAYER
 70
0
 71
3
 72
11
 73
7
 74
0
 42
0.0000001
 43
0.0000001
 44
0.0000000001
 40
0.0
 40
0.0
 40
0.0
 40
0.0
 40
0.2177830968
 40
0.450915839
 40
0.7103069095
 40
1.0
 40
1.0
 40
1.0
 40
1.0
 10
108.5104565945
 20
52.4300781397
 30
0.0
 10
108.6094091287
 20
52.3729311523
 30
0.0
 10
108.7945748155
 20
52.2172962452
 30
0.0
 10
108.991688034
 20
51.8949916314
 30
0.0
 10
109.1087552816
 20
51.4978094014
 30
0.0
 10
109.1318004809
 20
51.2087310748
 30
0.0
 10
109.1318004809
 20
51.0567316214
 30
0.0
  0
SPLINE
  5
2B9
100
AcDbEntity
  8
0
100
AcDbSpline
 62
7
  6
BYLAYER
 70
0
 71
3
 72
15
 73
11
 74
0
 42
0.0000001
 43
0.0000001
 44
0.0000000001
 40
0.0
 40
0.0
 40
0.0
 40
0.0
 40
0.1141469224
 40
0.2373360366
 40
0.366976904
 40
0.5000005214
 40
0.6330240662
 40
0.7626647219
 40
0.8858535023
 40
1.0
 40
1.0
 40
1.0
 40
1.0
 10
57.9371014229
 20
126.2151561872
 30
0.0
 10
58.162179356
 20
126.0852103217
 30
0.0
 10
58.6544166348
 20
125.8560303731
 30
0.0
 10
59.455934193
 20
125.6123702476
 30
0.0
 10
60.323743875
 20
125.4624802043
 30
0.0
 10
61.2251535005
 20
125.4118486869
 30
0.0
 10
62.1265624053
 20
125.4624844825
 30
0.0
 10
62.9943699585
 20
125.6123786463
 30
0.0
 10
63.795884066
 20
125.856042582
 30
0.0
 10
64.2881183293
 20
126.085224989
 30
0.0
 10
64.5131944879
 20
126.2151719941
 30
0.0
  0
SPLINE
  5
2BA
100
AcDbEntity
  8
0
100
AcDbSpline
 62
7
  6
BYLAYER
 70
0
 71
3
 72
15
 73
11
 74
0
 42
0.0000001
 43
0.0000001
 44
0.0000000001
 40
0.0
 40
0.0
 40
0.0
 40
0.0
 40
0.1461548835
 40
0.2774551274
 40
0.3957773275
 40
0.5059604192
 40
0.6150765507
 40
0.7305540951
 40
0.8579318235
 40
1.0
 40
1.0
 40
1.0
 40
1.0
 10
64.5131944879
 20
126.2151719941
 30
0.0
 10
64.7108278617
 20
126.3292749946
 30
0.0
 10
65.0704354781
 20
126.5756242604
 30
0.0
 10
65.5046067504
 20
127.022284035
 30
0.0
 10
65.7880123098
 20
127.5157650522
 30
0.0
 10
65.9027645795
 20
128.039932436
 30
0.0
 10
65.8373904829
 20
128.5683945507
 30
0.0
 10
65.5988584403
 20
129.0723038353
 30
0.0
 10
65.2046628906
 20
129.5332046235
 30
0.0
 10
64.8676706092
 20
129.7899220378
 30
0.0
 10
64.68096508
 20
129.9097044524
 30
0.0
  0
SPLINE
  5
2BB
100
AcDbEntity
  8
0
100
AcDbSpline
 62
7
  6
BYLAYER
 70
0
 71
3
 72
11
 73
7
 74
0
 42
0.0000001
 43
0.0000001
 44
0.0000000001
 40
0.0
 40
0.0
 40
0.0
 40
0.0
 40
0.227701328
 40
0.4752076213
 40
0.7353783198
 40
1.0
 40
1.0
 40
1.0
 40
1.0
 10
64.513167109
 20
130.0118268182
 30
0.0
 10
64.2528144851
 20
130.1621380752
 30
0.0
 10
63.6770202218
 20
130.4209424711
 30
0.0
 10
62.7369263194
 20
130.6758929451
 30
0.0
 10
61.7225509293
 20
130.8053096543
 30
0.0
 10
61.0274084193
 20
130.8032660223
 30
0.0
 10
60.6788448493
 20
130.7795049514
 30
0.0
  0
SPLINE
  5
2BC
100
AcDbEntity
  8
0
100
AcDbSpline
 62
7
  6
BYLAYER
 70
0
 71
3
 72
11
 73
7
 74
0
 42
0.0000001
 43
0.0000001
 44
0.0000000001
 40
0.0
 40
0.0
 40
0.0
 40
0.0
 40
0.2265537224
 40
0.4568382958
 40
0.7108253893
 40
1.0
 40
1.0
 40
1.0
 40
1.0
 10
56.6588606096
 20
128.6206478996
 30
0.0
 10
56.5944023668
 20
128.4271996443
 30
0.0
 10
56.5357679071
 20
128.0073951335
 30
0.0
 10
56.7108072517
 20
127.3759196769
 30
0.0
 10
57.1225316646
 20
126.8010724256
 30
0.0
 10
57.506620189
 20
126.4904682279
 30
0.0
 10
57.7237417429
 20
126.346954542
 30
0.0
  0
SPLINE
  5
2BD
100
AcDbEntity
  8
0
100
AcDbSpline
 62
7
  6
BYLAYER
 70
0
 71
3
 72
12
 73
8
 74
0
 42
0.0000001
 43
0.0000001
 44
0.0000000001
 40
0.0
 40
0.0
 40
0.0
 40
0.0
 40
0.2895566129
 40
0.5486538211
 40
0.7816347086
 40
0.8918411347
 40
1.0
 40
1.0
 40
1.0
 40
1.0
 10
102.8032211378
 20
47.4029464442
 30
0.0
 10
102.8032211378
 20
47.1013917215
 30
0.0
 10
102.8489678161
 20
46.5279736105
 30
0.0
 10
103.0807174124
 20
45.7405369959
 30
0.0
 10
103.4140478208
 20
45.1973477642
 30
0.0
 10
103.7504107988
 20
44.8663299258
 30
0.0
 10
103.938009086
 20
44.7354724282
 30
0.0
 10
104.0355596519
 20
44.6791538611
 30
0.0
  0
SPLINE
  5
2BE
100
AcDbEntity
  8
0
100
AcDbSpline
 62
7
  6
BYLAYER
 70
0
 71
3
 72
17
 73
13
 74
0
 42
0.0000001
 43
0.0000001
 44
0.0000000001
 40
0.0
 40
0.0
 40
0.0
 40
0.0
 40
0.1286933065
 40
0.2702801751
 40
0.4174384432
 40
0.5617797022
 40
0.6954488753
 40
0.8127120148
 40
0.8646745954
 40
0.9125103814
 40
0.9571382807
 40
1.0
 40
1.0
 40
1.0
 40
1.0
 10
109.1318004809
 20
51.0567316214
 30
0.0
 10
109.1318004809
 20
50.800298628
 30
0.0
 10
109.0600713407
 20
50.2611243986
 30
0.0
 10
108.7922958981
 20
49.4694698159
 30
0.0
 10
108.3797215504
 20
48.7068543534
 30
0.0
 10
107.8554612187
 20
48.0358180877
 30
0.0
 10
107.2623887554
 20
47.5105652399
 30
0.0
 10
106.7255880532
 20
47.2170079234
 30
0.0
 10
106.3056629327
 20
47.105324111
 30
0.0
 10
106.0166519914
 20
47.0840064573
 30
0.0
 10
105.747543155
 20
47.1235133249
 30
0.0
 10
105.5844795544
 20
47.1912078939
 30
0.0
 10
105.510521344
 20
47.2339201797
 30
0.0
  0
SPLINE
  5
2BF
100
AcDbEntity
  8
0
100
AcDbSpline
 62
7
  6
BYLAYER
 70
0
 71
3
 72
15
 73
11
 74
0
 42
0.0000001
 43
0.0000001
 44
0.0000000001
 40
0.0
 40
0.0
 40
0.0
 40
0.0
 40
0.1141447985
 40
0.2373324971
 40
0.3669747555
 40
0.5000005214
 40
0.6330262147
 40
0.7626682613
 40
0.8858556261
 40
1.0
 40
1.0
 40
1.0
 40
1.0
 10
57.5835495043
 20
125.6027829017
 30
0.0
 10
57.8328248883
 20
125.4588669474
 30
0.0
 10
58.3779807985
 20
125.2050430045
 30
0.0
 10
59.2656776181
 20
124.9351811978
 30
0.0
 10
60.2268050508
 20
124.7691668443
 30
0.0
 10
61.2251555688
 20
124.7130898331
 30
0.0
 10
62.2235052886
 20
124.7691715827
 30
0.0
 10
63.1846303634
 20
124.9351904997
 30
0.0
 10
64.0723233613
 20
125.2050565263
 30
0.0
 10
64.6174759317
 20
125.458883192
 30
0.0
 10
64.8667493505
 20
125.6028004083
 30
0.0
  0
SPLINE
  5
2C0
100
AcDbEntity
  8
0
100
AcDbSpline
 62
7
  6
BYLAYER
 70
0
 71
3
 72
12
 73
8
 74
0
 42
0.0000001
 43
0.0000001
 44
0.0000000001
 40
0.0
 40
0.0
 40
0.0
 40
0.0
 40
0.2895533423
 40
0.5486488412
 40
0.7816302656
 40
0.8918380601
 40
1.0
 40
1.0
 40
1.0
 40
1.0
 10
64.8667493505
 20
125.6028004083
 30
0.0
 10
65.0927800329
 20
125.7332985047
 30
0.0
 10
65.5027917599
 20
126.0157332992
 30
0.0
 10
65.9927322306
 20
126.5302045644
 30
0.0
 10
66.2556414029
 20
127.0151198274
 30
0.0
 10
66.3582042329
 20
127.4104962287
 30
0.0
 10
66.375110208
 20
127.6077453708
 30
0.0
 10
66.3751102068
 20
127.7052402941
 30
0.0
  0
SPLINE
  5
2C1
100
AcDbEntity
  8
0
100
AcDbSpline
 62
7
  6
BYLAYER
 70
0
 71
3
 72
18
 73
14
 74
0
 42
0.0000001
 43
0.0000001
 44
0.0000000001
 40
0.0
 40
0.0
 40
0.0
 40
0.0
 40
0.1286581077
 40
0.2702052291
 40
0.4173232676
 40
0.5616307949
 40
0.6952665535
 40
0.756271999
 40
0.8127625007
 40
0.8647145975
 40
0.9125340922
 40
0.9571517374
 40
1.0
 40
1.0
 40
1.0
 40
1.0
 10
64.8667493505
 20
121.1120371141
 30
0.0
 10
64.4855168155
 20
120.8919337212
 30
0.0
 10
63.6223617064
 20
120.5357938075
 30
0.0
 10
62.2156530504
 20
120.2543741056
 30
0.0
 10
60.7275230929
 20
120.2132260117
 30
0.0
 10
59.2807164857
 20
120.4163559804
 30
0.0
 10
58.171930971
 20
120.7866830735
 30
0.0
 10
57.4152376451
 20
121.1980663499
 30
0.0
 10
56.9455225051
 20
121.5413551858
 30
0.0
 10
56.5663871403
 20
121.9219667161
 30
0.0
 10
56.2867887893
 20
122.3334054607
 30
0.0
 10
56.1143294794
 20
122.7673193473
 30
0.0
 10
56.0751910486
 20
123.0678699889
 30
0.0
 10
56.0751650759
 20
123.2144769961
 30
0.0
  0
SPLINE
  5
2C2
100
AcDbEntity
  8
0
100
AcDbSpline
 62
7
  6
BYLAYER
 70
0
 71
3
 72
18
 73
14
 74
0
 42
0.0000001
 43
0.0000001
 44
0.0000000001
 40
0.0
 40
0.0
 40
0.0
 40
0.0
 40
0.1274853803
 40
0.268354653
 40
0.4153160533
 40
0.5598983576
 40
0.6940762256
 40
0.7553904934
 40
0.8121772086
 40
0.8643868294
 40
0.9123996309
 40
0.9571275339
 40
1.0
 40
1.0
 40
1.0
 40
1.0
 10
57.4335786403
 20
121.1179537739
 30
0.0
 10
57.8171009992
 20
120.8867607263
 30
0.0
 10
58.6921074835
 20
120.5103778334
 30
0.0
 10
60.126202852
 20
120.2067444816
 30
0.0
 10
61.6516608913
 20
120.150285685
 30
0.0
 10
63.141090252
 20
120.3463840667
 30
0.0
 10
64.2863982916
 20
120.7179398816
 30
0.0
 10
65.0707371422
 20
121.1348429569
 30
0.0
 10
65.5589102922
 20
121.4842135346
 30
0.0
 10
65.9541838053
 20
121.8725906137
 30
0.0
 10
66.2471613513
 20
122.293301064
 30
0.0
 10
66.4298164328
 20
122.737762117
 30
0.0
 10
66.4734915535
 20
123.0463659004
 30
0.0
 10
66.4750232856
 20
123.1969557558
 30
0.0
  0
SPLINE
  5
2C3
100
AcDbEntity
  8
0
100
AcDbSpline
 62
7
  6
BYLAYER
 70
0
 71
3
 72
11
 73
7
 74
0
 42
0.0000001
 43
0.0000001
 44
0.0000000001
 40
0.0
 40
0.0
 40
0.0
 40
0.0
 40
0.2372444228
 40
0.5000010918
 40
0.7627571666
 40
1.0
 40
1.0
 40
1.0
 40
1.0
 10
39.6440379309
 20
87.2964093656
 30
0.0
 10
39.6440379309
 20
87.3543699444
 30
0.0
 10
39.6222925005
 20
87.4766019566
 30
0.0
 10
39.5465230478
 20
87.6483584709
 30
0.0
 10
39.4356618141
 20
87.7998541821
 30
0.0
 10
39.3406783496
 20
87.879801348
 30
0.0
 10
39.2904830684
 20
87.9087809515
 30
0.0
  0
ELLIPSE
  5
2C4
100
AcDbEntity
  8
0
100
AcDbEllipse
 62
7
  6
BYLAYER
 10
25.3718014287
 20
101.8640655982
 30
0.0
 11
6.4296108189
 21
-1.7227580863
 31
0.0
 40
0.5176304373
 41
5.9429936695
 42
6.8519265921
  0
ELLIPSE
  5
2C5
100
AcDbEntity
  8
0
100
AcDbEllipse
 62
7
  6
BYLAYER
 10
25.3718014287
 20
101.8640655982
 30
0.0
 11
6.4296108189
 21
-1.7227580863
 31
0.0
 40
0.5176304373
 41
-2.8765288059
 42
-0.615129201
  0
ENDSEC
  0
SECTION
  2
OBJECTS
  0
DICTIONARY
  5
C
100
AcDbDictionary
280
0
281
1
  3
ACAD_GROUP
350
D
  3
ACAD_MLINESTYLE
350
17
  3
ACAD_LAYOUT
350
1A
  3
ACAD_PLOTSETTINGS
350
19
  3
ACAD_PLOTSTYLENAME
350
E
  0
DICTIONARY
  5
D
102
{ACAD_REACTORS
330
C
102
}
100
AcDbDictionary
280
0
281
1
  0
ACDBDICTIONARYWDFLT
  5
E
102
{ACAD_REACTORS
330
C
102
}
100
AcDbDictionary
281
1
  3
Normal
350
F
100
AcDbDictionaryWithDefault
340
F
  0
DICTIONARY
  5
17
102
{ACAD_REACTORS
330
C
102
}
100
AcDbDictionary
280
0
281
1
  3
Standard
350
18
  0
DICTIONARY
  5
19
102
{ACAD_REACTORS
330
C
102
}
100
AcDbDictionary
281
1
  0
DICTIONARY
  5
1A
102
{ACAD_REACTORS
330
C
102
}
100
AcDbDictionary
281
1
  3
Model
350
2C6
  3
Layout1
350
2C7
  0
ACDBPLACEHOLDER
  5
F
102
{ACAD_REACTORS
330
E
102
}
  0
MLINESTYLE
  5
18
102
{ACAD_REACTORS
330
17
102
}
100
AcDbMlineStyle
  2
STANDARD
 70
0
  3

 62
256
 51
90.0
 52
90.0
 71
2
 49
0.5
 62
256
  6
BYLAYER
 49
-0.5
 62
256
  6
BYLAYER
  0
LAYOUT
  5
2C6
102
{ACAD_REACTORS
330
1A
102
}
100
AcDbPlotSettings
  1

  2
none_device
  4

  6

 40
0.0
 41
0.0
 42
0.0
 43
0.0
 44
210.0
 45
297.0
 46
0.0
 47
0.0
 48
0.0
 49
0.0
140
0.0
141
0.0
142
1.0
143
1.0
 70
1024
 72
1
 73
0
 74
0
  7

 75
0
147
1.0
148
0.0
149
0.0
100
AcDbLayout
  1
Model
 70
0
 71
0
 10
0.0
 20
0.0
 11
210.0
 21
297.0
 12
0.0
 22
0.0
 32
0.0
 14
0.0
 24
0.0
 34
0.0
 15
0.0
 25
0.0
 35
0.0
146
0.0
 13
0.0
 23
0.0
 33
0.0
 16
1.0
 26
0.0
 36
0.0
 17
0.0
 27
1.0
 37
0.0
 76
0
330
211
345
0
346
0
  0
LAYOUT
  5
2C7
102
{ACAD_REACTORS
330
1A
102
}
100
AcDbPlotSettings
  1

  2
none_device
  4

  6

 40
0.0
 41
0.0
 42
0.0
 43
0.0
 44
210.0
 45
297.0
 46
0.0
 47
0.0
 48
0.0
 49
0.0
140
0.0
141
0.0
142
1.0
143
1.0
 70
0
 72
1
 73
0
 74
0
  7

 75
0
147
1.0
148
0.0
149
0.0
100
AcDbLayout
  1
Layout1
 70
0
 71
1
 10
0.0
 20
0.0
 11
210.0
 21
297.0
 12
0.0
 22
0.0
 32
0.0
 14
0.0
 24
0.0
 34
0.0
 15
0.0
 25
0.0
 35
0.0
146
0.0
 13
0.0
 23
0.0
 33
0.0
 16
1.0
 26
0.0
 36
0.0
 17
0.0
 27
1.0
 37
0.0
 76
0
330
212
345
0
346
0
  0
ENDSEC
  0
EOF
