999
DXF file: C:\Users\sesa63760\Dev\_Creo\CAD\MCADID0004135_3D-CAD\drw0001_7.dxf
999
Pro/ENGINEER 2019471 by Parametric Technology Corporation
  0
SECTION
  2
HEADER
  9
$ACADVER
  1
AC1024
  9
$DWGCODEPAGE
  3
ANSI_1252
  9
$EXTMAX
 10
63.289790942
 20
89.5098471893
 30
0.0
  9
$EXTMIN
 10
0.0
 20
0.0
 30
0.0
  9
$LIMMIN
 10
0.0
 20
0.0
  9
$LIMMAX
 10
63.289790942
 20
89.5098471893
  9
$VIEWCTR
 10
31.644895471
 20
44.7549235947
  9
$VIEWSIZE
 40
89.5098471893
  9
$CLAYER
  8
0
  9
$LTSCALE
 40
5.8347159649
  9
$CELTYPE
  6
BYLAYER
  9
$DIMSCALE
 40
1.0
  9
$DIMASZ
 40
0.7534498922
  9
$DIMEXO
 40
1.0
  9
$DIMDLI
 40
4.031258303
  9
$DIMEXE
 40
1.0
  9
$DIMCEN
 40
0.9547717034
  9
$DIMLFAC
 40
1.0
  9
$DIMBLK
  1
_FILLED
  9
$DIMALT
 70
0
  9
$DIMALTF
 40
0.0393700787
  9
$DIMTXT
 40
1.054829849
  9
$DIMTOL
 70
1
  9
$DIMLIM
 70
0
  9
$DIMTFAC
 40
1.0
  9
$DIMTP
 40
0.01
  9
$DIMTM
 40
0.01
  9
$DIMGAP
 40
0.625
  9
$DIMDSEP
 70
46
  9
$AUNITS
 70
0
  9
$PDMODE
 70
3
  9
$PDSIZE
 40
0.3125
  9
$HANDSEED
  5
2BA
  9
$TILEMODE
 70
1
  9
$MEASUREMENT
 70
1
  9
$INSUNITS
 70
4
  0
ENDSEC
  0
SECTION
  2
CLASSES
  0
CLASS
  1
ACDBDICTIONARYWDFLT
  2
AcDbDictionaryWithDefault
  3
AutoCAD 2000
 90
0
 91
1
280
0
281
0
  0
CLASS
  1
ACDBPLACEHOLDER
  2
AcDbPlaceHolder
  3
AutoCAD 2000
 90
0
 91
1
280
0
281
0
  0
CLASS
  1
LAYOUT
  2
AcDbLayout
  3
AutoCAD 2000
 90
0
 91
0
280
0
281
0
  0
ENDSEC
  0
SECTION
  2
TABLES
  0
TABLE
  2
VPORT
  5
8
100
AcDbSymbolTable
 70
2
  0
VPORT
  5
1F4
100
AcDbSymbolTableRecord
100
AcDbViewportTableRecord
  2
*ACTIVE
 70
0
 10
0.0
 20
0.0
 11
1.0
 21
1.0
 12
31.644895471
 22
44.7549235947
 13
0.0
 23
0.0
 14
1.0
 24
1.0
 15
0.0
 25
0.0
 16
0.0
 26
0.0
 36
1.0
 17
0.0
 27
0.0
 37
0.0
 40
89.5098471893
 41
0.7070707071
 42
50.0
 43
0.0
 44
0.0
 50
0.0
 51
0.0
 71
0
 72
100
 73
1
 74
1
 75
0
 76
0
 77
0
 78
0
  0
ENDTAB
  0
TABLE
  2
LTYPE
  5
5
100
AcDbSymbolTable
 70
6
  0
LTYPE
  5
14
100
AcDbSymbolTableRecord
100
AcDbLinetypeTableRecord
  2
BYBLOCK
 70
0
  3

 72
65
 73
0
 40
0.0
  0
LTYPE
  5
15
100
AcDbSymbolTableRecord
100
AcDbLinetypeTableRecord
  2
BYLAYER
 70
0
  3

 72
65
 73
0
 40
0.0
  0
LTYPE
  5
16
100
AcDbSymbolTableRecord
100
AcDbLinetypeTableRecord
  2
CONTINUOUS
 70
64
  3
Solid line
 72
65
 73
0
 40
0.0
  0
LTYPE
  5
1F5
100
AcDbSymbolTableRecord
100
AcDbLinetypeTableRecord
  2
CENTER
 70
64
  3
____ _ ____ _ ____ _ ____ _ ____ _ ____ _ ____
 72
65
 73
4
 40
0.6
 49
0.375
 74
0
 49
-0.075
 74
0
 49
0.075
 74
0
 49
-0.075
 74
0
  0
LTYPE
  5
1F6
100
AcDbSymbolTableRecord
100
AcDbLinetypeTableRecord
  2
HIDDEN
 70
64
  3
- - - - - - - - - - - - - - - - - - - -
 72
65
 73
2
 40
0.2
 49
0.1
 74
0
 49
-0.1
 74
0
  0
LTYPE
  5
1F7
100
AcDbSymbolTableRecord
100
AcDbLinetypeTableRecord
  2
PHANTOM
 70
64
  3
_____ _ _ _____ _ _ _____ _ _ _____
 72
65
 73
6
 40
0.8
 49
0.45
 74
0
 49
-0.05
 74
0
 49
0.1
 74
0
 49
-0.05
 74
0
 49
0.1
 74
0
 49
-0.05
 74
0
  0
LTYPE
  5
1F8
100
AcDbSymbolTableRecord
100
AcDbLinetypeTableRecord
  2
DOT
 70
64
  3
. . . . . . . . . . . . . . . . . . . .
 72
65
 73
2
 40
0.2
 49
0.1
 74
0
 49
-0.1
 74
0
  0
LTYPE
  5
1F9
100
AcDbSymbolTableRecord
100
AcDbLinetypeTableRecord
  2
DASHED
 70
64
  3
- - - - - - - - - - - - - - - - - - - -
 72
65
 73
2
 40
0.2
 49
0.1
 74
0
 49
-0.1
 74
0
  0
ENDTAB
  0
TABLE
  2
LAYER
  5
2
100
AcDbSymbolTable
 70
36
  0
LAYER
  5
10
100
AcDbSymbolTableRecord
100
AcDbLayerTableRecord
  2
0
 70
0
 62
7
  6
CONTINUOUS
370
-3
390
F
  0
LAYER
  5
1FA
100
AcDbSymbolTableRecord
100
AcDbLayerTableRecord
  2
DEFAULT_1
 70
0
 62
7
  6
CENTER
370
-3
390
F
  0
LAYER
  5
1FB
100
AcDbSymbolTableRecord
100
AcDbLayerTableRecord
  2
DEFAULT_2
 70
0
 62
7
  6
HIDDEN
370
-3
390
F
  0
LAYER
  5
1FC
100
AcDbSymbolTableRecord
100
AcDbLayerTableRecord
  2
DEFAULT_3
 70
0
 62
7
  6
PHANTOM
370
-3
390
F
  0
LAYER
  5
1FD
100
AcDbSymbolTableRecord
100
AcDbLayerTableRecord
  2
00_COMPONENTS
 70
0
 62
7
  6
CONTINUOUS
370
-3
390
F
  0
LAYER
  5
1FE
100
AcDbSymbolTableRecord
100
AcDbLayerTableRecord
  2
01_1_DEFAULT_DATUMS
 70
0
 62
7
  6
CONTINUOUS
370
-3
390
F
  0
LAYER
  5
1FF
100
AcDbSymbolTableRecord
100
AcDbLayerTableRecord
  2
01_PLANES
 70
0
 62
7
  6
CONTINUOUS
370
-3
390
F
  0
LAYER
  5
200
100
AcDbSymbolTableRecord
100
AcDbLayerTableRecord
  2
02_COORD_SYS
 70
0
 62
7
  6
CONTINUOUS
370
-3
390
F
  0
LAYER
  5
201
100
AcDbSymbolTableRecord
100
AcDbLayerTableRecord
  2
03_AXES
 70
0
 62
7
  6
CONTINUOUS
370
-3
390
F
  0
LAYER
  5
202
100
AcDbSymbolTableRecord
100
AcDbLayerTableRecord
  2
04_POINTS
 70
0
 62
7
  6
CONTINUOUS
370
-3
390
F
  0
LAYER
  5
203
100
AcDbSymbolTableRecord
100
AcDbLayerTableRecord
  2
05_CURVES
 70
0
 62
7
  6
CONTINUOUS
370
-3
390
F
  0
LAYER
  5
204
100
AcDbSymbolTableRecord
100
AcDbLayerTableRecord
  2
06_SURFS
 70
0
 62
7
  6
CONTINUOUS
370
-3
390
F
  0
LAYER
  5
205
100
AcDbSymbolTableRecord
100
AcDbLayerTableRecord
  2
07_COSMETICS
 70
0
 62
7
  6
CONTINUOUS
370
-3
390
F
  0
LAYER
  5
206
100
AcDbSymbolTableRecord
100
AcDbLayerTableRecord
  2
10_NOTES
 70
0
 62
7
  6
CONTINUOUS
370
-3
390
F
  0
LAYER
  5
207
100
AcDbSymbolTableRecord
100
AcDbLayerTableRecord
  2
11_NOTES_PUB
 70
0
 62
7
  6
CONTINUOUS
370
-3
390
F
  0
LAYER
  5
208
100
AcDbSymbolTableRecord
100
AcDbLayerTableRecord
  2
13_REF_GTOL
 70
0
 62
7
  6
CONTINUOUS
370
-3
390
F
  0
LAYER
  5
209
100
AcDbSymbolTableRecord
100
AcDbLayerTableRecord
  2
16_MISC
 70
0
 62
7
  6
CONTINUOUS
370
-3
390
F
  0
LAYER
  5
20A
100
AcDbSymbolTableRecord
100
AcDbLayerTableRecord
  2
17_NO_PRINT
 70
0
 62
7
  6
CONTINUOUS
370
-3
390
F
  0
LAYER
  5
20B
100
AcDbSymbolTableRecord
100
AcDbLayerTableRecord
  2
18_DATUM_CAMS_JOINTS
 70
0
 62
7
  6
CONTINUOUS
370
-3
390
F
  0
LAYER
  5
20C
100
AcDbSymbolTableRecord
100
AcDbLayerTableRecord
  2
19_DATUM_FUNCTIONAL
 70
0
 62
7
  6
CONTINUOUS
370
-3
390
F
  0
LAYER
  5
20D
100
AcDbSymbolTableRecord
100
AcDbLayerTableRecord
  2
20_DATUM_KINEMATIC_SCHEME
 70
0
 62
7
  6
CONTINUOUS
370
-3
390
F
  0
ENDTAB
  0
TABLE
  2
STYLE
  5
3
100
AcDbSymbolTable
 70
1
  0
STYLE
  5
11
100
AcDbSymbolTableRecord
100
AcDbTextStyleTableRecord
  2
STANDARD
 70
0
 40
0.0
 41
1.0
 50
0.0
 71
0
 42
0.2
  3
ARIAL.TTF
  4

  0
STYLE
  5
20E
100
AcDbSymbolTableRecord
100
AcDbTextStyleTableRecord
  2
TEXTSTYLE_1
 70
0
 40
0.0
 41
0.8
 50
0.0
 71
0
 42
0.2
  3
gdt
  4

  0
ENDTAB
  0
TABLE
  2
VIEW
  5
6
100
AcDbSymbolTable
 70
0
  0
ENDTAB
  0
TABLE
  2
UCS
  5
7
100
AcDbSymbolTable
 70
0
  0
ENDTAB
  0
TABLE
  2
APPID
  5
9
100
AcDbSymbolTable
 70
1
  0
APPID
  5
20F
100
AcDbSymbolTableRecord
100
AcDbRegAppTableRecord
  2
ACAD
 70
0
  0
ENDTAB
  0
TABLE
  2
BLOCK_RECORD
  5
1
100
AcDbSymbolTable
 70
0
  0
BLOCK_RECORD
  5
210
100
AcDbSymbolTableRecord
100
AcDbBlockTableRecord
  2
*Model_Space
  0
BLOCK_RECORD
  5
211
100
AcDbSymbolTableRecord
100
AcDbBlockTableRecord
  2
*Paper_Space
  0
BLOCK_RECORD
  5
212
100
AcDbSymbolTableRecord
100
AcDbBlockTableRecord
  2
_FILLED
  0
ENDTAB
  0
TABLE
  2
DIMSTYLE
  5
A
100
AcDbSymbolTable
 70
1
100
AcDbDimStyleTable
 71
0
  0
DIMSTYLE
105
213
100
AcDbSymbolTableRecord
100
AcDbDimStyleTableRecord
  2
STANDARD
 70
0
  3

  4

 40
1.0
 41
0.7534498922
 42
1.0
 43
0.38
 44
1.0
 45
0.0
 46
0.0
 47
0.01
 48
0.01
140
1.054829849
141
0.09
142
0.0
143
25.4
144
1.0
145
0.0
146
1.0
147
0.625
 71
1
 72
0
 73
0
 74
0
 75
0
 76
0
 77
1
 78
8
 79
2
170
0
171
1
172
0
173
0
174
0
175
0
176
0
177
0
178
0
270
2
179
2
271
2
272
2
273
2
274
2
275
0
280
0
281
0
282
0
283
1
284
8
285
0
286
0
287
3
288
0
340
11
278
46
341
212
342
212
343
212
344
212
  0
ENDTAB
  0
ENDSEC
  0
SECTION
  2
BLOCKS
  0
BLOCK
  5
20
100
AcDbEntity
  8
0
100
AcDbBlockBegin
  2
*Model_Space
 70
0
 10
0.0
 20
0.0
 30
0.0
  3
*Model_Space
  1

  0
ENDBLK
  5
21
100
AcDbEntity
  8
0
100
AcDbBlockEnd
  0
BLOCK
  5
1C
100
AcDbEntity
  8
0
100
AcDbBlockBegin
  2
*Paper_Space
 70
0
 10
0.0
 20
0.0
 30
0.0
  3
*Paper_Space
  1

  0
ENDBLK
  5
1D
100
AcDbEntity
  8
0
100
AcDbBlockEnd
  0
BLOCK
  5
214
100
AcDbEntity
  8
0
100
AcDbBlockBegin
  2
_FILLED
 70
64
 10
0.0
 20
0.0
  3
_FILLED
  1

  0
SOLID
  5
215
100
AcDbEntity
  8
0
  6
BYBLOCK
 62
0
100
AcDbTrace
 10
0.0
 20
0.0
 11
-1.0
 21
0.25
 12
-1.0
 22
-0.25
 13
-1.0
 23
-0.25
  0
ENDBLK
  5
216
100
AcDbEntity
  8
0
  6
BYBLOCK
 62
0
100
AcDbBlockEnd
  0
ENDSEC
  0
SECTION
  2
ENTITIES
  0
LINE
  5
217
100
AcDbEntity
  8
0
100
AcDbLine
 62
7
  6
BYLAYER
 10
9.6156520898
 20
73.3461746344
 11
8.9147001052
 21
72.6404160923
  0
LINE
  5
218
100
AcDbEntity
  8
0
100
AcDbLine
 62
7
  6
BYLAYER
 10
9.925357334
 20
77.3362740152
 11
9.7647001051
 21
76.9951968376
  0
LINE
  5
219
100
AcDbEntity
  8
0
100
AcDbLine
 62
7
  6
BYLAYER
 10
21.6415974103
 20
12.4998280426
 11
23.0373401077
 21
12.4998280426
  0
LINE
  5
21A
100
AcDbEntity
  8
0
100
AcDbLine
 62
7
  6
BYLAYER
 10
25.4030255334
 20
12.4998280426
 11
26.7987682301
 21
12.4998280426
  0
LINE
  5
21B
100
AcDbEntity
  8
0
100
AcDbLine
 62
7
  6
BYLAYER
 10
29.9374673786
 20
12.9234207208
 11
29.5201025608
 21
12.8498280426
  0
LINE
  5
21C
100
AcDbEntity
  8
0
100
AcDbLine
 62
7
  6
BYLAYER
 10
27.3723258156
 20
13.4998280426
 11
27.3131843676
 21
13.4908164505
  0
LINE
  5
21D
100
AcDbEntity
  8
0
100
AcDbLine
 62
7
  6
BYLAYER
 10
26.79876823
 20
12.6480642328
 11
25.4030255324
 21
12.6480642328
  0
LINE
  5
21E
100
AcDbEntity
  8
0
100
AcDbLine
 62
7
  6
BYLAYER
 10
23.0373401086
 20
12.6480642328
 11
21.6415974107
 21
12.6480642328
  0
LINE
  5
21F
100
AcDbEntity
  8
0
100
AcDbLine
 62
7
  6
BYLAYER
 10
29.5201025608
 20
12.8498280426
 11
27.046015845
 21
12.8498280426
  0
LINE
  5
220
100
AcDbEntity
  8
0
100
AcDbLine
 62
7
  6
BYLAYER
 10
27.1107189442
 20
12.9234207208
 11
29.9374673786
 21
12.9234207208
  0
LINE
  5
221
100
AcDbEntity
  8
0
100
AcDbLine
 62
7
  6
BYLAYER
 10
30.0201025608
 20
13.0219014955
 11
27.0921227878
 21
13.0219014955
  0
LINE
  5
222
100
AcDbEntity
  8
0
100
AcDbLine
 62
7
  6
BYLAYER
 10
24.0030255334
 20
13.2998280426
 11
24.4373401078
 21
13.2998280426
  0
LINE
  5
223
100
AcDbEntity
  8
0
100
AcDbLine
 62
7
  6
BYLAYER
 10
24.437340107
 20
13.4480642333
 11
24.0030256698
 21
13.4480642459
  0
LINE
  5
224
100
AcDbEntity
  8
0
100
AcDbLine
 62
7
  6
BYLAYER
 10
27.0269976549
 20
13.4998280426
 11
21.4133679857
 21
13.4998280426
  0
LINE
  5
225
100
AcDbEntity
  8
0
100
AcDbLine
 62
7
  6
BYLAYER
 10
8.72010256
 20
13.4998280426
 11
21.0680398683
 21
13.4998280426
  0
LINE
  5
226
100
AcDbEntity
  8
0
100
AcDbLine
 62
7
  6
BYLAYER
 10
27.3723258155
 20
13.4998280426
 11
54.0804583476
 21
13.4998280426
  0
LINE
  5
227
100
AcDbEntity
  8
0
100
AcDbLine
 62
7
  6
BYLAYER
 10
51.5048800236
 20
13.5689659698
 11
54.2319039949
 21
13.5689659698
  0
LINE
  5
228
100
AcDbEntity
  8
0
100
AcDbLine
 62
7
  6
BYLAYER
 10
51.3700928475
 20
13.6998280426
 11
27.3056642789
 21
13.6998280426
  0
LINE
  5
229
100
AcDbEntity
  8
0
100
AcDbLine
 62
7
  6
BYLAYER
 10
21.1347013526
 20
13.6998280426
 11
8.5201025607
 21
13.6998280426
  0
LINE
  5
22A
100
AcDbEntity
  8
0
100
AcDbLine
 62
7
  6
BYLAYER
 10
20.2137481206
 20
74.4503751704
 11
20.3147001051
 21
74.5505067212
  0
LINE
  5
22B
100
AcDbEntity
  8
0
100
AcDbLine
 62
7
  6
BYLAYER
 10
8.5201025607
 20
16.4995891289
 11
6.7201828203
 21
16.4995891289
  0
LINE
  5
22C
100
AcDbEntity
  8
0
100
AcDbLine
 62
7
  6
BYLAYER
 10
14.8701828199
 20
17.4998280426
 11
14.6701828201
 21
17.4998280426
  0
LINE
  5
22D
100
AcDbEntity
  8
0
100
AcDbLine
 62
7
  6
BYLAYER
 10
10.3701828201
 20
17.4998280426
 11
10.1701828206
 21
17.4998280426
  0
LINE
  5
22E
100
AcDbEntity
  8
0
100
AcDbLine
 62
7
  6
BYLAYER
 10
25.2616041759
 20
12.5584066869
 11
24.578761464
 21
13.2412493988
  0
LINE
  5
22F
100
AcDbEntity
  8
0
100
AcDbLine
 62
7
  6
BYLAYER
 10
24.720182907
 20
13.3309069099
 11
25.4030255324
 21
12.6480642328
  0
LINE
  5
230
100
AcDbEntity
  8
0
100
AcDbLine
 62
7
  6
BYLAYER
 10
6.7201828195
 20
45.6995891289
 11
6.7201828195
 21
16.4995891289
  0
LINE
  5
231
100
AcDbEntity
  8
0
100
AcDbLine
 62
7
  6
BYLAYER
 10
56.7239375093
 20
19.0111920041
 11
56.5240081699
 21
19.0058868331
  0
LINE
  5
232
100
AcDbEntity
  8
0
100
AcDbLine
 62
7
  6
BYLAYER
 10
10.1701828206
 20
19.4998280417
 11
10.3701828201
 21
19.4998280417
  0
LINE
  5
233
100
AcDbEntity
  8
0
100
AcDbLine
 62
7
  6
BYLAYER
 10
14.6701828201
 20
19.4998280426
 11
14.8701828199
 21
19.4998280426
  0
LINE
  5
234
100
AcDbEntity
  8
0
100
AcDbLine
 62
7
  6
BYLAYER
 10
9.6515135408
 20
50.1140817347
 11
8.4147003974
 21
63.4485859777
  0
LINE
  5
235
100
AcDbEntity
  8
0
100
AcDbLine
 62
7
  6
BYLAYER
 10
7.5201828203
 20
45.6995891289
 11
7.5201828203
 21
16.4995891289
  0
LINE
  5
236
100
AcDbEntity
  8
0
100
AcDbLine
 62
7
  6
BYLAYER
 10
8.4147001051
 20
66.4485891289
 11
8.4147001051
 21
63.4485891289
  0
LINE
  5
237
100
AcDbEntity
  8
0
100
AcDbLine
 62
7
  6
BYLAYER
 10
8.5201025607
 20
48.616985331
 11
8.5201025607
 21
13.6998280426
  0
LINE
  5
238
100
AcDbEntity
  8
0
100
AcDbLine
 62
7
  6
BYLAYER
 10
8.7201025607
 20
13.4998280426
 11
8.72010256
 21
48.6169853305
  0
LINE
  5
239
100
AcDbEntity
  8
0
100
AcDbLine
 62
7
  6
BYLAYER
 10
8.9147001051
 20
66.9228679386
 11
8.9147001051
 21
72.6404160922
  0
LINE
  5
23A
100
AcDbEntity
  8
0
100
AcDbLine
 62
7
  6
BYLAYER
 10
9.5147001051
 20
74.5505067213
 11
9.5147001051
 21
75.0940762194
  0
LINE
  5
23B
100
AcDbEntity
  8
0
100
AcDbLine
 62
7
  6
BYLAYER
 10
9.6156520898
 20
73.3461746344
 11
9.6156520898
 21
74.4503751702
  0
LINE
  5
23C
100
AcDbEntity
  8
0
100
AcDbLine
 62
7
  6
BYLAYER
 10
9.7647001051
 20
75.2499251254
 11
9.7647001051
 21
76.9951968374
  0
LINE
  5
23D
100
AcDbEntity
  8
0
100
AcDbLine
 62
7
  6
BYLAYER
 10
10.1701828206
 20
19.4998280421
 11
10.1701828206
 21
17.4998280432
  0
LINE
  5
23E
100
AcDbEntity
  8
0
100
AcDbLine
 62
7
  6
BYLAYER
 10
10.3701828201
 20
17.4998280426
 11
10.3701828201
 21
19.4998280426
  0
LINE
  5
23F
100
AcDbEntity
  8
0
100
AcDbLine
 62
7
  6
BYLAYER
 10
9.651513541
 20
50.1140817347
 11
20.96522204
 21
61.4277902337
  0
LINE
  5
240
100
AcDbEntity
  8
0
100
AcDbLine
 62
7
  6
BYLAYER
 10
21.4615239165
 20
61.6412493984
 11
8.5786812045
 21
48.7584066864
  0
LINE
  5
241
100
AcDbEntity
  8
0
100
AcDbLine
 62
7
  6
BYLAYER
 10
21.6029452741
 20
61.4998280426
 11
8.72010256
 21
48.6169853305
  0
LINE
  5
242
100
AcDbEntity
  8
0
100
AcDbLine
 62
7
  6
BYLAYER
 10
21.2533785292
 20
13.3734855505
 11
21.2578730504
 21
13.3608891291
  0
LINE
  5
243
100
AcDbEntity
  8
0
100
AcDbLine
 62
7
  6
BYLAYER
 10
21.2578730504
 20
13.3608891291
 11
21.2595723761
 21
13.3552918069
  0
LINE
  5
244
100
AcDbEntity
  8
0
100
AcDbLine
 62
7
  6
BYLAYER
 10
14.6701828201
 20
19.4998280426
 11
14.6701828201
 21
17.4998280426
  0
LINE
  5
245
100
AcDbEntity
  8
0
100
AcDbLine
 62
7
  6
BYLAYER
 10
14.8701828199
 20
17.4998280424
 11
14.8701828199
 21
19.4998280429
  0
LINE
  5
246
100
AcDbEntity
  8
0
100
AcDbLine
 62
7
  6
BYLAYER
 10
21.448412245
 20
12.6480642339
 11
21.259902588
 21
13.3515918516
  0
LINE
  5
247
100
AcDbEntity
  8
0
100
AcDbLine
 62
7
  6
BYLAYER
 10
21.4133679857
 20
13.4998280426
 11
21.6415974107
 21
12.6480642328
  0
LINE
  5
248
100
AcDbEntity
  8
0
100
AcDbLine
 62
7
  6
BYLAYER
 10
15.4316765134
 20
55.8941883863
 11
14.9147001621
 21
63.4485882959
  0
LINE
  5
249
100
AcDbEntity
  8
0
100
AcDbLine
 62
7
  6
BYLAYER
 10
20.9652220397
 20
61.4277902338
 11
21.4147001051
 21
63.4485891289
  0
LINE
  5
24A
100
AcDbEntity
  8
0
100
AcDbLine
 62
7
  6
BYLAYER
 10
8.7201025612
 20
48.6169853306
 11
8.5799335703
 21
48.7571543215
  0
LINE
  5
24B
100
AcDbEntity
  8
0
100
AcDbLine
 62
7
  6
BYLAYER
 10
20.0647001051
 20
75.2499251254
 11
20.0647001051
 21
76.9951968372
  0
LINE
  5
24C
100
AcDbEntity
  8
0
100
AcDbLine
 62
7
  6
BYLAYER
 10
20.2137481204
 20
73.3461746344
 11
20.2137481204
 21
74.4503751702
  0
LINE
  5
24D
100
AcDbEntity
  8
0
100
AcDbLine
 62
7
  6
BYLAYER
 10
20.3147001051
 20
74.5505067213
 11
20.3147001051
 21
75.0940762192
  0
LINE
  5
24E
100
AcDbEntity
  8
0
100
AcDbLine
 62
7
  6
BYLAYER
 10
20.9147001051
 20
66.9228679386
 11
20.9147001051
 21
72.6404160922
  0
LINE
  5
24F
100
AcDbEntity
  8
0
100
AcDbLine
 62
7
  6
BYLAYER
 10
9.651513541
 20
50.1140817347
 11
9.792934897
 21
49.9726603788
  0
LINE
  5
250
100
AcDbEntity
  8
0
100
AcDbLine
 62
7
  6
BYLAYER
 10
21.4147001051
 20
66.4485891289
 11
21.4147001051
 21
63.4485891289
  0
LINE
  5
251
100
AcDbEntity
  8
0
100
AcDbLine
 62
7
  6
BYLAYER
 10
21.6029452728
 20
61.4998280426
 11
21.6029452728
 21
61.6998280426
  0
LINE
  5
252
100
AcDbEntity
  8
0
100
AcDbLine
 62
7
  6
BYLAYER
 10
21.6415974098
 20
12.4998280426
 11
21.6415974103
 21
12.6480642336
  0
LINE
  5
253
100
AcDbEntity
  8
0
100
AcDbLine
 62
7
  6
BYLAYER
 10
23.0373401075
 20
12.6480642336
 11
23.0373401075
 21
12.500259949
  0
LINE
  5
254
100
AcDbEntity
  8
0
100
AcDbLine
 62
7
  6
BYLAYER
 10
51.5042514173
 20
13.5695768496
 11
51.3701093427
 21
13.6998141542
  0
LINE
  5
255
100
AcDbEntity
  8
0
100
AcDbLine
 62
7
  6
BYLAYER
 10
24.003025601
 20
13.2998280426
 11
24.003025601
 21
13.4480642336
  0
LINE
  5
256
100
AcDbEntity
  8
0
100
AcDbLine
 62
7
  6
BYLAYER
 10
24.4373401079
 20
13.4480642336
 11
24.4373401079
 21
13.2998280426
  0
LINE
  5
257
100
AcDbEntity
  8
0
100
AcDbLine
 62
7
  6
BYLAYER
 10
25.4030255332
 20
12.4998280426
 11
25.4030255332
 21
12.6480642336
  0
LINE
  5
258
100
AcDbEntity
  8
0
100
AcDbLine
 62
7
  6
BYLAYER
 10
26.7987682301
 20
12.6480642336
 11
26.7987682301
 21
12.4998280426
  0
LINE
  5
259
100
AcDbEntity
  8
0
100
AcDbLine
 62
7
  6
BYLAYER
 10
26.8201025608
 20
61.6998280426
 11
26.8201025608
 21
63.4998280431
  0
LINE
  5
25A
100
AcDbEntity
  8
0
100
AcDbLine
 62
7
  6
BYLAYER
 10
30.0201025608
 20
13.0219014955
 11
30.0201025608
 21
13.4998280426
  0
LINE
  5
25B
100
AcDbEntity
  8
0
100
AcDbLine
 62
7
  6
BYLAYER
 10
56.662129289
 20
18.8716806507
 11
56.5240215894
 21
19.0058786523
  0
LINE
  5
25C
100
AcDbEntity
  8
0
100
AcDbLine
 62
7
  6
BYLAYER
 10
6.7201828203
 20
45.6995891289
 11
8.5201025607
 21
45.6995891289
  0
LINE
  5
25D
100
AcDbEntity
  8
0
100
AcDbLine
 62
7
  6
BYLAYER
 10
19.9040428763
 20
77.3362740152
 11
20.0647001051
 21
76.9951968376
  0
LINE
  5
25E
100
AcDbEntity
  8
0
100
AcDbLine
 62
7
  6
BYLAYER
 10
26.79876823
 20
12.6480642328
 11
27.0269976549
 21
13.4998280426
  0
LINE
  5
25F
100
AcDbEntity
  8
0
100
AcDbLine
 62
7
  6
BYLAYER
 10
27.1804630524
 20
13.3515918516
 11
26.9919533954
 21
12.6480642336
  0
LINE
  5
260
100
AcDbEntity
  8
0
100
AcDbLine
 62
7
  6
BYLAYER
 10
8.5201025607
 20
48.6169853296
 11
8.72010256
 21
48.6169853296
  0
LINE
  5
261
100
AcDbEntity
  8
0
100
AcDbLine
 62
7
  6
BYLAYER
 10
9.6156520896
 20
74.4503751704
 11
9.5147001052
 21
74.5505067212
  0
LINE
  5
262
100
AcDbEntity
  8
0
100
AcDbLine
 62
7
  6
BYLAYER
 10
20.9652220398
 20
61.4277902339
 11
21.106643396
 21
61.2863688778
  0
LINE
  5
263
100
AcDbEntity
  8
0
100
AcDbLine
 62
7
  6
BYLAYER
 10
21.4615239164
 20
61.6412493983
 11
21.6029452727
 21
61.4998280421
  0
LINE
  5
264
100
AcDbEntity
  8
0
100
AcDbLine
 62
7
  6
BYLAYER
 10
20.2137481204
 20
73.3461746344
 11
20.914700105
 21
72.6404160923
  0
LINE
  5
265
100
AcDbEntity
  8
0
100
AcDbLine
 62
7
  6
BYLAYER
 10
47.8201025607
 20
63.4998280431
 11
47.8201025607
 21
61.6998280426
  0
LINE
  5
266
100
AcDbEntity
  8
0
100
AcDbLine
 62
7
  6
BYLAYER
 10
23.0373401086
 20
12.6480642328
 11
23.7201828197
 21
13.3309069459
  0
LINE
  5
267
100
AcDbEntity
  8
0
100
AcDbLine
 62
7
  6
BYLAYER
 10
55.3964216669
 20
61.4998280499
 11
55.5963510063
 21
61.5051332209
  0
LINE
  5
268
100
AcDbEntity
  8
0
100
AcDbLine
 62
7
  6
BYLAYER
 10
21.6029452741
 20
61.4998280426
 11
55.3964213806
 21
61.4998280426
  0
LINE
  5
269
100
AcDbEntity
  8
0
100
AcDbLine
 62
7
  6
BYLAYER
 10
55.3964213806
 20
61.6998280426
 11
21.602945274
 21
61.6998280426
  0
LINE
  5
26A
100
AcDbEntity
  8
0
100
AcDbLine
 62
7
  6
BYLAYER
 10
23.8616041764
 20
13.2412493989
 11
23.1787614644
 21
12.5584066869
  0
LINE
  5
26B
100
AcDbEntity
  8
0
100
AcDbLine
 62
7
  6
BYLAYER
 10
26.8201025608
 20
62.6998280419
 11
47.8201025607
 21
62.6998280419
  0
LINE
  5
26C
100
AcDbEntity
  8
0
100
AcDbLine
 62
7
  6
BYLAYER
 10
8.4147001051
 20
63.4485891289
 11
21.4147001051
 21
63.4485891289
  0
LINE
  5
26D
100
AcDbEntity
  8
0
100
AcDbLine
 62
7
  6
BYLAYER
 10
26.8201025608
 20
63.4998280427
 11
47.8201025607
 21
63.4998280427
  0
LINE
  5
26E
100
AcDbEntity
  8
0
100
AcDbLine
 62
7
  6
BYLAYER
 10
51.3700928455
 20
13.6998280426
 11
51.3700928455
 21
13.4998280426
  0
LINE
  5
26F
100
AcDbEntity
  8
0
100
AcDbLine
 62
7
  6
BYLAYER
 10
8.4147001051
 20
66.4485891289
 11
21.4147001051
 21
66.4485891289
  0
LINE
  5
270
100
AcDbEntity
  8
0
100
AcDbLine
 62
7
  6
BYLAYER
 10
20.9147001051
 20
66.9228679386
 11
8.9147001051
 21
66.9228679386
  0
LINE
  5
271
100
AcDbEntity
  8
0
100
AcDbLine
 62
7
  6
BYLAYER
 10
56.7384408313
 20
16.4315931086
 11
56.6613840559
 21
18.8721192564
  0
LINE
  5
272
100
AcDbEntity
  8
0
100
AcDbLine
 62
7
  6
BYLAYER
 10
56.5240082725
 20
19.0058937634
 11
55.3964213806
 21
61.4998280426
  0
LINE
  5
273
100
AcDbEntity
  8
0
100
AcDbLine
 62
7
  6
BYLAYER
 10
56.7887217955
 20
16.569747698
 11
55.5963510063
 21
61.5051332215
  0
LINE
  5
274
100
AcDbEntity
  8
0
100
AcDbLine
 62
7
  6
BYLAYER
 10
55.3964213812
 20
61.6998280426
 11
55.3964213812
 21
61.4998280426
  0
LINE
  5
275
100
AcDbEntity
  8
0
100
AcDbLine
 62
7
  6
BYLAYER
 10
8.9147001051
 20
72.6404160923
 11
20.9147001051
 21
72.6404160924
  0
LINE
  5
276
100
AcDbEntity
  8
0
100
AcDbLine
 62
7
  6
BYLAYER
 10
20.2137481204
 20
73.3461746344
 11
9.6156520898
 21
73.3461746344
  0
LINE
  5
277
100
AcDbEntity
  8
0
100
AcDbLine
 62
7
  6
BYLAYER
 10
9.6156520898
 20
74.4503751706
 11
20.2137481204
 21
74.4503751706
  0
LINE
  5
278
100
AcDbEntity
  8
0
100
AcDbLine
 62
7
  6
BYLAYER
 10
20.3147001051
 20
74.5505067212
 11
9.5147001051
 21
74.5505067212
  0
LINE
  5
279
100
AcDbEntity
  8
0
100
AcDbLine
 62
7
  6
BYLAYER
 10
9.5147001051
 20
75.0940762194
 11
20.3147001051
 21
75.0940762192
  0
LINE
  5
27A
100
AcDbEntity
  8
0
100
AcDbLine
 62
7
  6
BYLAYER
 10
20.1573910274
 20
75.2499251255
 11
9.6720091829
 21
75.2499251255
  0
LINE
  5
27B
100
AcDbEntity
  8
0
100
AcDbLine
 62
7
  6
BYLAYER
 10
9.7647001051
 20
76.9951968374
 11
20.0647001051
 21
76.9951968372
  0
LINE
  5
27C
100
AcDbEntity
  8
0
100
AcDbLine
 62
7
  6
BYLAYER
 10
9.925357334
 20
77.3362740152
 11
19.9040428763
 21
77.3362740152
  0
LINE
  5
27D
100
AcDbEntity
  8
0
100
AcDbLine
 62
7
  6
BYLAYER
 10
19.7261734641
 20
77.4482558527
 11
10.1032267462
 21
77.4482558527
  0
LINE
  5
27E
100
AcDbEntity
  8
0
100
AcDbLine
 62
7
  6
BYLAYER
 10
56.7384408326
 20
16.4315930721
 11
56.7887287317
 21
16.5694852687
  0
LINE
  5
27F
100
AcDbEntity
  8
0
100
AcDbLine
 62
7
  6
BYLAYER
 10
56.5240082725
 20
19.0058937634
 11
51.3700928475
 21
13.6998280426
  0
LINE
  5
280
100
AcDbEntity
  8
0
100
AcDbLine
 62
7
  6
BYLAYER
 10
54.2319039239
 20
13.5689659698
 11
56.7383115774
 21
16.4658857225
  0
LINE
  5
281
100
AcDbEntity
  8
0
100
AcDbLine
 62
7
  6
BYLAYER
 10
56.662129289
 20
18.8716806507
 11
51.5042514173
 21
13.5695768496
  0
LINE
  5
282
100
AcDbEntity
  8
0
100
AcDbLine
 62
7
  6
BYLAYER
 10
54.2319039949
 20
13.5689659698
 11
54.0806587713
 21
13.4998280426
  0
ARC
  5
283
100
AcDbEntity
  8
0
100
AcDbCircle
 62
7
  6
BYLAYER
 10
8.7201025607
 20
13.6998280426
 40
0.2
100
AcDbArc
 50
180.0
 51
270.0
  0
ARC
  5
284
100
AcDbEntity
  8
0
100
AcDbCircle
 62
7
  6
BYLAYER
 10
12.5201828201
 20
17.4998280426
 40
2.3499999996
100
AcDbArc
 50
179.9999999861
 51
359.999999994
  0
ARC
  5
285
100
AcDbEntity
  8
0
100
AcDbCircle
 62
7
  6
BYLAYER
 10
12.5201828201
 20
19.4998280426
 40
2.3499999996
100
AcDbArc
 50
0.000000006
 51
180.000000014
  0
ARC
  5
286
100
AcDbEntity
  8
0
100
AcDbCircle
 62
7
  6
BYLAYER
 10
12.5201828201
 20
19.4998280426
 40
2.15
100
AcDbArc
 50
0.0
 51
180.0
  0
ARC
  5
287
100
AcDbEntity
  8
0
100
AcDbCircle
 62
7
  6
BYLAYER
 10
12.5201828201
 20
17.4998280426
 40
2.15
100
AcDbArc
 50
180.0
 51
360.0
  0
ARC
  5
288
100
AcDbEntity
  8
0
100
AcDbCircle
 62
7
  6
BYLAYER
 10
21.6415974103
 20
12.6998280426
 40
0.2
100
AcDbArc
 50
194.9999999082
 51
270.0
  0
ARC
  5
289
100
AcDbEntity
  8
0
100
AcDbCircle
 62
7
  6
BYLAYER
 10
23.0373401077
 20
12.6998280426
 40
0.2
100
AcDbArc
 50
270.0
 51
315.0
  0
ARC
  5
28A
100
AcDbEntity
  8
0
100
AcDbCircle
 62
7
  6
BYLAYER
 10
25.4030255327
 20
12.6998280426
 40
0.2
100
AcDbArc
 50
224.9999997792
 51
270.0
  0
ARC
  5
28B
100
AcDbEntity
  8
0
100
AcDbCircle
 62
7
  6
BYLAYER
 10
24.003355
 20
13.0476075
 40
0.4005559384
100
AcDbArc
 50
90.0727228101
 51
134.987127714
  0
ARC
  5
28C
100
AcDbEntity
  8
0
100
AcDbCircle
 62
7
  6
BYLAYER
 10
24.4375146948
 20
13.0482613724
 40
0.3997131
100
AcDbArc
 50
44.9978214372
 51
89.9964489713
  0
ARC
  5
28D
100
AcDbEntity
  8
0
100
AcDbCircle
 62
7
  6
BYLAYER
 10
24.4373401078
 20
13.0998280426
 40
0.2
100
AcDbArc
 50
44.9999999939
 51
90.0
  0
ARC
  5
28E
100
AcDbEntity
  8
0
100
AcDbCircle
 62
7
  6
BYLAYER
 10
24.0030255327
 20
13.0998280426
 40
0.2
100
AcDbArc
 50
89.9999997937
 51
135.0
  0
ARC
  5
28F
100
AcDbEntity
  8
0
100
AcDbCircle
 62
7
  6
BYLAYER
 10
21.0680314701
 20
13.3011055292
 40
0.1987225136
100
AcDbArc
 50
14.9999999912
 51
89.9975982972
  0
ARC
  5
290
100
AcDbEntity
  8
0
100
AcDbCircle
 62
7
  6
BYLAYER
 10
26.7987682301
 20
12.6998280426
 40
0.2
100
AcDbArc
 50
270.0
 51
345.0
  0
ARC
  5
291
100
AcDbEntity
  8
0
100
AcDbCircle
 62
7
  6
BYLAYER
 10
27.3736482177
 20
13.2998280426
 40
0.2
100
AcDbArc
 50
90.0000001375
 51
165.0
  0
ARC
  5
292
100
AcDbEntity
  8
0
100
AcDbCircle
 62
7
  6
BYLAYER
 10
29.9201025608
 20
13.0219014961
 40
0.1
100
AcDbArc
 50
280.000000002
 51
360.0
  0
CIRCLE
  5
293
100
AcDbEntity
  8
0
100
AcDbCircle
 62
7
  6
BYLAYER
 10
12.5201828201
 20
47.4998280426
 40
2.3499999996
  0
CIRCLE
  5
294
100
AcDbEntity
  8
0
100
AcDbCircle
 62
7
  6
BYLAYER
 10
12.5201828201
 20
47.4998280426
 40
2.15
  0
ARC
  5
295
100
AcDbEntity
  8
0
100
AcDbCircle
 62
7
  6
BYLAYER
 10
8.4404212955
 20
66.9228679386
 40
0.4742788097
100
AcDbArc
 50
270.0
 51
360.0
  0
ARC
  5
296
100
AcDbEntity
  8
0
100
AcDbCircle
 62
7
  6
BYLAYER
 10
21.3889789148
 20
66.9228679386
 40
0.4742788097
100
AcDbArc
 50
180.0
 51
270.0
  0
ARC
  5
297
100
AcDbEntity
  8
0
100
AcDbCircle
 62
7
  6
BYLAYER
 10
8.7201025607
 20
48.6169853301
 40
0.2
100
AcDbArc
 50
135.0
 51
179.9999997422
  0
ARC
  5
298
100
AcDbEntity
  8
0
100
AcDbCircle
 62
7
  6
BYLAYER
 10
21.6029452732
 20
61.4998280426
 40
0.2
100
AcDbArc
 50
90.0
 51
135.0000002026
  0
ARC
  5
299
100
AcDbEntity
  8
0
100
AcDbCircle
 62
7
  6
BYLAYER
 10
10.1018866752
 20
77.2531235829
 40
0.1951322697
100
AcDbArc
 50
90.0
 51
154.7782063217
  0
ARC
  5
29A
100
AcDbEntity
  8
0
100
AcDbCircle
 62
7
  6
BYLAYER
 10
19.7275135351
 20
77.2531235829
 40
0.1951322697
100
AcDbArc
 50
25.2217936783
 51
90.0
  0
ARC
  5
29B
100
AcDbEntity
  8
0
100
AcDbCircle
 62
7
  6
BYLAYER
 10
9.670549011
 20
75.0940762196
 40
0.1558489058
100
AcDbArc
 50
90.0
 51
180.0
  0
ARC
  5
29C
100
AcDbEntity
  8
0
100
AcDbCircle
 62
7
  6
BYLAYER
 10
20.1588511993
 20
75.0940762196
 40
0.1558489058
100
AcDbArc
 50
0.0
 51
90.0
  0
ARC
  5
29D
100
AcDbEntity
  8
0
100
AcDbCircle
 62
7
  6
BYLAYER
 10
55.396421381
 20
61.4998280426
 40
0.2
100
AcDbArc
 50
1.52
 51
90.0000001146
  0
SPLINE
  5
29E
100
AcDbEntity
  8
0
100
AcDbSpline
 62
7
  6
BYLAYER
 70
0
 71
3
 72
8
 73
4
 74
0
 42
0.0000001
 43
0.0000001
 44
0.0000000001
 40
0.0
 40
0.0
 40
0.0
 40
0.0
 40
1.0
 40
1.0
 40
1.0
 40
1.0
 10
21.0855460481
 20
13.4990547069
 30
0.0
 10
21.1104298906
 20
13.4968529551
 30
0.0
 10
21.1353111645
 20
13.4897444369
 30
0.0
 10
21.1576112809
 20
13.4784857452
 30
0.0
  0
SPLINE
  5
29F
100
AcDbEntity
  8
0
100
AcDbSpline
 62
7
  6
BYLAYER
 70
0
 71
3
 72
9
 73
5
 74
0
 42
0.0000001
 43
0.0000001
 44
0.0000000001
 40
0.0
 40
0.0
 40
0.0
 40
0.0
 40
0.4903200687
 40
1.0
 40
1.0
 40
1.0
 40
1.0
 10
51.370092845
 20
13.4998280426
 30
0.0
 10
51.395519915
 20
13.4998280426
 30
0.0
 10
51.4480673953
 20
13.5128559038
 30
0.0
 10
51.4887404394
 20
13.5480348094
 30
0.0
 10
51.5048800236
 20
13.5689659698
 30
0.0
  0
SPLINE
  5
2A0
100
AcDbEntity
  8
0
100
AcDbSpline
 62
7
  6
BYLAYER
 70
0
 71
3
 72
10
 73
6
 74
0
 42
0.0000001
 43
0.0000001
 44
0.0000000001
 40
0.0
 40
0.0
 40
0.0
 40
0.0
 40
0.2504778465
 40
0.5009494467
 40
1.0
 40
1.0
 40
1.0
 40
1.0
 10
27.3056642789
 20
13.6998280426
 30
0.0
 10
27.2910828785
 20
13.6945537258
 30
0.0
 10
27.2619482
 20
13.6837977184
 30
0.0
 10
27.2066601957
 20
13.6557403936
 30
0.0
 10
27.1710015988
 20
13.6237285583
 30
0.0
 10
27.1528469662
 20
13.5987315421
 30
0.0
  0
SPLINE
  5
2A1
100
AcDbEntity
  8
0
100
AcDbSpline
 62
7
  6
BYLAYER
 70
0
 71
3
 72
19
 73
15
 74
0
 42
0.0000001
 43
0.0000001
 44
0.0000000001
 40
0.0
 40
0.0
 40
0.0
 40
0.0
 40
0.0218677129
 40
0.0525081891
 40
0.1430862104
 40
0.2590128964
 40
0.3897136835
 40
0.52811029
 40
0.600736839
 40
0.6760644785
 40
0.7550586424
 40
0.8359945861
 40
0.9182118701
 40
1.0
 40
1.0
 40
1.0
 40
1.0
 10
27.3723258311
 20
13.4998280426
 30
0.0
 10
27.3702699448
 20
13.4998280426
 30
0.0
 10
27.3653986993
 20
13.5011951787
 30
0.0
 10
27.3533872767
 20
13.5071758778
 30
0.0
 10
27.3341188387
 20
13.5185112559
 30
0.0
 10
27.308189271
 20
13.5367817534
 30
0.0
 10
27.2799490562
 20
13.5594448873
 30
0.0
 10
27.2588174282
 20
13.5843886792
 30
0.0
 10
27.2486276214
 20
13.6096968934
 30
0.0
 10
27.2477382359
 20
13.6315017009
 30
0.0
 10
27.2552516093
 20
13.6529176576
 30
0.0
 10
27.2700802092
 20
13.6705304549
 30
0.0
 10
27.2870826254
 20
13.6860426217
 30
0.0
 10
27.2993000858
 20
13.6955127
 30
0.0
 10
27.3056642776
 20
13.6998280426
 30
0.0
  0
SPLINE
  5
2A2
100
AcDbEntity
  8
0
100
AcDbSpline
 62
7
  6
BYLAYER
 70
0
 71
3
 72
13
 73
9
 74
0
 42
0.0000001
 43
0.0000001
 44
0.0000000001
 40
0.0
 40
0.0
 40
0.0
 40
0.0
 40
0.0585139748
 40
0.1439836177
 40
0.2507834495
 40
0.3736816775
 40
0.6573736131
 40
1.0
 40
1.0
 40
1.0
 40
1.0
 10
27.18079774
 20
13.3553064384
 30
0.0
 10
27.1802878651
 20
13.3600840012
 30
0.0
 10
27.177679722
 20
13.3716509166
 30
0.0
 10
27.1734046197
 20
13.3917749303
 30
0.0
 10
27.1680151711
 20
13.4170943682
 30
0.0
 10
27.1600795669
 20
13.4584973139
 30
0.0
 10
27.151163005
 20
13.5194053237
 30
0.0
 10
27.1502611605
 20
13.5711807245
 30
0.0
 10
27.1528950247
 20
13.5991908644
 30
0.0
  0
SPLINE
  5
2A3
100
AcDbEntity
  8
0
100
AcDbSpline
 62
7
  6
BYLAYER
 70
0
 71
3
 72
8
 73
4
 74
0
 42
0.0000001
 43
0.0000001
 44
0.0000000001
 40
0.0
 40
0.0
 40
0.0
 40
0.0
 40
1.0
 40
1.0
 40
1.0
 40
1.0
 10
27.1804630531
 20
13.351591854
 30
0.0
 10
27.1807835251
 20
13.3527878715
 30
0.0
 10
27.1809247828
 20
13.3540605702
 30
0.0
 10
27.1807932598
 20
13.3552917736
 30
0.0
  0
SPLINE
  5
2A4
100
AcDbEntity
  8
0
100
AcDbSpline
 62
7
  6
BYLAYER
 70
0
 71
3
 72
11
 73
7
 74
0
 42
0.0000001
 43
0.0000001
 44
0.0000000001
 40
0.0
 40
0.0
 40
0.0
 40
0.0
 40
0.2497216142
 40
0.499719298
 40
0.7498531482
 40
1.0
 40
1.0
 40
1.0
 40
1.0
 10
27.0269976551
 20
13.4998280426
 30
0.0
 10
27.0406971204
 20
13.4998280427
 30
0.0
 10
27.0678290172
 20
13.5098320674
 30
0.0
 10
27.0998167851
 20
13.5357413262
 30
0.0
 10
27.1282638592
 20
13.5656765077
 30
0.0
 10
27.1447942902
 20
13.5876198606
 30
0.0
 10
27.1528469662
 20
13.5987315421
 30
0.0
  0
SPLINE
  5
2A5
100
AcDbEntity
  8
0
100
AcDbSpline
 62
7
  6
BYLAYER
 70
0
 71
3
 72
11
 73
7
 74
0
 42
0.0000001
 43
0.0000001
 44
0.0000000001
 40
0.0
 40
0.0
 40
0.0
 40
0.0
 40
0.2501465846
 40
0.5002789152
 40
0.7502793228
 40
1.0
 40
1.0
 40
1.0
 40
1.0
 10
21.2875176464
 20
13.5987426121
 30
0.0
 10
21.2955818793
 20
13.5876391179
 30
0.0
 10
21.3120986428
 20
13.5656854136
 30
0.0
 10
21.3405592055
 20
13.5357608336
 30
0.0
 10
21.372537853
 20
13.5098435131
 30
0.0
 10
21.3996683974
 20
13.4998280426
 30
0.0
 10
21.413367985
 20
13.4998280426
 30
0.0
  0
SPLINE
  5
2A6
100
AcDbEntity
  8
0
100
AcDbSpline
 62
7
  6
BYLAYER
 70
0
 71
3
 72
8
 73
4
 74
0
 42
0.0000001
 43
0.0000001
 44
0.0000000001
 40
0.0
 40
0.0
 40
0.0
 40
0.0
 40
1.0
 40
1.0
 40
1.0
 40
1.0
 10
21.2595724106
 20
13.3552918313
 30
0.0
 10
21.2594408634
 20
13.3540606124
 30
0.0
 10
21.2595821105
 20
13.3527878897
 30
0.0
 10
21.2599025871
 20
13.3515918548
 30
0.0
  0
SPLINE
  5
2A7
100
AcDbEntity
  8
0
100
AcDbSpline
 62
7
  6
BYLAYER
 70
0
 71
3
 72
13
 73
9
 74
0
 42
0.0000001
 43
0.0000001
 44
0.0000000001
 40
0.0
 40
0.0
 40
0.0
 40
0.0
 40
0.3623023141
 40
0.5253766476
 40
0.669185493
 40
0.7897248103
 40
0.8845369531
 40
1.0
 40
1.0
 40
1.0
 40
1.0
 10
21.6415974101
 20
12.6480642344
 30
0.0
 10
21.6181578271
 20
12.6422043386
 30
0.0
 10
21.5837688759
 20
12.6351653099
 30
0.0
 10
21.5393833886
 20
12.629980014
 30
0.0
 10
21.5109863728
 20
12.6285238694
 30
0.0
 10
21.4867207693
 20
12.6296580728
 30
0.0
 10
21.4657768792
 20
12.6329957813
 30
0.0
 10
21.4504051309
 20
12.6406266821
 30
0.0
 10
21.4484122448
 20
12.6480642344
 30
0.0
  0
SPLINE
  5
2A8
100
AcDbEntity
  8
0
100
AcDbSpline
 62
7
  6
BYLAYER
 70
0
 71
3
 72
12
 73
8
 74
0
 42
0.0000001
 43
0.0000001
 44
0.0000000001
 40
0.0
 40
0.0
 40
0.0
 40
0.0
 40
0.1144258798
 40
0.2028522739
 40
0.3155824321
 40
0.6138226773
 40
1.0
 40
1.0
 40
1.0
 40
1.0
 10
23.1787614634
 20
12.5584066858
 30
0.0
 10
23.1763934352
 20
12.5560386576
 30
0.0
 10
23.1694198847
 20
12.5556244689
 30
0.0
 10
23.1607200595
 20
12.5579340774
 30
0.0
 10
23.1470238948
 20
12.5634317711
 30
0.0
 10
23.1268976568
 20
12.5752595052
 30
0.0
 10
23.1105149134
 20
12.5868354406
 30
0.0
 10
23.1014921501
 20
12.5936420757
 30
0.0
  0
SPLINE
  5
2A9
100
AcDbEntity
  8
0
100
AcDbSpline
 62
7
  6
BYLAYER
 70
0
 71
3
 72
9
 73
5
 74
0
 42
0.0000001
 43
0.0000001
 44
0.0000000001
 40
0.0
 40
0.0
 40
0.0
 40
0.0
 40
0.2309096449
 40
1.0
 40
1.0
 40
1.0
 40
1.0
 10
23.1014921501
 20
12.5936420757
 30
0.0
 10
23.0963215716
 20
12.5975426813
 30
0.0
 10
23.074226074
 20
12.6148270562
 30
0.0
 10
23.0531132742
 20
12.6333476678
 30
0.0
 10
23.0373401071
 20
12.648064233
 30
0.0
  0
SPLINE
  5
2AA
100
AcDbEntity
  8
0
100
AcDbSpline
 62
7
  6
BYLAYER
 70
0
 71
3
 72
14
 73
10
 74
0
 42
0.0000001
 43
0.0000001
 44
0.0000000001
 40
0.0
 40
0.0
 40
0.0
 40
0.0
 40
0.3763956296
 40
0.5417904043
 40
0.6857758322
 40
0.8045286765
 40
0.8956734138
 40
0.9587995364
 40
1.0
 40
1.0
 40
1.0
 40
1.0
 10
23.7201828224
 20
13.3309069483
 30
0.0
 10
23.7359707767
 20
13.3161765861
 30
0.0
 10
23.7593502369
 20
13.2956386064
 30
0.0
 10
23.7905168082
 20
13.2716105184
 30
0.0
 10
23.8107470668
 20
13.2576599257
 30
0.0
 10
23.8282303603
 20
13.2472917151
 30
0.0
 10
23.842601464
 20
13.2409206402
 30
0.0
 10
23.8534798374
 20
13.2380271557
 30
0.0
 10
23.8599328995
 20
13.2395781218
 30
0.0
 10
23.8616041776
 20
13.2412494
 30
0.0
  0
SPLINE
  5
2AB
100
AcDbEntity
  8
0
100
AcDbSpline
 62
7
  6
BYLAYER
 70
0
 71
3
 72
14
 73
10
 74
0
 42
0.0000001
 43
0.0000001
 44
0.0000000001
 40
0.0
 40
0.0
 40
0.0
 40
0.0
 40
0.0412005504
 40
0.1043267227
 40
0.1954714779
 40
0.3142243169
 40
0.4582097219
 40
0.6236044611
 40
1.0
 40
1.0
 40
1.0
 40
1.0
 10
24.5787614514
 20
13.2412494492
 30
0.0
 10
24.5804327337
 20
13.239578168
 30
0.0
 10
24.5868858001
 20
13.2380271915
 30
0.0
 10
24.5977641892
 20
13.2409206617
 30
0.0
 10
24.6121353041
 20
13.2472917237
 30
0.0
 10
24.6296186083
 20
13.2576599193
 30
0.0
 10
24.6498488759
 20
13.271610497
 30
0.0
 10
24.6810154578
 20
13.2956385638
 30
0.0
 10
24.7043949238
 20
13.3161765309
 30
0.0
 10
24.7201828811
 20
13.3309068853
 30
0.0
  0
SPLINE
  5
2AC
100
AcDbEntity
  8
0
100
AcDbSpline
 62
7
  6
BYLAYER
 70
0
 71
3
 72
9
 73
5
 74
0
 42
0.0000001
 43
0.0000001
 44
0.0000000001
 40
0.0
 40
0.0
 40
0.0
 40
0.0
 40
0.2652968299
 40
1.0
 40
1.0
 40
1.0
 40
1.0
 10
25.4030255334
 20
12.648064233
 30
0.0
 10
25.397584726
 20
12.6429878907
 30
0.0
 10
25.3768564877
 20
12.6240942048
 30
0.0
 10
25.3553247341
 20
12.6060526431
 30
0.0
 10
25.3388734909
 20
12.593642076
 30
0.0
  0
SPLINE
  5
2AD
100
AcDbEntity
  8
0
100
AcDbSpline
 62
7
  6
BYLAYER
 70
0
 71
3
 72
12
 73
8
 74
0
 42
0.0000001
 43
0.0000001
 44
0.0000000001
 40
0.0
 40
0.0
 40
0.0
 40
0.0
 40
0.3861773348
 40
0.684417582
 40
0.7971477363
 40
0.8855741251
 40
1.0
 40
1.0
 40
1.0
 40
1.0
 10
25.3388734909
 20
12.593642076
 30
0.0
 10
25.3298507271
 20
12.5868354405
 30
0.0
 10
25.313467983
 20
12.5752595047
 30
0.0
 10
25.2933417441
 20
12.5634317701
 30
0.0
 10
25.2796455792
 20
12.5579340768
 30
0.0
 10
25.270945754
 20
12.5556244688
 30
0.0
 10
25.2639722037
 20
12.5560386586
 30
0.0
 10
25.2616041759
 20
12.5584066871
 30
0.0
  0
SPLINE
  5
2AE
100
AcDbEntity
  8
0
100
AcDbSpline
 62
7
  6
BYLAYER
 70
0
 71
3
 72
9
 73
5
 74
0
 42
0.0000001
 43
0.0000001
 44
0.0000000001
 40
0.0
 40
0.0
 40
0.0
 40
0.0
 40
0.2441290106
 40
1.0
 40
1.0
 40
1.0
 40
1.0
 10
26.8530859869
 20
12.6365634752
 30
0.0
 10
26.8486325108
 20
12.6373288546
 30
0.0
 10
26.8304223349
 20
12.6406491304
 30
0.0
 10
26.8123414774
 20
12.6446709215
 30
0.0
 10
26.7987682301
 20
12.6480642333
 30
0.0
  0
SPLINE
  5
2AF
100
AcDbEntity
  8
0
100
AcDbSpline
 62
7
  6
BYLAYER
 70
0
 71
3
 72
13
 73
9
 74
0
 42
0.0000001
 43
0.0000001
 44
0.0000000001
 40
0.0
 40
0.0
 40
0.0
 40
0.0
 40
0.1217432121
 40
0.2138959604
 40
0.3299662693
 40
0.4691808088
 40
0.6297670619
 40
1.0
 40
1.0
 40
1.0
 40
1.0
 10
26.9919533952
 20
12.6480642333
 30
0.0
 10
26.9904315044
 20
12.6423844593
 30
0.0
 10
26.9804504842
 20
12.6355043328
 30
0.0
 10
26.9654031343
 20
12.6314810263
 30
0.0
 10
26.9486003428
 20
12.6292510992
 30
0.0
 10
26.9285404789
 20
12.6287073843
 30
0.0
 10
26.8961740099
 20
12.630152672
 30
0.0
 10
26.8707096732
 20
12.6335346485
 30
0.0
 10
26.8530859869
 20
12.6365634752
 30
0.0
  0
SPLINE
  5
2B0
100
AcDbEntity
  8
0
100
AcDbSpline
 62
7
  6
BYLAYER
 70
0
 71
3
 72
13
 73
9
 74
0
 42
0.0000001
 43
0.0000001
 44
0.0000000001
 40
0.0
 40
0.0
 40
0.0
 40
0.0
 40
0.2585578897
 40
0.3897357319
 40
0.515750132
 40
0.6432646743
 40
0.7658238173
 40
1.0
 40
1.0
 40
1.0
 40
1.0
 10
12.0423816726
 20
52.5049276201
 30
0.0
 10
12.0335149685
 20
53.4521311934
 30
0.0
 10
12.0402668786
 20
54.8803168029
 30
0.0
 10
12.1070286063
 20
56.7687678738
 30
0.0
 10
12.1906963057
 20
58.1758261981
 30
0.0
 10
12.308053652
 20
59.5488282191
 30
0.0
 10
12.5092996974
 20
61.3116646927
 30
0.0
 10
12.7103400332
 20
62.6036863402
 30
0.0
 10
12.8592198818
 20
63.4485905827
 30
0.0
  0
SPLINE
  5
2B1
100
AcDbEntity
  8
0
100
AcDbSpline
 62
7
  6
BYLAYER
 70
0
 71
3
 72
20
 73
16
 74
0
 42
0.0000001
 43
0.0000001
 44
0.0000000001
 40
0.0
 40
0.0
 40
0.0
 40
0.0
 40
0.0818609975
 40
0.1635695433
 40
0.2446518887
 40
0.3237478064
 40
0.3986887628
 40
0.4715919627
 40
0.541804825
 40
0.6101718256
 40
0.7407245377
 40
0.8575591082
 40
0.9480383228
 40
0.9783004852
 40
1.0
 40
1.0
 40
1.0
 40
1.0
 10
21.1347013553
 20
13.6998280426
 30
0.0
 10
21.1410663974
 20
13.695448343
 30
0.0
 10
21.1533132569
 20
13.6860148499
 30
0.0
 10
21.1703834273
 20
13.6703806866
 30
0.0
 10
21.1848530082
 20
13.6526414928
 30
0.0
 10
21.1943714755
 20
13.6318805493
 30
0.0
 10
21.1928640988
 20
13.6097537946
 30
0.0
 10
21.1844912919
 20
13.5907210352
 30
0.0
 10
21.1729102551
 20
13.5743757801
 30
0.0
 10
21.1558799018
 20
13.5554616247
 30
0.0
 10
21.1326000486
 20
13.5366315748
 30
0.0
 10
21.1061723908
 20
13.5188113696
 30
0.0
 10
21.0868763854
 20
13.5072889327
 30
0.0
 10
21.074929018
 20
13.5011933516
 30
0.0
 10
21.0700878754
 20
13.4998280427
 30
0.0
 10
21.0680398096
 20
13.4998280426
 30
0.0
  0
SPLINE
  5
2B2
100
AcDbEntity
  8
0
100
AcDbSpline
 62
7
  6
BYLAYER
 70
0
 71
3
 72
9
 73
5
 74
0
 42
0.0000001
 43
0.0000001
 44
0.0000000001
 40
0.0
 40
0.0
 40
0.0
 40
0.0
 40
0.4989464306
 40
1.0
 40
1.0
 40
1.0
 40
1.0
 10
21.2875176464
 20
13.5987426121
 30
0.0
 10
21.2693910182
 20
13.6237014347
 30
0.0
 10
21.2215931381
 20
13.6659962289
 30
0.0
 10
21.1638331879
 20
13.6892967811
 30
0.0
 10
21.1347013526
 20
13.6998280426
 30
0.0
  0
SPLINE
  5
2B3
100
AcDbEntity
  8
0
100
AcDbSpline
 62
7
  6
BYLAYER
 70
0
 71
3
 72
11
 73
7
 74
0
 42
0.0000001
 43
0.0000001
 44
0.0000000001
 40
0.0
 40
0.0
 40
0.0
 40
0.0
 40
0.1518054684
 40
0.3774630558
 40
0.6659112976
 40
1.0
 40
1.0
 40
1.0
 40
1.0
 10
21.2595723775
 20
13.3552918184
 30
0.0
 10
21.2597512457
 20
13.3582587239
 30
0.0
 10
21.2612855311
 20
13.3655274639
 30
0.0
 10
21.2641618063
 20
13.3782223139
 30
0.0
 10
21.267567857
 20
13.3944860779
 30
0.0
 10
21.2699871382
 20
13.4064301518
 30
0.0
 10
21.2712813372
 20
13.4128421731
 30
0.0
  0
SPLINE
  5
2B4
100
AcDbEntity
  8
0
100
AcDbSpline
 62
7
  6
BYLAYER
 70
0
 71
3
 72
10
 73
6
 74
0
 42
0.0000001
 43
0.0000001
 44
0.0000000001
 40
0.0
 40
0.0
 40
0.0
 40
0.0
 40
0.4656767134
 40
0.7273945553
 40
1.0
 40
1.0
 40
1.0
 40
1.0
 10
21.2712813372
 20
13.4128421731
 30
0.0
 10
21.2770317314
 20
13.4413321115
 30
0.0
 10
21.2858854624
 20
13.4859765358
 30
0.0
 10
21.2897181986
 20
13.5483914639
 30
0.0
 10
21.2885390231
 20
13.5817557866
 30
0.0
 10
21.287517634
 20
13.5987393377
 30
0.0
  0
SPLINE
  5
2B5
100
AcDbEntity
  8
0
100
AcDbSpline
 62
7
  6
BYLAYER
 70
0
 71
3
 72
9
 73
5
 74
0
 42
0.0000001
 43
0.0000001
 44
0.0000000001
 40
0.0
 40
0.0
 40
0.0
 40
0.0
 40
0.5061755325
 40
1.0
 40
1.0
 40
1.0
 40
1.0
 10
56.6615386529
 20
18.8722547358
 30
0.0
 10
56.6813010486
 20
18.8896291033
 30
0.0
 10
56.713390673
 20
18.9327390128
 30
0.0
 10
56.7246184914
 20
18.9855294445
 30
0.0
 10
56.7239375035
 20
19.0111922243
 30
0.0
  0
SPLINE
  5
2B6
100
AcDbEntity
  8
0
100
AcDbSpline
 62
7
  6
BYLAYER
 70
0
 71
3
 72
8
 73
4
 74
0
 42
0.0000001
 43
0.0000001
 44
0.0000000001
 40
0.0
 40
0.0
 40
0.0
 40
0.0
 40
1.0
 40
1.0
 40
1.0
 40
1.0
 10
27.2893804413
 20
13.4816746109
 30
0.0
 10
27.2635028362
 20
13.4697798686
 30
0.0
 10
27.2397226093
 20
13.45182451
 30
0.0
 10
27.2211794565
 20
13.4302076919
 30
0.0
  0
SPLINE
  5
2B7
100
AcDbEntity
  8
0
100
AcDbSpline
 62
7
  6
BYLAYER
 70
0
 71
3
 72
8
 73
4
 74
0
 42
0.0000001
 43
0.0000001
 44
0.0000000001
 40
0.0
 40
0.0
 40
0.0
 40
0.0
 40
1.0
 40
1.0
 40
1.0
 40
1.0
 10
27.2211794565
 20
13.4302076919
 30
0.0
 10
27.2027085609
 20
13.4086751081
 30
0.0
 10
27.1886370856
 20
13.3825553426
 30
0.0
 10
27.1807932555
 20
13.3552918051
 30
0.0
  0
ENDSEC
  0
SECTION
  2
OBJECTS
  0
DICTIONARY
  5
C
100
AcDbDictionary
280
0
281
1
  3
ACAD_GROUP
350
D
  3
ACAD_MLINESTYLE
350
17
  3
ACAD_LAYOUT
350
1A
  3
ACAD_PLOTSETTINGS
350
19
  3
ACAD_PLOTSTYLENAME
350
E
  0
DICTIONARY
  5
D
102
{ACAD_REACTORS
330
C
102
}
100
AcDbDictionary
280
0
281
1
  0
ACDBDICTIONARYWDFLT
  5
E
102
{ACAD_REACTORS
330
C
102
}
100
AcDbDictionary
281
1
  3
Normal
350
F
100
AcDbDictionaryWithDefault
340
F
  0
DICTIONARY
  5
17
102
{ACAD_REACTORS
330
C
102
}
100
AcDbDictionary
280
0
281
1
  3
Standard
350
18
  0
DICTIONARY
  5
19
102
{ACAD_REACTORS
330
C
102
}
100
AcDbDictionary
281
1
  0
DICTIONARY
  5
1A
102
{ACAD_REACTORS
330
C
102
}
100
AcDbDictionary
281
1
  3
Model
350
2B8
  3
Layout1
350
2B9
  0
ACDBPLACEHOLDER
  5
F
102
{ACAD_REACTORS
330
E
102
}
  0
MLINESTYLE
  5
18
102
{ACAD_REACTORS
330
17
102
}
100
AcDbMlineStyle
  2
STANDARD
 70
0
  3

 62
256
 51
90.0
 52
90.0
 71
2
 49
0.5
 62
256
  6
BYLAYER
 49
-0.5
 62
256
  6
BYLAYER
  0
LAYOUT
  5
2B8
102
{ACAD_REACTORS
330
1A
102
}
100
AcDbPlotSettings
  1

  2
none_device
  4

  6

 40
0.0
 41
0.0
 42
0.0
 43
0.0
 44
210.0
 45
297.0
 46
0.0
 47
0.0
 48
0.0
 49
0.0
140
0.0
141
0.0
142
1.0
143
1.0
 70
1024
 72
1
 73
0
 74
0
  7

 75
0
147
1.0
148
0.0
149
0.0
100
AcDbLayout
  1
Model
 70
0
 71
0
 10
0.0
 20
0.0
 11
210.0
 21
297.0
 12
0.0
 22
0.0
 32
0.0
 14
0.0
 24
0.0
 34
0.0
 15
0.0
 25
0.0
 35
0.0
146
0.0
 13
0.0
 23
0.0
 33
0.0
 16
1.0
 26
0.0
 36
0.0
 17
0.0
 27
1.0
 37
0.0
 76
0
330
210
345
0
346
0
  0
LAYOUT
  5
2B9
102
{ACAD_REACTORS
330
1A
102
}
100
AcDbPlotSettings
  1

  2
none_device
  4

  6

 40
0.0
 41
0.0
 42
0.0
 43
0.0
 44
210.0
 45
297.0
 46
0.0
 47
0.0
 48
0.0
 49
0.0
140
0.0
141
0.0
142
1.0
143
1.0
 70
0
 72
1
 73
0
 74
0
  7

 75
0
147
1.0
148
0.0
149
0.0
100
AcDbLayout
  1
Layout1
 70
0
 71
1
 10
0.0
 20
0.0
 11
210.0
 21
297.0
 12
0.0
 22
0.0
 32
0.0
 14
0.0
 24
0.0
 34
0.0
 15
0.0
 25
0.0
 35
0.0
146
0.0
 13
0.0
 23
0.0
 33
0.0
 16
1.0
 26
0.0
 36
0.0
 17
0.0
 27
1.0
 37
0.0
 76
0
330
211
345
0
346
0
  0
ENDSEC
  0
EOF
