999
DXF file: C:\Users\sesa63760\Dev\_Creo\CAD\MCADID0003771_3D-CAD\drw0001_1.dxf
999
Pro/ENGINEER 2019471 by Parametric Technology Corporation
  0
SECTION
  2
HEADER
  9
$ACADVER
  1
AC1024
  9
$DWGCODEPAGE
  3
ANSI_1252
  9
$EXTMAX
 10
66.4325776612
 20
93.9546455494
 30
0.0
  9
$EXTMIN
 10
0.0
 20
0.0
 30
0.0
  9
$LIMMIN
 10
0.0
 20
0.0
  9
$LIMMAX
 10
66.4325776612
 20
93.9546455494
  9
$VIEWCTR
 10
33.2162888306
 20
46.9773227747
  9
$VIEWSIZE
 40
93.9546455494
  9
$CLAYER
  8
0
  9
$LTSCALE
 40
6.1244509691
  9
$CELTYPE
  6
BYLAYER
  9
$DIMSCALE
 40
1.0
  9
$DIMASZ
 40
0.7908640198
  9
$DIMEXO
 40
1.0
  9
$DIMDLI
 40
4.2314388514
  9
$DIMEXE
 40
1.0
  9
$DIMCEN
 40
1.0021828859
  9
$DIMLFAC
 40
1.0
  9
$DIMBLK
  1
_FILLED
  9
$DIMALT
 70
0
  9
$DIMALTF
 40
0.0393700787
  9
$DIMTXT
 40
1.1072096277
  9
$DIMTOL
 70
1
  9
$DIMLIM
 70
0
  9
$DIMTFAC
 40
1.0
  9
$DIMTP
 40
0.01
  9
$DIMTM
 40
0.01
  9
$DIMGAP
 40
0.625
  9
$DIMDSEP
 70
46
  9
$AUNITS
 70
0
  9
$PDMODE
 70
3
  9
$PDSIZE
 40
0.3125
  9
$HANDSEED
  5
331
  9
$TILEMODE
 70
1
  9
$MEASUREMENT
 70
1
  9
$INSUNITS
 70
4
  0
ENDSEC
  0
SECTION
  2
CLASSES
  0
CLASS
  1
ACDBDICTIONARYWDFLT
  2
AcDbDictionaryWithDefault
  3
AutoCAD 2000
 90
0
 91
1
280
0
281
0
  0
CLASS
  1
ACDBPLACEHOLDER
  2
AcDbPlaceHolder
  3
AutoCAD 2000
 90
0
 91
1
280
0
281
0
  0
CLASS
  1
LAYOUT
  2
AcDbLayout
  3
AutoCAD 2000
 90
0
 91
0
280
0
281
0
  0
ENDSEC
  0
SECTION
  2
TABLES
  0
TABLE
  2
VPORT
  5
8
100
AcDbSymbolTable
 70
2
  0
VPORT
  5
1F4
100
AcDbSymbolTableRecord
100
AcDbViewportTableRecord
  2
*ACTIVE
 70
0
 10
0.0
 20
0.0
 11
1.0
 21
1.0
 12
33.2162888306
 22
46.9773227747
 13
0.0
 23
0.0
 14
1.0
 24
1.0
 15
0.0
 25
0.0
 16
0.0
 26
0.0
 36
1.0
 17
0.0
 27
0.0
 37
0.0
 40
93.9546455494
 41
0.7070707071
 42
50.0
 43
0.0
 44
0.0
 50
0.0
 51
0.0
 71
0
 72
100
 73
1
 74
1
 75
0
 76
0
 77
0
 78
0
  0
ENDTAB
  0
TABLE
  2
LTYPE
  5
5
100
AcDbSymbolTable
 70
6
  0
LTYPE
  5
14
100
AcDbSymbolTableRecord
100
AcDbLinetypeTableRecord
  2
BYBLOCK
 70
0
  3

 72
65
 73
0
 40
0.0
  0
LTYPE
  5
15
100
AcDbSymbolTableRecord
100
AcDbLinetypeTableRecord
  2
BYLAYER
 70
0
  3

 72
65
 73
0
 40
0.0
  0
LTYPE
  5
16
100
AcDbSymbolTableRecord
100
AcDbLinetypeTableRecord
  2
CONTINUOUS
 70
64
  3
Solid line
 72
65
 73
0
 40
0.0
  0
LTYPE
  5
1F5
100
AcDbSymbolTableRecord
100
AcDbLinetypeTableRecord
  2
CENTER
 70
64
  3
____ _ ____ _ ____ _ ____ _ ____ _ ____ _ ____
 72
65
 73
4
 40
0.6
 49
0.375
 74
0
 49
-0.075
 74
0
 49
0.075
 74
0
 49
-0.075
 74
0
  0
LTYPE
  5
1F6
100
AcDbSymbolTableRecord
100
AcDbLinetypeTableRecord
  2
HIDDEN
 70
64
  3
- - - - - - - - - - - - - - - - - - - -
 72
65
 73
2
 40
0.2
 49
0.1
 74
0
 49
-0.1
 74
0
  0
LTYPE
  5
1F7
100
AcDbSymbolTableRecord
100
AcDbLinetypeTableRecord
  2
PHANTOM
 70
64
  3
_____ _ _ _____ _ _ _____ _ _ _____
 72
65
 73
6
 40
0.8
 49
0.45
 74
0
 49
-0.05
 74
0
 49
0.1
 74
0
 49
-0.05
 74
0
 49
0.1
 74
0
 49
-0.05
 74
0
  0
LTYPE
  5
1F8
100
AcDbSymbolTableRecord
100
AcDbLinetypeTableRecord
  2
DOT
 70
64
  3
. . . . . . . . . . . . . . . . . . . .
 72
65
 73
2
 40
0.2
 49
0.1
 74
0
 49
-0.1
 74
0
  0
LTYPE
  5
1F9
100
AcDbSymbolTableRecord
100
AcDbLinetypeTableRecord
  2
DASHED
 70
64
  3
- - - - - - - - - - - - - - - - - - - -
 72
65
 73
2
 40
0.2
 49
0.1
 74
0
 49
-0.1
 74
0
  0
ENDTAB
  0
TABLE
  2
LAYER
  5
2
100
AcDbSymbolTable
 70
36
  0
LAYER
  5
10
100
AcDbSymbolTableRecord
100
AcDbLayerTableRecord
  2
0
 70
0
 62
7
  6
CONTINUOUS
370
-3
390
F
  0
LAYER
  5
1FA
100
AcDbSymbolTableRecord
100
AcDbLayerTableRecord
  2
DEFAULT_1
 70
0
 62
7
  6
CENTER
370
-3
390
F
  0
LAYER
  5
1FB
100
AcDbSymbolTableRecord
100
AcDbLayerTableRecord
  2
DEFAULT_2
 70
0
 62
7
  6
HIDDEN
370
-3
390
F
  0
LAYER
  5
1FC
100
AcDbSymbolTableRecord
100
AcDbLayerTableRecord
  2
DEFAULT_3
 70
0
 62
7
  6
PHANTOM
370
-3
390
F
  0
LAYER
  5
1FD
100
AcDbSymbolTableRecord
100
AcDbLayerTableRecord
  2
00_COMPONENTS
 70
0
 62
7
  6
CONTINUOUS
370
-3
390
F
  0
LAYER
  5
1FE
100
AcDbSymbolTableRecord
100
AcDbLayerTableRecord
  2
01_1_DEFAULT_DATUMS
 70
0
 62
7
  6
CONTINUOUS
370
-3
390
F
  0
LAYER
  5
1FF
100
AcDbSymbolTableRecord
100
AcDbLayerTableRecord
  2
01_PLANES
 70
0
 62
7
  6
CONTINUOUS
370
-3
390
F
  0
LAYER
  5
200
100
AcDbSymbolTableRecord
100
AcDbLayerTableRecord
  2
02_COORD_SYS
 70
0
 62
7
  6
CONTINUOUS
370
-3
390
F
  0
LAYER
  5
201
100
AcDbSymbolTableRecord
100
AcDbLayerTableRecord
  2
03_AXES
 70
0
 62
7
  6
CONTINUOUS
370
-3
390
F
  0
LAYER
  5
202
100
AcDbSymbolTableRecord
100
AcDbLayerTableRecord
  2
04_POINTS
 70
0
 62
7
  6
CONTINUOUS
370
-3
390
F
  0
LAYER
  5
203
100
AcDbSymbolTableRecord
100
AcDbLayerTableRecord
  2
05_CURVES
 70
0
 62
7
  6
CONTINUOUS
370
-3
390
F
  0
LAYER
  5
204
100
AcDbSymbolTableRecord
100
AcDbLayerTableRecord
  2
06_SURFS
 70
0
 62
7
  6
CONTINUOUS
370
-3
390
F
  0
LAYER
  5
205
100
AcDbSymbolTableRecord
100
AcDbLayerTableRecord
  2
07_COSMETICS
 70
0
 62
7
  6
CONTINUOUS
370
-3
390
F
  0
LAYER
  5
206
100
AcDbSymbolTableRecord
100
AcDbLayerTableRecord
  2
10_NOTES
 70
0
 62
7
  6
CONTINUOUS
370
-3
390
F
  0
LAYER
  5
207
100
AcDbSymbolTableRecord
100
AcDbLayerTableRecord
  2
11_NOTES_PUB
 70
0
 62
7
  6
CONTINUOUS
370
-3
390
F
  0
LAYER
  5
208
100
AcDbSymbolTableRecord
100
AcDbLayerTableRecord
  2
13_REF_GTOL
 70
0
 62
7
  6
CONTINUOUS
370
-3
390
F
  0
LAYER
  5
209
100
AcDbSymbolTableRecord
100
AcDbLayerTableRecord
  2
16_MISC
 70
0
 62
7
  6
CONTINUOUS
370
-3
390
F
  0
LAYER
  5
20A
100
AcDbSymbolTableRecord
100
AcDbLayerTableRecord
  2
17_NO_PRINT
 70
0
 62
7
  6
CONTINUOUS
370
-3
390
F
  0
LAYER
  5
20B
100
AcDbSymbolTableRecord
100
AcDbLayerTableRecord
  2
18_DATUM_CAMS_JOINTS
 70
0
 62
7
  6
CONTINUOUS
370
-3
390
F
  0
LAYER
  5
20C
100
AcDbSymbolTableRecord
100
AcDbLayerTableRecord
  2
19_DATUM_FUNCTIONAL
 70
0
 62
7
  6
CONTINUOUS
370
-3
390
F
  0
LAYER
  5
20D
100
AcDbSymbolTableRecord
100
AcDbLayerTableRecord
  2
20_DATUM_KINEMATIC_SCHEME
 70
0
 62
7
  6
CONTINUOUS
370
-3
390
F
  0
ENDTAB
  0
TABLE
  2
STYLE
  5
3
100
AcDbSymbolTable
 70
1
  0
STYLE
  5
11
100
AcDbSymbolTableRecord
100
AcDbTextStyleTableRecord
  2
STANDARD
 70
0
 40
0.0
 41
1.0
 50
0.0
 71
0
 42
0.2
  3
ARIAL.TTF
  4

  0
STYLE
  5
20E
100
AcDbSymbolTableRecord
100
AcDbTextStyleTableRecord
  2
TEXTSTYLE_1
 70
0
 40
0.0
 41
0.8
 50
0.0
 71
0
 42
0.2
  3
gdt
  4

  0
ENDTAB
  0
TABLE
  2
VIEW
  5
6
100
AcDbSymbolTable
 70
0
  0
ENDTAB
  0
TABLE
  2
UCS
  5
7
100
AcDbSymbolTable
 70
0
  0
ENDTAB
  0
TABLE
  2
APPID
  5
9
100
AcDbSymbolTable
 70
1
  0
APPID
  5
20F
100
AcDbSymbolTableRecord
100
AcDbRegAppTableRecord
  2
ACAD
 70
0
  0
ENDTAB
  0
TABLE
  2
BLOCK_RECORD
  5
1
100
AcDbSymbolTable
 70
0
  0
BLOCK_RECORD
  5
210
100
AcDbSymbolTableRecord
100
AcDbBlockTableRecord
  2
*Model_Space
  0
BLOCK_RECORD
  5
211
100
AcDbSymbolTableRecord
100
AcDbBlockTableRecord
  2
*Paper_Space
  0
BLOCK_RECORD
  5
212
100
AcDbSymbolTableRecord
100
AcDbBlockTableRecord
  2
_FILLED
  0
ENDTAB
  0
TABLE
  2
DIMSTYLE
  5
A
100
AcDbSymbolTable
 70
1
100
AcDbDimStyleTable
 71
0
  0
DIMSTYLE
105
213
100
AcDbSymbolTableRecord
100
AcDbDimStyleTableRecord
  2
STANDARD
 70
0
  3

  4

 40
1.0
 41
0.7908640198
 42
1.0
 43
0.38
 44
1.0
 45
0.0
 46
0.0
 47
0.01
 48
0.01
140
1.1072096277
141
0.09
142
0.0
143
25.4
144
1.0
145
0.0
146
1.0
147
0.625
 71
1
 72
0
 73
0
 74
0
 75
0
 76
0
 77
1
 78
8
 79
2
170
0
171
1
172
0
173
0
174
0
175
0
176
0
177
0
178
0
270
2
179
2
271
2
272
2
273
2
274
2
275
0
280
0
281
0
282
0
283
1
284
8
285
0
286
0
287
3
288
0
340
11
278
46
341
212
342
212
343
212
344
212
  0
ENDTAB
  0
ENDSEC
  0
SECTION
  2
BLOCKS
  0
BLOCK
  5
20
100
AcDbEntity
  8
0
100
AcDbBlockBegin
  2
*Model_Space
 70
0
 10
0.0
 20
0.0
 30
0.0
  3
*Model_Space
  1

  0
ENDBLK
  5
21
100
AcDbEntity
  8
0
100
AcDbBlockEnd
  0
BLOCK
  5
1C
100
AcDbEntity
  8
0
100
AcDbBlockBegin
  2
*Paper_Space
 70
0
 10
0.0
 20
0.0
 30
0.0
  3
*Paper_Space
  1

  0
ENDBLK
  5
1D
100
AcDbEntity
  8
0
100
AcDbBlockEnd
  0
BLOCK
  5
214
100
AcDbEntity
  8
0
100
AcDbBlockBegin
  2
_FILLED
 70
64
 10
0.0
 20
0.0
  3
_FILLED
  1

  0
SOLID
  5
215
100
AcDbEntity
  8
0
  6
BYBLOCK
 62
0
100
AcDbTrace
 10
0.0
 20
0.0
 11
-1.0
 21
0.25
 12
-1.0
 22
-0.25
 13
-1.0
 23
-0.25
  0
ENDBLK
  5
216
100
AcDbEntity
  8
0
  6
BYBLOCK
 62
0
100
AcDbBlockEnd
  0
ENDSEC
  0
SECTION
  2
ENTITIES
  0
LINE
  5
217
100
AcDbEntity
  8
0
100
AcDbLine
 62
7
  6
BYLAYER
 10
31.2447908695
 20
7.7721609079
 11
29.135915535
 21
8.5857119053
  0
LINE
  5
218
100
AcDbEntity
  8
0
100
AcDbLine
 62
7
  6
BYLAYER
 10
26.2076456598
 20
85.6500666048
 11
28.187536404
 21
86.7931502357
  0
LINE
  5
219
100
AcDbEntity
  8
0
100
AcDbLine
 62
7
  6
BYLAYER
 10
28.528795643
 20
86.5961285794
 11
26.5489048988
 21
85.4530449486
  0
LINE
  5
21A
100
AcDbEntity
  8
0
100
AcDbLine
 62
7
  6
BYLAYER
 10
29.8307958691
 20
86.5313459656
 11
29.4895394718
 21
86.3343226688
  0
LINE
  5
21B
100
AcDbEntity
  8
0
100
AcDbLine
 62
7
  6
BYLAYER
 10
27.0023805203
 20
84.8983693502
 11
26.6611241229
 21
84.7013460533
  0
LINE
  5
21C
100
AcDbEntity
  8
0
100
AcDbLine
 62
7
  6
BYLAYER
 10
27.0148259584
 20
84.8576187904
 11
28.6410099135
 21
85.7964909303
  0
LINE
  5
21D
100
AcDbEntity
  8
0
100
AcDbLine
 62
7
  6
BYLAYER
 10
18.7145329205
 20
79.2896786883
 11
25.0617076424
 21
82.9541998484
  0
LINE
  5
21E
100
AcDbEntity
  8
0
100
AcDbLine
 62
7
  6
BYLAYER
 10
26.6611250573
 20
83.8369223911
 11
27.226808127
 21
84.1635177142
  0
LINE
  5
21F
100
AcDbEntity
  8
0
100
AcDbLine
 62
7
  6
BYLAYER
 10
29.4895404061
 20
85.4698990066
 11
30.0552234759
 21
85.7964943297
  0
LINE
  5
220
100
AcDbEntity
  8
0
100
AcDbLine
 62
7
  6
BYLAYER
 10
29.8430374801
 20
8.1774431875
 11
29.1359155357
 21
8.5857119064
  0
LINE
  5
221
100
AcDbEntity
  8
0
100
AcDbLine
 62
7
  6
BYLAYER
 10
37.633561607
 20
86.5313647212
 11
38.0870313405
 21
86.7931740311
  0
LINE
  5
222
100
AcDbEntity
  8
0
100
AcDbLine
 62
7
  6
BYLAYER
 10
38.4282905795
 20
86.5961523749
 11
37.9748208459
 21
86.3343430649
  0
LINE
  5
223
100
AcDbEntity
  8
0
100
AcDbLine
 62
7
  6
BYLAYER
 10
23.8971014468
 20
76.9291822115
 11
24.8680992448
 21
77.7301159961
  0
LINE
  5
224
100
AcDbEntity
  8
0
100
AcDbLine
 62
7
  6
BYLAYER
 10
37.9748217803
 20
85.4699194027
 11
38.5405048501
 21
85.7965147258
  0
LINE
  5
225
100
AcDbEntity
  8
0
100
AcDbLine
 62
7
  6
BYLAYER
 10
40.4620005075
 20
84.8984017031
 11
40.9154702411
 21
85.1602110131
  0
LINE
  5
226
100
AcDbEntity
  8
0
100
AcDbLine
 62
7
  6
BYLAYER
 10
41.2567294801
 20
84.9631893568
 11
40.8032597465
 21
84.7013800468
  0
LINE
  5
227
100
AcDbEntity
  8
0
100
AcDbLine
 62
7
  6
BYLAYER
 10
29.8785108119
 20
78.2642978387
 11
30.0552234759
 21
78.3663223338
  0
LINE
  5
228
100
AcDbEntity
  8
0
100
AcDbLine
 62
7
  6
BYLAYER
 10
18.7145329205
 20
79.2896786883
 11
16.391332156
 21
74.2838649478
  0
LINE
  5
229
100
AcDbEntity
  8
0
100
AcDbLine
 62
7
  6
BYLAYER
 10
40.8032606809
 20
83.8369563846
 11
41.3689437507
 21
84.1635517077
  0
LWPOLYLINE
  5
22A
100
AcDbEntity
  8
0
100
AcDbPolyline
 62
7
  6
BYLAYER
 90
3
 70
0
 10
42.0481745157
 20
22.2824274836
 10
36.7201368287
 20
21.2510694958
 10
31.0506927167
 20
21.2228600754
  0
LWPOLYLINE
  5
22B
100
AcDbEntity
  8
0
100
AcDbPolyline
 62
7
  6
BYLAYER
 90
6
 70
0
 10
31.0506927167
 20
21.2228600754
 10
25.6621257186
 20
22.2098655134
 10
21.0853637694
 20
24.1041288774
 10
17.7530241848
 20
26.7147790491
 10
15.9770377136
 20
29.7902291093
 10
15.7334987534
 20
31.6274439198
  0
LINE
  5
22C
100
AcDbEntity
  8
0
100
AcDbLine
 62
7
  6
BYLAYER
 10
37.6336204863
 20
78.3665156373
 11
37.9748768837
 21
78.5635389341
  0
LINE
  5
22D
100
AcDbEntity
  8
0
100
AcDbLine
 62
7
  6
BYLAYER
 10
40.4620358351
 20
79.9994922527
 11
40.8032922325
 21
80.1965155496
  0
LINE
  5
22E
100
AcDbEntity
  8
0
100
AcDbLine
 62
7
  6
BYLAYER
 10
44.2326889733
 20
81.8976536411
 11
43.8791370547
 21
81.6935315642
  0
LINE
  5
22F
100
AcDbEntity
  8
0
100
AcDbLine
 62
7
  6
BYLAYER
 10
38.4284114883
 20
78.3016259836
 11
38.5405048501
 21
78.3663427299
  0
LINE
  5
230
100
AcDbEntity
  8
0
100
AcDbLine
 62
7
  6
BYLAYER
 10
38.9356207125
 20
78.3017330235
 11
40.9155114566
 21
79.4448166543
  0
LINE
  5
231
100
AcDbEntity
  8
0
100
AcDbLine
 62
7
  6
BYLAYER
 10
41.2567706956
 20
79.2477949981
 11
39.2768799514
 21
78.1047113672
  0
LINE
  5
232
100
AcDbEntity
  8
0
100
AcDbLine
 62
7
  6
BYLAYER
 10
39.389094222
 20
77.3050737181
 11
41.3689849662
 21
78.448157349
  0
LWPOLYLINE
  5
233
100
AcDbEntity
  8
0
100
AcDbPolyline
 62
7
  6
BYLAYER
 90
6
 70
0
 10
21.1575755276
 20
26.9038175662
 10
25.7272483444
 20
25.0219786351
 10
31.0805024034
 20
24.0475119039
 10
36.6933238992
 20
24.0758049658
 10
42.0162907568
 20
25.1040882988
 10
46.528353893
 20
27.0317063657
  0
LINE
  5
234
100
AcDbEntity
  8
0
100
AcDbLine
 62
7
  6
BYLAYER
 10
22.9234007101
 20
74.8291600901
 11
23.8971014468
 21
76.9291822115
  0
LINE
  5
235
100
AcDbEntity
  8
0
100
AcDbLine
 62
7
  6
BYLAYER
 10
46.9197059288
 20
80.3463387739
 11
46.5661540102
 21
80.142216697
  0
LINE
  5
236
100
AcDbEntity
  8
0
100
AcDbLine
 62
7
  6
BYLAYER
 10
29.8785108119
 20
69.4870485301
 11
29.3128277421
 21
69.160453207
  0
LINE
  5
237
100
AcDbEntity
  8
0
100
AcDbLine
 62
7
  6
BYLAYER
 10
18.2235783146
 20
30.0300507352
 11
17.2189181414
 21
31.7635612481
  0
LWPOLYLINE
  5
238
100
AcDbEntity
  8
0
100
AcDbPolyline
 62
7
  6
BYLAYER
 90
3
 70
0
 10
16.539602676
 20
33.033806023
 10
18.2701504533
 20
30.0477985697
 10
21.5142321713
 20
27.5166811468
  0
LINE
  5
239
100
AcDbEntity
  8
0
100
AcDbLine
 62
7
  6
BYLAYER
 10
16.391332156
 20
74.2838649478
 11
16.391332156
 21
65.710589568
  0
LINE
  5
23A
100
AcDbEntity
  8
0
100
AcDbLine
 62
7
  6
BYLAYER
 10
15.7930414998
 20
34.4194098015
 11
15.7333507533
 21
31.6274450239
  0
LINE
  5
23B
100
AcDbEntity
  8
0
100
AcDbLine
 62
7
  6
BYLAYER
 10
16.924709064
 20
63.9524507792
 11
16.3018534193
 21
34.8191072424
  0
LWPOLYLINE
  5
23C
100
AcDbEntity
  8
0
100
AcDbPolyline
 62
7
  6
BYLAYER
 90
4
 70
0
 10
15.7930414998
 20
34.4194098015
 10
16.0377309282
 20
32.581993605
 10
17.8187953673
 20
29.5088211912
 10
21.1575755276
 20
26.9038175662
  0
LINE
  5
23D
100
AcDbEntity
  8
0
100
AcDbLine
 62
7
  6
BYLAYER
 10
16.3018534193
 20
34.8191072423
 11
16.539602676
 21
33.033806023
  0
LINE
  5
23E
100
AcDbEntity
  8
0
100
AcDbLine
 62
7
  6
BYLAYER
 10
18.7146051175
 20
69.278062376
 11
18.7146051175
 21
60.7047869962
  0
LINE
  5
23F
100
AcDbEntity
  8
0
100
AcDbLine
 62
7
  6
BYLAYER
 10
25.9678000301
 20
85.3671707101
 11
25.8103440249
 21
84.6437417642
  0
LWPOLYLINE
  5
240
100
AcDbEntity
  8
0
100
AcDbPolyline
 62
7
  6
BYLAYER
 90
7
 70
0
 10
27.5356384081
 20
16.1557031751
 10
27.7270015726
 20
15.6002787208
 10
29.1360332358
 20
14.3828111122
 10
31.2447908695
 20
13.5693280695
 10
33.7322352398
 20
13.2836750119
 10
36.2196754902
 20
13.5693400277
 10
38.3284213912
 20
14.382833208
  0
LINE
  5
241
100
AcDbEntity
  8
0
100
AcDbLine
 62
7
  6
BYLAYER
 10
22.8824436794
 20
74.2839066302
 11
22.9234007101
 21
74.8291600901
  0
LINE
  5
242
100
AcDbEntity
  8
0
100
AcDbLine
 62
7
  6
BYLAYER
 10
25.8103440247
 20
84.6437417642
 11
25.8025411144
 21
84.5717591486
  0
LINE
  5
243
100
AcDbEntity
  8
0
100
AcDbLine
 62
7
  6
BYLAYER
 10
26.0954372772
 20
84.1635149947
 11
26.2076506134
 21
84.9631531833
  0
LINE
  5
244
100
AcDbEntity
  8
0
100
AcDbLine
 62
7
  6
BYLAYER
 10
15.7930414998
 20
34.4194098017
 11
16.3342815932
 21
36.3358971074
  0
LINE
  5
245
100
AcDbEntity
  8
0
100
AcDbLine
 62
7
  6
BYLAYER
 10
48.7498834349
 20
69.278134572
 11
42.402708713
 21
65.6136134119
  0
LINE
  5
246
100
AcDbEntity
  8
0
100
AcDbLine
 62
7
  6
BYLAYER
 10
22.9822081777
 20
74.2839066302
 11
22.9822081777
 21
73.6117473634
  0
LINE
  5
247
100
AcDbEntity
  8
0
100
AcDbLine
 62
7
  6
BYLAYER
 10
23.1363468177
 20
22.9478166676
 11
23.1363468177
 21
21.3627720667
  0
LINE
  5
248
100
AcDbEntity
  8
0
100
AcDbLine
 62
7
  6
BYLAYER
 10
24.3322081777
 20
20.3333538891
 11
24.3322081777
 21
20.2207575391
  0
LINE
  5
249
100
AcDbEntity
  8
0
100
AcDbLine
 62
7
  6
BYLAYER
 10
25.0618326912
 20
65.6135717296
 11
25.0618326912
 21
57.0402963497
  0
LINE
  5
24A
100
AcDbEntity
  8
0
100
AcDbLine
 62
7
  6
BYLAYER
 10
28.923852626
 20
85.7964916102
 11
29.0360659622
 21
86.5961297988
  0
LINE
  5
24B
100
AcDbEntity
  8
0
100
AcDbLine
 62
7
  6
BYLAYER
 10
25.8025411144
 20
84.5717591477
 11
25.8025411144
 21
81.4195109401
  0
LINE
  5
24C
100
AcDbEntity
  8
0
100
AcDbLine
 62
7
  6
BYLAYER
 10
26.0954372772
 20
81.2504110872
 11
26.0954372772
 21
84.1635149947
  0
LINE
  5
24D
100
AcDbEntity
  8
0
100
AcDbLine
 62
7
  6
BYLAYER
 10
26.6611241229
 20
84.7013460533
 11
26.6611250573
 21
80.9238184836
  0
LINE
  5
24E
100
AcDbEntity
  8
0
100
AcDbLine
 62
7
  6
BYLAYER
 10
27.226808127
 20
84.1635177142
 11
27.226808127
 21
80.5972285994
  0
LINE
  5
24F
100
AcDbEntity
  8
0
100
AcDbLine
 62
7
  6
BYLAYER
 10
27.226808127
 20
77.3646718364
 11
27.226808127
 21
76.8604411106
  0
LINE
  5
250
100
AcDbEntity
  8
0
100
AcDbLine
 62
7
  6
BYLAYER
 10
27.2322081777
 20
16.3310975898
 11
27.2322081777
 21
11.2392309522
  0
LINE
  5
251
100
AcDbEntity
  8
0
100
AcDbLine
 62
7
  6
BYLAYER
 10
37.4091340002
 20
85.7965120063
 11
37.633561607
 21
86.5313647212
  0
LINE
  5
252
100
AcDbEntity
  8
0
100
AcDbLine
 62
7
  6
BYLAYER
 10
18.7146051175
 20
60.7047869962
 11
16.391332156
 21
65.710589568
  0
LINE
  5
253
100
AcDbEntity
  8
0
100
AcDbLine
 62
7
  6
BYLAYER
 10
28.6410099135
 20
85.7964909303
 11
28.6410099135
 21
79.7807572883
  0
LINE
  5
254
100
AcDbEntity
  8
0
100
AcDbLine
 62
7
  6
BYLAYER
 10
28.923852626
 20
79.6174616664
 11
28.923852626
 21
85.7964916102
  0
LINE
  5
255
100
AcDbEntity
  8
0
100
AcDbLine
 62
7
  6
BYLAYER
 10
29.4895404061
 20
79.2908690628
 11
29.4895394718
 21
86.3343226688
  0
LINE
  5
256
100
AcDbEntity
  8
0
100
AcDbLine
 62
7
  6
BYLAYER
 10
29.8785108119
 20
78.4685751185
 11
29.8785108119
 21
69.4870485301
  0
LINE
  5
257
100
AcDbEntity
  8
0
100
AcDbLine
 62
7
  6
BYLAYER
 10
30.0552234759
 20
85.7964943297
 11
30.0552234759
 21
78.3663223338
  0
LINE
  5
258
100
AcDbEntity
  8
0
100
AcDbLine
 62
7
  6
BYLAYER
 10
30.8930966307
 20
21.251726413
 11
30.8930966307
 21
21.168093327
  0
LINE
  5
259
100
AcDbEntity
  8
0
100
AcDbLine
 62
7
  6
BYLAYER
 10
30.8930966307
 20
18.4695563868
 11
30.8930966307
 21
16.8845117859
  0
LINE
  5
25A
100
AcDbEntity
  8
0
100
AcDbLine
 62
7
  6
BYLAYER
 10
37.4091928795
 20
77.6316629224
 11
37.6336204863
 21
78.3665156373
  0
LINE
  5
25B
100
AcDbEntity
  8
0
100
AcDbLine
 62
7
  6
BYLAYER
 10
40.4620005075
 20
84.8984017031
 11
40.2375729008
 21
84.1635489882
  0
LINE
  5
25C
100
AcDbEntity
  8
0
100
AcDbLine
 62
7
  6
BYLAYER
 10
40.4620358351
 20
79.9994922527
 11
40.2376082284
 21
79.2646395379
  0
LINE
  5
25D
100
AcDbEntity
  8
0
100
AcDbLine
 62
7
  6
BYLAYER
 10
48.7498834349
 20
60.7048591921
 11
42.402708713
 21
57.0403380321
  0
LINE
  5
25E
100
AcDbEntity
  8
0
100
AcDbLine
 62
7
  6
BYLAYER
 10
16.391332156
 20
74.2838649478
 11
18.7146051175
 21
69.278062376
  0
LINE
  5
25F
100
AcDbEntity
  8
0
100
AcDbLine
 62
7
  6
BYLAYER
 10
33.7322803747
 20
64.2722903178
 11
33.7322803747
 21
55.699014938
  0
LINE
  5
260
100
AcDbEntity
  8
0
100
AcDbLine
 62
7
  6
BYLAYER
 10
38.8233475625
 20
85.7965154057
 11
38.9355608987
 21
86.5961535942
  0
LINE
  5
261
100
AcDbEntity
  8
0
100
AcDbLine
 62
7
  6
BYLAYER
 10
38.0870939958
 20
78.1047085073
 11
37.9748806596
 21
77.3050703188
  0
LINE
  5
262
100
AcDbEntity
  8
0
100
AcDbLine
 62
7
  6
BYLAYER
 10
26.5936266616
 20
85.1343581617
 11
26.5489048988
 21
85.4530449486
  0
LINE
  5
263
100
AcDbEntity
  8
0
100
AcDbLine
 62
7
  6
BYLAYER
 10
28.528795643
 20
86.5961285794
 11
28.6410099135
 21
85.7964909303
  0
LINE
  5
264
100
AcDbEntity
  8
0
100
AcDbLine
 62
7
  6
BYLAYER
 10
40.9154681291
 20
85.4530794816
 11
40.8707463663
 21
85.134389826
  0
LINE
  5
265
100
AcDbEntity
  8
0
100
AcDbLine
 62
7
  6
BYLAYER
 10
40.9155093447
 20
79.7376851228
 11
40.8707875818
 21
79.4189954673
  0
LINE
  5
266
100
AcDbEntity
  8
0
100
AcDbLine
 62
7
  6
BYLAYER
 10
37.4091340002
 20
85.7965120063
 11
37.4091340002
 21
78.3663400104
  0
LINE
  5
267
100
AcDbEntity
  8
0
100
AcDbLine
 62
7
  6
BYLAYER
 10
37.4091928795
 20
77.6316629224
 11
37.4091928795
 21
70.2014909265
  0
LINE
  5
268
100
AcDbEntity
  8
0
100
AcDbLine
 62
7
  6
BYLAYER
 10
37.9748217803
 20
78.5635389341
 11
37.9748208459
 21
86.3343430649
  0
LINE
  5
269
100
AcDbEntity
  8
0
100
AcDbLine
 62
7
  6
BYLAYER
 10
37.9748806596
 20
77.3050703188
 11
37.9748806596
 21
69.8748983229
  0
LINE
  5
26A
100
AcDbEntity
  8
0
100
AcDbLine
 62
7
  6
BYLAYER
 10
38.5405048501
 20
85.7965147258
 11
38.5405048501
 21
78.3663427299
  0
LINE
  5
26B
100
AcDbEntity
  8
0
100
AcDbLine
 62
7
  6
BYLAYER
 10
38.8233475625
 20
78.3663434098
 11
38.8233475625
 21
85.7965154057
  0
LINE
  5
26C
100
AcDbEntity
  8
0
100
AcDbLine
 62
7
  6
BYLAYER
 10
39.389094222
 20
69.0401105209
 11
39.389094222
 21
77.3050737181
  0
LINE
  5
26D
100
AcDbEntity
  8
0
100
AcDbLine
 62
7
  6
BYLAYER
 10
48.7498834349
 20
69.278134572
 11
51.0730841994
 21
74.2839483125
  0
LINE
  5
26E
100
AcDbEntity
  8
0
100
AcDbLine
 62
7
  6
BYLAYER
 10
25.0618326912
 20
57.0402963497
 11
18.7146051175
 21
60.7047869962
  0
LINE
  5
26F
100
AcDbEntity
  8
0
100
AcDbLine
 62
7
  6
BYLAYER
 10
27.0023805203
 20
84.8983693502
 11
27.226808127
 21
84.1635177142
  0
LINE
  5
270
100
AcDbEntity
  8
0
100
AcDbLine
 62
7
  6
BYLAYER
 10
40.2322081777
 20
16.3252171663
 11
40.2322081777
 21
11.2392309522
  0
LINE
  5
271
100
AcDbEntity
  8
0
100
AcDbLine
 62
7
  6
BYLAYER
 10
40.2375729008
 20
84.1635489882
 11
40.2376082284
 21
79.0534313792
  0
LINE
  5
272
100
AcDbEntity
  8
0
100
AcDbLine
 62
7
  6
BYLAYER
 10
40.2376082284
 20
75.7322872565
 11
40.2376082284
 21
75.2273859651
  0
LINE
  5
273
100
AcDbEntity
  8
0
100
AcDbLine
 62
7
  6
BYLAYER
 10
40.8032597465
 20
84.7013800468
 11
40.8032606809
 21
80.1965155496
  0
LINE
  5
274
100
AcDbEntity
  8
0
100
AcDbLine
 62
7
  6
BYLAYER
 10
41.3689437507
 20
84.1635517077
 11
41.3689437507
 21
79.8534037278
  0
LINE
  5
275
100
AcDbEntity
  8
0
100
AcDbLine
 62
7
  6
BYLAYER
 10
41.4889579908
 20
20.1087457081
 11
41.4889579908
 21
18.5237011073
  0
LINE
  5
276
100
AcDbEntity
  8
0
100
AcDbLine
 62
7
  6
BYLAYER
 10
41.6618340255
 20
84.5717924614
 11
41.661875241
 21
71.4262261076
  0
LINE
  5
277
100
AcDbEntity
  8
0
100
AcDbLine
 62
7
  6
BYLAYER
 10
42.402708713
 20
65.6136134119
 11
42.402708713
 21
57.0403380321
  0
LINE
  5
278
100
AcDbEntity
  8
0
100
AcDbLine
 62
7
  6
BYLAYER
 10
51.0730841994
 20
65.7106729326
 11
48.7498834349
 21
60.7048591921
  0
LINE
  5
279
100
AcDbEntity
  8
0
100
AcDbLine
 62
7
  6
BYLAYER
 10
42.402708713
 20
57.0403380321
 11
33.7322803747
 21
55.699014938
  0
LINE
  5
27A
100
AcDbEntity
  8
0
100
AcDbLine
 62
7
  6
BYLAYER
 10
33.7322803747
 20
55.699014938
 11
25.0618326912
 21
57.0402963497
  0
LINE
  5
27B
100
AcDbEntity
  8
0
100
AcDbLine
 62
7
  6
BYLAYER
 10
30.0552234759
 20
85.7964943297
 11
29.8307958691
 21
86.5313459656
  0
LINE
  5
27C
100
AcDbEntity
  8
0
100
AcDbLine
 62
7
  6
BYLAYER
 10
41.661875241
 20
78.8563981035
 11
41.6540723307
 21
78.9283807191
  0
LINE
  5
27D
100
AcDbEntity
  8
0
100
AcDbLine
 62
7
  6
BYLAYER
 10
41.6618340255
 20
84.5717924622
 11
41.6540311151
 21
84.6437750779
  0
LINE
  5
27E
100
AcDbEntity
  8
0
100
AcDbLine
 62
7
  6
BYLAYER
 10
43.1322081777
 20
21.3952691453
 11
43.1322081777
 21
20.2207575391
  0
LINE
  5
27F
100
AcDbEntity
  8
0
100
AcDbLine
 62
7
  6
BYLAYER
 10
44.2326889733
 20
81.4894128866
 11
44.2326889733
 21
81.8976536411
  0
LINE
  5
280
100
AcDbEntity
  8
0
100
AcDbLine
 62
7
  6
BYLAYER
 10
44.4822081777
 20
74.2839066302
 11
44.4822081777
 21
73.6118205837
  0
LINE
  5
281
100
AcDbEntity
  8
0
100
AcDbLine
 62
7
  6
BYLAYER
 10
25.0618326912
 20
65.6135717296
 11
18.7146051175
 21
69.278062376
  0
LWPOLYLINE
  5
282
100
AcDbEntity
  8
0
100
AcDbPolyline
 62
7
  6
BYLAYER
 90
3
 70
0
 10
51.1249031381
 20
36.5806002008
 10
51.422604123
 20
36.0551184246
 10
51.6713748556
 20
34.4194098017
  0
LINE
  5
283
100
AcDbEntity
  8
0
100
AcDbLine
 62
7
  6
BYLAYER
 10
39.389094222
 20
77.3050737181
 11
39.2768799514
 21
78.1047113672
  0
LINE
  5
284
100
AcDbEntity
  8
0
100
AcDbLine
 62
7
  6
BYLAYER
 10
38.4282905795
 20
86.5961523749
 11
38.5405048501
 21
85.7965147258
  0
LINE
  5
285
100
AcDbEntity
  8
0
100
AcDbLine
 62
7
  6
BYLAYER
 10
41.2567706956
 20
79.2477949981
 11
41.3689849662
 21
78.448157349
  0
LINE
  5
286
100
AcDbEntity
  8
0
100
AcDbLine
 62
7
  6
BYLAYER
 10
41.4966163255
 20
79.651809665
 11
41.6540723307
 21
78.9283807191
  0
LINE
  5
287
100
AcDbEntity
  8
0
100
AcDbLine
 62
7
  6
BYLAYER
 10
41.2567294801
 20
84.9631893568
 11
41.3689437507
 21
84.1635517077
  0
LINE
  5
288
100
AcDbEntity
  8
0
100
AcDbLine
 62
7
  6
BYLAYER
 10
50.5397072914
 20
63.9524507792
 11
51.1625629361
 21
34.8191072424
  0
LINE
  5
289
100
AcDbEntity
  8
0
100
AcDbLine
 62
7
  6
BYLAYER
 10
51.6713748557
 20
34.4194098015
 11
51.7310656021
 21
31.6274450239
  0
LINE
  5
28A
100
AcDbEntity
  8
0
100
AcDbLine
 62
7
  6
BYLAYER
 10
48.7498834349
 20
69.278134572
 11
48.7498834349
 21
60.7048591921
  0
LINE
  5
28B
100
AcDbEntity
  8
0
100
AcDbLine
 62
7
  6
BYLAYER
 10
51.0730841994
 20
74.2839483125
 11
51.0730841994
 21
65.7106729326
  0
LINE
  5
28C
100
AcDbEntity
  8
0
100
AcDbLine
 62
7
  6
BYLAYER
 10
33.7322803747
 20
64.2722903178
 11
42.402708713
 21
65.6136134119
  0
LINE
  5
28D
100
AcDbEntity
  8
0
100
AcDbLine
 62
7
  6
BYLAYER
 10
25.0618326912
 20
65.6135717296
 11
33.7322803747
 21
64.2722903178
  0
LINE
  5
28E
100
AcDbEntity
  8
0
100
AcDbLine
 62
7
  6
BYLAYER
 10
28.0753857231
 20
69.8748745274
 11
29.3128277421
 21
69.160453207
  0
LINE
  5
28F
100
AcDbEntity
  8
0
100
AcDbLine
 62
7
  6
BYLAYER
 10
41.4965751098
 20
85.3672040238
 11
41.654031115
 21
84.6437750779
  0
LWPOLYLINE
  5
290
100
AcDbEntity
  8
0
100
AcDbPolyline
 62
7
  6
BYLAYER
 90
3
 70
0
 10
49.3324522282
 20
30.204377151
 10
50.9724294424
 20
33.2073747175
 10
51.1625629361
 20
34.8191072423
  0
LWPOLYLINE
  5
291
100
AcDbEntity
  8
0
100
AcDbPolyline
 62
7
  6
BYLAYER
 90
3
 70
0
 10
50.2449827989
 20
31.7720139031
 10
49.3794405879
 20
30.1871009356
 10
46.2028635888
 20
27.6159452625
  0
LINE
  5
292
100
AcDbEntity
  8
0
100
AcDbLine
 62
7
  6
BYLAYER
 10
46.1654144331
 20
27.6409426125
 11
49.3324522282
 21
30.204377151
  0
LWPOLYLINE
  5
293
100
AcDbEntity
  8
0
100
AcDbPolyline
 62
7
  6
BYLAYER
 90
7
 70
0
 10
46.2028635888
 20
27.6159452625
 10
41.8055719499
 20
25.7373592248
 10
36.6180032145
 20
24.7352319127
 10
31.1479527544
 20
24.7076585298
 10
25.9308672206
 20
25.6573381509
 10
21.477431295
 20
27.4913095178
 10
18.2235783146
 20
30.0300507352
  0
LINE
  5
294
100
AcDbEntity
  8
0
100
AcDbLine
 62
7
  6
BYLAYER
 10
37.4091928795
 20
70.2014909265
 11
37.9748806596
 21
69.8748983229
  0
LWPOLYLINE
  5
295
100
AcDbEntity
  8
0
100
AcDbPolyline
 62
7
  6
BYLAYER
 90
3
 70
0
 10
43.5672406852
 20
76.929274199
 10
44.5409971536
 20
74.8292822721
 10
44.581972676
 20
74.2839066301
  0
LINE
  5
296
100
AcDbEntity
  8
0
100
AcDbLine
 62
7
  6
BYLAYER
 10
46.5709317621
 20
24.2151597588
 11
42.0481745157
 21
22.2824274836
  0
LWPOLYLINE
  5
297
100
AcDbEntity
  8
0
100
AcDbPolyline
 62
7
  6
BYLAYER
 90
5
 70
0
 10
39.3159651644
 20
21.7535487286
 10
37.5527627925
 20
21.0562162771
 10
34.1690773911
 20
20.5967383791
 10
30.7263903817
 20
20.8739893981
 10
27.7766110978
 20
21.8225624385
  0
LWPOLYLINE
  5
298
100
AcDbEntity
  8
0
100
AcDbPolyline
 62
7
  6
BYLAYER
 90
3
 70
0
 10
38.3284213912
 20
14.382833208
 10
39.7374354952
 20
15.6003075903
 10
39.9485288238
 20
16.2130114424
  0
LINE
  5
299
100
AcDbEntity
  8
0
100
AcDbLine
 62
7
  6
BYLAYER
 10
26.0954372772
 20
84.1635149947
 11
26.6611250573
 21
83.8369223911
  0
LINE
  5
29A
100
AcDbEntity
  8
0
100
AcDbLine
 62
7
  6
BYLAYER
 10
37.4091928795
 20
77.6316629224
 11
37.9748806596
 21
77.3050703188
  0
LINE
  5
29B
100
AcDbEntity
  8
0
100
AcDbLine
 62
7
  6
BYLAYER
 10
37.5999260833
 20
78.2561886419
 11
37.4091340002
 21
78.3663400104
  0
LINE
  5
29C
100
AcDbEntity
  8
0
100
AcDbLine
 62
7
  6
BYLAYER
 10
38.0870939958
 20
78.1047085073
 11
37.6336204863
 21
78.3665156373
  0
LINE
  5
29D
100
AcDbEntity
  8
0
100
AcDbLine
 62
7
  6
BYLAYER
 10
26.6611241229
 20
84.7013460533
 11
26.2076506134
 21
84.9631531833
  0
LINE
  5
29E
100
AcDbEntity
  8
0
100
AcDbLine
 62
7
  6
BYLAYER
 10
26.5489070107
 20
85.1601764801
 11
27.0023805203
 21
84.8983693502
  0
LINE
  5
29F
100
AcDbEntity
  8
0
100
AcDbLine
 62
7
  6
BYLAYER
 10
37.9748768837
 20
78.5635389341
 11
38.4283503932
 21
78.3017318041
  0
LINE
  5
2A0
100
AcDbEntity
  8
0
100
AcDbLine
 62
7
  6
BYLAYER
 10
41.661875241
 20
78.5008861224
 11
43.5672406852
 21
76.929274199
  0
LINE
  5
2A1
100
AcDbEntity
  8
0
100
AcDbLine
 62
7
  6
BYLAYER
 10
51.0730841994
 20
74.2839483125
 11
48.7498112379
 21
79.2897508843
  0
LINE
  5
2A2
100
AcDbEntity
  8
0
100
AcDbLine
 62
7
  6
BYLAYER
 10
28.923852626
 20
85.7964916102
 11
29.4895404061
 21
85.4698990066
  0
LINE
  5
2A3
100
AcDbEntity
  8
0
100
AcDbLine
 62
7
  6
BYLAYER
 10
40.2376082284
 20
79.2646395379
 11
40.4205224741
 21
79.1590363379
  0
LINE
  5
2A4
100
AcDbEntity
  8
0
100
AcDbLine
 62
7
  6
BYLAYER
 10
40.9155093447
 20
79.7376851228
 11
40.4620358351
 21
79.9994922527
  0
LINE
  5
2A5
100
AcDbEntity
  8
0
100
AcDbLine
 62
7
  6
BYLAYER
 10
29.4895394718
 20
86.3343226688
 11
29.0360659622
 21
86.5961297988
  0
LINE
  5
2A6
100
AcDbEntity
  8
0
100
AcDbLine
 62
7
  6
BYLAYER
 10
29.3773223596
 20
86.7931530956
 11
29.8307958691
 21
86.5313459656
  0
LINE
  5
2A7
100
AcDbEntity
  8
0
100
AcDbLine
 62
7
  6
BYLAYER
 10
40.8032922325
 20
80.1965155496
 11
41.2567657421
 21
79.9347084196
  0
LWPOLYLINE
  5
2A8
100
AcDbEntity
  8
0
100
AcDbPolyline
 62
7
  6
BYLAYER
 90
3
 70
0
 10
30.3021489474
 20
80.1401252583
 10
32.7875763523
 20
80.5242746422
 10
34.6766283746
 20
80.5242853183
  0
LINE
  5
2A9
100
AcDbEntity
  8
0
100
AcDbLine
 62
7
  6
BYLAYER
 10
34.6766283746
 20
80.5242853183
 11
36.5359433892
 21
80.2369288792
  0
LINE
  5
2AA
100
AcDbEntity
  8
0
100
AcDbLine
 62
7
  6
BYLAYER
 10
43.8791370547
 20
81.6935315642
 11
46.5661540102
 21
80.142216697
  0
LINE
  5
2AB
100
AcDbEntity
  8
0
100
AcDbLine
 62
7
  6
BYLAYER
 10
37.4091340002
 20
85.7965120063
 11
37.9748217803
 21
85.4699194027
  0
LINE
  5
2AC
100
AcDbEntity
  8
0
100
AcDbLine
 62
7
  6
BYLAYER
 10
40.2375729008
 20
84.1635489882
 11
40.8032606809
 21
83.8369563846
  0
LINE
  5
2AD
100
AcDbEntity
  8
0
100
AcDbLine
 62
7
  6
BYLAYER
 10
38.3284213905
 20
8.5856660474
 11
37.621311666
 21
8.1774043837
  0
LWPOLYLINE
  5
2AE
100
AcDbEntity
  8
0
100
AcDbPolyline
 62
7
  6
BYLAYER
 90
4
 70
0
 10
38.3284213912
 20
8.5856660463
 10
36.2196754902
 20
7.7721728661
 10
33.7322352398
 20
7.4865078502
 10
31.2447908695
 20
7.7721609079
  0
LINE
  5
2AF
100
AcDbEntity
  8
0
100
AcDbLine
 62
7
  6
BYLAYER
 10
33.7321359807
 20
84.2955229425
 11
30.0552234759
 21
83.7267012574
  0
LINE
  5
2B0
100
AcDbEntity
  8
0
100
AcDbLine
 62
7
  6
BYLAYER
 10
25.8025411144
 20
83.0688074555
 11
25.0617076424
 21
82.9541998484
  0
LINE
  5
2B1
100
AcDbEntity
  8
0
100
AcDbLine
 62
7
  6
BYLAYER
 10
42.4025836642
 20
82.9542415307
 11
41.6618340255
 21
83.068832352
  0
LINE
  5
2B2
100
AcDbEntity
  8
0
100
AcDbLine
 62
7
  6
BYLAYER
 10
37.4091340002
 20
83.7267069742
 11
33.7321359807
 21
84.2955229425
  0
LINE
  5
2B3
100
AcDbEntity
  8
0
100
AcDbLine
 62
7
  6
BYLAYER
 10
42.4025836642
 20
82.9542415307
 11
44.2326889733
 21
81.8976536411
  0
LINE
  5
2B4
100
AcDbEntity
  8
0
100
AcDbLine
 62
7
  6
BYLAYER
 10
46.9197059288
 20
80.3463387739
 11
48.7498112379
 21
79.2897508843
  0
LINE
  5
2B5
100
AcDbEntity
  8
0
100
AcDbLine
 62
7
  6
BYLAYER
 10
38.8233475625
 20
85.7965154057
 11
40.4495535688
 21
84.8576461702
  0
LINE
  5
2B6
100
AcDbEntity
  8
0
100
AcDbLine
 62
7
  6
BYLAYER
 10
40.8032597465
 20
84.7013800468
 11
40.4620005075
 21
84.8984017031
  0
LINE
  5
2B7
100
AcDbEntity
  8
0
100
AcDbLine
 62
7
  6
BYLAYER
 10
37.9748208459
 20
86.3343430649
 11
37.633561607
 21
86.5313647212
  0
LINE
  5
2B8
100
AcDbEntity
  8
0
100
AcDbLine
 62
7
  6
BYLAYER
 10
40.9154681291
 20
85.4530794816
 11
38.9355608987
 21
86.5961535942
  0
LINE
  5
2B9
100
AcDbEntity
  8
0
100
AcDbLine
 62
7
  6
BYLAYER
 10
39.2768172961
 20
86.793176891
 11
41.2567245265
 21
85.6501027784
  0
ARC
  5
2BA
100
AcDbEntity
  8
0
100
AcDbCircle
 62
7
  6
BYLAYER
 10
86.1701775283
 20
6.0617960466
 40
65.2564288516
100
AcDbArc
 50
164.7422693576
 51
165.0032595695
  0
ARC
  5
2BB
100
AcDbEntity
  8
0
100
AcDbCircle
 62
7
  6
BYLAYER
 10
33.6430844295
 20
85.7012905304
 40
17.6193715847
100
AcDbArc
 50
261.0814347761
 51
263.7238740148
  0
ARC
  5
2BC
100
AcDbEntity
  8
0
100
AcDbCircle
 62
7
  6
BYLAYER
 10
34.0037505173
 20
84.6557273625
 40
16.5578715769
100
AcDbArc
 50
281.0447107143
 51
282.3672670598
  0
ARC
  5
2BD
100
AcDbEntity
  8
0
100
AcDbCircle
 62
7
  6
BYLAYER
 10
35.1781845161
 20
80.8704502254
 40
12.5888752089
100
AcDbArc
 50
291.2261678567
 51
294.7273131671
  0
ARC
  5
2BE
100
AcDbEntity
  8
0
100
AcDbCircle
 62
7
  6
BYLAYER
 10
22.5587297091
 20
63.831053385
 40
5.6353152496
100
AcDbArc
 50
173.9784027621
 51
178.7656253164
  0
ARC
  5
2BF
100
AcDbEntity
  8
0
100
AcDbCircle
 62
7
  6
BYLAYER
 10
44.9225553481
 20
63.8320853572
 40
5.6184337908
100
AcDbArc
 50
1.2275583233
 51
5.9074651309
  0
ARC
  5
2C0
100
AcDbEntity
  8
0
100
AcDbCircle
 62
7
  6
BYLAYER
 10
39.6881656506
 20
74.7739420909
 40
4.900363479
100
AcDbArc
 50
326.6245499864
 51
329.5376490007
  0
ARC
  5
2C1
100
AcDbEntity
  8
0
100
AcDbCircle
 62
7
  6
BYLAYER
 10
39.6346028958
 20
75.8149771991
 40
0.7797871811
100
AcDbArc
 50
359.9967208667
 51
1.7248710195
  0
ARC
  5
2C2
100
AcDbEntity
  8
0
100
AcDbCircle
 62
7
  6
BYLAYER
 10
26.9110882575
 20
83.1633413492
 40
0.7753267691
100
AcDbArc
 50
359.9944430096
 51
2.2406062159
  0
ARC
  5
2C3
100
AcDbEntity
  8
0
100
AcDbCircle
 62
7
  6
BYLAYER
 10
28.0382294542
 20
77.0772224063
 40
0.7740962506
100
AcDbArc
 50
239.9943461094
 51
242.3704467189
  0
ARC
  5
2C4
100
AcDbEntity
  8
0
100
AcDbCircle
 62
7
  6
BYLAYER
 10
27.8240217927
 20
77.4480365864
 40
0.7739498925
100
AcDbArc
 50
178.2886276001
 51
180.0097205852
  0
ARC
  5
2C5
100
AcDbEntity
  8
0
100
AcDbCircle
 62
7
  6
BYLAYER
 10
40.5453812216
 20
83.163523212
 40
0.7674402743
100
AcDbArc
 50
177.743081358
 51
180.0170217652
  0
ARC
  5
2C6
100
AcDbEntity
  8
0
100
AcDbCircle
 62
7
  6
BYLAYER
 10
39.4301760246
 20
75.4370763042
 40
0.7659172072
100
AcDbArc
 50
297.6216004834
 51
300.0187621523
  0
ARC
  5
2C7
100
AcDbEntity
  8
0
100
AcDbCircle
 62
7
  6
BYLAYER
 10
26.9437266857
 20
83.1644026665
 40
0.7426718323
100
AcDbArc
 50
2.2572336298
 51
2.7732839431
  0
ARC
  5
2C8
100
AcDbEntity
  8
0
100
AcDbCircle
 62
7
  6
BYLAYER
 10
40.5205407471
 20
83.164433942
 40
0.742583207
100
AcDbArc
 50
177.2255888667
 51
177.7378187437
  0
SPLINE
  5
2C9
100
AcDbEntity
  8
0
100
AcDbSpline
 62
7
  6
BYLAYER
 70
0
 71
3
 72
23
 73
19
 74
0
 42
0.0000001
 43
0.0000001
 44
0.0000000001
 40
0.0
 40
0.0
 40
0.0
 40
0.0
 40
0.059201132
 40
0.1217162787
 40
0.1870675628
 40
0.2546908141
 40
0.3239255285
 40
0.3940624701
 40
0.4643602253
 40
0.5340728882
 40
0.6024736628
 40
0.6688795144
 40
0.7326772507
 40
0.7933523008
 40
0.8505217557
 40
0.9039731733
 40
0.9537099219
 40
1.0
 40
1.0
 40
1.0
 40
1.0
 10
35.3585470033
 20
75.2228681841
 30
0.0
 10
35.2879665333
 20
75.2636169156
 30
0.0
 10
35.1380701031
 20
75.339288439
 30
0.0
 10
34.8977404057
 20
75.4327416561
 30
0.0
 10
34.6390333571
 20
75.5080444225
 30
0.0
 10
34.3660607005
 20
75.5640259512
 30
0.0
 10
34.0830877959
 20
75.5998035186
 30
0.0
 10
33.7945816326
 20
75.6148196618
 30
0.0
 10
33.5050903004
 20
75.6088336108
 30
0.0
 10
33.2191828955
 20
75.581940967
 30
0.0
 10
32.9413665557
 20
75.5345662188
 30
0.0
 10
32.6760128887
 20
75.4674527044
 30
0.0
 10
32.4272861887
 20
75.3816468849
 30
0.0
 10
32.1990744397
 20
75.2784686106
 30
0.0
 10
31.994937142
 20
75.1594875124
 30
0.0
 10
31.818041839
 20
75.0264349625
 30
0.0
 10
31.6712248533
 20
74.8812999603
 30
0.0
 10
31.5924135419
 20
74.7742334232
 30
0.0
 10
31.5595602256
 20
74.7196300699
 30
0.0
  0
SPLINE
  5
2CA
100
AcDbEntity
  8
0
100
AcDbSpline
 62
7
  6
BYLAYER
 70
0
 71
3
 72
11
 73
7
 74
0
 42
0.0000001
 43
0.0000001
 44
0.0000000001
 40
0.0
 40
0.0
 40
0.0
 40
0.0
 40
0.22571474
 40
0.4668067975
 40
0.7248199816
 40
1.0
 40
1.0
 40
1.0
 40
1.0
 10
35.9192307037
 20
74.6949679275
 30
0.0
 10
35.890460077
 20
74.7459938125
 30
0.0
 10
35.8215470205
 20
74.8463925717
 30
0.0
 10
35.6926355302
 20
74.9841729486
 30
0.0
 10
35.5369471087
 20
75.1120013314
 30
0.0
 10
35.420394923
 20
75.1871610788
 30
0.0
 10
35.3585470033
 20
75.2228681841
 30
0.0
  0
SPLINE
  5
2CB
100
AcDbEntity
  8
0
100
AcDbSpline
 62
7
  6
BYLAYER
 70
0
 71
3
 72
12
 73
8
 74
0
 42
0.0000001
 43
0.0000001
 44
0.0000000001
 40
0.0
 40
0.0
 40
0.0
 40
0.0
 40
0.2825885567
 40
0.5419458356
 40
0.7795095842
 40
0.891549067
 40
1.0
 40
1.0
 40
1.0
 40
1.0
 10
34.6016277008
 20
74.377612021
 30
0.0
 10
34.6443586768
 20
74.3529418386
 30
0.0
 10
34.723466284
 20
74.3003266189
 30
0.0
 10
34.8242324754
 20
74.2079498197
 30
0.0
 10
34.8884377082
 20
74.1221488687
 30
0.0
 10
34.9249856747
 20
74.0508386188
 30
0.0
 10
34.9383865214
 20
74.0146228236
 30
0.0
 10
34.9438141545
 20
73.9964813456
 30
0.0
  0
SPLINE
  5
2CC
100
AcDbEntity
  8
0
100
AcDbSpline
 62
7
  6
BYLAYER
 70
0
 71
3
 72
24
 73
20
 74
0
 42
0.0000001
 43
0.0000001
 44
0.0000000001
 40
0.0
 40
0.0
 40
0.0
 40
0.0
 40
0.0215221208
 40
0.0436136659
 40
0.0900130086
 40
0.1401177279
 40
0.1943572767
 40
0.2527908055
 40
0.3151787793
 40
0.3810495881
 40
0.4497557361
 40
0.520522769
 40
0.5924916525
 40
0.664755767
 40
0.7363967416
 40
0.806521951
 40
0.8742910393
 40
0.9389907988
 40
1.0
 40
1.0
 40
1.0
 40
1.0
 10
32.5152903605
 20
73.9771408173
 30
0.0
 10
32.5193844102
 20
73.9935003586
 30
0.0
 10
32.5296197479
 20
74.0261979841
 30
0.0
 10
32.5580104105
 20
74.0908893364
 30
0.0
 10
32.6086665755
 20
74.1695782259
 30
0.0
 10
32.6896745902
 20
74.2562414861
 30
0.0
 10
32.7902350715
 20
74.3353918985
 30
0.0
 10
32.9084248243
 20
74.4056683986
 30
0.0
 10
33.0420538719
 20
74.4658649124
 30
0.0
 10
33.1886412383
 20
74.5148943573
 30
0.0
 10
33.3454511502
 20
74.5518587222
 30
0.0
 10
33.5095430217
 20
74.5760720074
 30
0.0
 10
33.6778308944
 20
74.5870800943
 30
0.0
 10
33.8471438073
 20
74.5846752335
 30
0.0
 10
34.014291825
 20
74.5689012625
 30
0.0
 10
34.1761185783
 20
74.5400520655
 30
0.0
 10
34.3296067101
 20
74.4986773862
 30
0.0
 10
34.4718353662
 20
74.4455375307
 30
0.0
 10
34.560227259
 20
74.4015140364
 30
0.0
 10
34.6016277008
 20
74.377612021
 30
0.0
  0
SPLINE
  5
2CD
100
AcDbEntity
  8
0
100
AcDbSpline
 62
7
  6
BYLAYER
 70
0
 71
3
 72
27
 73
23
 74
0
 42
0.0000001
 43
0.0000001
 44
0.0000000001
 40
0.0
 40
0.0
 40
0.0
 40
0.0
 40
0.0215009607
 40
0.0430362862
 40
0.0648477978
 40
0.0871628964
 40
0.1101818834
 40
0.1340735957
 40
0.1589685937
 40
0.1849627305
 40
0.2404103966
 40
0.30058159
 40
0.3651786804
 40
0.4335956573
 40
0.5050007641
 40
0.578405318
 40
0.6527235706
 40
0.726826338
 40
0.7995943671
 40
0.8699732307
 40
0.9370280241
 40
1.0
 40
1.0
 40
1.0
 40
1.0
 10
32.0063210955
 20
74.2189855826
 30
0.0
 10
32.0034948058
 20
74.2440242548
 30
0.0
 10
32.0010905976
 20
74.294573888
 30
0.0
 10
32.0075123451
 20
74.3705074683
 30
0.0
 10
32.0238878235
 20
74.4459129651
 30
0.0
 10
32.0501254023
 20
74.5203057385
 30
0.0
 10
32.086010003
 20
74.593263101
 30
0.0
 10
32.1313302481
 20
74.664354437
 30
0.0
 10
32.1857798769
 20
74.7332052348
 30
0.0
 10
32.2719821482
 20
74.8234122707
 30
0.0
 10
32.4018805202
 20
74.9279345492
 30
0.0
 10
32.5841439125
 20
75.0357788783
 30
0.0
 10
32.7921004552
 20
75.1265550469
 30
0.0
 10
33.0211094755
 20
75.1982892019
 30
0.0
 10
33.2660864693
 20
75.2494242684
 30
0.0
 10
33.5215439308
 20
75.2788203876
 30
0.0
 10
33.7817424179
 20
75.28581907
 30
0.0
 10
34.0408261851
 20
75.2702635348
 30
0.0
 10
34.292962545
 20
75.232502998
 30
0.0
 10
34.5325107869
 20
75.1733775583
 30
0.0
 10
34.7540645226
 20
75.0942173763
 30
0.0
 10
34.8912675206
 20
75.0268841391
 30
0.0
 10
34.9551796194
 20
74.9899853065
 30
0.0
  0
SPLINE
  5
2CE
100
AcDbEntity
  8
0
100
AcDbSpline
 62
7
  6
BYLAYER
 70
0
 71
3
 72
18
 73
14
 74
0
 42
0.0000001
 43
0.0000001
 44
0.0000000001
 40
0.0
 40
0.0
 40
0.0
 40
0.0
 40
0.1498160831
 40
0.2912415242
 40
0.4242641991
 40
0.4878252315
 40
0.5495392816
 40
0.6679268564
 40
0.7810328984
 40
0.8362738741
 40
0.8909810296
 40
0.9454538915
 40
1.0
 40
1.0
 40
1.0
 40
1.0
 10
34.9551796194
 20
74.9899853065
 30
0.0
 10
34.9973626631
 20
74.9656314658
 30
0.0
 10
35.0773171762
 20
74.9145768015
 30
0.0
 10
35.1855714214
 20
74.8286879176
 30
0.0
 10
35.2634153936
 20
74.7506761525
 30
0.0
 10
35.316551172
 20
74.6855667818
 30
0.0
 10
35.3622846903
 20
74.6208160062
 30
0.0
 10
35.4086570859
 20
74.5370704316
 30
0.0
 10
35.4400152458
 20
74.4487501487
 30
0.0
 10
35.4549295923
 20
74.3776935299
 30
0.0
 10
35.4611442809
 20
74.3245209784
 30
0.0
 10
35.4624387015
 20
74.2712340031
 30
0.0
 10
35.4600186143
 20
74.2358129085
 30
0.0
 10
35.4580054163
 20
74.2181934081
 30
0.0
  0
SPLINE
  5
2CF
100
AcDbEntity
  8
0
100
AcDbSpline
 62
7
  6
BYLAYER
 70
0
 71
3
 72
11
 73
7
 74
0
 42
0.0000001
 43
0.0000001
 44
0.0000000001
 40
0.0
 40
0.0
 40
0.0
 40
0.0
 40
0.2660073271
 40
0.5253280329
 40
0.7717403135
 40
1.0
 40
1.0
 40
1.0
 40
1.0
 10
27.2241511918
 20
82.731711534
 30
0.0
 10
27.2518733593
 20
82.780018427
 30
0.0
 10
27.3120651354
 20
82.8724130673
 30
0.0
 10
27.4155264875
 20
82.9970244318
 30
0.0
 10
27.5279304172
 20
83.1024261172
 30
0.0
 10
27.6096747719
 20
83.1597968202
 30
0.0
 10
27.6510645414
 20
83.1836930721
 30
0.0
  0
SPLINE
  5
2D0
100
AcDbEntity
  8
0
100
AcDbSpline
 62
7
  6
BYLAYER
 70
0
 71
3
 72
14
 73
10
 74
0
 42
0.0000001
 43
0.0000001
 44
0.0000000001
 40
0.0
 40
0.0
 40
0.0
 40
0.0
 40
0.28924699
 40
0.4225703404
 40
0.5485174524
 40
0.6678919341
 40
0.781864477
 40
0.8919540619
 40
1.0
 40
1.0
 40
1.0
 40
1.0
 10
27.6510645414
 20
83.1836930721
 30
0.0
 10
27.6883706634
 20
83.2052316431
 30
0.0
 10
27.7456579934
 20
83.2324891546
 30
0.0
 10
27.8242135931
 20
83.2554050258
 30
0.0
 10
27.8799765587
 20
83.2647564628
 30
0.0
 10
27.9336232891
 20
83.2666185292
 30
0.0
 10
27.9846542644
 20
83.2609183309
 30
0.0
 10
28.0325336172
 20
83.2476954747
 30
0.0
 10
28.0621187403
 20
83.2338318267
 30
0.0
 10
28.0760542064
 20
83.2257863629
 30
0.0
  0
SPLINE
  5
2D1
100
AcDbEntity
  8
0
100
AcDbSpline
 62
7
  6
BYLAYER
 70
0
 71
3
 72
15
 73
11
 74
0
 42
0.0000001
 43
0.0000001
 44
0.0000000001
 40
0.0
 40
0.0
 40
0.0
 40
0.0
 40
0.1141469224
 40
0.2373360366
 40
0.366976904
 40
0.5000005214
 40
0.6330240662
 40
0.7626647219
 40
0.8858535023
 40
1.0
 40
1.0
 40
1.0
 40
1.0
 10
29.3773223596
 20
86.7931530956
 30
0.0
 10
29.3365999183
 20
86.8166636761
 30
0.0
 10
29.2475414157
 20
86.8581282785
 30
0.0
 10
29.1025260815
 20
86.9022127208
 30
0.0
 10
28.945516781
 20
86.9293317209
 30
0.0
 10
28.7824283786
 20
86.9384922768
 30
0.0
 10
28.6193401064
 20
86.9293309468
 30
0.0
 10
28.4623311912
 20
86.9022112012
 30
0.0
 10
28.3173164812
 20
86.8581260696
 30
0.0
 10
28.2282585242
 20
86.8166610224
 30
0.0
 10
28.187536404
 20
86.7931502357
 30
0.0
  0
SPLINE
  5
2D2
100
AcDbEntity
  8
0
100
AcDbSpline
 62
7
  6
BYLAYER
 70
0
 71
3
 72
11
 73
7
 74
0
 42
0.0000001
 43
0.0000001
 44
0.0000000001
 40
0.0
 40
0.0
 40
0.0
 40
0.0
 40
0.2847065019
 40
0.5445576625
 40
0.7810216258
 40
1.0
 40
1.0
 40
1.0
 40
1.0
 10
26.5489070107
 20
85.1601764801
 30
0.0
 10
26.5355577523
 20
85.1678835037
 30
0.0
 10
26.510974644
 20
85.1844008336
 30
0.0
 10
26.480147115
 20
85.2136934793
 30
0.0
 10
26.4579205315
 20
85.2457863426
 30
0.0
 10
26.449175016
 20
85.2692077532
 30
0.0
 10
26.4466528933
 20
85.2807920947
 30
0.0
  0
SPLINE
  5
2D3
100
AcDbEntity
  8
0
100
AcDbSpline
 62
7
  6
BYLAYER
 70
0
 71
3
 72
11
 73
7
 74
0
 42
0.0000001
 43
0.0000001
 44
0.0000000001
 40
0.0
 40
0.0
 40
0.0
 40
0.0
 40
0.2847994018
 40
0.5445360309
 40
0.7809894749
 40
1.0
 40
1.0
 40
1.0
 40
1.0
 10
26.2076456598
 20
85.6500666048
 30
0.0
 10
26.1763254244
 20
85.6319839664
 30
0.0
 10
26.118659617
 20
85.5932574765
 30
0.0
 10
26.0463731228
 20
85.5245370352
 30
0.0
 10
25.9942563331
 20
85.4492733922
 30
0.0
 10
25.9737212885
 20
85.394344671
 30
0.0
 10
25.9678029359
 20
85.367170498
 30
0.0
  0
SPLINE
  5
2D4
100
AcDbEntity
  8
0
100
AcDbSpline
 62
7
  6
BYLAYER
 70
0
 71
3
 72
15
 73
11
 74
0
 42
0.0000001
 43
0.0000001
 44
0.0000000001
 40
0.0
 40
0.0
 40
0.0
 40
0.0
 40
0.1225435401
 40
0.2503619168
 40
0.38124824
 40
0.5128273707
 40
0.6426828354
 40
0.7684682195
 40
0.8881760113
 40
1.0
 40
1.0
 40
1.0
 40
1.0
 10
27.2273125816
 20
82.223809948
 30
0.0
 10
27.2606125913
 20
82.2523825384
 30
0.0
 10
27.3251959821
 20
82.3148690336
 30
0.0
 10
27.4129510315
 20
82.4197180407
 30
0.0
 10
27.4918239418
 20
82.5353455797
 30
0.0
 10
27.5596516876
 20
82.658604096
 30
0.0
 10
27.6145836651
 20
82.7861464332
 30
0.0
 10
27.6551615367
 20
82.9145352242
 30
0.0
 10
27.6802322709
 20
83.040260367
 30
0.0
 10
27.686415023
 20
83.123226351
 30
0.0
 10
27.686415023
 20
83.1632661519
 30
0.0
  0
SPLINE
  5
2D5
100
AcDbEntity
  8
0
100
AcDbSpline
 62
7
  6
BYLAYER
 70
0
 71
3
 72
13
 73
9
 74
0
 42
0.0000001
 43
0.0000001
 44
0.0000000001
 40
0.0
 40
0.0
 40
0.0
 40
0.0
 40
0.1141731067
 40
0.2375638948
 40
0.4999994775
 40
0.762435346
 40
0.8858264687
 40
1.0
 40
1.0
 40
1.0
 40
1.0
 10
28.6410099135
 20
85.7964909303
 30
0.0
 10
28.6506841558
 20
85.8020763234
 30
0.0
 10
28.6718618856
 20
85.811926516
 30
0.0
 10
28.7187764305
 20
85.8262002623
 30
0.0
 10
28.7824310483
 20
85.8330982789
 30
0.0
 10
28.8460857272
 20
85.8262005566
 30
0.0
 10
28.893000448
 20
85.8119270411
 30
0.0
 10
28.9141783075
 20
85.8020769542
 30
0.0
 10
28.923852626
 20
85.7964916102
 30
0.0
  0
SPLINE
  5
2D6
100
AcDbEntity
  8
0
100
AcDbSpline
 62
7
  6
BYLAYER
 70
0
 71
3
 72
15
 73
11
 74
0
 42
0.0000001
 43
0.0000001
 44
0.0000000001
 40
0.0
 40
0.0
 40
0.0
 40
0.0
 40
0.1102955178
 40
0.2203124221
 40
0.3328430995
 40
0.4503505982
 40
0.5747850731
 40
0.7075207435
 40
0.8493070999
 40
1.0
 40
1.0
 40
1.0
 40
1.0
 10
25.9678029359
 20
85.367170498
 30
0.0
 10
25.963866067
 20
85.3490943265
 30
0.0
 10
25.9594489314
 20
85.3121248933
 30
0.0
 10
25.9639329171
 20
85.2561250562
 30
0.0
 10
25.9795324498
 20
85.2009043772
 30
0.0
 10
26.0058565881
 20
85.1472670664
 30
0.0
 10
26.0424983391
 20
85.0959069962
 30
0.0
 10
26.0888931607
 20
85.0474035739
 30
0.0
 10
26.1444133564
 20
85.0023819669
 30
0.0
 10
26.1857610154
 20
84.9757908626
 30
0.0
 10
26.2076506134
 20
84.9631531833
 30
0.0
  0
SPLINE
  5
2D7
100
AcDbEntity
  8
0
100
AcDbSpline
 62
7
  6
BYLAYER
 70
0
 71
3
 72
14
 73
10
 74
0
 42
0.0000001
 43
0.0000001
 44
0.0000000001
 40
0.0
 40
0.0
 40
0.0
 40
0.0
 40
0.110353676
 40
0.2204279828
 40
0.3330002831
 40
0.4505397837
 40
0.5750351118
 40
0.7078874234
 40
1.0
 40
1.0
 40
1.0
 40
1.0
 10
26.4466528933
 20
85.2807920947
 30
0.0
 10
26.4449748424
 20
85.288499537
 30
0.0
 10
26.4430779973
 20
85.3042616142
 30
0.0
 10
26.4450082827
 20
85.3281363141
 30
0.0
 10
26.4516444558
 20
85.3516811628
 30
0.0
 10
26.4628719036
 20
85.3745452335
 30
0.0
 10
26.478493402
 20
85.3964502192
 30
0.0
 10
26.5057219195
 20
85.4248943966
 30
0.0
 10
26.5308222705
 20
85.4426050006
 30
0.0
 10
26.5489048988
 20
85.4530449486
 30
0.0
  0
SPLINE
  5
2D8
100
AcDbEntity
  8
0
100
AcDbSpline
 62
7
  6
BYLAYER
 70
0
 71
3
 72
14
 73
10
 74
0
 42
0.0000001
 43
0.0000001
 44
0.0000000001
 40
0.0
 40
0.0
 40
0.0
 40
0.0
 40
0.1080451857
 40
0.2181341322
 40
0.3321062519
 40
0.4514805761
 40
0.577427815
 40
0.7107515617
 40
1.0
 40
1.0
 40
1.0
 40
1.0
 10
28.0760542064
 20
83.2257863629
 30
0.0
 10
28.0899901287
 20
83.2177406356
 30
0.0
 10
28.1167901775
 20
83.1990508112
 30
0.0
 10
28.1521828047
 20
83.1641967076
 30
0.0
 10
28.1826361972
 20
83.1228513901
 30
0.0
 10
28.2078481091
 20
83.0754591891
 30
0.0
 10
28.2276318733
 20
83.0224891889
 30
0.0
 10
28.247064753
 20
82.9429966549
 30
0.0
 10
28.2521028031
 20
82.879752809
 30
0.0
 10
28.2521028031
 20
82.8366735483
 30
0.0
  0
SPLINE
  5
2D9
100
AcDbEntity
  8
0
100
AcDbSpline
 62
7
  6
BYLAYER
 70
0
 71
3
 72
15
 73
11
 74
0
 42
0.0000001
 43
0.0000001
 44
0.0000000001
 40
0.0
 40
0.0
 40
0.0
 40
0.0
 40
0.1141231812
 40
0.2373468278
 40
0.366971913
 40
0.4999994099
 40
0.6330269884
 40
0.76265231
 40
0.885876356
 40
1.0
 40
1.0
 40
1.0
 40
1.0
 10
28.528795643
 20
86.5961285794
 30
0.0
 10
28.5461541057
 20
86.6061504327
 30
0.0
 10
28.5841282221
 20
86.6238249934
 30
0.0
 10
28.6459526509
 20
86.6426280553
 30
0.0
 10
28.7128987043
 20
86.6541879455
 30
0.0
 10
28.7824303399
 20
86.6580975531
 30
0.0
 10
28.8519620357
 20
86.6541882835
 30
0.0
 10
28.9189082723
 20
86.6426287159
 30
0.0
 10
28.9807329885
 20
86.6238259406
 30
0.0
 10
29.0187073568
 20
86.6061515675
 30
0.0
 10
29.0360659622
 20
86.5961297988
 30
0.0
  0
SPLINE
  5
2DA
100
AcDbEntity
  8
0
100
AcDbSpline
 62
7
  6
BYLAYER
 70
0
 71
3
 72
14
 73
10
 74
0
 42
0.0000001
 43
0.0000001
 44
0.0000000001
 40
0.0
 40
0.0
 40
0.0
 40
0.0
 40
0.1080461442
 40
0.2181299106
 40
0.3321103238
 40
0.4514993437
 40
0.5774433347
 40
0.7107264951
 40
1.0
 40
1.0
 40
1.0
 40
1.0
 10
25.8025411144
 20
84.5717591486
 30
0.0
 10
25.802541114
 20
84.5528278854
 30
0.0
 10
25.8058360064
 20
84.5145325199
 30
0.0
 10
25.8204997474
 20
84.4579634509
 30
0.0
 10
25.8447346777
 20
84.4026218758
 30
0.0
 10
25.8781852564
 20
84.3490526149
 30
0.0
 10
25.9205188348
 20
84.2977467703
 30
0.0
 10
25.9900664013
 20
84.2311819921
 30
0.0
 10
26.0515425791
 20
84.1888570372
 30
0.0
 10
26.0954372772
 20
84.1635149947
 30
0.0
  0
SPLINE
  5
2DB
100
AcDbEntity
  8
0
100
AcDbSpline
 62
7
  6
BYLAYER
 70
0
 71
3
 72
23
 73
19
 74
0
 42
0.0000001
 43
0.0000001
 44
0.0000000001
 40
0.0
 40
0.0
 40
0.0
 40
0.0
 40
0.0623731164
 40
0.1287529275
 40
0.1983493811
 40
0.2703365339
 40
0.3437259607
 40
0.4174674169
 40
0.4905028995
 40
0.5618015238
 40
0.6304112304
 40
0.6955084612
 40
0.7564661969
 40
0.8129134111
 40
0.8648212228
 40
0.9126044267
 40
0.9571867894
 40
1.0
 40
1.0
 40
1.0
 40
1.0
 10
28.2521028031
 20
82.8366735483
 30
0.0
 10
28.2521028031
 20
82.8014219405
 30
0.0
 10
28.2473126719
 20
82.7286068798
 30
0.0
 10
28.2276735526
 20
82.6180494562
 30
0.0
 10
28.1957055578
 20
82.5047567125
 30
0.0
 10
28.1521223464
 20
82.3911768686
 30
0.0
 10
28.0978584474
 20
82.2796912414
 30
0.0
 10
28.0340586732
 20
82.1726867309
 30
0.0
 10
27.9620798184
 20
82.0724500132
 30
0.0
 10
27.8834677225
 20
81.9811061129
 30
0.0
 10
27.7998845512
 20
81.9006021764
 30
0.0
 10
27.7130829208
 20
81.8326540863
 30
0.0
 10
27.6248778817
 20
81.7786860387
 30
0.0
 10
27.5370536427
 20
81.7398669148
 30
0.0
 10
27.4513565335
 20
81.7171051439
 30
0.0
 10
27.3694750558
 20
81.7110718346
 30
0.0
 10
27.2932214613
 20
81.7222445312
 30
0.0
 10
27.2470303947
 20
81.7414479461
 30
0.0
 10
27.2260748907
 20
81.7535456985
 30
0.0
  0
SPLINE
  5
2DC
100
AcDbEntity
  8
0
100
AcDbSpline
 62
7
  6
BYLAYER
 70
0
 71
3
 72
11
 73
7
 74
0
 42
0.0000001
 43
0.0000001
 44
0.0000000001
 40
0.0
 40
0.0
 40
0.0
 40
0.0
 40
0.2189787546
 40
0.4554428804
 40
0.7152939631
 40
1.0
 40
1.0
 40
1.0
 40
1.0
 10
41.0177222446
 20
85.2808254084
 30
0.0
 10
41.0152001577
 20
85.2692412196
 30
0.0
 10
41.0064548079
 20
85.2458201234
 30
0.0
 10
40.9842286971
 20
85.213727619
 30
0.0
 10
40.9534018184
 20
85.1844352467
 30
0.0
 10
40.9288192224
 20
85.167918005
 30
0.0
 10
40.9154702411
 20
85.1602110131
 30
0.0
  0
SPLINE
  5
2DD
100
AcDbEntity
  8
0
100
AcDbSpline
 62
7
  6
BYLAYER
 70
0
 71
3
 72
15
 73
11
 74
0
 42
0.0000001
 43
0.0000001
 44
0.0000000001
 40
0.0
 40
0.0
 40
0.0
 40
0.0
 40
0.1118257204
 40
0.2315337816
 40
0.3573205387
 40
0.4871770678
 40
0.6187568969
 40
0.7496437587
 40
0.8774608379
 40
1.0
 40
1.0
 40
1.0
 40
1.0
 10
39.7779409811
 20
83.1632952164
 30
0.0
 10
39.7779409811
 20
83.1232477073
 30
0.0
 10
39.7841258311
 20
83.0402662839
 30
0.0
 10
39.8092056734
 20
82.9145184877
 30
0.0
 10
39.849797523
 20
82.7861080435
 30
0.0
 10
39.9047473781
 20
82.6585453489
 30
0.0
 10
39.9725972833
 20
82.5352695564
 30
0.0
 10
40.0514958934
 20
82.4196294209
 30
0.0
 10
40.1392787484
 20
82.3147744585
 30
0.0
 10
40.2038813701
 20
82.252287625
 30
0.0
 10
40.237191472
 20
82.2237172772
 30
0.0
  0
SPLINE
  5
2DE
100
AcDbEntity
  8
0
100
AcDbSpline
 62
7
  6
BYLAYER
 70
0
 71
3
 72
11
 73
7
 74
0
 42
0.0000001
 43
0.0000001
 44
0.0000000001
 40
0.0
 40
0.0
 40
0.0
 40
0.0
 40
0.2190100907
 40
0.4554633685
 40
0.7152001557
 40
1.0
 40
1.0
 40
1.0
 40
1.0
 10
41.4965722045
 20
85.3672038117
 30
0.0
 10
41.4906537763
 20
85.3943783374
 30
0.0
 10
41.4701183377
 20
85.4493077859
 30
0.0
 10
41.4180004529
 20
85.5245722821
 30
0.0
 10
41.3457124149
 20
85.5932933556
 30
0.0
 10
41.2880454094
 20
85.6320200673
 30
0.0
 10
41.2567245265
 20
85.6501027784
 30
0.0
  0
SPLINE
  5
2DF
100
AcDbEntity
  8
0
100
AcDbSpline
 62
7
  6
BYLAYER
 70
0
 71
3
 72
11
 73
7
 74
0
 42
0.0000001
 43
0.0000001
 44
0.0000000001
 40
0.0
 40
0.0
 40
0.0
 40
0.0
 40
0.2282598824
 40
0.4746724862
 40
0.7339932828
 40
1.0
 40
1.0
 40
1.0
 40
1.0
 10
39.8133011777
 20
83.1837223065
 30
0.0
 10
39.8546927812
 20
83.1598253937
 30
0.0
 10
39.9364406988
 20
83.1024526903
 30
0.0
 10
40.0488491051
 20
82.997046703
 30
0.0
 10
40.1523139487
 20
82.8724299866
 30
0.0
 10
40.2125072298
 20
82.7800312593
 30
0.0
 10
40.2402298779
 20
82.7317222663
 30
0.0
  0
SPLINE
  5
2E0
100
AcDbEntity
  8
0
100
AcDbSpline
 62
7
  6
BYLAYER
 70
0
 71
3
 72
14
 73
10
 74
0
 42
0.0000001
 43
0.0000001
 44
0.0000000001
 40
0.0
 40
0.0
 40
0.0
 40
0.0
 40
0.108046144
 40
0.2181359093
 40
0.3321085861
 40
0.4514831362
 40
0.5774302378
 40
0.7107534897
 40
1.0
 40
1.0
 40
1.0
 40
1.0
 10
39.3883062045
 20
83.2258125326
 30
0.0
 10
39.4022418021
 20
83.2338582061
 30
0.0
 10
39.4318272185
 20
83.2477222613
 30
0.0
 10
39.4797070992
 20
83.2609456744
 30
0.0
 10
39.53073868
 20
83.2666463672
 30
0.0
 10
39.5843860815
 20
83.2647847302
 30
0.0
 10
39.6401497711
 20
83.2554336505
 30
0.0
 10
39.7187063919
 20
83.2325181777
 30
0.0
 10
39.7759945264
 20
83.2052608244
 30
0.0
 10
39.8133011777
 20
83.1837223065
 30
0.0
  0
SPLINE
  5
2E1
100
AcDbEntity
  8
0
100
AcDbSpline
 62
7
  6
BYLAYER
 70
0
 71
3
 72
13
 73
9
 74
0
 42
0.0000001
 43
0.0000001
 44
0.0000000001
 40
0.0
 40
0.0
 40
0.0
 40
0.0
 40
0.1141762243
 40
0.2375705078
 40
0.5000006893
 40
0.7624304955
 40
0.8858242827
 40
1.0
 40
1.0
 40
1.0
 40
1.0
 10
38.8233475625
 20
78.3663434098
 30
0.0
 10
38.813673035
 20
78.3719288745
 30
0.0
 10
38.7924944261
 20
78.381778632
 30
0.0
 10
38.745579734
 20
78.3960519127
 30
0.0
 10
38.681925943
 20
78.4029485029
 30
0.0
 10
38.6182722345
 20
78.3960515989
 30
0.0
 10
38.5713577472
 20
78.3817781026
 30
0.0
 10
38.5501792944
 20
78.3719282396
 30
0.0
 10
38.5405048501
 20
78.3663427299
 30
0.0
  0
SPLINE
  5
2E2
100
AcDbEntity
  8
0
100
AcDbSpline
 62
7
  6
BYLAYER
 70
0
 71
3
 72
15
 73
11
 74
0
 42
0.0000001
 43
0.0000001
 44
0.0000000001
 40
0.0
 40
0.0
 40
0.0
 40
0.0
 40
0.1141469224
 40
0.2373360366
 40
0.366976904
 40
0.5000005214
 40
0.6330240662
 40
0.7626647219
 40
0.8858535023
 40
1.0
 40
1.0
 40
1.0
 40
1.0
 10
39.2768172961
 20
86.793176891
 30
0.0
 10
39.2360948548
 20
86.8166874716
 30
0.0
 10
39.1470363523
 20
86.858152074
 30
0.0
 10
39.002021018
 20
86.9022365163
 30
0.0
 10
38.8450117176
 20
86.9293555164
 30
0.0
 10
38.6819233151
 20
86.9385160723
 30
0.0
 10
38.518835043
 20
86.9293547423
 30
0.0
 10
38.3618261277
 20
86.9022349967
 30
0.0
 10
38.2168114177
 20
86.8581498651
 30
0.0
 10
38.1277534608
 20
86.8166848179
 30
0.0
 10
38.0870313405
 20
86.7931740311
 30
0.0
  0
SPLINE
  5
2E3
100
AcDbEntity
  8
0
100
AcDbSpline
 62
7
  6
BYLAYER
 70
0
 71
3
 72
14
 73
10
 74
0
 42
0.0000001
 43
0.0000001
 44
0.0000000001
 40
0.0
 40
0.0
 40
0.0
 40
0.0
 40
0.2892474877
 40
0.422571007
 40
0.5485181942
 40
0.667892638
 40
0.7818650293
 40
0.8919543638
 40
1.0
 40
1.0
 40
1.0
 40
1.0
 10
39.2122579114
 20
82.8366998933
 30
0.0
 10
39.2122579114
 20
82.8797789596
 30
0.0
 10
39.2172959647
 20
82.9430225509
 30
0.0
 10
39.2367287977
 20
83.0225148035
 30
0.0
 10
39.2565125262
 20
83.0754847166
 30
0.0
 10
39.2817243921
 20
83.1228769223
 30
0.0
 10
39.3121777312
 20
83.1642223408
 30
0.0
 10
39.3475702968
 20
83.1990766494
 30
0.0
 10
39.3743702991
 20
83.2177666814
 30
0.0
 10
39.3883062045
 20
83.2258125326
 30
0.0
  0
SPLINE
  5
2E4
100
AcDbEntity
  8
0
100
AcDbSpline
 62
7
  6
BYLAYER
 70
0
 71
3
 72
14
 73
10
 74
0
 42
0.0000001
 43
0.0000001
 44
0.0000000001
 40
0.0
 40
0.0
 40
0.0
 40
0.0
 40
0.108046144
 40
0.2181359093
 40
0.3321085861
 40
0.4514831362
 40
0.5774302378
 40
0.7107534897
 40
1.0
 40
1.0
 40
1.0
 40
1.0
 10
40.238296151
 20
81.7535779713
 30
0.0
 10
40.2243605534
 20
81.7455322978
 30
0.0
 10
40.194775137
 20
81.7316682426
 30
0.0
 10
40.1468952563
 20
81.7184448295
 30
0.0
 10
40.0958636755
 20
81.7127441367
 30
0.0
 10
40.042216274
 20
81.7146057737
 30
0.0
 10
39.9864525844
 20
81.7239568534
 30
0.0
 10
39.9078959636
 20
81.7468723262
 30
0.0
 10
39.8506078291
 20
81.7741296795
 30
0.0
 10
39.8133011777
 20
81.7956681974
 30
0.0
  0
SPLINE
  5
2E5
100
AcDbEntity
  8
0
100
AcDbSpline
 62
7
  6
BYLAYER
 70
0
 71
3
 72
13
 73
9
 74
0
 42
0.0000001
 43
0.0000001
 44
0.0000000001
 40
0.0
 40
0.0
 40
0.0
 40
0.0
 40
0.1141731067
 40
0.2375638948
 40
0.4999994775
 40
0.762435346
 40
0.8858264687
 40
1.0
 40
1.0
 40
1.0
 40
1.0
 10
38.5405048501
 20
85.7965147258
 30
0.0
 10
38.5501790923
 20
85.8021001188
 30
0.0
 10
38.5713568222
 20
85.8119503115
 30
0.0
 10
38.618271367
 20
85.8262240577
 30
0.0
 10
38.6819259848
 20
85.8331220744
 30
0.0
 10
38.7455806637
 20
85.826224352
 30
0.0
 10
38.7924953845
 20
85.8119508366
 30
0.0
 10
38.813673244
 20
85.8021007497
 30
0.0
 10
38.8233475625
 20
85.7965154057
 30
0.0
  0
SPLINE
  5
2E6
100
AcDbEntity
  8
0
100
AcDbSpline
 62
7
  6
BYLAYER
 70
0
 71
3
 72
14
 73
10
 74
0
 42
0.0000001
 43
0.0000001
 44
0.0000000001
 40
0.0
 40
0.0
 40
0.0
 40
0.0
 40
0.2892730354
 40
0.4225560659
 40
0.5485000149
 40
0.6678890853
 40
0.7818696374
 40
0.891953611
 40
1.0
 40
1.0
 40
1.0
 40
1.0
 10
41.3689437507
 20
84.1635517077
 30
0.0
 10
41.4128376281
 20
84.1888936984
 30
0.0
 10
41.4743126226
 20
84.2312184803
 30
0.0
 10
41.5438587743
 20
84.2977827746
 30
0.0
 10
41.5861914837
 20
84.3490881931
 30
0.0
 10
41.6196413627
 20
84.4026569572
 30
0.0
 10
41.6438757787
 20
84.4579979778
 30
0.0
 10
41.6585392053
 20
84.5145664515
 30
0.0
 10
41.6618340251
 20
84.5528614005
 30
0.0
 10
41.6618340255
 20
84.5717924622
 30
0.0
  0
SPLINE
  5
2E7
100
AcDbEntity
  8
0
100
AcDbSpline
 62
7
  6
BYLAYER
 70
0
 71
3
 72
14
 73
10
 74
0
 42
0.0000001
 43
0.0000001
 44
0.0000000001
 40
0.0
 40
0.0
 40
0.0
 40
0.0
 40
0.2921130698
 40
0.4249654731
 40
0.5494608366
 40
0.6670002853
 40
0.7795724481
 40
0.8896465462
 40
1.0
 40
1.0
 40
1.0
 40
1.0
 10
40.9154681291
 20
85.4530794816
 30
0.0
 10
40.9335510684
 20
85.4426395279
 30
0.0
 10
40.9586518721
 20
85.4249288845
 30
0.0
 10
40.9858809183
 20
85.396484533
 30
0.0
 10
41.0015027445
 20
85.3745793983
 30
0.0
 10
41.0127304398
 20
85.3517151381
 30
0.0
 10
41.019366796
 20
85.3281700802
 30
0.0
 10
41.0212971601
 20
85.3042951513
 30
0.0
 10
41.0194003096
 20
85.288532923
 30
0.0
 10
41.0177222446
 20
85.2808254084
 30
0.0
  0
SPLINE
  5
2E8
100
AcDbEntity
  8
0
100
AcDbSpline
 62
7
  6
BYLAYER
 70
0
 71
3
 72
15
 73
11
 74
0
 42
0.0000001
 43
0.0000001
 44
0.0000000001
 40
0.0
 40
0.0
 40
0.0
 40
0.0
 40
0.1141231812
 40
0.2373468278
 40
0.366971913
 40
0.4999994099
 40
0.6330269884
 40
0.76265231
 40
0.885876356
 40
1.0
 40
1.0
 40
1.0
 40
1.0
 10
38.4282905795
 20
86.5961523749
 30
0.0
 10
38.4456490422
 20
86.6061742282
 30
0.0
 10
38.4836231587
 20
86.6238487889
 30
0.0
 10
38.5454475874
 20
86.6426518508
 30
0.0
 10
38.6123936409
 20
86.654211741
 30
0.0
 10
38.6819252764
 20
86.6581213486
 30
0.0
 10
38.7514569723
 20
86.654212079
 30
0.0
 10
38.8184032089
 20
86.6426525114
 30
0.0
 10
38.880227925
 20
86.623849736
 30
0.0
 10
38.9182022933
 20
86.606175363
 30
0.0
 10
38.9355608987
 20
86.5961535942
 30
0.0
  0
SPLINE
  5
2E9
100
AcDbEntity
  8
0
100
AcDbSpline
 62
7
  6
BYLAYER
 70
0
 71
3
 72
15
 73
11
 74
0
 42
0.0000001
 43
0.0000001
 44
0.0000000001
 40
0.0
 40
0.0
 40
0.0
 40
0.0
 40
0.1141465952
 40
0.2373352439
 40
0.366975646
 40
0.4999989181
 40
0.6330223406
 40
0.7626631822
 40
0.8858525235
 40
1.0
 40
1.0
 40
1.0
 40
1.0
 10
39.8133011777
 20
81.7956681974
 30
0.0
 10
39.7721579419
 20
81.8194217183
 30
0.0
 10
39.6908871277
 20
81.8763976585
 30
0.0
 10
39.5790561347
 20
81.9810108355
 30
0.0
 10
39.4760107075
 20
82.1046893012
 30
0.0
 10
39.3856077263
 20
82.2427593712
 30
0.0
 10
39.3112362481
 20
82.3900854941
 30
0.0
 10
39.2556492921
 20
82.5411648898
 30
0.0
 10
39.2209659845
 20
82.6903205495
 30
0.0
 10
39.2122579114
 20
82.7891916786
 30
0.0
 10
39.2122579114
 20
82.8366998933
 30
0.0
  0
SPLINE
  5
2EA
100
AcDbEntity
  8
0
100
AcDbSpline
 62
7
  6
BYLAYER
 70
0
 71
3
 72
15
 73
11
 74
0
 42
0.0000001
 43
0.0000001
 44
0.0000000001
 40
0.0
 40
0.0
 40
0.0
 40
0.0
 40
0.1506926116
 40
0.2924787382
 40
0.4252142656
 40
0.5496486983
 40
0.6671562611
 40
0.7796870998
 40
0.8897042313
 40
1.0
 40
1.0
 40
1.0
 40
1.0
 10
41.2567294801
 20
84.9631893568
 30
0.0
 10
41.2786186967
 20
84.9758270265
 30
0.0
 10
41.3199656223
 20
85.0024180788
 30
0.0
 10
41.3754847834
 20
85.0474394971
 30
0.0
 10
41.4218786981
 20
85.0959426352
 30
0.0
 10
41.4585196924
 20
85.1473023389
 30
0.0
 10
41.484843242
 20
85.2009392142
 30
0.0
 10
41.5004423752
 20
85.2561594035
 30
0.0
 10
41.5049261637
 20
85.312158719
 30
0.0
 10
41.500509037
 20
85.349127804
 30
0.0
 10
41.4965722045
 20
85.3672038117
 30
0.0
  0
SPLINE
  5
2EB
100
AcDbEntity
  8
0
100
AcDbSpline
 62
7
  6
BYLAYER
 70
0
 71
3
 72
23
 73
19
 74
0
 42
0.0000001
 43
0.0000001
 44
0.0000000001
 40
0.0
 40
0.0
 40
0.0
 40
0.0
 40
0.0623731164
 40
0.1287529275
 40
0.1983493811
 40
0.2703365339
 40
0.3437259607
 40
0.4174674169
 40
0.4905028995
 40
0.5618015238
 40
0.6304112304
 40
0.6955084612
 40
0.7564661969
 40
0.8129134111
 40
0.8648212228
 40
0.9126044267
 40
0.9571867894
 40
1.0
 40
1.0
 40
1.0
 40
1.0
 10
39.7780013325
 20
74.7943249054
 30
0.0
 10
39.7780013325
 20
74.8295765132
 30
0.0
 10
39.7827914637
 20
74.9023915739
 30
0.0
 10
39.802430583
 20
75.0129489975
 30
0.0
 10
39.8343985777
 20
75.1262417412
 30
0.0
 10
39.8779817892
 20
75.2398215851
 30
0.0
 10
39.9322456881
 20
75.3513072123
 30
0.0
 10
39.9960454623
 20
75.4583117228
 30
0.0
 10
40.0680243171
 20
75.5585484405
 30
0.0
 10
40.146636413
 20
75.6498923408
 30
0.0
 10
40.2302195843
 20
75.7303962773
 30
0.0
 10
40.3170212148
 20
75.7983443674
 30
0.0
 10
40.4052262538
 20
75.852312415
 30
0.0
 10
40.4930504928
 20
75.8911315389
 30
0.0
 10
40.578747602
 20
75.9138933098
 30
0.0
 10
40.6606290797
 20
75.919926619
 30
0.0
 10
40.7368826742
 20
75.9087539224
 30
0.0
 10
40.7830737408
 20
75.8895505076
 30
0.0
 10
40.8040292449
 20
75.8774527552
 30
0.0
  0
SPLINE
  5
2EC
100
AcDbEntity
  8
0
100
AcDbSpline
 62
7
  6
BYLAYER
 70
0
 71
3
 72
15
 73
11
 74
0
 42
0.0000001
 43
0.0000001
 44
0.0000000001
 40
0.0
 40
0.0
 40
0.0
 40
0.0
 40
0.1141231812
 40
0.2373468278
 40
0.366971913
 40
0.4999994099
 40
0.6330269884
 40
0.76265231
 40
0.885876356
 40
1.0
 40
1.0
 40
1.0
 40
1.0
 10
38.9356207125
 20
78.3017330235
 30
0.0
 10
38.9182622497
 20
78.2917111702
 30
0.0
 10
38.8802881333
 20
78.2740366095
 30
0.0
 10
38.8184637046
 20
78.2552335476
 30
0.0
 10
38.7515176511
 20
78.2436736574
 30
0.0
 10
38.6819860155
 20
78.2397640498
 30
0.0
 10
38.6124543197
 20
78.2436733194
 30
0.0
 10
38.5455080831
 20
78.255232887
 30
0.0
 10
38.4836833669
 20
78.2740356623
 30
0.0
 10
38.4457089986
 20
78.2917100354
 30
0.0
 10
38.4283503932
 20
78.3017318041
 30
0.0
  0
SPLINE
  5
2ED
100
AcDbEntity
  8
0
100
AcDbSpline
 62
7
  6
BYLAYER
 70
0
 71
3
 72
11
 73
7
 74
0
 42
0.0000001
 43
0.0000001
 44
0.0000000001
 40
0.0
 40
0.0
 40
0.0
 40
0.0
 40
0.2190100907
 40
0.4554633685
 40
0.7152001557
 40
1.0
 40
1.0
 40
1.0
 40
1.0
 10
41.4966134201
 20
79.6518094529
 30
0.0
 10
41.4906949918
 20
79.6789839787
 30
0.0
 10
41.4701595533
 20
79.7339134272
 30
0.0
 10
41.4180416684
 20
79.8091779234
 30
0.0
 10
41.3457536304
 20
79.8778989968
 30
0.0
 10
41.288086625
 20
79.9166257085
 30
0.0
 10
41.2567657421
 20
79.9347084196
 30
0.0
  0
SPLINE
  5
2EE
100
AcDbEntity
  8
0
100
AcDbSpline
 62
7
  6
BYLAYER
 70
0
 71
3
 72
11
 73
7
 74
0
 42
0.0000001
 43
0.0000001
 44
0.0000000001
 40
0.0
 40
0.0
 40
0.0
 40
0.0
 40
0.2189787546
 40
0.4554428804
 40
0.7152939631
 40
1.0
 40
1.0
 40
1.0
 40
1.0
 10
41.0177634602
 20
79.5654310497
 30
0.0
 10
41.0152413733
 20
79.5538468608
 30
0.0
 10
41.0064960234
 20
79.5304257646
 30
0.0
 10
40.9842699126
 20
79.4983332602
 30
0.0
 10
40.9534430339
 20
79.469040888
 30
0.0
 10
40.928860438
 20
79.4525236463
 30
0.0
 10
40.9155114566
 20
79.4448166543
 30
0.0
  0
SPLINE
  5
2EF
100
AcDbEntity
  8
0
100
AcDbSpline
 62
7
  6
BYLAYER
 70
0
 71
3
 72
15
 73
11
 74
0
 42
0.0000001
 43
0.0000001
 44
0.0000000001
 40
0.0
 40
0.0
 40
0.0
 40
0.0
 40
0.1141462769
 40
0.2373347432
 40
0.3669750849
 40
0.4999983967
 40
0.6330219315
 40
0.7626629244
 40
0.8858524171
 40
1.0
 40
1.0
 40
1.0
 40
1.0
 10
39.813351814
 20
74.7738979852
 30
0.0
 10
39.8544947392
 20
74.7976517224
 30
0.0
 10
39.9357649191
 20
74.8546280967
 30
0.0
 10
40.0475949608
 20
74.9592418079
 30
0.0
 10
40.1506395125
 20
75.0829207611
 30
0.0
 10
40.2410417264
 20
75.2209912546
 30
0.0
 10
40.3154125732
 20
75.3683177204
 30
0.0
 10
40.3709990572
 20
75.5193973638
 30
0.0
 10
40.4056820706
 20
75.6685531648
 30
0.0
 10
40.4143900756
 20
75.76742434
 30
0.0
 10
40.4143900756
 20
75.8149325706
 30
0.0
  0
SPLINE
  5
2F0
100
AcDbEntity
  8
0
100
AcDbSpline
 62
7
  6
BYLAYER
 70
0
 71
3
 72
14
 73
10
 74
0
 42
0.0000001
 43
0.0000001
 44
0.0000000001
 40
0.0
 40
0.0
 40
0.0
 40
0.0
 40
0.1080460029
 40
0.2181295928
 40
0.3321097481
 40
0.451498358
 40
0.5774420198
 40
0.7107254959
 40
1.0
 40
1.0
 40
1.0
 40
1.0
 10
41.6618735338
 20
71.4262261076
 30
0.0
 10
41.6618735343
 20
71.4072951508
 30
0.0
 10
41.6585788282
 20
71.3690004082
 30
0.0
 10
41.6439156145
 20
71.3124322142
 30
0.0
 10
41.6196816485
 20
71.2570913725
 30
0.0
 10
41.5862322577
 20
71.2035226881
 30
0.0
 10
41.543899992
 20
71.1522171374
 30
0.0
 10
41.4743540106
 20
71.0856525203
 30
0.0
 10
41.4128789801
 20
71.0433274226
 30
0.0
 10
41.3689849662
 20
71.0179853531
 30
0.0
  0
SPLINE
  5
2F1
100
AcDbEntity
  8
0
100
AcDbSpline
 62
7
  6
BYLAYER
 70
0
 71
3
 72
15
 73
11
 74
0
 42
0.0000001
 43
0.0000001
 44
0.0000000001
 40
0.0
 40
0.0
 40
0.0
 40
0.0
 40
0.1141545727
 40
0.2373261359
 40
0.366975604
 40
0.4999994966
 40
0.6330234588
 40
0.7626731321
 40
0.8858450149
 40
1.0
 40
1.0
 40
1.0
 40
1.0
 10
39.389094222
 20
69.8749017222
 30
0.0
 10
39.3406872331
 20
69.846954101
 30
0.0
 10
39.2348366053
 20
69.7976634871
 30
0.0
 10
39.0624649546
 20
69.7452728257
 30
0.0
 10
38.8758456475
 20
69.7130243595
 30
0.0
 10
38.6819886082
 20
69.7021438289
 30
0.0
 10
38.4881314174
 20
69.7130234442
 30
0.0
 10
38.301511665
 20
69.7452710286
 30
0.0
 10
38.1291392885
 20
69.797660868
 30
0.0
 10
38.0232880249
 20
69.8469509497
 30
0.0
 10
37.9748806596
 20
69.8748983229
 30
0.0
  0
SPLINE
  5
2F2
100
AcDbEntity
  8
0
100
AcDbSpline
 62
7
  6
BYLAYER
 70
0
 71
3
 72
14
 73
10
 74
0
 42
0.0000001
 43
0.0000001
 44
0.0000000001
 40
0.0
 40
0.0
 40
0.0
 40
0.0
 40
0.1080442683
 40
0.2181340675
 40
0.3321074269
 40
0.4514839599
 40
0.5774333817
 40
0.7107572279
 40
1.0
 40
1.0
 40
1.0
 40
1.0
 10
39.9540499433
 20
74.4052121171
 30
0.0
 10
39.9401139386
 20
74.4132574657
 30
0.0
 10
39.9133134063
 20
74.4319467587
 30
0.0
 10
39.8779210563
 20
74.4668014646
 30
0.0
 10
39.8474665633
 20
74.5081468388
 30
0.0
 10
39.8222550992
 20
74.5555403667
 30
0.0
 10
39.8024713746
 20
74.6085111169
 30
0.0
 10
39.7830388444
 20
74.6880033396
 30
0.0
 10
39.7780013325
 20
74.7512464388
 30
0.0
 10
39.7780013325
 20
74.7943249054
 30
0.0
  0
SPLINE
  5
2F3
100
AcDbEntity
  8
0
100
AcDbSpline
 62
7
  6
BYLAYER
 70
0
 71
3
 72
23
 73
19
 74
0
 42
0.0000001
 43
0.0000001
 44
0.0000000001
 40
0.0
 40
0.0
 40
0.0
 40
0.0
 40
0.0623731164
 40
0.1287529275
 40
0.1983493811
 40
0.2703365339
 40
0.3437259607
 40
0.4174674169
 40
0.4905028995
 40
0.5618015238
 40
0.6304112304
 40
0.6955084612
 40
0.7564661969
 40
0.8129134111
 40
0.8648212228
 40
0.9126044267
 40
0.9571867894
 40
1.0
 40
1.0
 40
1.0
 40
1.0
 10
40.9800778557
 20
75.488339967
 30
0.0
 10
40.9800778557
 20
75.4530883591
 30
0.0
 10
40.9752877245
 20
75.3802732985
 30
0.0
 10
40.9556486052
 20
75.2697158749
 30
0.0
 10
40.9236806105
 20
75.1564231311
 30
0.0
 10
40.880097399
 20
75.0428432872
 30
0.0
 10
40.8258335001
 20
74.93135766
 30
0.0
 10
40.7620337259
 20
74.8243531495
 30
0.0
 10
40.6900548711
 20
74.7241164318
 30
0.0
 10
40.6114427751
 20
74.6327725315
 30
0.0
 10
40.5278596039
 20
74.552268595
 30
0.0
 10
40.4410579734
 20
74.4843205049
 30
0.0
 10
40.3528529344
 20
74.4303524574
 30
0.0
 10
40.2650286954
 20
74.3915333334
 30
0.0
 10
40.1793315862
 20
74.3687715625
 30
0.0
 10
40.0974501085
 20
74.3627382533
 30
0.0
 10
40.0211965139
 20
74.3739109499
 30
0.0
 10
39.9750054474
 20
74.3931143647
 30
0.0
 10
39.9540499433
 20
74.4052121171
 30
0.0
  0
SPLINE
  5
2F4
100
AcDbEntity
  8
0
100
AcDbSpline
 62
7
  6
BYLAYER
 70
0
 71
3
 72
15
 73
11
 74
0
 42
0.0000001
 43
0.0000001
 44
0.0000000001
 40
0.0
 40
0.0
 40
0.0
 40
0.0
 40
0.1141543258
 40
0.2373258924
 40
0.3669759246
 40
0.5000005214
 40
0.6330250456
 40
0.762674866
 40
0.8858460989
 40
1.0
 40
1.0
 40
1.0
 40
1.0
 10
37.9748806596
 20
77.3050703188
 30
0.0
 10
38.0232877631
 20
77.2771230968
 30
0.0
 10
38.1291384777
 20
77.227832917
 30
0.0
 10
38.3015104947
 20
77.1754426843
 30
0.0
 10
38.4881305699
 20
77.1431945704
 30
0.0
 10
38.6819886333
 20
77.1323147756
 30
0.0
 10
38.8758465418
 20
77.1431954905
 30
0.0
 10
39.0624661591
 20
77.1754444905
 30
0.0
 10
39.234837434
 20
77.2278355425
 30
0.0
 10
39.3406875002
 20
77.2771262511
 30
0.0
 10
39.389094222
 20
77.3050737181
 30
0.0
  0
SPLINE
  5
2F5
100
AcDbEntity
  8
0
100
AcDbSpline
 62
7
  6
BYLAYER
 70
0
 71
3
 72
14
 73
10
 74
0
 42
0.0000001
 43
0.0000001
 44
0.0000000001
 40
0.0
 40
0.0
 40
0.0
 40
0.0
 40
0.2892730354
 40
0.4225560659
 40
0.5485000149
 40
0.6678890853
 40
0.7818696374
 40
0.891953611
 40
1.0
 40
1.0
 40
1.0
 40
1.0
 10
41.3689849662
 20
78.448157349
 30
0.0
 10
41.4128788436
 20
78.4734993397
 30
0.0
 10
41.4743538381
 20
78.5158241216
 30
0.0
 10
41.5438999898
 20
78.5823884159
 30
0.0
 10
41.5862326992
 20
78.6336938344
 30
0.0
 10
41.6196825783
 20
78.6872625985
 30
0.0
 10
41.6439169942
 20
78.7426036191
 30
0.0
 10
41.6585804208
 20
78.7991720928
 30
0.0
 10
41.6618752406
 20
78.8374670418
 30
0.0
 10
41.661875241
 20
78.8563981035
 30
0.0
  0
SPLINE
  5
2F6
100
AcDbEntity
  8
0
100
AcDbSpline
 62
7
  6
BYLAYER
 70
0
 71
3
 72
14
 73
10
 74
0
 42
0.0000001
 43
0.0000001
 44
0.0000000001
 40
0.0
 40
0.0
 40
0.0
 40
0.0
 40
0.2921130698
 40
0.4249654731
 40
0.5494608366
 40
0.6670002853
 40
0.7795724481
 40
0.8896465462
 40
1.0
 40
1.0
 40
1.0
 40
1.0
 10
40.9155093447
 20
79.7376851228
 30
0.0
 10
40.933592284
 20
79.7272451691
 30
0.0
 10
40.9586930877
 20
79.7095345258
 30
0.0
 10
40.9859221339
 20
79.6810901743
 30
0.0
 10
41.00154396
 20
79.6591850395
 30
0.0
 10
41.0127716554
 20
79.6363207794
 30
0.0
 10
41.0194080116
 20
79.6127757214
 30
0.0
 10
41.0213383756
 20
79.5889007926
 30
0.0
 10
41.0194415251
 20
79.5731385643
 30
0.0
 10
41.0177634602
 20
79.5654310497
 30
0.0
  0
SPLINE
  5
2F7
100
AcDbEntity
  8
0
100
AcDbSpline
 62
7
  6
BYLAYER
 70
0
 71
3
 72
15
 73
11
 74
0
 42
0.0000001
 43
0.0000001
 44
0.0000000001
 40
0.0
 40
0.0
 40
0.0
 40
0.0
 40
0.1506926116
 40
0.2924787382
 40
0.4252142656
 40
0.5496486983
 40
0.6671562611
 40
0.7796870998
 40
0.8897042313
 40
1.0
 40
1.0
 40
1.0
 40
1.0
 10
41.2567706956
 20
79.2477949981
 30
0.0
 10
41.2786599122
 20
79.2604326677
 30
0.0
 10
41.3200068378
 20
79.2870237201
 30
0.0
 10
41.375525999
 20
79.3320451383
 30
0.0
 10
41.4219199136
 20
79.3805482765
 30
0.0
 10
41.4585609079
 20
79.4319079801
 30
0.0
 10
41.4848844576
 20
79.4855448555
 30
0.0
 10
41.5004835907
 20
79.5407650448
 30
0.0
 10
41.5049673793
 20
79.5967643603
 30
0.0
 10
41.5005502525
 20
79.6337334452
 30
0.0
 10
41.4966134201
 20
79.6518094529
 30
0.0
  0
SPLINE
  5
2F8
100
AcDbEntity
  8
0
100
AcDbSpline
 62
7
  6
BYLAYER
 70
0
 71
3
 72
15
 73
11
 74
0
 42
0.0000001
 43
0.0000001
 44
0.0000000001
 40
0.0
 40
0.0
 40
0.0
 40
0.0
 40
0.1141469224
 40
0.2373360366
 40
0.366976904
 40
0.5000005214
 40
0.6330240662
 40
0.7626647219
 40
0.8858535023
 40
1.0
 40
1.0
 40
1.0
 40
1.0
 10
38.0870939958
 20
78.1047085073
 30
0.0
 10
38.1278164371
 20
78.0811979268
 30
0.0
 10
38.2168749397
 20
78.0397333244
 30
0.0
 10
38.3618902739
 20
77.9956488821
 30
0.0
 10
38.5188995744
 20
77.968529882
 30
0.0
 10
38.6819879769
 20
77.9593693261
 30
0.0
 10
38.845076249
 20
77.9685306561
 30
0.0
 10
39.0020851643
 20
77.9956504017
 30
0.0
 10
39.1470998742
 20
78.0397355333
 30
0.0
 10
39.2361578312
 20
78.0812005805
 30
0.0
 10
39.2768799514
 20
78.1047113672
 30
0.0
  0
SPLINE
  5
2F9
100
AcDbEntity
  8
0
100
AcDbSpline
 62
7
  6
BYLAYER
 70
0
 71
3
 72
14
 73
10
 74
0
 42
0.0000001
 43
0.0000001
 44
0.0000000001
 40
0.0
 40
0.0
 40
0.0
 40
0.0
 40
0.1080442683
 40
0.2181340675
 40
0.3321074269
 40
0.4514839599
 40
0.5774333817
 40
0.7107572279
 40
1.0
 40
1.0
 40
1.0
 40
1.0
 10
40.8040292449
 20
75.8774527552
 30
0.0
 10
40.8179652495
 20
75.8694074066
 30
0.0
 10
40.8447657819
 20
75.8507181137
 30
0.0
 10
40.8801581319
 20
75.8158634077
 30
0.0
 10
40.9106126249
 20
75.7745180336
 30
0.0
 10
40.935824089
 20
75.7271245056
 30
0.0
 10
40.9556078136
 20
75.6741537554
 30
0.0
 10
40.9750403438
 20
75.5946615327
 30
0.0
 10
40.9800778557
 20
75.5314184335
 30
0.0
 10
40.9800778557
 20
75.488339967
 30
0.0
  0
SPLINE
  5
2FA
100
AcDbEntity
  8
0
100
AcDbSpline
 62
7
  6
BYLAYER
 70
0
 71
3
 72
14
 73
10
 74
0
 42
0.0000001
 43
0.0000001
 44
0.0000000001
 40
0.0
 40
0.0
 40
0.0
 40
0.0
 40
0.2892456797
 40
0.4225677883
 40
0.5485157164
 40
0.6678917661
 40
0.7818656837
 40
0.8919553437
 40
1.0
 40
1.0
 40
1.0
 40
1.0
 10
27.6864753743
 20
76.4273006752
 30
0.0
 10
27.6864753743
 20
76.384221807
 30
0.0
 10
27.6814379924
 20
76.3209785196
 30
0.0
 10
27.662005037
 20
76.241486548
 30
0.0
 10
27.6422218223
 20
76.1885161986
 30
0.0
 10
27.6170097325
 20
76.1411233513
 30
0.0
 10
27.5865563955
 20
76.0997771821
 30
0.0
 10
27.5511634461
 20
76.0649228804
 30
0.0
 10
27.5243631576
 20
76.0462333522
 30
0.0
 10
27.5104272942
 20
76.0381876669
 30
0.0
  0
SPLINE
  5
2FB
100
AcDbEntity
  8
0
100
AcDbSpline
 62
7
  6
BYLAYER
 70
0
 71
3
 72
22
 73
18
 74
0
 42
0.0000001
 43
0.0000001
 44
0.0000000001
 40
0.0
 40
0.0
 40
0.0
 40
0.0
 40
0.0428181532
 40
0.0874060759
 40
0.1351959753
 40
0.18711101
 40
0.2435656546
 40
0.3045312456
 40
0.3696362334
 40
0.4382536528
 40
0.5095604174
 40
0.5826045307
 40
0.7296227019
 40
0.8016207963
 40
0.8712280915
 40
0.9376183764
 40
1.0
 40
1.0
 40
1.0
 40
1.0
 10
26.6604369216
 20
77.5104229662
 30
0.0
 10
26.6813918446
 20
77.5225210122
 30
0.0
 10
26.7275828073
 20
77.5417232295
 30
0.0
 10
26.8038355326
 20
77.5528992635
 30
0.0
 10
26.8857176165
 20
77.5468658139
 30
0.0
 10
26.9714154884
 20
77.5241053227
 30
0.0
 10
27.0592409086
 20
77.4852879648
 30
0.0
 10
27.1474458948
 20
77.4313208609
 30
0.0
 10
27.2342479002
 20
77.3633740764
 30
0.0
 10
27.3178293846
 20
77.2828748447
 30
0.0
 10
27.3964489973
 20
77.1915255607
 30
0.0
 10
27.4925677569
 20
77.0576570946
 30
0.0
 10
27.571572104
 20
76.9116527634
 30
0.0
 10
27.6300745148
 20
76.7592315436
 30
0.0
 10
27.6620454657
 20
76.6459264848
 30
0.0
 10
27.6816846528
 20
76.5353693015
 30
0.0
 10
27.6864753743
 20
76.462552502
 30
0.0
 10
27.6864753743
 20
76.4273006752
 30
0.0
  0
SPLINE
  5
2FC
100
AcDbEntity
  8
0
100
AcDbSpline
 62
7
  6
BYLAYER
 70
0
 71
3
 72
15
 73
11
 74
0
 42
0.0000001
 43
0.0000001
 44
0.0000000001
 40
0.0
 40
0.0
 40
0.0
 40
0.0
 40
0.1141474765
 40
0.2373368178
 40
0.3669776594
 40
0.5000010819
 40
0.633024354
 40
0.7626647561
 40
0.8858534048
 40
1.0
 40
1.0
 40
1.0
 40
1.0
 10
27.0500719113
 20
77.447905281
 30
0.0
 10
27.0500719113
 20
77.4003970662
 30
0.0
 10
27.0587799844
 20
77.3015259371
 30
0.0
 10
27.093463292
 20
77.1523702775
 30
0.0
 10
27.1490502481
 20
77.0012908818
 30
0.0
 10
27.2234217263
 20
76.8539647589
 30
0.0
 10
27.3138247074
 20
76.7158946889
 30
0.0
 10
27.4168701346
 20
76.5922162232
 30
0.0
 10
27.5287011276
 20
76.4876030462
 30
0.0
 10
27.6099719418
 20
76.430627106
 30
0.0
 10
27.6511151777
 20
76.4068735851
 30
0.0
  0
SPLINE
  5
2FD
100
AcDbEntity
  8
0
100
AcDbSpline
 62
7
  6
BYLAYER
 70
0
 71
3
 72
22
 73
18
 74
0
 42
0.0000001
 43
0.0000001
 44
0.0000000001
 40
0.0
 40
0.0
 40
0.0
 40
0.0
 40
0.0428181532
 40
0.0874060759
 40
0.1351959753
 40
0.18711101
 40
0.2435656546
 40
0.3045312456
 40
0.3696362334
 40
0.4382536528
 40
0.5095604174
 40
0.5826045307
 40
0.7296227019
 40
0.8016207963
 40
0.8712280915
 40
0.9376183764
 40
1.0
 40
1.0
 40
1.0
 40
1.0
 10
27.5104272942
 20
76.0381876669
 30
0.0
 10
27.4894723712
 20
76.0260896208
 30
0.0
 10
27.4432814085
 20
76.0068874036
 30
0.0
 10
27.3670286832
 20
75.9957113695
 30
0.0
 10
27.2851465993
 20
76.0017448191
 30
0.0
 10
27.1994487274
 20
76.0245053103
 30
0.0
 10
27.1116233072
 20
76.0633226682
 30
0.0
 10
27.023418321
 20
76.1172897722
 30
0.0
 10
26.9366163156
 20
76.1852365566
 30
0.0
 10
26.8530348312
 20
76.2657357884
 30
0.0
 10
26.7744152185
 20
76.3570850723
 30
0.0
 10
26.6782964589
 20
76.4909535385
 30
0.0
 10
26.5992921118
 20
76.6369578697
 30
0.0
 10
26.540789701
 20
76.7893790894
 30
0.0
 10
26.5088187501
 20
76.9026841482
 30
0.0
 10
26.489179563
 20
77.0132413316
 30
0.0
 10
26.4843888415
 20
77.0860581311
 30
0.0
 10
26.4843888415
 20
77.1213099579
 30
0.0
  0
SPLINE
  5
2FE
100
AcDbEntity
  8
0
100
AcDbSpline
 62
7
  6
BYLAYER
 70
0
 71
3
 72
14
 73
10
 74
0
 42
0.0000001
 43
0.0000001
 44
0.0000000001
 40
0.0
 40
0.0
 40
0.0
 40
0.0
 40
0.2892456797
 40
0.4225677883
 40
0.5485157164
 40
0.6678917661
 40
0.7818656837
 40
0.8919553437
 40
1.0
 40
1.0
 40
1.0
 40
1.0
 10
26.4843888415
 20
77.1213099579
 30
0.0
 10
26.4843888415
 20
77.1643888261
 30
0.0
 10
26.4894262234
 20
77.2276321134
 30
0.0
 10
26.5088591788
 20
77.307124085
 30
0.0
 10
26.5286423935
 20
77.3600944345
 30
0.0
 10
26.5538544833
 20
77.4074872818
 30
0.0
 10
26.5843078203
 20
77.4488334509
 30
0.0
 10
26.6197007697
 20
77.4836877527
 30
0.0
 10
26.6465010582
 20
77.5023772808
 30
0.0
 10
26.6604369216
 20
77.5104229662
 30
0.0
  0
SPLINE
  5
2FF
100
AcDbEntity
  8
0
100
AcDbSpline
 62
7
  6
BYLAYER
 70
0
 71
3
 72
11
 73
7
 74
0
 42
0.0000001
 43
0.0000001
 44
0.0000000001
 40
0.0
 40
0.0
 40
0.0
 40
0.0
 40
0.2247715069
 40
0.4653870157
 40
0.7237366163
 40
1.0
 40
1.0
 40
1.0
 40
1.0
 10
37.4647551671
 20
75.7530773353
 30
0.0
 10
37.4170469703
 20
75.8440050539
 30
0.0
 10
37.3004218417
 20
76.0232547859
 30
0.0
 10
37.0774146592
 20
76.2688960187
 30
0.0
 10
36.8046827958
 20
76.4963361842
 30
0.0
 10
36.5992121584
 20
76.6294588589
 30
0.0
 10
36.4899131428
 20
76.6925612474
 30
0.0
  0
SPLINE
  5
300
100
AcDbEntity
  8
0
100
AcDbSpline
 62
7
  6
BYLAYER
 70
0
 71
3
 72
16
 73
12
 74
0
 42
0.0000001
 43
0.0000001
 44
0.0000000001
 40
0.0
 40
0.0
 40
0.0
 40
0.0
 40
0.1095069008
 40
0.2208253135
 40
0.3356207251
 40
0.4553060295
 40
0.5173688459
 40
0.5810338395
 40
0.7134363937
 40
0.8530363267
 40
1.0
 40
1.0
 40
1.0
 40
1.0
 10
44.4821932108
 20
74.2839066317
 30
0.0
 10
44.4821936799
 20
74.474203337
 30
0.0
 10
44.4513756174
 20
74.8586223591
 30
0.0
 10
44.3135997372
 20
75.4276119666
 30
0.0
 10
44.0858643662
 20
75.9859613637
 30
0.0
 10
43.826271135
 20
76.4329814777
 30
0.0
 10
43.5783876357
 20
76.7802678847
 30
0.0
 10
43.2962070602
 20
77.1292754503
 30
0.0
 10
42.8906952799
 20
77.5503398675
 30
0.0
 10
42.3338497261
 20
78.0210213216
 30
0.0
 10
41.9248904933
 20
78.3064848564
 30
0.0
 10
41.7097101387
 20
78.4440356944
 30
0.0
  0
SPLINE
  5
301
100
AcDbEntity
  8
0
100
AcDbSpline
 62
7
  6
BYLAYER
 70
0
 71
3
 72
24
 73
20
 74
0
 42
0.0000001
 43
0.0000001
 44
0.0000000001
 40
0.0
 40
0.0
 40
0.0
 40
0.0
 40
0.0213327993
 40
0.0428949516
 40
0.0874723895
 40
0.1352511366
 40
0.1871562025
 40
0.2435966649
 40
0.3045476457
 40
0.369639991
 40
0.4382412277
 40
0.5095322836
 40
0.5825626667
 40
0.6562982763
 40
0.7296816855
 40
0.801665997
 40
0.871257688
 40
0.9376258878
 40
1.0
 40
1.0
 40
1.0
 40
1.0
 10
36.0322000656
 20
75.1004090472
 30
0.0
 10
36.0322033773
 20
75.067782161
 30
0.0
 10
36.0279896346
 20
75.0020962681
 30
0.0
 10
36.0025680191
 20
74.8704509503
 30
0.0
 10
35.9377268152
 20
74.7068333567
 30
0.0
 10
35.8128070863
 20
74.5232043958
 30
0.0
 10
35.6435040569
 20
74.3531757077
 30
0.0
 10
35.4337283188
 20
74.1998906976
 30
0.0
 10
35.1879355386
 20
74.0661936597
 30
0.0
 10
34.9112653198
 20
73.9547437378
 30
0.0
 10
34.609541714
 20
73.8677856992
 30
0.0
 10
34.2891391168
 20
73.8071337311
 30
0.0
 10
33.956862476
 20
73.7740936378
 30
0.0
 10
33.619792881
 20
73.7693497587
 30
0.0
 10
33.2851173032
 20
73.7930037657
 30
0.0
 10
32.9599875262
 20
73.8445550834
 30
0.0
 10
32.6512521192
 20
73.9229139389
 30
0.0
 10
32.3655956972
 20
74.0264528354
 30
0.0
 10
32.1884855583
 20
74.1137500835
 30
0.0
 10
32.1058693521
 20
74.1614474934
 30
0.0
  0
SPLINE
  5
302
100
AcDbEntity
  8
0
100
AcDbSpline
 62
7
  6
BYLAYER
 70
0
 71
3
 72
11
 73
7
 74
0
 42
0.0000001
 43
0.0000001
 44
0.0000000001
 40
0.0
 40
0.0
 40
0.0
 40
0.0
 40
0.2473582103
 40
0.4999024998
 40
0.7524957502
 40
1.0
 40
1.0
 40
1.0
 40
1.0
 10
37.4468181797
 20
80.1080299165
 30
0.0
 10
36.8464485412
 20
80.2356643739
 30
0.0
 10
35.6179265642
 20
80.4261348965
 30
0.0
 10
33.7501147708
 20
80.5218335707
 30
0.0
 10
31.8817607962
 20
80.4297102942
 30
0.0
 10
30.6523887866
 20
80.2416205425
 30
0.0
 10
30.0513971718
 20
80.1151756403
 30
0.0
  0
SPLINE
  5
303
100
AcDbEntity
  8
0
100
AcDbSpline
 62
7
  6
BYLAYER
 70
0
 71
3
 72
14
 73
10
 74
0
 42
0.0000001
 43
0.0000001
 44
0.0000000001
 40
0.0
 40
0.0
 40
0.0
 40
0.0
 40
0.2772392791
 40
0.4074813253
 40
0.5326956617
 40
0.6535952542
 40
0.771063274
 40
0.8861448488
 40
1.0
 40
1.0
 40
1.0
 40
1.0
 10
24.8037622196
 20
77.7404939389
 30
0.0
 10
24.5215703442
 20
77.4975235338
 30
0.0
 10
24.1321781937
 20
77.1077373475
 30
0.0
 10
23.7030806227
 20
76.5340377807
 30
0.0
 10
23.4423926476
 20
76.0997897064
 30
0.0
 10
23.2378179446
 20
75.6552157826
 30
0.0
 10
23.0907240453
 20
75.2026149634
 30
0.0
 10
23.001995227
 20
74.7446932495
 30
0.0
 10
22.9822235215
 20
74.4368336688
 30
0.0
 10
22.9822231446
 20
74.2839066286
 30
0.0
  0
SPLINE
  5
304
100
AcDbEntity
  8
0
100
AcDbSpline
 62
7
  6
BYLAYER
 70
0
 71
3
 72
25
 73
21
 74
0
 42
0.0000001
 43
0.0000001
 44
0.0000000001
 40
0.0
 40
0.0
 40
0.0
 40
0.0
 40
0.0616807309
 40
0.1271938344
 40
0.1958574326
 40
0.2668974914
 40
0.3394007031
 40
0.4124034619
 40
0.4849175611
 40
0.5559748218
 40
0.6246697729
 40
0.6902016994
 40
0.7519266491
 40
0.8094139848
 40
0.8625145008
 40
0.9114405589
 40
0.9345543063
 40
0.9569102826
 40
0.9786651367
 40
1.0
 40
1.0
 40
1.0
 40
1.0
 10
36.4899131428
 20
76.6925612474
 30
0.0
 10
36.3543044938
 20
76.7708531662
 30
0.0
 10
36.0642116908
 20
76.9146107825
 30
0.0
 10
35.5968671218
 20
77.086647786
 30
0.0
 10
35.0921413818
 20
77.2187899414
 30
0.0
 10
34.5602613647
 20
77.3084678193
 30
0.0
 10
34.0117639146
 20
77.3538521667
 30
0.0
 10
33.4576654636
 20
77.3540495342
 30
0.0
 10
32.909065829
 20
77.3090679138
 30
0.0
 10
32.3769580828
 20
77.219801179
 30
0.0
 10
31.8719807986
 20
77.0880237941
 30
0.0
 10
31.4041880963
 20
76.9163202057
 30
0.0
 10
30.9828405113
 20
76.7080419674
 30
0.0
 10
30.6162163702
 20
76.4670712397
 30
0.0
 10
30.3116421517
 20
76.1978902921
 30
0.0
 10
30.1109835529
 20
75.9490155192
 30
0.0
 10
29.9902158615
 20
75.7415854104
 30
0.0
 10
29.9203988163
 20
75.5854696454
 30
0.0
 10
29.8700240553
 20
75.4267745132
 30
0.0
 10
29.8495198622
 20
75.3189997637
 30
0.0
 10
29.8426909081
 20
75.2652700037
 30
0.0
  0
SPLINE
  5
305
100
AcDbEntity
  8
0
100
AcDbSpline
 62
7
  6
BYLAYER
 70
0
 71
3
 72
15
 73
11
 74
0
 42
0.0000001
 43
0.0000001
 44
0.0000000001
 40
0.0
 40
0.0
 40
0.0
 40
0.0
 40
0.1485062658
 40
0.28949091
 40
0.4227480391
 40
0.5486532219
 40
0.6679976838
 40
0.7819406507
 40
0.8919898732
 40
1.0
 40
1.0
 40
1.0
 40
1.0
 10
32.1058693521
 20
74.1614474934
 30
0.0
 10
32.0540235075
 20
74.1913800286
 30
0.0
 10
31.9553168661
 20
74.2539724479
 30
0.0
 10
31.8203161778
 20
74.3584175696
 30
0.0
 10
31.7035489666
 20
74.4701905103
 30
0.0
 10
31.6061879598
 20
74.588185714
 30
0.0
 10
31.5292524318
 20
74.7113977063
 30
0.0
 10
31.4735275454
 20
74.8386839796
 30
0.0
 10
31.439776717
 20
74.968787046
 30
0.0
 10
31.4322207093
 20
75.0568678305
 30
0.0
 10
31.4322162898
 20
75.1004090473
 30
0.0
  0
SPLINE
  5
306
100
AcDbEntity
  8
0
100
AcDbSpline
 62
7
  6
BYLAYER
 70
0
 71
3
 72
9
 73
5
 74
0
 42
0.0000001
 43
0.0000001
 44
0.0000000001
 40
0.0
 40
0.0
 40
0.0
 40
0.0
 40
0.495971676
 40
1.0
 40
1.0
 40
1.0
 40
1.0
 10
22.9822231446
 20
74.2839066286
 30
0.0
 10
22.9822226799
 20
74.0953746832
 30
0.0
 10
23.0124347662
 20
73.714660284
 30
0.0
 10
23.1015017278
 20
73.343427069
 30
0.0
 10
23.1596679427
 20
73.1608753226
 30
0.0
  0
SPLINE
  5
307
100
AcDbEntity
  8
0
100
AcDbSpline
 62
7
  6
BYLAYER
 70
0
 71
3
 72
9
 73
5
 74
0
 42
0.0000001
 43
0.0000001
 44
0.0000000001
 40
0.0
 40
0.0
 40
0.0
 40
0.0
 40
0.2471107497
 40
1.0
 40
1.0
 40
1.0
 40
1.0
 10
23.1596679427
 20
73.1608753226
 30
0.0
 10
23.1730672397
 20
73.1188223016
 30
0.0
 10
23.2301436881
 20
72.9495616996
 30
0.0
 10
23.298513351
 20
72.7841408204
 30
0.0
 10
23.3555968353
 20
72.6623855499
 30
0.0
  0
SPLINE
  5
308
100
AcDbEntity
  8
0
100
AcDbSpline
 62
7
  6
BYLAYER
 70
0
 71
3
 72
13
 73
9
 74
0
 42
0.0000001
 43
0.0000001
 44
0.0000000001
 40
0.0
 40
0.0
 40
0.0
 40
0.0
 40
0.1099840594
 40
0.2236520633
 40
0.341442871
 40
0.4636798815
 40
0.7221902037
 40
1.0
 40
1.0
 40
1.0
 40
1.0
 10
23.3555968353
 20
72.6623855499
 30
0.0
 10
23.4174888304
 20
72.5303740463
 30
0.0
 10
23.5569469656
 20
72.2681163897
 30
0.0
 10
23.806141708
 20
71.8895671028
 30
0.0
 10
24.0973597188
 20
71.5213683421
 30
0.0
 10
24.5482917892
 20
71.0373826647
 30
0.0
 10
25.2147407661
 20
70.468708711
 30
0.0
 10
25.811902223
 20
70.0794177347
 30
0.0
 10
26.1308419277
 20
69.895281976
 30
0.0
  0
SPLINE
  5
309
100
AcDbEntity
  8
0
100
AcDbSpline
 62
7
  6
BYLAYER
 70
0
 71
3
 72
14
 73
10
 74
0
 42
0.0000001
 43
0.0000001
 44
0.0000000001
 40
0.0
 40
0.0
 40
0.0
 40
0.0
 40
0.1077776645
 40
0.2186687167
 40
0.3339089386
 40
0.4544601504
 40
0.7138241819
 40
0.8536499824
 40
1.0
 40
1.0
 40
1.0
 40
1.0
 10
29.848971032
 20
74.8919209545
 30
0.0
 10
29.8594942822
 20
74.8266163169
 30
0.0
 10
29.8907815337
 20
74.6955346938
 30
0.0
 10
29.9662642204
 20
74.5043601124
 30
0.0
 10
30.0700717579
 20
74.3179539757
 30
0.0
 10
30.2492495037
 20
74.0717574779
 30
0.0
 10
30.4793874997
 20
73.8471789131
 30
0.0
 10
30.7477298021
 20
73.6466445892
 30
0.0
 10
30.8967160928
 20
73.5531662458
 30
0.0
 10
30.9745032126
 20
73.5082568472
 30
0.0
  0
SPLINE
  5
30A
100
AcDbEntity
  8
0
100
AcDbSpline
 62
7
  6
BYLAYER
 70
0
 71
3
 72
24
 73
20
 74
0
 42
0.0000001
 43
0.0000001
 44
0.0000000001
 40
0.0
 40
0.0
 40
0.0
 40
0.0
 40
0.0213327993
 40
0.0428949516
 40
0.0874723895
 40
0.1352511366
 40
0.1871562025
 40
0.2435966649
 40
0.3045476457
 40
0.369639991
 40
0.4382412277
 40
0.5095322836
 40
0.5825626667
 40
0.6562982763
 40
0.7296816855
 40
0.801665997
 40
0.871257688
 40
0.9376258878
 40
1.0
 40
1.0
 40
1.0
 40
1.0
 10
31.4322162898
 20
75.1004090473
 30
0.0
 10
31.4322129781
 20
75.1330359336
 30
0.0
 10
31.4364267208
 20
75.1987218265
 30
0.0
 10
31.4618483363
 20
75.3303671442
 30
0.0
 10
31.5266895402
 20
75.4939847379
 30
0.0
 10
31.6516092692
 20
75.6776136987
 30
0.0
 10
31.8209122985
 20
75.8476423868
 30
0.0
 10
32.0306880366
 20
76.000927397
 30
0.0
 10
32.2764808168
 20
76.1346244348
 30
0.0
 10
32.5531510356
 20
76.2460743568
 30
0.0
 10
32.8548746414
 20
76.3330323954
 30
0.0
 10
33.1752772386
 20
76.3936843635
 30
0.0
 10
33.5075538795
 20
76.4267244568
 30
0.0
 10
33.8446234745
 20
76.4314683359
 30
0.0
 10
34.1792990522
 20
76.4078143289
 30
0.0
 10
34.5044288292
 20
76.3562630111
 30
0.0
 10
34.8131642362
 20
76.2779041556
 30
0.0
 10
35.0988206582
 20
76.1743652592
 30
0.0
 10
35.2759307971
 20
76.087068011
 30
0.0
 10
35.3585470033
 20
76.0393706012
 30
0.0
  0
SPLINE
  5
30B
100
AcDbEntity
  8
0
100
AcDbSpline
 62
7
  6
BYLAYER
 70
0
 71
3
 72
11
 73
7
 74
0
 42
0.0000001
 43
0.0000001
 44
0.0000000001
 40
0.0
 40
0.0
 40
0.0
 40
0.0
 40
0.2321385172
 40
0.4775663474
 40
0.7343169502
 40
1.0
 40
1.0
 40
1.0
 40
1.0
 10
26.1308419277
 20
69.895281976
 30
0.0
 10
26.4704294294
 20
69.6992254759
 30
0.0
 10
27.1927474365
 20
69.3360450701
 30
0.0
 10
28.3522105463
 20
68.8905986655
 30
0.0
 10
29.6012473084
 20
68.5352138866
 30
0.0
 10
30.4681931305
 20
68.3645469589
 30
0.0
 10
30.9115444226
 20
68.2949427162
 30
0.0
  0
SPLINE
  5
30C
100
AcDbEntity
  8
0
100
AcDbSpline
 62
7
  6
BYLAYER
 70
0
 71
3
 72
11
 73
7
 74
0
 42
0.0000001
 43
0.0000001
 44
0.0000000001
 40
0.0
 40
0.0
 40
0.0
 40
0.0
 40
0.2508242848
 40
0.5029408479
 40
0.7535745796
 40
1.0
 40
1.0
 40
1.0
 40
1.0
 10
31.7169323006
 20
68.1875190059
 30
0.0
 10
32.1725501762
 20
68.137322926
 30
0.0
 10
33.0903193126
 20
68.0714944776
 30
0.0
 10
34.4686627991
 20
68.0750066078
 30
0.0
 10
35.8349563363
 20
68.1800089644
 30
0.0
 10
36.7338314581
 20
68.3182564345
 30
0.0
 10
37.1758239229
 20
68.4045408992
 30
0.0
  0
SPLINE
  5
30D
100
AcDbEntity
  8
0
100
AcDbSpline
 62
7
  6
BYLAYER
 70
0
 71
3
 72
9
 73
5
 74
0
 42
0.0000001
 43
0.0000001
 44
0.0000000001
 40
0.0
 40
0.0
 40
0.0
 40
0.0
 40
0.5090877137
 40
1.0
 40
1.0
 40
1.0
 40
1.0
 10
37.5500711037
 20
68.4820845615
 30
0.0
 10
37.9285275475
 20
68.5650984538
 30
0.0
 10
38.6664210025
 20
68.7546205411
 30
0.0
 10
39.3877520829
 20
69.0002625291
 30
0.0
 10
39.7359910513
 20
69.1356226334
 30
0.0
  0
SPLINE
  5
30E
100
AcDbEntity
  8
0
100
AcDbSpline
 62
7
  6
BYLAYER
 70
0
 71
3
 72
9
 73
5
 74
0
 42
0.0000001
 43
0.0000001
 44
0.0000000001
 40
0.0
 40
0.0
 40
0.0
 40
0.0
 40
0.2553653118
 40
1.0
 40
1.0
 40
1.0
 40
1.0
 10
40.4441124815
 20
69.4358631455
 30
0.0
 10
40.5281616107
 20
69.4746513562
 30
0.0
 10
40.8554968884
 20
69.6303916274
 30
0.0
 10
41.1754651788
 20
69.8017557317
 30
0.0
 10
41.4080602899
 20
69.9387165867
 30
0.0
  0
SPLINE
  5
30F
100
AcDbEntity
  8
0
100
AcDbSpline
 62
7
  6
BYLAYER
 70
0
 71
3
 72
9
 73
5
 74
0
 42
0.0000001
 43
0.0000001
 44
0.0000000001
 40
0.0
 40
0.0
 40
0.0
 40
0.0
 40
0.2550241024
 40
1.0
 40
1.0
 40
1.0
 40
1.0
 10
41.4080602899
 20
69.9387165867
 30
0.0
 10
41.4710716974
 20
69.9758201019
 30
0.0
 10
41.7165403522
 20
70.1240206361
 30
0.0
 10
41.9554137611
 20
70.2832176859
 30
0.0
 10
42.1285929269
 20
70.4082695896
 30
0.0
  0
SPLINE
  5
310
100
AcDbEntity
  8
0
100
AcDbSpline
 62
7
  6
BYLAYER
 70
0
 71
3
 72
9
 73
5
 74
0
 42
0.0000001
 43
0.0000001
 44
0.0000000001
 40
0.0
 40
0.0
 40
0.0
 40
0.0
 40
0.2543323176
 40
1.0
 40
1.0
 40
1.0
 40
1.0
 10
42.1285929269
 20
70.4082695896
 30
0.0
 10
42.1740882241
 20
70.4411215409
 30
0.0
 10
42.3516860936
 20
70.5720548842
 30
0.0
 10
42.5240248594
 20
70.7101543715
 30
0.0
 10
42.6489276151
 20
70.8172439549
 30
0.0
  0
SPLINE
  5
311
100
AcDbEntity
  8
0
100
AcDbSpline
 62
7
  6
BYLAYER
 70
0
 71
3
 72
9
 73
5
 74
0
 42
0.0000001
 43
0.0000001
 44
0.0000000001
 40
0.0
 40
0.0
 40
0.0
 40
0.0
 40
0.5163910426
 40
1.0
 40
1.0
 40
1.0
 40
1.0
 10
42.6489276151
 20
70.8172439549
 30
0.0
 10
42.8708475015
 20
71.007514442
 30
0.0
 10
43.2794730196
 20
71.4017519374
 30
0.0
 10
43.6298026278
 20
71.8495067068
 30
0.0
 10
43.7803790983
 20
72.0781395526
 30
0.0
  0
SPLINE
  5
312
100
AcDbEntity
  8
0
100
AcDbSpline
 62
7
  6
BYLAYER
 70
0
 71
3
 72
11
 73
7
 74
0
 42
0.0000001
 43
0.0000001
 44
0.0000000001
 40
0.0
 40
0.0
 40
0.0
 40
0.0
 40
0.2604864039
 40
0.5121739733
 40
0.7576834646
 40
1.0
 40
1.0
 40
1.0
 40
1.0
 10
43.912095095
 20
72.2895946362
 30
0.0
 10
44.0043775022
 20
72.4466192749
 30
0.0
 10
44.1682704742
 20
72.7662003939
 30
0.0
 10
44.3488091595
 20
73.2658455616
 30
0.0
 10
44.4578580336
 20
73.7729048881
 30
0.0
 10
44.4821927932
 20
74.1144771727
 30
0.0
 10
44.4821932108
 20
74.2839066317
 30
0.0
  0
SPLINE
  5
313
100
AcDbEntity
  8
0
100
AcDbSpline
 62
7
  6
BYLAYER
 70
0
 71
3
 72
14
 73
10
 74
0
 42
0.0000001
 43
0.0000001
 44
0.0000000001
 40
0.0
 40
0.0
 40
0.0
 40
0.0
 40
0.1463247363
 40
0.2861341816
 40
0.5454979172
 40
0.6660605655
 40
0.7813149895
 40
0.8922179799
 40
1.0
 40
1.0
 40
1.0
 40
1.0
 10
30.9745032126
 20
72.6917544301
 30
0.0
 10
30.8968205934
 20
72.7366034965
 30
0.0
 10
30.7480261129
 20
72.8299505756
 30
0.0
 10
30.4799848409
 20
73.030188901
 30
0.0
 10
30.2500393038
 20
73.2544077642
 30
0.0
 10
30.0708894599
 20
73.5001996347
 30
0.0
 10
29.9670148185
 20
73.6863061382
 30
0.0
 10
29.8913826271
 20
73.877180318
 30
0.0
 10
29.8599335632
 20
74.0080691086
 30
0.0
 10
29.8493163768
 20
74.0732827766
 30
0.0
  0
SPLINE
  5
314
100
AcDbEntity
  8
0
100
AcDbSpline
 62
7
  6
BYLAYER
 70
0
 71
3
 72
23
 73
19
 74
0
 42
0.0000001
 43
0.0000001
 44
0.0000000001
 40
0.0
 40
0.0
 40
0.0
 40
0.0
 40
0.0591918788
 40
0.1217199045
 40
0.1870679495
 40
0.2546909866
 40
0.3239264845
 40
0.3940620884
 40
0.4643608921
 40
0.534074445
 40
0.6024761481
 40
0.6688827368
 40
0.7326800017
 40
0.7933548005
 40
0.8505238501
 40
0.9039739447
 40
0.9537101367
 40
1.0
 40
1.0
 40
1.0
 40
1.0
 10
30.9745032126
 20
73.5082568472
 30
0.0
 10
31.0941653804
 20
73.4391714253
 30
0.0
 10
31.3483555555
 20
73.310871697
 30
0.0
 10
31.7558642809
 20
73.1523797758
 30
0.0
 10
32.1945678409
 20
73.0246873872
 30
0.0
 10
32.6574345384
 20
72.9297762624
 30
0.0
 10
33.1372596762
 20
72.8691076278
 30
0.0
 10
33.6264708717
 20
72.8436441947
 30
0.0
 10
34.1173528689
 20
72.8537991733
 30
0.0
 10
34.6021619036
 20
72.8994088037
 30
0.0
 10
35.0732523088
 20
72.979735351
 30
0.0
 10
35.5232055147
 20
73.093542645
 30
0.0
 10
35.9449573134
 20
73.2390563204
 30
0.0
 10
36.3319250681
 20
73.4140113739
 30
0.0
 10
36.6780686908
 20
73.6157645086
 30
0.0
 10
36.9780068727
 20
73.8413904221
 30
0.0
 10
37.2269562572
 20
74.0874866075
 30
0.0
 10
37.3605888021
 20
74.2690372441
 30
0.0
 10
37.416296646
 20
74.361625923
 30
0.0
  0
SPLINE
  5
315
100
AcDbEntity
  8
0
100
AcDbSpline
 62
7
  6
BYLAYER
 70
0
 71
3
 72
15
 73
11
 74
0
 42
0.0000001
 43
0.0000001
 44
0.0000000001
 40
0.0
 40
0.0
 40
0.0
 40
0.0
 40
0.1485062658
 40
0.28949091
 40
0.4227480391
 40
0.5486532219
 40
0.6679976838
 40
0.7819406507
 40
0.8919898732
 40
1.0
 40
1.0
 40
1.0
 40
1.0
 10
35.3585470033
 20
76.0393706012
 30
0.0
 10
35.4103928479
 20
76.009438066
 30
0.0
 10
35.5090994893
 20
75.9468456467
 30
0.0
 10
35.6441001776
 20
75.842400525
 30
0.0
 10
35.7608673888
 20
75.7306275843
 30
0.0
 10
35.8582283956
 20
75.6126323806
 30
0.0
 10
35.9351639236
 20
75.4894203882
 30
0.0
 10
35.99088881
 20
75.362134115
 30
0.0
 10
36.0246396384
 20
75.2320310485
 30
0.0
 10
36.0321956461
 20
75.1439502641
 30
0.0
 10
36.0322000656
 20
75.1004090472
 30
0.0
  0
SPLINE
  5
316
100
AcDbEntity
  8
0
100
AcDbSpline
 62
7
  6
BYLAYER
 70
0
 71
3
 72
23
 73
19
 74
0
 42
0.0000001
 43
0.0000001
 44
0.0000000001
 40
0.0
 40
0.0
 40
0.0
 40
0.0
 40
0.046291712
 40
0.0960296628
 40
0.149481245
 40
0.2066513683
 40
0.2673266053
 40
0.3311237023
 40
0.397529502
 40
0.4659299584
 40
0.53564208
 40
0.6059394783
 40
0.6760739747
 40
0.7453087485
 40
0.812931296
 40
0.8782792807
 40
0.9408079995
 40
1.0
 40
1.0
 40
1.0
 40
1.0
 10
37.4162184466
 20
73.544993582
 30
0.0
 10
37.3605015053
 20
73.4524080676
 30
0.0
 10
37.2268520032
 20
73.2708657118
 30
0.0
 10
36.9778837687
 20
73.0247827651
 30
0.0
 10
36.677932015
 20
72.7991717588
 30
0.0
 10
36.3317804945
 20
72.5974357266
 30
0.0
 10
35.9448122833
 20
72.4224966709
 30
0.0
 10
35.5230664545
 20
72.2769991106
 30
0.0
 10
35.0731252038
 20
72.1632068294
 30
0.0
 10
34.6020515378
 20
72.0828920539
 30
0.0
 10
34.1172617586
 20
72.0372924465
 30
0.0
 10
33.6263995384
 20
72.0271432677
 30
0.0
 10
33.1372066974
 20
72.0526102354
 30
0.0
 10
32.6573979054
 20
72.11328116
 30
0.0
 10
32.1945444358
 20
72.2081908487
 30
0.0
 10
31.7558504094
 20
72.3358820167
 30
0.0
 10
31.3483497054
 20
72.4943731902
 30
0.0
 10
31.0941630391
 20
72.6226703599
 30
0.0
 10
30.9745032126
 20
72.6917544301
 30
0.0
  0
SPLINE
  5
317
100
AcDbEntity
  8
0
100
AcDbSpline
 62
7
  6
BYLAYER
 70
0
 71
3
 72
14
 73
10
 74
0
 42
0.0000001
 43
0.0000001
 44
0.0000000001
 40
0.0
 40
0.0
 40
0.0
 40
0.0
 40
0.2892722042
 40
0.4225349444
 40
0.5484982229
 40
0.6678923437
 40
0.7818687849
 40
0.891952202
 40
1.0
 40
1.0
 40
1.0
 40
1.0
 10
29.135915535
 20
8.5857119053
 30
0.0
 10
28.8506164101
 20
8.7504341692
 30
0.0
 10
28.4510476761
 20
9.0255137147
 30
0.0
 10
27.999054634
 20
9.4582111037
 30
0.0
 10
27.7238688426
 20
9.7916660886
 30
0.0
 10
27.506432411
 20
10.1398722335
 30
0.0
 10
27.3489325568
 20
10.4995881153
 30
0.0
 10
27.2536292959
 20
10.8672698956
 30
0.0
 10
27.2322094156
 20
11.1161808011
 30
0.0
 10
27.2322081776
 20
11.2392309507
 30
0.0
  0
SPLINE
  5
318
100
AcDbEntity
  8
0
100
AcDbSpline
 62
7
  6
BYLAYER
 70
0
 71
3
 72
15
 73
11
 74
0
 42
0.0000001
 43
0.0000001
 44
0.0000000001
 40
0.0
 40
0.0
 40
0.0
 40
0.0
 40
0.1080119537
 40
0.2180605635
 40
0.3320045986
 40
0.4513554287
 40
0.5772590366
 40
0.7104993881
 40
0.8514739062
 40
1.0
 40
1.0
 40
1.0
 40
1.0
 10
40.2322081779
 20
11.2392309507
 30
0.0
 10
40.232209416
 20
11.1161788571
 30
0.0
 10
40.2107935971
 20
10.8672614768
 30
0.0
 10
40.1154789148
 20
10.4995663323
 30
0.0
 10
39.9579565378
 20
10.1398521604
 30
0.0
 10
39.7405274145
 20
9.7916461519
 30
0.0
 10
39.4653866769
 20
9.4581962559
 30
0.0
 10
39.135431732
 20
9.1423300784
 30
0.0
 10
38.7539264179
 20
8.8471549007
 30
0.0
 10
38.4749597169
 20
8.6702694831
 30
0.0
 10
38.3284213912
 20
8.5856660463
 30
0.0
  0
SPLINE
  5
319
100
AcDbEntity
  8
0
100
AcDbSpline
 62
7
  6
BYLAYER
 70
0
 71
3
 72
15
 73
11
 74
0
 42
0.0000001
 43
0.0000001
 44
0.0000000001
 40
0.0
 40
0.0
 40
0.0
 40
0.0
 40
0.1485555334
 40
0.2895107144
 40
0.4227342068
 40
0.5486413618
 40
0.6680017539
 40
0.7819402176
 40
0.8919885811
 40
1.0
 40
1.0
 40
1.0
 40
1.0
 10
26.0601315439
 20
69.8544575607
 30
0.0
 10
25.8154726093
 20
69.9957082669
 30
0.0
 10
25.3497641464
 20
70.2909468908
 30
0.0
 10
24.7129841995
 20
70.7837087867
 30
0.0
 10
24.1622287224
 20
71.3109073066
 30
0.0
 10
23.70301768
 20
71.8675563585
 30
0.0
 10
23.3399256096
 20
72.4487335034
 30
0.0
 10
23.0771368706
 20
73.0492590856
 30
0.0
 10
22.9178750799
 20
73.6629821371
 30
0.0
 10
22.8822491121
 20
74.0785026615
 30
0.0
 10
22.8822491077
 20
74.2839066302
 30
0.0
  0
SPLINE
  5
31A
100
AcDbEntity
  8
0
100
AcDbSpline
 62
7
  6
BYLAYER
 70
0
 71
3
 72
17
 73
13
 74
0
 42
0.0000001
 43
0.0000001
 44
0.0000000001
 40
0.0
 40
0.0
 40
0.0
 40
0.0
 40
0.0558413691
 40
0.1142237189
 40
0.237369636
 40
0.3669986451
 40
0.4999994693
 40
0.6330003675
 40
0.7626295926
 40
0.8857758501
 40
0.9441584083
 40
1.0
 40
1.0
 40
1.0
 40
1.0
 10
41.4043486956
 20
69.8544944436
 30
0.0
 10
41.1473832386
 20
69.7061362535
 30
0.0
 10
40.6083488535
 20
69.4254247623
 30
0.0
 10
39.4472761854
 20
68.930280776
 30
0.0
 10
37.8601071382
 20
68.447965114
 30
0.0
 10
35.8356874866
 20
68.098148715
 30
0.0
 10
33.7322532085
 20
67.9800791365
 30
0.0
 10
31.6288172267
 20
68.0981386981
 30
0.0
 10
29.6043925323
 20
68.4479454698
 30
0.0
 10
28.017216958
 20
68.9302534669
 30
0.0
 10
26.8561374283
 20
69.4253917835
 30
0.0
 10
26.3170990953
 20
69.706100632
 30
0.0
 10
26.0601315439
 20
69.8544575607
 30
0.0
  0
SPLINE
  5
31B
100
AcDbEntity
  8
0
100
AcDbSpline
 62
7
  6
BYLAYER
 70
0
 71
3
 72
15
 73
11
 74
0
 42
0.0000001
 43
0.0000001
 44
0.0000000001
 40
0.0
 40
0.0
 40
0.0
 40
0.0
 40
0.108009864
 40
0.218056074
 40
0.3319966129
 40
0.4513533837
 40
0.5772590472
 40
0.7104908731
 40
0.8514573491
 40
1.0
 40
1.0
 40
1.0
 40
1.0
 10
43.1321817564
 20
20.220757417
 30
0.0
 10
43.1321984578
 20
20.042808652
 30
0.0
 10
43.1012690499
 20
19.6828357875
 30
0.0
 10
42.9633762098
 20
19.1511208679
 30
0.0
 10
42.735638324
 20
18.6308921116
 30
0.0
 10
42.4211471326
 20
18.1273553032
 30
0.0
 10
42.0232808666
 20
17.6451163731
 30
0.0
 10
41.5461292715
 20
17.1883437628
 30
0.0
 10
40.9944310683
 20
16.7614535503
 30
0.0
 10
40.5909801214
 20
16.5056576367
 30
0.0
 10
40.3790395941
 20
16.3832944467
 30
0.0
  0
SPLINE
  5
31C
100
AcDbEntity
  8
0
100
AcDbSpline
 62
7
  6
BYLAYER
 70
0
 71
3
 72
15
 73
11
 74
0
 42
0.0000001
 43
0.0000001
 44
0.0000000001
 40
0.0
 40
0.0
 40
0.0
 40
0.0
 40
0.10801166
 40
0.2180602282
 40
0.3319988302
 40
0.4513592716
 40
0.5772663831
 40
0.710489749
 40
0.8514447311
 40
1.0
 40
1.0
 40
1.0
 40
1.0
 10
44.5821672477
 20
74.2839066301
 30
0.0
 10
44.5821672522
 20
74.0785048551
 30
0.0
 10
44.5465420364
 20
73.6629888653
 30
0.0
 10
44.3872837004
 20
73.0492722776
 30
0.0
 10
44.1245005147
 20
72.4487527327
 30
0.0
 10
43.7614160746
 20
71.8675809654
 30
0.0
 10
43.302214452
 20
71.3109365422
 30
0.0
 10
42.7514700572
 20
70.7837417153
 30
0.0
 10
42.1147026083
 20
70.2909825032
 30
0.0
 10
41.649003017
 20
69.9957448388
 30
0.0
 10
41.4043486956
 20
69.8544944436
 30
0.0
  0
SPLINE
  5
31D
100
AcDbEntity
  8
0
100
AcDbSpline
 62
7
  6
BYLAYER
 70
0
 71
3
 72
16
 73
12
 74
0
 42
0.0000001
 43
0.0000001
 44
0.0000000001
 40
0.0
 40
0.0
 40
0.0
 40
0.0
 40
0.1083892764
 40
0.218588791
 40
0.3325086752
 40
0.451749197
 40
0.513785084
 40
0.5775619132
 40
0.7106225218
 40
0.8514532497
 40
1.0
 40
1.0
 40
1.0
 40
1.0
 10
51.731057492
 20
31.6274449661
 30
0.0
 10
51.7383711021
 20
31.2855423915
 30
0.0
 10
51.6935816399
 20
30.5933397001
 30
0.0
 10
51.4490315396
 20
29.568421217
 30
0.0
 10
51.0304884108
 20
28.5645026825
 30
0.0
 10
50.547386677
 20
27.7643952124
 30
0.0
 10
50.084183387
 20
27.1448159931
 30
0.0
 10
49.5544302435
 20
26.5224896995
 30
0.0
 10
48.7912732909
 20
25.7754708525
 30
0.0
 10
47.7434068948
 20
24.9484494157
 30
0.0
 10
46.9750326726
 20
24.452574053
 30
0.0
 10
46.5709317621
 20
24.2151597588
 30
0.0
  0
SPLINE
  5
31E
100
AcDbEntity
  8
0
100
AcDbSpline
 62
7
  6
BYLAYER
 70
0
 71
3
 72
14
 73
10
 74
0
 42
0.0000001
 43
0.0000001
 44
0.0000000001
 40
0.0
 40
0.0
 40
0.0
 40
0.0
 40
0.2257664316
 40
0.3440288431
 40
0.4665394355
 40
0.593608579
 40
0.7251760046
 40
0.860844953
 40
1.0
 40
1.0
 40
1.0
 40
1.0
 10
30.8930966307
 20
16.8845117859
 30
0.0
 10
30.3514595337
 20
17.0166727969
 30
0.0
 10
29.5352945789
 20
17.2605685462
 30
0.0
 10
28.4645344739
 20
17.6873683316
 30
0.0
 10
27.6430758932
 20
18.0766918977
 30
0.0
 10
26.8197336139
 20
18.5340822312
 30
0.0
 10
25.9983822992
 20
19.0581114659
 30
0.0
 10
25.1824517553
 20
19.6431274756
 30
0.0
 10
24.6494522715
 20
20.0636299931
 30
0.0
 10
24.383731432
 20
20.2815341175
 30
0.0
  0
SPLINE
  5
31F
100
AcDbEntity
  8
0
100
AcDbSpline
 62
7
  6
BYLAYER
 70
0
 71
3
 72
9
 73
5
 74
0
 42
0.0000001
 43
0.0000001
 44
0.0000000001
 40
0.0
 40
0.0
 40
0.0
 40
0.0
 40
0.2474827777
 40
1.0
 40
1.0
 40
1.0
 40
1.0
 10
24.383731432
 20
20.2815341175
 30
0.0
 10
24.2784241179
 20
20.3678912814
 30
0.0
 10
23.8555343314
 20
20.720030554
 30
0.0
 10
23.4425187455
 20
21.0839500066
 30
0.0
 10
23.1363468177
 20
21.3627720667
 30
0.0
  0
SPLINE
  5
320
100
AcDbEntity
  8
0
100
AcDbSpline
 62
7
  6
BYLAYER
 70
0
 71
3
 72
14
 73
10
 74
0
 42
0.0000001
 43
0.0000001
 44
0.0000000001
 40
0.0
 40
0.0
 40
0.0
 40
0.0
 40
0.2561073416
 40
0.3833600949
 40
0.5095983422
 40
0.6344866191
 40
0.7578324978
 40
0.8796288301
 40
1.0
 40
1.0
 40
1.0
 40
1.0
 10
41.4889579908
 20
18.5237011073
 30
0.0
 10
40.6300073378
 20
18.1812204266
 30
0.0
 10
39.32282521
 20
17.7173115021
 30
0.0
 10
37.5412918269
 20
17.2531383078
 30
0.0
 10
36.1983076854
 20
16.9963754755
 30
0.0
 10
34.8545697749
 20
16.8365971924
 30
0.0
 10
33.5191754815
 20
16.7705428488
 30
0.0
 10
32.1988281316
 20
16.7875412934
 30
0.0
 10
31.3259897762
 20
16.8458466143
 30
0.0
 10
30.8930966307
 20
16.8845117859
 30
0.0
  0
SPLINE
  5
321
100
AcDbEntity
  8
0
100
AcDbSpline
 62
7
  6
BYLAYER
 70
0
 71
3
 72
11
 73
7
 74
0
 42
0.0000001
 43
0.0000001
 44
0.0000000001
 40
0.0
 40
0.0
 40
0.0
 40
0.0
 40
0.3114457211
 40
0.5823019411
 40
0.809666889
 40
1.0
 40
1.0
 40
1.0
 40
1.0
 10
43.7588172842
 20
22.9822363765
 30
0.0
 10
43.5805457067
 20
22.4920780707
 30
0.0
 10
43.2299845057
 20
21.5816309738
 30
0.0
 10
42.6652607647
 20
20.3475108663
 30
0.0
 10
42.0956972357
 20
19.3429224574
 30
0.0
 10
41.6886610198
 20
18.7721319457
 30
0.0
 10
41.4889579908
 20
18.5237011073
 30
0.0
  0
SPLINE
  5
322
100
AcDbEntity
  8
0
100
AcDbSpline
 62
7
  6
BYLAYER
 70
0
 71
3
 72
25
 73
21
 74
0
 42
0.0000001
 43
0.0000001
 44
0.0000000001
 40
0.0
 40
0.0
 40
0.0
 40
0.0
 40
0.0623763466
 40
0.1287258757
 40
0.1983135936
 40
0.2702911507
 40
0.3436673006
 40
0.417399887
 40
0.4904253864
 40
0.5617126907
 40
0.6303108348
 40
0.695399029
 40
0.7563464521
 40
0.8127832659
 40
0.8646835499
 40
0.9124583602
 40
0.9351025864
 40
0.9571079908
 40
0.9786680832
 40
1.0
 40
1.0
 40
1.0
 40
1.0
 10
40.3790395941
 20
16.3832944467
 30
0.0
 10
40.0413529895
 20
16.1883321584
 30
0.0
 10
39.317572632
 20
15.8315116282
 30
0.0
 10
38.1501071841
 20
15.408428066
 30
0.0
 10
36.8884019619
 20
15.0881913754
 30
0.0
 10
35.559624446
 20
14.8774440826
 30
0.0
 10
34.1918169981
 20
14.780750874
 30
0.0
 10
32.8142117993
 20
14.8001425507
 30
0.0
 10
31.4561783987
 20
14.9351983194
 30
0.0
 10
30.1466661822
 20
15.1830404115
 30
0.0
 10
28.9134954022
 20
15.5384235623
 30
0.0
 10
27.7827373177
 20
15.9939609109
 30
0.0
 10
26.7781735621
 20
16.540336644
 30
0.0
 10
25.920786621
 20
17.1668963995
 30
0.0
 10
25.2289585063
 20
17.8615126544
 30
0.0
 10
24.79582138
 20
18.4987817127
 30
0.0
 10
24.5545363779
 20
19.024981533
 30
0.0
 10
24.4265317874
 20
19.4196560789
 30
0.0
 10
24.3494656906
 20
19.8189760172
 30
0.0
 10
24.3322471146
 20
20.0874078217
 30
0.0
 10
24.332234599
 20
20.2207576613
 30
0.0
  0
SPLINE
  5
323
100
AcDbEntity
  8
0
100
AcDbSpline
 62
7
  6
BYLAYER
 70
0
 71
3
 72
15
 73
11
 74
0
 42
0.0000001
 43
0.0000001
 44
0.0000000001
 40
0.0
 40
0.0
 40
0.0
 40
0.0
 40
0.1141511434
 40
0.2373301441
 40
0.3669785647
 40
0.500002242
 40
0.6330260287
 40
0.7626768552
 40
0.885847699
 40
1.0
 40
1.0
 40
1.0
 40
1.0
 10
37.621311666
 20
8.1774043837
 30
0.0
 10
37.355078376
 20
8.0236954396
 30
0.0
 10
36.77288013
 20
7.7525995225
 30
0.0
 10
35.8248236414
 20
7.4644254433
 30
0.0
 10
34.7983839954
 20
7.2870863859
 30
0.0
 10
33.7321637592
 20
7.2272364231
 30
0.0
 10
32.6659362617
 20
7.2870978987
 30
0.0
 10
31.6395191935
 20
7.4644736933
 30
0.0
 10
30.6914731549
 20
7.7526386275
 30
0.0
 10
30.1093003392
 20
8.0237458141
 30
0.0
 10
29.8430664055
 20
8.1774598782
 30
0.0
  0
SPLINE
  5
324
100
AcDbEntity
  8
0
100
AcDbSpline
 62
7
  6
BYLAYER
 70
0
 71
3
 72
15
 73
11
 74
0
 42
0.0000001
 43
0.0000001
 44
0.0000000001
 40
0.0
 40
0.0
 40
0.0
 40
0.0
 40
0.1078810543
 40
0.2176492591
 40
0.3312808499
 40
0.4504174738
 40
0.5762647372
 40
0.7096106702
 40
0.8508870246
 40
1.0
 40
1.0
 40
1.0
 40
1.0
 10
16.9247221958
 20
63.9524506755
 30
0.0
 10
16.917729286
 20
63.626093532
 30
0.0
 10
16.9618019069
 20
62.9650151585
 30
0.0
 10
17.2009736843
 20
61.9868753083
 30
0.0
 10
17.6098581269
 20
61.0297387713
 30
0.0
 10
18.1828506615
 20
60.1039251636
 30
0.0
 10
18.9129250493
 20
59.2181476898
 30
0.0
 10
19.7923738258
 20
58.380711732
 30
0.0
 10
20.8118733199
 20
57.5997171623
 30
0.0
 10
21.5583950048
 20
57.1336157524
 30
0.0
 10
21.950828869
 20
56.9109693047
 30
0.0
  0
SPLINE
  5
325
100
AcDbEntity
  8
0
100
AcDbSpline
 62
7
  6
BYLAYER
 70
0
 71
3
 72
16
 73
12
 74
0
 42
0.0000001
 43
0.0000001
 44
0.0000000001
 40
0.0
 40
0.0
 40
0.0
 40
0.0
 40
0.1485458614
 40
0.2893747595
 40
0.422434644
 40
0.4862114341
 40
0.5482474629
 40
0.6674889982
 40
0.7814110121
 40
0.89161125
 40
1.0
 40
1.0
 40
1.0
 40
1.0
 10
46.528353893
 20
27.0317063657
 30
0.0
 10
46.9311124056
 20
27.2683319845
 30
0.0
 10
47.6969330147
 20
27.7625562051
 30
0.0
 10
48.7413152528
 20
28.5868295875
 30
0.0
 10
49.5019393267
 20
29.3313618875
 30
0.0
 10
50.0299360816
 20
29.9516217353
 30
0.0
 10
50.4916106052
 20
30.5691454278
 30
0.0
 10
50.973116442
 20
31.3666086391
 30
0.0
 10
51.3902768421
 20
32.3672088254
 30
0.0
 10
51.6340254177
 20
33.3887342756
 30
0.0
 10
51.6786636677
 20
34.0786426131
 30
0.0
 10
51.6713746875
 20
34.4194098003
 30
0.0
  0
SPLINE
  5
326
100
AcDbEntity
  8
0
100
AcDbSpline
 62
7
  6
BYLAYER
 70
0
 71
3
 72
9
 73
5
 74
0
 42
0.0000001
 43
0.0000001
 44
0.0000000001
 40
0.0
 40
0.0
 40
0.0
 40
0.0
 40
0.5126094663
 40
1.0
 40
1.0
 40
1.0
 40
1.0
 10
41.4889579908
 20
20.1087457081
 30
0.0
 10
41.5913290376
 20
20.4908038398
 30
0.0
 10
41.7974494558
 20
21.2344276424
 30
0.0
 10
42.0215914804
 20
21.9729065088
 30
0.0
 10
42.137148998
 20
22.330788819
 30
0.0
  0
SPLINE
  5
327
100
AcDbEntity
  8
0
100
AcDbSpline
 62
7
  6
BYLAYER
 70
0
 71
3
 72
15
 73
11
 74
0
 42
0.0000001
 43
0.0000001
 44
0.0000000001
 40
0.0
 40
0.0
 40
0.0
 40
0.0
 40
0.129452489
 40
0.2590283016
 40
0.3881628073
 40
0.5159226114
 40
0.6412554239
 40
0.7635982318
 40
0.883037214
 40
1.0
 40
1.0
 40
1.0
 40
1.0
 10
30.8930966307
 20
18.4695563868
 30
0.0
 10
31.3059911456
 20
18.707942739
 30
0.0
 10
32.1459364183
 20
19.1618495029
 30
0.0
 10
33.4513019228
 20
19.7485095043
 30
0.0
 10
34.7997894602
 20
20.2117399008
 30
0.0
 10
36.1776562244
 20
20.5169947646
 30
0.0
 10
37.5584914874
 20
20.6422227168
 30
0.0
 10
38.9128687544
 20
20.5987403721
 30
0.0
 10
40.2234917572
 20
20.4162183791
 30
0.0
 10
41.0728654357
 20
20.220238674
 30
0.0
 10
41.4889579908
 20
20.1087457081
 30
0.0
  0
SPLINE
  5
328
100
AcDbEntity
  8
0
100
AcDbSpline
 62
7
  6
BYLAYER
 70
0
 71
3
 72
11
 73
7
 74
0
 42
0.0000001
 43
0.0000001
 44
0.0000000001
 40
0.0
 40
0.0
 40
0.0
 40
0.0
 40
0.232018968
 40
0.4787760248
 40
0.7359772742
 40
1.0
 40
1.0
 40
1.0
 40
1.0
 10
26.9096932509
 20
21.9681082629
 30
0.0
 10
27.269260593
 20
21.7671930577
 30
0.0
 10
27.9816205021
 20
21.2985899379
 30
0.0
 10
28.9889094945
 20
20.4637254681
 30
0.0
 10
29.9648724848
 20
19.5101143191
 30
0.0
 10
30.5862538183
 20
18.8238644688
 30
0.0
 10
30.8930966307
 20
18.4695563868
 30
0.0
  0
SPLINE
  5
329
100
AcDbEntity
  8
0
100
AcDbSpline
 62
7
  6
BYLAYER
 70
0
 71
3
 72
16
 73
12
 74
0
 42
0.0000001
 43
0.0000001
 44
0.0000000001
 40
0.0
 40
0.0
 40
0.0
 40
0.0
 40
0.1145018117
 40
0.237871867
 40
0.3675756852
 40
0.5005353174
 40
0.6334142581
 40
0.7628850087
 40
0.8858827033
 40
0.9442079244
 40
1.0
 40
1.0
 40
1.0
 40
1.0
 10
27.1063343178
 20
21.9237677242
 30
0.0
 10
27.5653535559
 20
21.663621551
 30
0.0
 10
28.5667024032
 20
21.2053992103
 30
0.0
 10
30.1938254207
 20
20.7196529066
 30
0.0
 10
31.9519725205
 20
20.4227460397
 30
0.0
 10
33.7757999771
 20
20.3258377849
 30
0.0
 10
35.5981389088
 20
20.4323979086
 30
0.0
 10
37.3511652791
 20
20.7385279094
 30
0.0
 10
38.7253896861
 20
21.1579510978
 30
0.0
 10
39.7308728393
 20
21.5875758713
 30
0.0
 10
40.1978195226
 20
21.8308848771
 30
0.0
 10
40.4204611228
 20
21.9594262976
 30
0.0
  0
SPLINE
  5
32A
100
AcDbEntity
  8
0
100
AcDbSpline
 62
7
  6
BYLAYER
 70
0
 71
3
 72
19
 73
15
 74
0
 42
0.0000001
 43
0.0000001
 44
0.0000000001
 40
0.0
 40
0.0
 40
0.0
 40
0.0
 40
0.0560715885
 40
0.1146534111
 40
0.1754569591
 40
0.2381999252
 40
0.3680325796
 40
0.5010914018
 40
0.6339982366
 40
0.7633868021
 40
0.8258091247
 40
0.8862349723
 40
0.9443909122
 40
1.0
 40
1.0
 40
1.0
 40
1.0
 10
21.5142321713
 20
27.5166811468
 30
0.0
 10
21.9306157531
 20
27.280446882
 30
0.0
 10
22.8031496251
 20
26.8339266448
 30
0.0
 10
24.1860639789
 20
26.2548373413
 30
0.0
 10
25.6604126443
 20
25.7566374541
 30
0.0
 10
27.752314279
 20
25.2004226492
 30
0.0
 10
30.5015898053
 20
24.7403154225
 30
0.0
 10
33.8834162861
 20
24.5674626381
 30
0.0
 10
37.2595717456
 20
24.7739480927
 30
0.0
 10
39.9962311316
 20
25.2616199752
 30
0.0
 10
42.0722626203
 20
25.8391083283
 30
0.0
 10
43.5313977213
 20
26.3520610681
 30
0.0
 10
44.8966901057
 20
26.9449841547
 30
0.0
 10
45.7560554121
 20
27.4004391132
 30
0.0
 10
46.1654144331
 20
27.6409426125
 30
0.0
  0
SPLINE
  5
32B
100
AcDbEntity
  8
0
100
AcDbSpline
 62
7
  6
BYLAYER
 70
0
 71
3
 72
26
 73
22
 74
0
 42
0.0000001
 43
0.0000001
 44
0.0000000001
 40
0.0
 40
0.0
 40
0.0
 40
0.0
 40
0.0627291942
 40
0.1293918561
 40
0.1992659261
 40
0.2714714609
 40
0.3450152948
 40
0.4188441219
 40
0.4918908951
 40
0.5631243203
 40
0.6315961127
 40
0.696493928
 40
0.7572013985
 40
0.8133695265
 40
0.8397591251
 40
0.8650512294
 40
0.9125996826
 40
0.9351619461
 40
0.9571130682
 40
0.9786522543
 40
1.0
 40
1.0
 40
1.0
 40
1.0
 10
21.950828869
 20
56.9109693047
 30
0.0
 10
22.5607280275
 20
56.5649444238
 30
0.0
 10
23.8661201182
 20
55.9327161581
 30
0.0
 10
25.9686564391
 20
55.1860573821
 30
0.0
 10
28.2371898
 20
54.6245622991
 30
0.0
 10
30.6230102111
 20
54.2602161409
 30
0.0
 10
33.0753861264
 20
54.1007564106
 30
0.0
 10
35.5418197431
 20
54.149570816
 30
0.0
 10
37.9695369923
 20
54.4056324621
 30
0.0
 10
40.3066531488
 20
54.8634757329
 30
0.0
 10
42.503353117
 20
55.5133855358
 30
0.0
 10
44.5131864037
 20
56.3418553168
 30
0.0
 10
46.2934651231
 20
57.3317128413
 30
0.0
 10
47.5811117558
 20
58.2946856695
 30
0.0
 10
48.4526723591
 20
59.1297762774
 30
0.0
 10
49.1845928102
 20
59.964439424
 30
0.0
 10
49.7745102602
 20
60.8637010696
 30
0.0
 10
50.1869400736
 20
61.8086927856
 30
0.0
 10
50.4013353617
 20
62.5172164693
 30
0.0
 10
50.524230171
 20
63.2333490193
 30
0.0
 10
50.5448034454
 20
63.7138687799
 30
0.0
 10
50.5396996796
 20
63.9524507242
 30
0.0
  0
SPLINE
  5
32C
100
AcDbEntity
  8
0
100
AcDbSpline
 62
7
  6
BYLAYER
 70
0
 71
3
 72
11
 73
7
 74
0
 42
0.0000001
 43
0.0000001
 44
0.0000000001
 40
0.0
 40
0.0
 40
0.0
 40
0.0
 40
0.2352454749
 40
0.4786792135
 40
0.7327253366
 40
1.0
 40
1.0
 40
1.0
 40
1.0
 10
30.8930966307
 20
21.168093327
 30
0.0
 10
30.6704359506
 20
21.1680900349
 30
0.0
 10
30.2171259
 20
21.1852533812
 30
0.0
 10
29.5279987234
 20
21.271232575
 30
0.0
 10
28.8203980798
 20
21.4289334483
 30
0.0
 10
28.3511045354
 20
21.5847041992
 30
0.0
 10
28.1153739453
 20
21.6765092021
 30
0.0
  0
SPLINE
  5
32D
100
AcDbEntity
  8
0
100
AcDbSpline
 62
7
  6
BYLAYER
 70
0
 71
3
 72
17
 73
13
 74
0
 42
0.0000001
 43
0.0000001
 44
0.0000000001
 40
0.0
 40
0.0
 40
0.0
 40
0.0
 40
0.1060204517
 40
0.1637267276
 40
0.2242271295
 40
0.3520743226
 40
0.4861260073
 40
0.6221730858
 40
0.7558097597
 40
0.882862788
 40
0.942884163
 40
1.0
 40
1.0
 40
1.0
 40
1.0
 10
28.8124652398
 20
15.6433568518
 30
0.0
 10
29.0677874614
 20
15.4208448153
 30
0.0
 10
29.5058015624
 20
15.1258802332
 30
0.0
 10
30.1486769693
 20
14.809279202
 30
0.0
 10
30.8814952583
 20
14.5224772653
 30
0.0
 10
31.8816768007
 20
14.2610127398
 30
0.0
 10
33.1469989268
 20
14.107257616
 30
0.0
 10
34.4402109573
 20
14.1149944025
 30
0.0
 10
35.6996834146
 20
14.2839086843
 30
0.0
 10
36.6912464706
 20
14.5574900524
 30
0.0
 10
37.4137674676
 20
14.8534289669
 30
0.0
 10
37.7471873118
 20
15.0246504559
 30
0.0
 10
37.9051963244
 20
15.1158764573
 30
0.0
  0
SPLINE
  5
32E
100
AcDbEntity
  8
0
100
AcDbSpline
 62
7
  6
BYLAYER
 70
0
 71
3
 72
14
 73
10
 74
0
 42
0.0000001
 43
0.0000001
 44
0.0000000001
 40
0.0
 40
0.0
 40
0.0
 40
0.0
 40
0.1306858221
 40
0.2607223261
 40
0.3894483621
 40
0.5161886291
 40
0.6405511462
 40
0.762514017
 40
1.0
 40
1.0
 40
1.0
 40
1.0
 10
39.3669378816
 20
21.7314562767
 30
0.0
 10
39.0200735815
 20
21.5821088504
 30
0.0
 10
38.3176593517
 20
21.3074079308
 30
0.0
 10
37.2386210005
 20
20.9828808783
 30
0.0
 10
36.1448782961
 20
20.7619941042
 30
0.0
 10
35.0506996039
 20
20.6542162868
 30
0.0
 10
33.9709940422
 20
20.654106713
 30
0.0
 10
32.5770262474
 20
20.7781926819
 30
0.0
 10
31.5559880469
 20
20.9904700334
 30
0.0
 10
30.8930966307
 20
21.168093327
 30
0.0
  0
ENDSEC
  0
SECTION
  2
OBJECTS
  0
DICTIONARY
  5
C
100
AcDbDictionary
280
0
281
1
  3
ACAD_GROUP
350
D
  3
ACAD_MLINESTYLE
350
17
  3
ACAD_LAYOUT
350
1A
  3
ACAD_PLOTSETTINGS
350
19
  3
ACAD_PLOTSTYLENAME
350
E
  0
DICTIONARY
  5
D
102
{ACAD_REACTORS
330
C
102
}
100
AcDbDictionary
280
0
281
1
  0
ACDBDICTIONARYWDFLT
  5
E
102
{ACAD_REACTORS
330
C
102
}
100
AcDbDictionary
281
1
  3
Normal
350
F
100
AcDbDictionaryWithDefault
340
F
  0
DICTIONARY
  5
17
102
{ACAD_REACTORS
330
C
102
}
100
AcDbDictionary
280
0
281
1
  3
Standard
350
18
  0
DICTIONARY
  5
19
102
{ACAD_REACTORS
330
C
102
}
100
AcDbDictionary
281
1
  0
DICTIONARY
  5
1A
102
{ACAD_REACTORS
330
C
102
}
100
AcDbDictionary
281
1
  3
Model
350
32F
  3
Layout1
350
330
  0
ACDBPLACEHOLDER
  5
F
102
{ACAD_REACTORS
330
E
102
}
  0
MLINESTYLE
  5
18
102
{ACAD_REACTORS
330
17
102
}
100
AcDbMlineStyle
  2
STANDARD
 70
0
  3

 62
256
 51
90.0
 52
90.0
 71
2
 49
0.5
 62
256
  6
BYLAYER
 49
-0.5
 62
256
  6
BYLAYER
  0
LAYOUT
  5
32F
102
{ACAD_REACTORS
330
1A
102
}
100
AcDbPlotSettings
  1

  2
none_device
  4

  6

 40
0.0
 41
0.0
 42
0.0
 43
0.0
 44
210.0
 45
297.0
 46
0.0
 47
0.0
 48
0.0
 49
0.0
140
0.0
141
0.0
142
1.0
143
1.0
 70
1024
 72
1
 73
0
 74
0
  7

 75
0
147
1.0
148
0.0
149
0.0
100
AcDbLayout
  1
Model
 70
0
 71
0
 10
0.0
 20
0.0
 11
210.0
 21
297.0
 12
0.0
 22
0.0
 32
0.0
 14
0.0
 24
0.0
 34
0.0
 15
0.0
 25
0.0
 35
0.0
146
0.0
 13
0.0
 23
0.0
 33
0.0
 16
1.0
 26
0.0
 36
0.0
 17
0.0
 27
1.0
 37
0.0
 76
0
330
210
345
0
346
0
  0
LAYOUT
  5
330
102
{ACAD_REACTORS
330
1A
102
}
100
AcDbPlotSettings
  1

  2
none_device
  4

  6

 40
0.0
 41
0.0
 42
0.0
 43
0.0
 44
210.0
 45
297.0
 46
0.0
 47
0.0
 48
0.0
 49
0.0
140
0.0
141
0.0
142
1.0
143
1.0
 70
0
 72
1
 73
0
 74
0
  7

 75
0
147
1.0
148
0.0
149
0.0
100
AcDbLayout
  1
Layout1
 70
0
 71
1
 10
0.0
 20
0.0
 11
210.0
 21
297.0
 12
0.0
 22
0.0
 32
0.0
 14
0.0
 24
0.0
 34
0.0
 15
0.0
 25
0.0
 35
0.0
146
0.0
 13
0.0
 23
0.0
 33
0.0
 16
1.0
 26
0.0
 36
0.0
 17
0.0
 27
1.0
 37
0.0
 76
0
330
211
345
0
346
0
  0
ENDSEC
  0
EOF
