999
DXF file: C:\Users\sesa63760\Dev\_Creo\CAD\MCADID0005839_3D-CAD\mcadid0005839_3d-simplified_5.dxf
999
Pro/ENGINEER 2019471 by Parametric Technology Corporation
  0
SECTION
  2
HEADER
  9
$ACADVER
  1
AC1024
  9
$DWGCODEPAGE
  3
ANSI_1252
  9
$EXTMAX
 10
257.1857243459
 20
363.7340958606
 30
0.0
  9
$EXTMIN
 10
0.0
 20
0.0
 30
0.0
  9
$LIMMIN
 10
0.0
 20
0.0
  9
$LIMMAX
 10
257.1857243459
 20
363.7340958606
  9
$VIEWCTR
 10
128.5928621729
 20
181.8670479303
  9
$VIEWSIZE
 40
363.7340958606
  9
$CLAYER
  8
0
  9
$LTSCALE
 40
23.7100743968
  9
$CELTYPE
  6
BYLAYER
  9
$DIMSCALE
 40
1.0
  9
$DIMASZ
 40
3.0617348136
  9
$DIMEXO
 40
1.0
  9
$DIMDLI
 40
16.3815059469
  9
$DIMEXE
 40
1.0
  9
$DIMCEN
 40
3.8798303558
  9
$DIMLFAC
 40
1.0
  9
$DIMBLK
  1
_FILLED
  9
$DIMALT
 70
0
  9
$DIMALTF
 40
0.0393700787
  9
$DIMTXT
 40
4.2864287391
  9
$DIMTOL
 70
1
  9
$DIMLIM
 70
0
  9
$DIMTFAC
 40
1.0
  9
$DIMTP
 40
0.01
  9
$DIMTM
 40
0.01
  9
$DIMGAP
 40
0.625
  9
$DIMDSEP
 70
46
  9
$AUNITS
 70
0
  9
$PDMODE
 70
3
  9
$PDSIZE
 40
0.3125
  9
$HANDSEED
  5
320
  9
$TILEMODE
 70
1
  9
$MEASUREMENT
 70
1
  9
$INSUNITS
 70
4
  0
ENDSEC
  0
SECTION
  2
CLASSES
  0
CLASS
  1
ACDBDICTIONARYWDFLT
  2
AcDbDictionaryWithDefault
  3
AutoCAD 2000
 90
0
 91
1
280
0
281
0
  0
CLASS
  1
ACDBPLACEHOLDER
  2
AcDbPlaceHolder
  3
AutoCAD 2000
 90
0
 91
1
280
0
281
0
  0
CLASS
  1
LAYOUT
  2
AcDbLayout
  3
AutoCAD 2000
 90
0
 91
0
280
0
281
0
  0
ENDSEC
  0
SECTION
  2
TABLES
  0
TABLE
  2
VPORT
  5
8
100
AcDbSymbolTable
 70
2
  0
VPORT
  5
1F4
100
AcDbSymbolTableRecord
100
AcDbViewportTableRecord
  2
*ACTIVE
 70
0
 10
0.0
 20
0.0
 11
1.0
 21
1.0
 12
128.5928621729
 22
181.8670479303
 13
0.0
 23
0.0
 14
1.0
 24
1.0
 15
0.0
 25
0.0
 16
0.0
 26
0.0
 36
1.0
 17
0.0
 27
0.0
 37
0.0
 40
363.7340958606
 41
0.7070707071
 42
50.0
 43
0.0
 44
0.0
 50
0.0
 51
0.0
 71
0
 72
100
 73
1
 74
1
 75
0
 76
0
 77
0
 78
0
  0
ENDTAB
  0
TABLE
  2
LTYPE
  5
5
100
AcDbSymbolTable
 70
6
  0
LTYPE
  5
14
100
AcDbSymbolTableRecord
100
AcDbLinetypeTableRecord
  2
BYBLOCK
 70
0
  3

 72
65
 73
0
 40
0.0
  0
LTYPE
  5
15
100
AcDbSymbolTableRecord
100
AcDbLinetypeTableRecord
  2
BYLAYER
 70
0
  3

 72
65
 73
0
 40
0.0
  0
LTYPE
  5
16
100
AcDbSymbolTableRecord
100
AcDbLinetypeTableRecord
  2
CONTINUOUS
 70
64
  3
Solid line
 72
65
 73
0
 40
0.0
  0
LTYPE
  5
1F5
100
AcDbSymbolTableRecord
100
AcDbLinetypeTableRecord
  2
CENTER
 70
64
  3
____ _ ____ _ ____ _ ____ _ ____ _ ____ _ ____
 72
65
 73
4
 40
0.6
 49
0.375
 74
0
 49
-0.075
 74
0
 49
0.075
 74
0
 49
-0.075
 74
0
  0
LTYPE
  5
1F6
100
AcDbSymbolTableRecord
100
AcDbLinetypeTableRecord
  2
HIDDEN
 70
64
  3
- - - - - - - - - - - - - - - - - - - -
 72
65
 73
2
 40
0.2
 49
0.1
 74
0
 49
-0.1
 74
0
  0
LTYPE
  5
1F7
100
AcDbSymbolTableRecord
100
AcDbLinetypeTableRecord
  2
PHANTOM
 70
64
  3
_____ _ _ _____ _ _ _____ _ _ _____
 72
65
 73
6
 40
0.8
 49
0.45
 74
0
 49
-0.05
 74
0
 49
0.1
 74
0
 49
-0.05
 74
0
 49
0.1
 74
0
 49
-0.05
 74
0
  0
LTYPE
  5
1F8
100
AcDbSymbolTableRecord
100
AcDbLinetypeTableRecord
  2
DOT
 70
64
  3
. . . . . . . . . . . . . . . . . . . .
 72
65
 73
2
 40
0.2
 49
0.1
 74
0
 49
-0.1
 74
0
  0
LTYPE
  5
1F9
100
AcDbSymbolTableRecord
100
AcDbLinetypeTableRecord
  2
DASHED
 70
64
  3
- - - - - - - - - - - - - - - - - - - -
 72
65
 73
2
 40
0.2
 49
0.1
 74
0
 49
-0.1
 74
0
  0
ENDTAB
  0
TABLE
  2
LAYER
  5
2
100
AcDbSymbolTable
 70
36
  0
LAYER
  5
10
100
AcDbSymbolTableRecord
100
AcDbLayerTableRecord
  2
0
 70
0
 62
7
  6
CONTINUOUS
370
-3
390
F
  0
LAYER
  5
1FA
100
AcDbSymbolTableRecord
100
AcDbLayerTableRecord
  2
DEFAULT_1
 70
0
 62
7
  6
CENTER
370
-3
390
F
  0
LAYER
  5
1FB
100
AcDbSymbolTableRecord
100
AcDbLayerTableRecord
  2
DEFAULT_2
 70
0
 62
7
  6
HIDDEN
370
-3
390
F
  0
LAYER
  5
1FC
100
AcDbSymbolTableRecord
100
AcDbLayerTableRecord
  2
DEFAULT_3
 70
0
 62
7
  6
PHANTOM
370
-3
390
F
  0
LAYER
  5
1FD
100
AcDbSymbolTableRecord
100
AcDbLayerTableRecord
  2
00_COMPONENTS
 70
0
 62
7
  6
CONTINUOUS
370
-3
390
F
  0
LAYER
  5
1FE
100
AcDbSymbolTableRecord
100
AcDbLayerTableRecord
  2
01_1_DEFAULT_DATUMS
 70
0
 62
7
  6
CONTINUOUS
370
-3
390
F
  0
LAYER
  5
1FF
100
AcDbSymbolTableRecord
100
AcDbLayerTableRecord
  2
01_PLANES
 70
0
 62
7
  6
CONTINUOUS
370
-3
390
F
  0
LAYER
  5
200
100
AcDbSymbolTableRecord
100
AcDbLayerTableRecord
  2
02_COORD_SYS
 70
0
 62
7
  6
CONTINUOUS
370
-3
390
F
  0
LAYER
  5
201
100
AcDbSymbolTableRecord
100
AcDbLayerTableRecord
  2
03_AXES
 70
0
 62
7
  6
CONTINUOUS
370
-3
390
F
  0
LAYER
  5
202
100
AcDbSymbolTableRecord
100
AcDbLayerTableRecord
  2
04_POINTS
 70
0
 62
7
  6
CONTINUOUS
370
-3
390
F
  0
LAYER
  5
203
100
AcDbSymbolTableRecord
100
AcDbLayerTableRecord
  2
05_CURVES
 70
0
 62
7
  6
CONTINUOUS
370
-3
390
F
  0
LAYER
  5
204
100
AcDbSymbolTableRecord
100
AcDbLayerTableRecord
  2
06_SURFS
 70
0
 62
7
  6
CONTINUOUS
370
-3
390
F
  0
LAYER
  5
205
100
AcDbSymbolTableRecord
100
AcDbLayerTableRecord
  2
07_COSMETICS
 70
0
 62
7
  6
CONTINUOUS
370
-3
390
F
  0
LAYER
  5
206
100
AcDbSymbolTableRecord
100
AcDbLayerTableRecord
  2
10_NOTES
 70
0
 62
7
  6
CONTINUOUS
370
-3
390
F
  0
LAYER
  5
207
100
AcDbSymbolTableRecord
100
AcDbLayerTableRecord
  2
11_NOTES_PUB
 70
0
 62
7
  6
CONTINUOUS
370
-3
390
F
  0
LAYER
  5
208
100
AcDbSymbolTableRecord
100
AcDbLayerTableRecord
  2
13_REF_GTOL
 70
0
 62
7
  6
CONTINUOUS
370
-3
390
F
  0
LAYER
  5
209
100
AcDbSymbolTableRecord
100
AcDbLayerTableRecord
  2
16_MISC
 70
0
 62
7
  6
CONTINUOUS
370
-3
390
F
  0
LAYER
  5
20A
100
AcDbSymbolTableRecord
100
AcDbLayerTableRecord
  2
17_NO_PRINT
 70
0
 62
7
  6
CONTINUOUS
370
-3
390
F
  0
LAYER
  5
20B
100
AcDbSymbolTableRecord
100
AcDbLayerTableRecord
  2
18_DATUM_CAMS_JOINTS
 70
0
 62
7
  6
CONTINUOUS
370
-3
390
F
  0
LAYER
  5
20C
100
AcDbSymbolTableRecord
100
AcDbLayerTableRecord
  2
19_DATUM_FUNCTIONAL
 70
0
 62
7
  6
CONTINUOUS
370
-3
390
F
  0
LAYER
  5
20D
100
AcDbSymbolTableRecord
100
AcDbLayerTableRecord
  2
20_DATUM_KINEMATIC_SCHEME
 70
0
 62
7
  6
CONTINUOUS
370
-3
390
F
  0
ENDTAB
  0
TABLE
  2
STYLE
  5
3
100
AcDbSymbolTable
 70
1
  0
STYLE
  5
11
100
AcDbSymbolTableRecord
100
AcDbTextStyleTableRecord
  2
STANDARD
 70
0
 40
0.0
 41
1.0
 50
0.0
 71
0
 42
0.2
  3
ARIAL.TTF
  4

  0
STYLE
  5
20E
100
AcDbSymbolTableRecord
100
AcDbTextStyleTableRecord
  2
TEXTSTYLE_1
 70
0
 40
0.0
 41
0.8
 50
0.0
 71
0
 42
0.2
  3
gdt
  4

  0
ENDTAB
  0
TABLE
  2
VIEW
  5
6
100
AcDbSymbolTable
 70
0
  0
ENDTAB
  0
TABLE
  2
UCS
  5
7
100
AcDbSymbolTable
 70
0
  0
ENDTAB
  0
TABLE
  2
APPID
  5
9
100
AcDbSymbolTable
 70
1
  0
APPID
  5
20F
100
AcDbSymbolTableRecord
100
AcDbRegAppTableRecord
  2
ACAD
 70
0
  0
ENDTAB
  0
TABLE
  2
BLOCK_RECORD
  5
1
100
AcDbSymbolTable
 70
0
  0
BLOCK_RECORD
  5
210
100
AcDbSymbolTableRecord
100
AcDbBlockTableRecord
  2
*Model_Space
  0
BLOCK_RECORD
  5
211
100
AcDbSymbolTableRecord
100
AcDbBlockTableRecord
  2
*Paper_Space
  0
BLOCK_RECORD
  5
212
100
AcDbSymbolTableRecord
100
AcDbBlockTableRecord
  2
_FILLED
  0
ENDTAB
  0
TABLE
  2
DIMSTYLE
  5
A
100
AcDbSymbolTable
 70
1
100
AcDbDimStyleTable
 71
0
  0
DIMSTYLE
105
213
100
AcDbSymbolTableRecord
100
AcDbDimStyleTableRecord
  2
STANDARD
 70
0
  3

  4

 40
1.0
 41
3.0617348136
 42
1.0
 43
0.38
 44
1.0
 45
0.0
 46
0.0
 47
0.01
 48
0.01
140
4.2864287391
141
0.09
142
0.0
143
25.4
144
1.0
145
0.0
146
1.0
147
0.625
 71
1
 72
0
 73
0
 74
0
 75
0
 76
0
 77
1
 78
8
 79
2
170
0
171
1
172
0
173
0
174
0
175
0
176
0
177
0
178
0
270
2
179
2
271
2
272
2
273
2
274
2
275
0
280
0
281
0
282
0
283
1
284
8
285
0
286
0
287
3
288
0
340
11
278
46
341
212
342
212
343
212
344
212
  0
ENDTAB
  0
ENDSEC
  0
SECTION
  2
BLOCKS
  0
BLOCK
  5
20
100
AcDbEntity
  8
0
100
AcDbBlockBegin
  2
*Model_Space
 70
0
 10
0.0
 20
0.0
 30
0.0
  3
*Model_Space
  1

  0
ENDBLK
  5
21
100
AcDbEntity
  8
0
100
AcDbBlockEnd
  0
BLOCK
  5
1C
100
AcDbEntity
  8
0
100
AcDbBlockBegin
  2
*Paper_Space
 70
0
 10
0.0
 20
0.0
 30
0.0
  3
*Paper_Space
  1

  0
ENDBLK
  5
1D
100
AcDbEntity
  8
0
100
AcDbBlockEnd
  0
BLOCK
  5
214
100
AcDbEntity
  8
0
100
AcDbBlockBegin
  2
_FILLED
 70
64
 10
0.0
 20
0.0
  3
_FILLED
  1

  0
SOLID
  5
215
100
AcDbEntity
  8
0
  6
BYBLOCK
 62
0
100
AcDbTrace
 10
0.0
 20
0.0
 11
-1.0
 21
0.25
 12
-1.0
 22
-0.25
 13
-1.0
 23
-0.25
  0
ENDBLK
  5
216
100
AcDbEntity
  8
0
  6
BYBLOCK
 62
0
100
AcDbBlockEnd
  0
ENDSEC
  0
SECTION
  2
ENTITIES
  0
LINE
  5
217
100
AcDbEntity
  8
0
100
AcDbLine
 62
7
  6
BYLAYER
 10
29.9795179463
 20
199.812254902
 11
29.9795179463
 21
194.812254902
  0
LINE
  5
218
100
AcDbEntity
  8
0
100
AcDbLine
 62
7
  6
BYLAYER
 10
31.1795179463
 20
208.562254902
 11
31.1795179463
 21
205.312358883
  0
LINE
  5
219
100
AcDbEntity
  8
0
100
AcDbLine
 62
7
  6
BYLAYER
 10
31.1795179463
 20
184.562254902
 11
31.1795179463
 21
181.312358883
  0
LINE
  5
21A
100
AcDbEntity
  8
0
100
AcDbLine
 62
7
  6
BYLAYER
 10
31.1795179463
 20
186.062254902
 11
31.1795179463
 21
189.3121509209
  0
LINE
  5
21B
100
AcDbEntity
  8
0
100
AcDbLine
 62
7
  6
BYLAYER
 10
31.1795179463
 20
210.062254902
 11
31.1795179463
 21
213.3121509209
  0
LINE
  5
21C
100
AcDbEntity
  8
0
100
AcDbLine
 62
7
  6
BYLAYER
 10
34.4795179463
 20
213.9310570555
 11
34.4795179463
 21
211.6216559787
  0
LINE
  5
21D
100
AcDbEntity
  8
0
100
AcDbLine
 62
7
  6
BYLAYER
 10
34.4795179463
 20
183.0028538252
 11
34.4795179463
 21
180.6934527484
  0
LINE
  5
21E
100
AcDbEntity
  8
0
100
AcDbLine
 62
7
  6
BYLAYER
 10
35.7795179463
 20
218.312254902
 11
35.7795179463
 21
203.2506907231
  0
LINE
  5
21F
100
AcDbEntity
  8
0
100
AcDbLine
 62
7
  6
BYLAYER
 10
35.7795179463
 20
191.3738190809
 11
35.7795179463
 21
176.312254902
  0
LINE
  5
220
100
AcDbEntity
  8
0
100
AcDbLine
 62
7
  6
BYLAYER
 10
37.2795179463
 20
282.2545198751
 11
37.2795179463
 21
281.5370809399
  0
LINE
  5
221
100
AcDbEntity
  8
0
100
AcDbLine
 62
7
  6
BYLAYER
 10
37.2795179463
 20
281.5370809399
 11
37.2795179463
 21
218.312254902
  0
LINE
  5
222
100
AcDbEntity
  8
0
100
AcDbLine
 62
7
  6
BYLAYER
 10
37.2795179463
 20
203.2506907231
 11
37.2795179463
 21
191.3738190809
  0
LINE
  5
223
100
AcDbEntity
  8
0
100
AcDbLine
 62
7
  6
BYLAYER
 10
37.2795179463
 20
176.312254902
 11
37.2795179463
 21
83.0874288641
  0
LINE
  5
224
100
AcDbEntity
  8
0
100
AcDbLine
 62
7
  6
BYLAYER
 10
37.2795179463
 20
218.312254902
 11
37.2795179463
 21
203.2506907231
  0
LINE
  5
225
100
AcDbEntity
  8
0
100
AcDbLine
 62
7
  6
BYLAYER
 10
37.2795179463
 20
191.3738190809
 11
37.2795179463
 21
176.312254902
  0
LINE
  5
226
100
AcDbEntity
  8
0
100
AcDbLine
 62
7
  6
BYLAYER
 10
37.2795179463
 20
83.0874288641
 11
37.2795179463
 21
82.3699899289
  0
LINE
  5
227
100
AcDbEntity
  8
0
100
AcDbLine
 62
7
  6
BYLAYER
 10
38.0795179463
 20
218.0968645928
 11
38.0795179463
 21
176.5276452111
  0
LINE
  5
228
100
AcDbEntity
  8
0
100
AcDbLine
 62
7
  6
BYLAYER
 10
43.1795179463
 20
82.312254902
 11
37.3795179463
 21
82.312254902
  0
LINE
  5
229
100
AcDbEntity
  8
0
100
AcDbLine
 62
7
  6
BYLAYER
 10
43.2795179463
 20
282.2545198751
 11
43.2795179463
 21
281.5370809399
  0
LINE
  5
22A
100
AcDbEntity
  8
0
100
AcDbLine
 62
7
  6
BYLAYER
 10
43.2795179463
 20
281.5370809399
 11
43.2795179463
 21
219.9896742568
  0
LINE
  5
22B
100
AcDbEntity
  8
0
100
AcDbLine
 62
7
  6
BYLAYER
 10
43.2795179463
 20
174.6348355471
 11
43.2795179463
 21
83.0874288641
  0
LINE
  5
22C
100
AcDbEntity
  8
0
100
AcDbLine
 62
7
  6
BYLAYER
 10
43.2795179463
 20
219.7903631096
 11
43.2795179463
 21
174.8341466943
  0
LINE
  5
22D
100
AcDbEntity
  8
0
100
AcDbLine
 62
7
  6
BYLAYER
 10
43.2795179463
 20
83.0874288641
 11
43.2795179463
 21
82.3699899289
  0
LINE
  5
22E
100
AcDbEntity
  8
0
100
AcDbLine
 62
7
  6
BYLAYER
 10
43.2795179463
 20
174.6348355471
 11
43.2795179463
 21
174.8341466943
  0
LINE
  5
22F
100
AcDbEntity
  8
0
100
AcDbLine
 62
7
  6
BYLAYER
 10
43.2795179463
 20
219.7903631096
 11
43.2795179463
 21
219.9896742568
  0
LINE
  5
230
100
AcDbEntity
  8
0
100
AcDbLine
 62
7
  6
BYLAYER
 10
44.2795179463
 20
174.312254902
 11
44.2795179463
 21
220.312254902
  0
LINE
  5
231
100
AcDbEntity
  8
0
100
AcDbLine
 62
7
  6
BYLAYER
 10
130.8295179463
 20
88.91883271
 11
123.7295206126
 21
88.812254942
  0
LINE
  5
232
100
AcDbEntity
  8
0
100
AcDbLine
 62
7
  6
BYLAYER
 10
130.8295179463
 20
89.2116929358
 11
124.7145086784
 21
89.1199007831
  0
LINE
  5
233
100
AcDbEntity
  8
0
100
AcDbLine
 62
7
  6
BYLAYER
 10
131.3295179463
 20
88.812254902
 11
136.8295179463
 21
88.812254902
  0
LINE
  5
234
100
AcDbEntity
  8
0
100
AcDbLine
 62
7
  6
BYLAYER
 10
178.8295179463
 20
93.312254902
 11
137.8295179463
 21
93.312254902
  0
LINE
  5
235
100
AcDbEntity
  8
0
100
AcDbLine
 62
7
  6
BYLAYER
 10
92.7145086784
 20
95.2771447344
 11
91.7295179463
 21
95.2771447344
  0
LINE
  5
236
100
AcDbEntity
  8
0
100
AcDbLine
 62
7
  6
BYLAYER
 10
123.7295186284
 20
88.8122548917
 11
92.7145084145
 21
89.2778199348
  0
LINE
  5
237
100
AcDbEntity
  8
0
100
AcDbLine
 62
7
  6
BYLAYER
 10
92.7145086784
 20
89.2778199308
 11
67.5794252667
 21
89.6551216344
  0
LINE
  5
238
100
AcDbEntity
  8
0
100
AcDbLine
 62
7
  6
BYLAYER
 10
90.7595331008
 20
89.6000399009
 11
67.5644193797
 21
89.9482207992
  0
LINE
  5
239
100
AcDbEntity
  8
0
100
AcDbLine
 62
7
  6
BYLAYER
 10
92.7145086463
 20
95.2771440589
 11
123.7295180609
 21
94.8115790278
  0
LINE
  5
23A
100
AcDbEntity
  8
0
100
AcDbLine
 62
7
  6
BYLAYER
 10
48.7295179463
 20
217.3115904716
 11
48.7295179463
 21
177.3129193323
  0
LINE
  5
23B
100
AcDbEntity
  8
0
100
AcDbLine
 62
7
  6
BYLAYER
 10
52.4295179463
 20
174.312254902
 11
52.4295179463
 21
220.312254902
  0
LINE
  5
23C
100
AcDbEntity
  8
0
100
AcDbLine
 62
7
  6
BYLAYER
 10
53.8295179463
 20
220.2537121623
 11
53.8295179463
 21
174.3707976416
  0
LINE
  5
23D
100
AcDbEntity
  8
0
100
AcDbLine
 62
7
  6
BYLAYER
 10
173.8295179463
 20
98.312254902
 11
137.8295179463
 21
98.312254902
  0
LINE
  5
23E
100
AcDbEntity
  8
0
100
AcDbLine
 62
7
  6
BYLAYER
 10
188.8295179463
 20
103.312254902
 11
137.8295179463
 21
103.312254902
  0
LINE
  5
23F
100
AcDbEntity
  8
0
100
AcDbLine
 62
7
  6
BYLAYER
 10
92.7145086784
 20
106.9744183927
 11
91.7295179463
 21
106.9744183927
  0
LINE
  5
240
100
AcDbEntity
  8
0
100
AcDbLine
 62
7
  6
BYLAYER
 10
57.2295179463
 20
115.3198605682
 11
57.2295179463
 21
129.3046492358
  0
LINE
  5
241
100
AcDbEntity
  8
0
100
AcDbLine
 62
7
  6
BYLAYER
 10
57.7295179463
 20
220.312254902
 11
57.7295179463
 21
174.312254902
  0
LINE
  5
242
100
AcDbEntity
  8
0
100
AcDbLine
 62
7
  6
BYLAYER
 10
57.7295179463
 20
174.312254902
 11
57.7295179463
 21
99.6539951803
  0
LINE
  5
243
100
AcDbEntity
  8
0
100
AcDbLine
 62
7
  6
BYLAYER
 10
57.7295179463
 20
220.312254902
 11
57.7295179463
 21
244.9705146236
  0
LINE
  5
244
100
AcDbEntity
  8
0
100
AcDbLine
 62
7
  6
BYLAYER
 10
130.8295179463
 20
109.5635406498
 11
124.7145086784
 21
109.5255190952
  0
LINE
  5
245
100
AcDbEntity
  8
0
100
AcDbLine
 62
7
  6
BYLAYER
 10
130.8295179463
 20
110.2705677786
 11
124.7145086784
 21
110.2325462241
  0
LINE
  5
246
100
AcDbEntity
  8
0
100
AcDbLine
 62
7
  6
BYLAYER
 10
131.3295179463
 20
109.812254902
 11
136.8295179463
 21
109.812254902
  0
LINE
  5
247
100
AcDbEntity
  8
0
100
AcDbLine
 62
7
  6
BYLAYER
 10
178.8295179463
 20
111.812254902
 11
137.8295179463
 21
111.812254902
  0
LINE
  5
248
100
AcDbEntity
  8
0
100
AcDbLine
 62
7
  6
BYLAYER
 10
173.8295179463
 20
116.812254902
 11
137.8295179463
 21
116.812254902
  0
LINE
  5
249
100
AcDbEntity
  8
0
100
AcDbLine
 62
7
  6
BYLAYER
 10
90.7595331008
 20
109.0656622226
 11
67.5644193797
 21
109.7025075763
  0
LINE
  5
24A
100
AcDbEntity
  8
0
100
AcDbLine
 62
7
  6
BYLAYER
 10
90.7745389873
 20
109.7724504124
 11
67.5794252667
 21
110.4092957661
  0
LINE
  5
24B
100
AcDbEntity
  8
0
100
AcDbLine
 62
7
  6
BYLAYER
 10
67.4293664015
 20
254.6732478071
 11
67.4293664015
 21
234.9193081341
  0
LINE
  5
24C
100
AcDbEntity
  8
0
100
AcDbLine
 62
7
  6
BYLAYER
 10
67.4293664015
 20
109.7052016698
 11
67.4293664015
 21
89.9512619968
  0
LINE
  5
24D
100
AcDbEntity
  8
0
100
AcDbLine
 62
7
  6
BYLAYER
 10
67.5794252667
 20
234.2152140338
 11
67.5794252667
 21
110.4092957621
  0
LINE
  5
24E
100
AcDbEntity
  8
0
100
AcDbLine
 62
7
  6
BYLAYER
 10
43.2795179463
 20
219.9896742568
 11
44.2795179463
 21
220.312254902
  0
LINE
  5
24F
100
AcDbEntity
  8
0
100
AcDbLine
 62
7
  6
BYLAYER
 10
188.8295179463
 20
121.812254902
 11
178.8295179463
 21
121.812254902
  0
LINE
  5
250
100
AcDbEntity
  8
0
100
AcDbLine
 62
7
  6
BYLAYER
 10
90.7595331008
 20
255.0244699031
 11
90.7595331008
 21
235.5588475813
  0
LINE
  5
251
100
AcDbEntity
  8
0
100
AcDbLine
 62
7
  6
BYLAYER
 10
90.7595331008
 20
109.0656622226
 11
90.7595331008
 21
89.6000399009
  0
LINE
  5
252
100
AcDbEntity
  8
0
100
AcDbLine
 62
7
  6
BYLAYER
 10
91.7295179463
 20
254.3468025185
 11
91.7295179463
 21
237.6500417375
  0
LINE
  5
253
100
AcDbEntity
  8
0
100
AcDbLine
 62
7
  6
BYLAYER
 10
91.7295179463
 20
106.9744109839
 11
91.7295179463
 21
90.2777072854
  0
LINE
  5
254
100
AcDbEntity
  8
0
100
AcDbLine
 62
7
  6
BYLAYER
 10
92.7145086611
 20
249.3473557487
 11
92.7145086611
 21
237.6500877772
  0
LINE
  5
255
100
AcDbEntity
  8
0
100
AcDbLine
 62
7
  6
BYLAYER
 10
92.7145086784
 20
106.9744183927
 11
92.7145086784
 21
95.2771558184
  0
LINE
  5
256
100
AcDbEntity
  8
0
100
AcDbLine
 62
7
  6
BYLAYER
 10
102.2295179462
 20
238.562254902
 11
102.2295179462
 21
238.3122549293
  0
LINE
  5
257
100
AcDbEntity
  8
0
100
AcDbLine
 62
7
  6
BYLAYER
 10
102.2295179465
 20
204.3122548747
 11
102.2295179465
 21
204.062254902
  0
LINE
  5
258
100
AcDbEntity
  8
0
100
AcDbLine
 62
7
  6
BYLAYER
 10
102.2295179462
 20
140.562254902
 11
102.2295179462
 21
140.3122549293
  0
LINE
  5
259
100
AcDbEntity
  8
0
100
AcDbLine
 62
7
  6
BYLAYER
 10
102.2295179465
 20
106.3122548747
 11
102.2295179465
 21
106.062254902
  0
LINE
  5
25A
100
AcDbEntity
  8
0
100
AcDbLine
 62
7
  6
BYLAYER
 10
188.6065318054
 20
149.612254902
 11
188.8295179463
 21
149.612254902
  0
LINE
  5
25B
100
AcDbEntity
  8
0
100
AcDbLine
 62
7
  6
BYLAYER
 10
209.8916957728
 20
150.812254902
 11
191.8295179463
 21
150.812254902
  0
LINE
  5
25C
100
AcDbEntity
  8
0
100
AcDbLine
 62
7
  6
BYLAYER
 10
232.3295179463
 20
152.312254902
 11
211.6237465804
 21
152.312254902
  0
LINE
  5
25D
100
AcDbEntity
  8
0
100
AcDbLine
 62
7
  6
BYLAYER
 10
213.8295179463
 20
152.349754902
 11
191.8295179463
 21
152.349754902
  0
LINE
  5
25E
100
AcDbEntity
  8
0
100
AcDbLine
 62
7
  6
BYLAYER
 10
191.8295179463
 20
152.849754902
 11
213.8295118499
 21
152.849754902
  0
LINE
  5
25F
100
AcDbEntity
  8
0
100
AcDbLine
 62
7
  6
BYLAYER
 10
211.6237465804
 20
153.312254902
 11
191.8295179463
 21
153.312254902
  0
LINE
  5
260
100
AcDbEntity
  8
0
100
AcDbLine
 62
7
  6
BYLAYER
 10
43.2795179463
 20
174.6348355471
 11
44.2795179463
 21
174.312254902
  0
LINE
  5
261
100
AcDbEntity
  8
0
100
AcDbLine
 62
7
  6
BYLAYER
 10
191.8295179463
 20
159.312254902
 11
217.8295179463
 21
159.9031639929
  0
LINE
  5
262
100
AcDbEntity
  8
0
100
AcDbLine
 62
7
  6
BYLAYER
 10
234.3295179463
 20
160.812254902
 11
232.3295179463
 21
160.812254902
  0
LINE
  5
263
100
AcDbEntity
  8
0
100
AcDbLine
 62
7
  6
BYLAYER
 10
123.7295179463
 20
255.81225493
 11
123.7295179463
 21
234.7682037102
  0
LINE
  5
264
100
AcDbEntity
  8
0
100
AcDbLine
 62
7
  6
BYLAYER
 10
123.7295179463
 20
109.8563526184
 11
123.7295179463
 21
88.8122548893
  0
LINE
  5
265
100
AcDbEntity
  8
0
100
AcDbLine
 62
7
  6
BYLAYER
 10
123.7295206224
 20
234.7681572221
 11
123.7295204404
 21
109.8563061602
  0
LINE
  5
266
100
AcDbEntity
  8
0
100
AcDbLine
 62
7
  6
BYLAYER
 10
53.8295179463
 20
174.3707976416
 11
57.7295179463
 21
174.312254902
  0
LINE
  5
267
100
AcDbEntity
  8
0
100
AcDbLine
 62
7
  6
BYLAYER
 10
48.7295179463
 20
177.3129193323
 11
53.8295179467
 21
177.0572416133
  0
LINE
  5
268
100
AcDbEntity
  8
0
100
AcDbLine
 62
7
  6
BYLAYER
 10
124.7145086784
 20
255.5046090208
 11
124.7145086784
 21
235.0989907087
  0
LINE
  5
269
100
AcDbEntity
  8
0
100
AcDbLine
 62
7
  6
BYLAYER
 10
124.7145086784
 20
109.5255190952
 11
124.7145086784
 21
89.1199007831
  0
LINE
  5
26A
100
AcDbEntity
  8
0
100
AcDbLine
 62
7
  6
BYLAYER
 10
130.8295179463
 20
255.4128168682
 11
130.8295179463
 21
235.0609691541
  0
LINE
  5
26B
100
AcDbEntity
  8
0
100
AcDbLine
 62
7
  6
BYLAYER
 10
130.8295179463
 20
234.3539420253
 11
130.8295179463
 21
110.2705677786
  0
LINE
  5
26C
100
AcDbEntity
  8
0
100
AcDbLine
 62
7
  6
BYLAYER
 10
130.8295179463
 20
109.5635406498
 11
130.8295179463
 21
89.2116929358
  0
LINE
  5
26D
100
AcDbEntity
  8
0
100
AcDbLine
 62
7
  6
BYLAYER
 10
131.3295179463
 20
255.812254902
 11
131.3295179463
 21
88.812254902
  0
LINE
  5
26E
100
AcDbEntity
  8
0
100
AcDbLine
 62
7
  6
BYLAYER
 10
132.8295179463
 20
255.812254902
 11
132.8295179463
 21
88.812254902
  0
LINE
  5
26F
100
AcDbEntity
  8
0
100
AcDbLine
 62
7
  6
BYLAYER
 10
44.2795179463
 20
174.312254902
 11
52.4295179463
 21
174.312254902
  0
LINE
  5
270
100
AcDbEntity
  8
0
100
AcDbLine
 62
7
  6
BYLAYER
 10
35.7795179463
 20
176.312254902
 11
37.2795179463
 21
176.312254902
  0
LINE
  5
271
100
AcDbEntity
  8
0
100
AcDbLine
 62
7
  6
BYLAYER
 10
34.4795179463
 20
180.6934527484
 11
31.5367835363
 21
180.6934527484
  0
LINE
  5
272
100
AcDbEntity
  8
0
100
AcDbLine
 62
7
  6
BYLAYER
 10
31.5367835363
 20
183.0028538252
 11
34.4795179463
 21
183.0028538252
  0
LINE
  5
273
100
AcDbEntity
  8
0
100
AcDbLine
 62
7
  6
BYLAYER
 10
136.8295179463
 20
88.812254902
 11
136.8295179463
 21
255.812254902
  0
LINE
  5
274
100
AcDbEntity
  8
0
100
AcDbLine
 62
7
  6
BYLAYER
 10
137.8295179463
 20
251.312254902
 11
137.8295179463
 21
93.312254902
  0
LINE
  5
275
100
AcDbEntity
  8
0
100
AcDbLine
 62
7
  6
BYLAYER
 10
234.3295179463
 20
183.812254902
 11
232.3295179463
 21
183.812254902
  0
LINE
  5
276
100
AcDbEntity
  8
0
100
AcDbLine
 62
7
  6
BYLAYER
 10
211.6237465804
 20
191.312254902
 11
191.8295179463
 21
191.312254902
  0
LINE
  5
277
100
AcDbEntity
  8
0
100
AcDbLine
 62
7
  6
BYLAYER
 10
37.2795179463
 20
191.3738190809
 11
35.7795179463
 21
191.3738190809
  0
LINE
  5
278
100
AcDbEntity
  8
0
100
AcDbLine
 62
7
  6
BYLAYER
 10
213.8295093327
 20
191.774754902
 11
191.8295179463
 21
191.774754902
  0
LINE
  5
279
100
AcDbEntity
  8
0
100
AcDbLine
 62
7
  6
BYLAYER
 10
213.8295179463
 20
192.274754902
 11
191.8295179463
 21
192.274754902
  0
LINE
  5
27A
100
AcDbEntity
  8
0
100
AcDbLine
 62
7
  6
BYLAYER
 10
232.3295179463
 20
192.312254902
 11
211.6237465804
 21
192.312254902
  0
LINE
  5
27B
100
AcDbEntity
  8
0
100
AcDbLine
 62
7
  6
BYLAYER
 10
217.8295179463
 20
184.7213458111
 11
191.8295179463
 21
185.312254902
  0
LINE
  5
27C
100
AcDbEntity
  8
0
100
AcDbLine
 62
7
  6
BYLAYER
 10
209.8916957728
 20
193.812254902
 11
191.8295179463
 21
193.812254902
  0
LINE
  5
27D
100
AcDbEntity
  8
0
100
AcDbLine
 62
7
  6
BYLAYER
 10
188.8295179463
 20
195.012254902
 11
188.6065318054
 21
195.012254902
  0
LINE
  5
27E
100
AcDbEntity
  8
0
100
AcDbLine
 62
7
  6
BYLAYER
 10
37.2795179463
 20
203.2506907231
 11
35.7795179463
 21
203.2506907231
  0
LINE
  5
27F
100
AcDbEntity
  8
0
100
AcDbLine
 62
7
  6
BYLAYER
 10
34.4795179463
 20
211.6216559787
 11
31.5367835363
 21
211.6216559787
  0
LINE
  5
280
100
AcDbEntity
  8
0
100
AcDbLine
 62
7
  6
BYLAYER
 10
48.7295179463
 20
217.3115904716
 11
53.8295179467
 21
217.5672681906
  0
LINE
  5
281
100
AcDbEntity
  8
0
100
AcDbLine
 62
7
  6
BYLAYER
 10
53.8295179463
 20
220.2537121623
 11
57.7295179463
 21
220.312254902
  0
LINE
  5
282
100
AcDbEntity
  8
0
100
AcDbLine
 62
7
  6
BYLAYER
 10
31.5367835363
 20
213.9310570555
 11
34.4795179463
 21
213.9310570555
  0
LINE
  5
283
100
AcDbEntity
  8
0
100
AcDbLine
 62
7
  6
BYLAYER
 10
35.7795179463
 20
218.312254902
 11
37.2795179463
 21
218.312254902
  0
LINE
  5
284
100
AcDbEntity
  8
0
100
AcDbLine
 62
7
  6
BYLAYER
 10
44.2795179463
 20
220.312254902
 11
52.4295179463
 21
220.312254902
  0
LINE
  5
285
100
AcDbEntity
  8
0
100
AcDbLine
 62
7
  6
BYLAYER
 10
173.8295179463
 20
251.312254902
 11
173.8295179463
 21
246.3122549019
  0
LINE
  5
286
100
AcDbEntity
  8
0
100
AcDbLine
 62
7
  6
BYLAYER
 10
173.8295179463
 20
232.812254902
 11
173.8295179463
 21
227.8122549019
  0
LINE
  5
287
100
AcDbEntity
  8
0
100
AcDbLine
 62
7
  6
BYLAYER
 10
173.8295179463
 20
116.812254902
 11
173.8295179463
 21
111.812254902
  0
LINE
  5
288
100
AcDbEntity
  8
0
100
AcDbLine
 62
7
  6
BYLAYER
 10
173.8295179463
 20
98.312254902
 11
173.8295179463
 21
93.312254902
  0
LINE
  5
289
100
AcDbEntity
  8
0
100
AcDbLine
 62
7
  6
BYLAYER
 10
178.8295179463
 20
241.312254902
 11
178.8295179463
 21
232.812254902
  0
LINE
  5
28A
100
AcDbEntity
  8
0
100
AcDbLine
 62
7
  6
BYLAYER
 10
178.8295179463
 20
222.812254902
 11
178.8295179463
 21
121.812254902
  0
LINE
  5
28B
100
AcDbEntity
  8
0
100
AcDbLine
 62
7
  6
BYLAYER
 10
178.8295179463
 20
111.812254902
 11
178.8295179463
 21
103.312254902
  0
LINE
  5
28C
100
AcDbEntity
  8
0
100
AcDbLine
 62
7
  6
BYLAYER
 10
188.8295179463
 20
222.812254902
 11
178.8295179463
 21
222.812254902
  0
LINE
  5
28D
100
AcDbEntity
  8
0
100
AcDbLine
 62
7
  6
BYLAYER
 10
173.8295179463
 20
227.812254902
 11
137.8295179463
 21
227.812254902
  0
LINE
  5
28E
100
AcDbEntity
  8
0
100
AcDbLine
 62
7
  6
BYLAYER
 10
188.0295179463
 20
222.312254902
 11
188.0295179463
 21
122.312254902
  0
LINE
  5
28F
100
AcDbEntity
  8
0
100
AcDbLine
 62
7
  6
BYLAYER
 10
188.3368835121
 20
194.012254902
 11
188.3368835121
 21
150.612254902
  0
LINE
  5
290
100
AcDbEntity
  8
0
100
AcDbLine
 62
7
  6
BYLAYER
 10
188.8295179463
 20
122.312254902
 11
188.8295179463
 21
222.312254902
  0
LINE
  5
291
100
AcDbEntity
  8
0
100
AcDbLine
 62
7
  6
BYLAYER
 10
188.8295179463
 20
103.312254902
 11
188.8295179463
 21
122.312254902
  0
LINE
  5
292
100
AcDbEntity
  8
0
100
AcDbLine
 62
7
  6
BYLAYER
 10
188.8295179463
 20
222.312254902
 11
188.8295179463
 21
241.312254902
  0
LINE
  5
293
100
AcDbEntity
  8
0
100
AcDbLine
 62
7
  6
BYLAYER
 10
90.7745389818
 20
234.8520593913
 11
67.5794252664
 21
234.2152140378
  0
LINE
  5
294
100
AcDbEntity
  8
0
100
AcDbLine
 62
7
  6
BYLAYER
 10
90.7595331008
 20
235.5588475813
 11
67.5644193802
 21
234.9220022276
  0
LINE
  5
295
100
AcDbEntity
  8
0
100
AcDbLine
 62
7
  6
BYLAYER
 10
178.8295179463
 20
232.812254902
 11
137.8295179463
 21
232.812254902
  0
LINE
  5
296
100
AcDbEntity
  8
0
100
AcDbLine
 62
7
  6
BYLAYER
 10
131.3295179463
 20
234.812254902
 11
136.8295179463
 21
234.812254902
  0
LINE
  5
297
100
AcDbEntity
  8
0
100
AcDbLine
 62
7
  6
BYLAYER
 10
91.7295179463
 20
237.6500877772
 11
92.7145086611
 21
237.6500877772
  0
LINE
  5
298
100
AcDbEntity
  8
0
100
AcDbLine
 62
7
  6
BYLAYER
 10
130.8295179463
 20
234.3539420253
 11
124.7145085634
 21
234.3919635806
  0
LINE
  5
299
100
AcDbEntity
  8
0
100
AcDbLine
 62
7
  6
BYLAYER
 10
130.8295179463
 20
235.0609691541
 11
124.7145085634
 21
235.0989907094
  0
LINE
  5
29A
100
AcDbEntity
  8
0
100
AcDbLine
 62
7
  6
BYLAYER
 10
191.8295179463
 20
195.012254902
 11
191.8295179463
 21
149.612254902
  0
LINE
  5
29B
100
AcDbEntity
  8
0
100
AcDbLine
 62
7
  6
BYLAYER
 10
123.7295186336
 20
249.8129176948
 11
92.7145086999
 21
249.3473526559
  0
LINE
  5
29C
100
AcDbEntity
  8
0
100
AcDbLine
 62
7
  6
BYLAYER
 10
188.8295179463
 20
241.312254902
 11
137.8295179463
 21
241.312254902
  0
LINE
  5
29D
100
AcDbEntity
  8
0
100
AcDbLine
 62
7
  6
BYLAYER
 10
173.8295179463
 20
246.312254902
 11
137.8295179463
 21
246.312254902
  0
LINE
  5
29E
100
AcDbEntity
  8
0
100
AcDbLine
 62
7
  6
BYLAYER
 10
92.7145086611
 20
249.3473650264
 11
91.7295179463
 21
249.3473650264
  0
LINE
  5
29F
100
AcDbEntity
  8
0
100
AcDbLine
 62
7
  6
BYLAYER
 10
204.8295179463
 20
154.349754902
 11
204.8295179463
 21
190.274754902
  0
LINE
  5
2A0
100
AcDbEntity
  8
0
100
AcDbLine
 62
7
  6
BYLAYER
 10
90.759456597
 20
255.0244687547
 11
67.5644193797
 21
254.6762890047
  0
LINE
  5
2A1
100
AcDbEntity
  8
0
100
AcDbLine
 62
7
  6
BYLAYER
 10
123.7295186358
 20
255.8122549123
 11
92.7145084104
 21
255.3466898691
  0
LINE
  5
2A2
100
AcDbEntity
  8
0
100
AcDbLine
 62
7
  6
BYLAYER
 10
92.7145086784
 20
255.3466898731
 11
67.5794252667
 21
254.9693881695
  0
LINE
  5
2A3
100
AcDbEntity
  8
0
100
AcDbLine
 62
7
  6
BYLAYER
 10
178.8295179463
 20
251.312254902
 11
137.8295179463
 21
251.312254902
  0
LINE
  5
2A4
100
AcDbEntity
  8
0
100
AcDbLine
 62
7
  6
BYLAYER
 10
131.3295179463
 20
255.812254902
 11
136.8295179463
 21
255.812254902
  0
LINE
  5
2A5
100
AcDbEntity
  8
0
100
AcDbLine
 62
7
  6
BYLAYER
 10
130.8295179463
 20
255.4128168682
 11
124.7145086784
 21
255.5046090208
  0
LINE
  5
2A6
100
AcDbEntity
  8
0
100
AcDbLine
 62
7
  6
BYLAYER
 10
130.8295179463
 20
255.7056770939
 11
123.7295206349
 21
255.8122548616
  0
LINE
  5
2A7
100
AcDbEntity
  8
0
100
AcDbLine
 62
7
  6
BYLAYER
 10
211.6237465804
 20
192.312254902
 11
211.6237465804
 21
191.312254902
  0
LINE
  5
2A8
100
AcDbEntity
  8
0
100
AcDbLine
 62
7
  6
BYLAYER
 10
211.6237465804
 20
153.312254902
 11
211.6237465804
 21
152.312254902
  0
LINE
  5
2A9
100
AcDbEntity
  8
0
100
AcDbLine
 62
7
  6
BYLAYER
 10
213.8295179463
 20
180.9021310684
 11
213.8295179463
 21
163.7223787355
  0
LINE
  5
2AA
100
AcDbEntity
  8
0
100
AcDbLine
 62
7
  6
BYLAYER
 10
217.3295179463
 20
188.2747462845
 11
217.3295179463
 21
156.3497635146
  0
LINE
  5
2AB
100
AcDbEntity
  8
0
100
AcDbLine
 62
7
  6
BYLAYER
 10
217.8295179463
 20
156.349754902
 11
217.8295179463
 21
188.274754902
  0
LINE
  5
2AC
100
AcDbEntity
  8
0
100
AcDbLine
 62
7
  6
BYLAYER
 10
232.3295179463
 20
192.312254902
 11
232.3295179463
 21
183.812254902
  0
LINE
  5
2AD
100
AcDbEntity
  8
0
100
AcDbLine
 62
7
  6
BYLAYER
 10
232.3295179463
 20
160.812254902
 11
232.3295179463
 21
152.312254902
  0
LINE
  5
2AE
100
AcDbEntity
  8
0
100
AcDbLine
 62
7
  6
BYLAYER
 10
234.3295179463
 20
183.812254902
 11
234.3295179463
 21
160.812254902
  0
LINE
  5
2AF
100
AcDbEntity
  8
0
100
AcDbLine
 62
7
  6
BYLAYER
 10
43.1795179463
 20
282.312254902
 11
37.3795179463
 21
282.312254902
  0
ARC
  5
2B0
100
AcDbEntity
  8
0
100
AcDbCircle
 62
7
  6
BYLAYER
 10
102.2295179463
 20
123.312254902
 40
17.25
100
AcDbArc
 50
270.0000000005
 51
90.0000000005
  0
ARC
  5
2B1
100
AcDbEntity
  8
0
100
AcDbCircle
 62
7
  6
BYLAYER
 10
102.2295179463
 20
123.312254902
 40
17.0000000273
100
AcDbArc
 50
270.0000000001
 51
90.0000194047
  0
ARC
  5
2B2
100
AcDbEntity
  8
0
100
AcDbCircle
 62
7
  6
BYLAYER
 10
67.3049500582
 20
99.301704343
 40
11.1109821352
100
AcDbArc
 50
88.5844751844
 51
89.3584118862
  0
ARC
  5
2B3
100
AcDbEntity
  8
0
100
AcDbCircle
 62
7
  6
BYLAYER
 10
67.3049816727
 20
99.3034634425
 40
11.1092227708
100
AcDbArc
 50
88.5844140657
 51
89.3584722318
  0
ARC
  5
2B4
100
AcDbEntity
  8
0
100
AcDbCircle
 62
7
  6
BYLAYER
 10
67.7295179463
 20
99.6539951803
 40
10.0
100
AcDbArc
 50
180.0
 51
269.14
  0
ARC
  5
2B5
100
AcDbEntity
  8
0
100
AcDbCircle
 62
7
  6
BYLAYER
 10
67.6995083263
 20
98.9474326729
 40
9.0002257378
100
AcDbArc
 50
268.2800079062
 51
269.1399863352
  0
ARC
  5
2B6
100
AcDbEntity
  8
0
100
AcDbCircle
 62
7
  6
BYLAYER
 10
67.3174233817
 20
100.7072020967
 40
8.9986958784
100
AcDbArc
 50
88.4271492226
 51
89.2872269379
  0
CIRCLE
  5
2B7
100
AcDbEntity
  8
0
100
AcDbCircle
 62
7
  6
BYLAYER
 10
102.2295179463
 20
123.312254902
 40
7.0000000001
  0
ARC
  5
2B8
100
AcDbEntity
  8
0
100
AcDbCircle
 62
7
  6
BYLAYER
 10
92.7295179463
 20
90.2777072854
 40
1.0
100
AcDbArc
 50
179.9999999933
 51
269.14
  0
ARC
  5
2B9
100
AcDbEntity
  8
0
100
AcDbCircle
 62
7
  6
BYLAYER
 10
77.5426850926
 20
234.7478760727
 40
47.1731144685
100
AcDbArc
 50
359.5677102298
 51
0.4264625325
  0
ARC
  5
2BA
100
AcDbEntity
  8
0
100
AcDbCircle
 62
7
  6
BYLAYER
 10
114.7272778566
 20
235.572169126
 40
47.1673239959
100
AcDbArc
 50
180.7898049636
 51
181.648565922
  0
ARC
  5
2BB
100
AcDbEntity
  8
0
100
AcDbCircle
 62
7
  6
BYLAYER
 10
102.2295179463
 20
221.312254902
 40
17.25
100
AcDbArc
 50
270.0000000005
 51
90.0000000005
  0
ARC
  5
2BC
100
AcDbEntity
  8
0
100
AcDbCircle
 62
7
  6
BYLAYER
 10
102.2295179463
 20
221.312254902
 40
17.0000000273
100
AcDbArc
 50
270.0000000001
 51
90.0000194047
  0
ARC
  5
2BD
100
AcDbEntity
  8
0
100
AcDbCircle
 62
7
  6
BYLAYER
 10
67.3049556752
 20
245.3224944071
 40
11.1106710168
100
AcDbArc
 50
270.6415782314
 51
271.4155354845
  0
ARC
  5
2BE
100
AcDbEntity
  8
0
100
AcDbCircle
 62
7
  6
BYLAYER
 10
67.7295179463
 20
244.9705146236
 40
10.0
100
AcDbArc
 50
90.86
 51
180.0
  0
ARC
  5
2BF
100
AcDbEntity
  8
0
100
AcDbCircle
 62
7
  6
BYLAYER
 10
67.6995083263
 20
245.6770771301
 40
9.0002257387
100
AcDbArc
 50
90.8600136648
 51
91.7199920938
  0
ARC
  5
2C0
100
AcDbEntity
  8
0
100
AcDbCircle
 62
7
  6
BYLAYER
 10
67.3173958636
 20
243.9186871747
 40
9.0000755942
100
AcDbArc
 50
270.712838987
 51
271.5727848519
  0
ARC
  5
2C1
100
AcDbEntity
  8
0
100
AcDbCircle
 62
7
  6
BYLAYER
 10
67.3174233822
 20
243.9173076748
 40
8.998695846
100
AcDbArc
 50
270.7127730614
 51
271.5728507841
  0
CIRCLE
  5
2C2
100
AcDbEntity
  8
0
100
AcDbCircle
 62
7
  6
BYLAYER
 10
102.2295179463
 20
221.312254902
 40
7.0000000001
  0
ARC
  5
2C3
100
AcDbEntity
  8
0
100
AcDbCircle
 62
7
  6
BYLAYER
 10
31.9795179463
 20
199.812254902
 40
2.0
100
AcDbArc
 50
90.0
 51
180.0
  0
ARC
  5
2C4
100
AcDbEntity
  8
0
100
AcDbCircle
 62
7
  6
BYLAYER
 10
31.9795179463
 20
194.812254902
 40
2.0
100
AcDbArc
 50
180.0
 51
270.0
  0
ARC
  5
2C5
100
AcDbEntity
  8
0
100
AcDbCircle
 62
7
  6
BYLAYER
 10
92.7295179463
 20
254.3468025185
 40
1.0
100
AcDbArc
 50
90.8600000032
 51
180.0
  0
ARC
  5
2C6
100
AcDbEntity
  8
0
100
AcDbCircle
 62
7
  6
BYLAYER
 10
178.8295179463
 20
121.812254902
 40
10.0
100
AcDbArc
 50
270.0
 51
360.0
  0
ARC
  5
2C7
100
AcDbEntity
  8
0
100
AcDbCircle
 62
7
  6
BYLAYER
 10
178.8295179463
 20
103.312254902
 40
10.0
100
AcDbArc
 50
270.0
 51
360.0
  0
ARC
  5
2C8
100
AcDbEntity
  8
0
100
AcDbCircle
 62
7
  6
BYLAYER
 10
213.8295179463
 20
156.349754902
 40
4.0
100
AcDbArc
 50
270.0
 51
360.0
  0
ARC
  5
2C9
100
AcDbEntity
  8
0
100
AcDbCircle
 62
7
  6
BYLAYER
 10
202.8295179463
 20
154.349754902
 40
2.0
100
AcDbArc
 50
270.0
 51
360.0
  0
ARC
  5
2CA
100
AcDbEntity
  8
0
100
AcDbCircle
 62
7
  6
BYLAYER
 10
137.9223915713
 20
236.2090144784
 40
47.1673239955
100
AcDbArc
 50
180.7898049623
 51
181.6485659207
  0
ARC
  5
2CB
100
AcDbEntity
  8
0
100
AcDbCircle
 62
7
  6
BYLAYER
 10
178.8295179463
 20
222.812254902
 40
10.0
100
AcDbArc
 50
0.0
 51
90.0
  0
ARC
  5
2CC
100
AcDbEntity
  8
0
100
AcDbCircle
 62
7
  6
BYLAYER
 10
178.8295179463
 20
241.312254902
 40
10.0
100
AcDbArc
 50
0.0
 51
90.0
  0
ARC
  5
2CD
100
AcDbEntity
  8
0
100
AcDbCircle
 62
7
  6
BYLAYER
 10
213.8295179463
 20
188.274754902
 40
4.0
100
AcDbArc
 50
0.0
 51
90.0
  0
ARC
  5
2CE
100
AcDbEntity
  8
0
100
AcDbCircle
 62
7
  6
BYLAYER
 10
202.8295179463
 20
190.274754902
 40
2.0
100
AcDbArc
 50
0.0
 51
90.0
  0
SPLINE
  5
2CF
100
AcDbEntity
  8
0
100
AcDbSpline
 62
7
  6
BYLAYER
 70
0
 71
3
 72
12
 73
8
 74
0
 42
0.0000001
 43
0.0000001
 44
0.0000000001
 40
0.0
 40
0.0
 40
0.0
 40
0.0
 40
0.1998742807
 40
0.4000522781
 40
0.5999477187
 40
0.8001257161
 40
1.0
 40
1.0
 40
1.0
 40
1.0
 10
110.1681374739
 20
136.5621818071
 30
0.0
 10
110.664337829
 20
135.6938592349
 30
0.0
 10
111.6717988348
 20
133.9641149439
 30
0.0
 10
113.1695916355
 20
131.362550152
 30
0.0
 10
114.6713149855
 20
128.7614890112
 30
0.0
 10
116.1754397921
 20
126.163579986
 30
0.0
 10
117.1697117963
 20
124.4262210029
 30
0.0
 10
117.6736010278
 20
123.5623375871
 30
0.0
  0
SPLINE
  5
2D0
100
AcDbEntity
  8
0
100
AcDbSpline
 62
7
  6
BYLAYER
 70
0
 71
3
 72
10
 73
6
 74
0
 42
0.0000001
 43
0.0000001
 44
0.0000000001
 40
0.0
 40
0.0
 40
0.0
 40
0.0
 40
0.3338226001
 40
0.6661918673
 40
1.0
 40
1.0
 40
1.0
 40
1.0
 10
109.7350017082
 20
136.812261091
 30
0.0
 10
109.7929839492
 20
136.8116686585
 30
0.0
 10
109.90966979
 20
136.7919321005
 30
0.0
 10
110.0632040047
 20
136.7032814821
 30
0.0
 10
110.1386359315
 20
136.6120983256
 30
0.0
 10
110.1681374739
 20
136.5621818071
 30
0.0
  0
SPLINE
  5
2D1
100
AcDbEntity
  8
0
100
AcDbSpline
 62
7
  6
BYLAYER
 70
0
 71
3
 72
10
 73
6
 74
0
 42
0.0000001
 43
0.0000001
 44
0.0000000001
 40
0.0
 40
0.0
 40
0.0
 40
0.0
 40
0.333984087
 40
0.6663282096
 40
1.0
 40
1.0
 40
1.0
 40
1.0
 10
94.290906611
 20
136.5621918898
 30
0.0
 10
94.320458105
 20
136.6121102066
 30
0.0
 10
94.3958608959
 20
136.7033332412
 30
0.0
 10
94.5494210275
 20
136.7919442392
 30
0.0
 10
94.666062957
 20
136.8116573326
 30
0.0
 10
94.7240153348
 20
136.8122579699
 30
0.0
  0
SPLINE
  5
2D2
100
AcDbEntity
  8
0
100
AcDbSpline
 62
7
  6
BYLAYER
 70
0
 71
3
 72
11
 73
7
 74
0
 42
0.0000001
 43
0.0000001
 44
0.0000000001
 40
0.0
 40
0.0
 40
0.0
 40
0.0
 40
0.2482295205
 40
0.4977255275
 40
0.748423615
 40
1.0
 40
1.0
 40
1.0
 40
1.0
 10
86.7854358049
 20
123.5623404154
 30
0.0
 10
87.4007931307
 20
124.6412426134
 30
0.0
 10
88.6536562003
 20
126.7936427512
 30
0.0
 10
90.5244904948
 20
130.0376946418
 30
0.0
 10
92.4001558088
 20
133.2982440541
 30
0.0
 10
93.6735257978
 20
135.4651886553
 30
0.0
 10
94.290906611
 20
136.5621918898
 30
0.0
  0
SPLINE
  5
2D3
100
AcDbEntity
  8
0
100
AcDbSpline
 62
7
  6
BYLAYER
 70
0
 71
3
 72
10
 73
6
 74
0
 42
0.0000001
 43
0.0000001
 44
0.0000000001
 40
0.0
 40
0.0
 40
0.0
 40
0.0
 40
0.3342529703
 40
0.6664183782
 40
1.0
 40
1.0
 40
1.0
 40
1.0
 10
86.7854261781
 20
123.0621954255
 30
0.0
 10
86.7569989583
 20
123.1128199556
 30
0.0
 10
86.7156290945
 20
123.2237237597
 30
0.0
 10
86.7157523575
 20
123.4010368213
 30
0.0
 10
86.7569773265
 20
123.5118672806
 30
0.0
 10
86.7854358049
 20
123.5623404154
 30
0.0
  0
SPLINE
  5
2D4
100
AcDbEntity
  8
0
100
AcDbSpline
 62
7
  6
BYLAYER
 70
0
 71
3
 72
13
 73
9
 74
0
 42
0.0000001
 43
0.0000001
 44
0.0000000001
 40
0.0
 40
0.0
 40
0.0
 40
0.0
 40
0.1558500496
 40
0.3161897973
 40
0.4809551357
 40
0.64989279
 40
0.8229237428
 40
1.0
 40
1.0
 40
1.0
 40
1.0
 10
94.2908844761
 20
110.0623452515
 30
0.0
 10
93.9006339514
 20
110.7374902304
 30
0.0
 10
93.1099779948
 20
112.1078575871
 30
0.0
 10
91.9067685927
 20
114.1920044763
 30
0.0
 10
90.6705620991
 20
116.3327116792
 30
0.0
 10
89.4040365214
 20
118.529260609
 30
0.0
 10
88.0976055208
 20
120.7738197662
 30
0.0
 10
87.2396682353
 20
122.3014674836
 30
0.0
 10
86.7854261781
 20
123.0621954255
 30
0.0
  0
SPLINE
  5
2D5
100
AcDbEntity
  8
0
100
AcDbSpline
 62
7
  6
BYLAYER
 70
0
 71
3
 72
10
 73
6
 74
0
 42
0.0000001
 43
0.0000001
 44
0.0000000001
 40
0.0
 40
0.0
 40
0.0
 40
0.0
 40
0.3343932758
 40
0.6665329618
 40
1.0
 40
1.0
 40
1.0
 40
1.0
 10
94.7240631037
 20
109.8122440707
 30
0.0
 10
94.6659768222
 20
109.8129164482
 30
0.0
 10
94.549207813
 20
109.8325791803
 30
0.0
 10
94.3957313633
 20
109.9213719187
 30
0.0
 10
94.3203174598
 20
110.0124503657
 30
0.0
 10
94.2908844761
 20
110.0623452515
 30
0.0
  0
SPLINE
  5
2D6
100
AcDbEntity
  8
0
100
AcDbSpline
 62
7
  6
BYLAYER
 70
0
 71
3
 72
10
 73
6
 74
0
 42
0.0000001
 43
0.0000001
 44
0.0000000001
 40
0.0
 40
0.0
 40
0.0
 40
0.0
 40
0.3338613476
 40
0.6662314187
 40
1.0
 40
1.0
 40
1.0
 40
1.0
 10
110.1681370367
 20
110.0623273976
 30
0.0
 10
110.1386282812
 20
110.0124045616
 30
0.0
 10
110.0631909707
 20
109.9212130225
 30
0.0
 10
109.9096504465
 20
109.8325741953
 30
0.0
 10
109.7929749681
 20
109.8128380019
 30
0.0
 10
109.7350022129
 20
109.8122487577
 30
0.0
  0
SPLINE
  5
2D7
100
AcDbEntity
  8
0
100
AcDbSpline
 62
7
  6
BYLAYER
 70
0
 71
3
 72
12
 73
8
 74
0
 42
0.0000001
 43
0.0000001
 44
0.0000000001
 40
0.0
 40
0.0
 40
0.0
 40
0.0
 40
0.1998742715
 40
0.4000522597
 40
0.5999476911
 40
0.8001256794
 40
1.0
 40
1.0
 40
1.0
 40
1.0
 10
117.6736010082
 20
123.0621721727
 30
0.0
 10
117.1697117796
 20
122.1982887737
 30
0.0
 10
116.1754397846
 20
120.4609298038
 30
0.0
 10
114.671314985
 20
117.8630207931
 30
0.0
 10
113.1695916372
 20
115.2619596511
 30
0.0
 10
111.6717987062
 20
112.6603946502
 30
0.0
 10
110.6643375944
 20
110.9306501372
 30
0.0
 10
110.1681370367
 20
110.0623273976
 30
0.0
  0
SPLINE
  5
2D8
100
AcDbEntity
  8
0
100
AcDbSpline
 62
7
  6
BYLAYER
 70
0
 71
3
 72
10
 73
6
 74
0
 42
0.0000001
 43
0.0000001
 44
0.0000000001
 40
0.0
 40
0.0
 40
0.0
 40
0.0
 40
0.3338487683
 40
0.6662049796
 40
1.0
 40
1.0
 40
1.0
 40
1.0
 10
117.6736010278
 20
123.5623375871
 30
0.0
 10
117.7020811599
 20
123.5118206129
 30
0.0
 10
117.7433368373
 20
123.4008941193
 30
0.0
 10
117.7433301537
 20
123.2235969871
 30
0.0
 10
117.7020792101
 20
123.112679517
 30
0.0
 10
117.6736010082
 20
123.0621721727
 30
0.0
  0
SPLINE
  5
2D9
100
AcDbEntity
  8
0
100
AcDbSpline
 62
7
  6
BYLAYER
 70
0
 71
3
 72
10
 73
6
 74
0
 42
0.0000001
 43
0.0000001
 44
0.0000000001
 40
0.0
 40
0.0
 40
0.0
 40
0.0
 40
0.3325380842
 40
0.665957575
 40
1.0
 40
1.0
 40
1.0
 40
1.0
 10
109.7350017082
 20
136.812261091
 30
0.0
 10
108.903057518
 20
136.8084185846
 30
0.0
 10
107.2369320713
 20
136.8146716967
 30
0.0
 10
104.7351147558
 20
136.8099440777
 30
0.0
 10
103.0652258174
 20
136.8160888809
 30
0.0
 10
102.2295179463
 20
136.812254902
 30
0.0
  0
SPLINE
  5
2DA
100
AcDbEntity
  8
0
100
AcDbSpline
 62
7
  6
BYLAYER
 70
0
 71
3
 72
10
 73
6
 74
0
 42
0.0000001
 43
0.0000001
 44
0.0000000001
 40
0.0
 40
0.0
 40
0.0
 40
0.0
 40
0.3343696613
 40
0.6677740119
 40
1.0
 40
1.0
 40
1.0
 40
1.0
 10
102.2295179463
 20
136.812254902
 30
0.0
 10
101.3929815712
 20
136.8135992222
 30
0.0
 10
99.7223200411
 20
136.811490521
 30
0.0
 10
97.2204868593
 20
136.8129411278
 30
0.0
 10
95.5551890507
 20
136.8112389402
 30
0.0
 10
94.7240153348
 20
136.81225797
 30
0.0
  0
SPLINE
  5
2DB
100
AcDbEntity
  8
0
100
AcDbSpline
 62
7
  6
BYLAYER
 70
0
 71
3
 72
11
 73
7
 74
0
 42
0.0000001
 43
0.0000001
 44
0.0000000001
 40
0.0
 40
0.0
 40
0.0
 40
0.0
 40
0.2594180298
 40
0.5126571784
 40
0.7594715782
 40
1.0
 40
1.0
 40
1.0
 40
1.0
 10
94.7240631037
 20
109.8122440707
 30
0.0
 10
95.3729396066
 20
109.8257373621
 30
0.0
 10
96.6557179389
 20
109.807023896
 30
0.0
 10
98.5557004155
 20
109.8132495803
 30
0.0
 10
100.4085135494
 20
109.8132593167
 30
0.0
 10
101.6277749526
 20
109.8079467239
 30
0.0
 10
102.2295179463
 20
109.812254902
 30
0.0
  0
SPLINE
  5
2DC
100
AcDbEntity
  8
0
100
AcDbSpline
 62
7
  6
BYLAYER
 70
0
 71
3
 72
10
 73
6
 74
0
 42
0.0000001
 43
0.0000001
 44
0.0000000001
 40
0.0
 40
0.0
 40
0.0
 40
0.0
 40
0.3340423954
 40
0.6674618638
 40
1.0
 40
1.0
 40
1.0
 40
1.0
 10
102.2295179463
 20
109.812254902
 30
0.0
 10
103.0652257996
 20
109.8084209263
 30
0.0
 10
104.7351147202
 20
109.8145657231
 30
0.0
 10
107.2369322041
 20
109.8098381129
 30
0.0
 10
108.9030578364
 20
109.8160912086
 30
0.0
 10
109.7350022129
 20
109.8122487577
 30
0.0
  0
SPLINE
  5
2DD
100
AcDbEntity
  8
0
100
AcDbSpline
 62
7
  6
BYLAYER
 70
0
 71
3
 72
12
 73
8
 74
0
 42
0.0000001
 43
0.0000001
 44
0.0000000001
 40
0.0
 40
0.0
 40
0.0
 40
0.0
 40
0.1998742807
 40
0.4000522781
 40
0.5999477187
 40
0.8001257161
 40
1.0
 40
1.0
 40
1.0
 40
1.0
 10
110.1681374739
 20
234.5621818071
 30
0.0
 10
110.664337829
 20
233.6938592349
 30
0.0
 10
111.6717988348
 20
231.9641149439
 30
0.0
 10
113.1695916355
 20
229.362550152
 30
0.0
 10
114.6713149855
 20
226.7614890112
 30
0.0
 10
116.1754397921
 20
224.163579986
 30
0.0
 10
117.1697117963
 20
222.4262210029
 30
0.0
 10
117.6736010278
 20
221.562337587
 30
0.0
  0
SPLINE
  5
2DE
100
AcDbEntity
  8
0
100
AcDbSpline
 62
7
  6
BYLAYER
 70
0
 71
3
 72
10
 73
6
 74
0
 42
0.0000001
 43
0.0000001
 44
0.0000000001
 40
0.0
 40
0.0
 40
0.0
 40
0.0
 40
0.3338226001
 40
0.6661918673
 40
1.0
 40
1.0
 40
1.0
 40
1.0
 10
109.7350017082
 20
234.812261091
 30
0.0
 10
109.7929839492
 20
234.8116686585
 30
0.0
 10
109.90966979
 20
234.7919321005
 30
0.0
 10
110.0632040047
 20
234.7032814821
 30
0.0
 10
110.1386359315
 20
234.6120983256
 30
0.0
 10
110.1681374739
 20
234.5621818071
 30
0.0
  0
SPLINE
  5
2DF
100
AcDbEntity
  8
0
100
AcDbSpline
 62
7
  6
BYLAYER
 70
0
 71
3
 72
10
 73
6
 74
0
 42
0.0000001
 43
0.0000001
 44
0.0000000001
 40
0.0
 40
0.0
 40
0.0
 40
0.0
 40
0.333984087
 40
0.6663282096
 40
1.0
 40
1.0
 40
1.0
 40
1.0
 10
94.290906611
 20
234.5621918898
 30
0.0
 10
94.320458105
 20
234.6121102066
 30
0.0
 10
94.3958608959
 20
234.7033332412
 30
0.0
 10
94.5494210275
 20
234.7919442392
 30
0.0
 10
94.666062957
 20
234.8116573326
 30
0.0
 10
94.7240153348
 20
234.8122579699
 30
0.0
  0
SPLINE
  5
2E0
100
AcDbEntity
  8
0
100
AcDbSpline
 62
7
  6
BYLAYER
 70
0
 71
3
 72
11
 73
7
 74
0
 42
0.0000001
 43
0.0000001
 44
0.0000000001
 40
0.0
 40
0.0
 40
0.0
 40
0.0
 40
0.2482295205
 40
0.4977255275
 40
0.748423615
 40
1.0
 40
1.0
 40
1.0
 40
1.0
 10
86.7854358049
 20
221.5623404154
 30
0.0
 10
87.4007931307
 20
222.6412426134
 30
0.0
 10
88.6536562003
 20
224.7936427512
 30
0.0
 10
90.5244904948
 20
228.0376946418
 30
0.0
 10
92.4001558088
 20
231.2982440541
 30
0.0
 10
93.6735257978
 20
233.4651886553
 30
0.0
 10
94.290906611
 20
234.5621918898
 30
0.0
  0
SPLINE
  5
2E1
100
AcDbEntity
  8
0
100
AcDbSpline
 62
7
  6
BYLAYER
 70
0
 71
3
 72
10
 73
6
 74
0
 42
0.0000001
 43
0.0000001
 44
0.0000000001
 40
0.0
 40
0.0
 40
0.0
 40
0.0
 40
0.3342529703
 40
0.6664183782
 40
1.0
 40
1.0
 40
1.0
 40
1.0
 10
86.7854261781
 20
221.0621954255
 30
0.0
 10
86.7569989583
 20
221.1128199556
 30
0.0
 10
86.7156290945
 20
221.2237237597
 30
0.0
 10
86.7157523575
 20
221.4010368213
 30
0.0
 10
86.7569773265
 20
221.5118672806
 30
0.0
 10
86.7854358049
 20
221.5623404154
 30
0.0
  0
SPLINE
  5
2E2
100
AcDbEntity
  8
0
100
AcDbSpline
 62
7
  6
BYLAYER
 70
0
 71
3
 72
13
 73
9
 74
0
 42
0.0000001
 43
0.0000001
 44
0.0000000001
 40
0.0
 40
0.0
 40
0.0
 40
0.0
 40
0.1558500496
 40
0.3161897973
 40
0.4809551357
 40
0.64989279
 40
0.8229237428
 40
1.0
 40
1.0
 40
1.0
 40
1.0
 10
94.2908844761
 20
208.0623452515
 30
0.0
 10
93.9006339514
 20
208.7374902304
 30
0.0
 10
93.1099779948
 20
210.1078575871
 30
0.0
 10
91.9067685927
 20
212.1920044763
 30
0.0
 10
90.6705620991
 20
214.3327116792
 30
0.0
 10
89.4040365214
 20
216.529260609
 30
0.0
 10
88.0976055208
 20
218.7738197662
 30
0.0
 10
87.2396682353
 20
220.3014674836
 30
0.0
 10
86.7854261781
 20
221.0621954255
 30
0.0
  0
SPLINE
  5
2E3
100
AcDbEntity
  8
0
100
AcDbSpline
 62
7
  6
BYLAYER
 70
0
 71
3
 72
10
 73
6
 74
0
 42
0.0000001
 43
0.0000001
 44
0.0000000001
 40
0.0
 40
0.0
 40
0.0
 40
0.0
 40
0.3343932758
 40
0.6665329618
 40
1.0
 40
1.0
 40
1.0
 40
1.0
 10
94.7240631037
 20
207.8122440707
 30
0.0
 10
94.6659768222
 20
207.8129164482
 30
0.0
 10
94.549207813
 20
207.8325791803
 30
0.0
 10
94.3957313633
 20
207.9213719187
 30
0.0
 10
94.3203174598
 20
208.0124503657
 30
0.0
 10
94.2908844761
 20
208.0623452515
 30
0.0
  0
SPLINE
  5
2E4
100
AcDbEntity
  8
0
100
AcDbSpline
 62
7
  6
BYLAYER
 70
0
 71
3
 72
10
 73
6
 74
0
 42
0.0000001
 43
0.0000001
 44
0.0000000001
 40
0.0
 40
0.0
 40
0.0
 40
0.0
 40
0.3338613476
 40
0.6662314187
 40
1.0
 40
1.0
 40
1.0
 40
1.0
 10
110.1681370367
 20
208.0623273976
 30
0.0
 10
110.1386282812
 20
208.0124045616
 30
0.0
 10
110.0631909707
 20
207.9212130225
 30
0.0
 10
109.9096504465
 20
207.8325741953
 30
0.0
 10
109.7929749681
 20
207.8128380019
 30
0.0
 10
109.7350022129
 20
207.8122487577
 30
0.0
  0
SPLINE
  5
2E5
100
AcDbEntity
  8
0
100
AcDbSpline
 62
7
  6
BYLAYER
 70
0
 71
3
 72
12
 73
8
 74
0
 42
0.0000001
 43
0.0000001
 44
0.0000000001
 40
0.0
 40
0.0
 40
0.0
 40
0.0
 40
0.1998742715
 40
0.4000522597
 40
0.5999476911
 40
0.8001256794
 40
1.0
 40
1.0
 40
1.0
 40
1.0
 10
117.6736010082
 20
221.0621721727
 30
0.0
 10
117.1697117796
 20
220.1982887737
 30
0.0
 10
116.1754397846
 20
218.4609298038
 30
0.0
 10
114.671314985
 20
215.8630207931
 30
0.0
 10
113.1695916372
 20
213.2619596511
 30
0.0
 10
111.6717987062
 20
210.6603946502
 30
0.0
 10
110.6643375944
 20
208.9306501372
 30
0.0
 10
110.1681370367
 20
208.0623273976
 30
0.0
  0
SPLINE
  5
2E6
100
AcDbEntity
  8
0
100
AcDbSpline
 62
7
  6
BYLAYER
 70
0
 71
3
 72
10
 73
6
 74
0
 42
0.0000001
 43
0.0000001
 44
0.0000000001
 40
0.0
 40
0.0
 40
0.0
 40
0.0
 40
0.3338487683
 40
0.6662049796
 40
1.0
 40
1.0
 40
1.0
 40
1.0
 10
117.6736010278
 20
221.5623375871
 30
0.0
 10
117.7020811599
 20
221.5118206129
 30
0.0
 10
117.7433368373
 20
221.4008941193
 30
0.0
 10
117.7433301537
 20
221.2235969871
 30
0.0
 10
117.7020792101
 20
221.112679517
 30
0.0
 10
117.6736010082
 20
221.0621721727
 30
0.0
  0
SPLINE
  5
2E7
100
AcDbEntity
  8
0
100
AcDbSpline
 62
7
  6
BYLAYER
 70
0
 71
3
 72
10
 73
6
 74
0
 42
0.0000001
 43
0.0000001
 44
0.0000000001
 40
0.0
 40
0.0
 40
0.0
 40
0.0
 40
0.3325380842
 40
0.665957575
 40
1.0
 40
1.0
 40
1.0
 40
1.0
 10
109.7350017082
 20
234.812261091
 30
0.0
 10
108.903057518
 20
234.8084185846
 30
0.0
 10
107.2369320713
 20
234.8146716967
 30
0.0
 10
104.7351147558
 20
234.8099440777
 30
0.0
 10
103.0652258174
 20
234.8160888809
 30
0.0
 10
102.2295179463
 20
234.812254902
 30
0.0
  0
SPLINE
  5
2E8
100
AcDbEntity
  8
0
100
AcDbSpline
 62
7
  6
BYLAYER
 70
0
 71
3
 72
10
 73
6
 74
0
 42
0.0000001
 43
0.0000001
 44
0.0000000001
 40
0.0
 40
0.0
 40
0.0
 40
0.0
 40
0.3343696613
 40
0.6677740119
 40
1.0
 40
1.0
 40
1.0
 40
1.0
 10
102.2295179463
 20
234.812254902
 30
0.0
 10
101.3929815712
 20
234.8135992222
 30
0.0
 10
99.7223200411
 20
234.811490521
 30
0.0
 10
97.2204868593
 20
234.8129411278
 30
0.0
 10
95.5551890507
 20
234.8112389402
 30
0.0
 10
94.7240153348
 20
234.81225797
 30
0.0
  0
SPLINE
  5
2E9
100
AcDbEntity
  8
0
100
AcDbSpline
 62
7
  6
BYLAYER
 70
0
 71
3
 72
11
 73
7
 74
0
 42
0.0000001
 43
0.0000001
 44
0.0000000001
 40
0.0
 40
0.0
 40
0.0
 40
0.0
 40
0.2594180298
 40
0.5126571784
 40
0.7594715782
 40
1.0
 40
1.0
 40
1.0
 40
1.0
 10
94.7240631037
 20
207.8122440707
 30
0.0
 10
95.3729396066
 20
207.8257373621
 30
0.0
 10
96.6557179389
 20
207.807023896
 30
0.0
 10
98.5557004155
 20
207.8132495803
 30
0.0
 10
100.4085135494
 20
207.8132593167
 30
0.0
 10
101.6277749526
 20
207.8079467239
 30
0.0
 10
102.2295179463
 20
207.812254902
 30
0.0
  0
SPLINE
  5
2EA
100
AcDbEntity
  8
0
100
AcDbSpline
 62
7
  6
BYLAYER
 70
0
 71
3
 72
10
 73
6
 74
0
 42
0.0000001
 43
0.0000001
 44
0.0000000001
 40
0.0
 40
0.0
 40
0.0
 40
0.0
 40
0.3340423954
 40
0.6674618638
 40
1.0
 40
1.0
 40
1.0
 40
1.0
 10
102.2295179463
 20
207.812254902
 30
0.0
 10
103.0652257996
 20
207.8084209263
 30
0.0
 10
104.7351147202
 20
207.8145657231
 30
0.0
 10
107.2369322041
 20
207.8098381129
 30
0.0
 10
108.9030578364
 20
207.8160912086
 30
0.0
 10
109.7350022129
 20
207.8122487577
 30
0.0
  0
SPLINE
  5
2EB
100
AcDbEntity
  8
0
100
AcDbSpline
 62
7
  6
BYLAYER
 70
0
 71
3
 72
10
 73
6
 74
0
 42
0.0000001
 43
0.0000001
 44
0.0000000001
 40
0.0
 40
0.0
 40
0.0
 40
0.0
 40
0.2928703025
 40
0.6339476705
 40
1.0
 40
1.0
 40
1.0
 40
1.0
 10
67.5644193799
 20
234.9220022276
 30
0.0
 10
67.5652776636
 20
234.8529924142
 30
0.0
 10
67.5677484982
 20
234.7036213067
 30
0.0
 10
67.5728032748
 20
234.4680240903
 30
0.0
 10
67.5770583204
 20
234.3014421188
 30
0.0
 10
67.5794252664
 20
234.2152140378
 30
0.0
  0
SPLINE
  5
2EC
100
AcDbEntity
  8
0
100
AcDbSpline
 62
7
  6
BYLAYER
 70
0
 71
3
 72
12
 73
8
 74
0
 42
0.0000001
 43
0.0000001
 44
0.0000000001
 40
0.0
 40
0.0
 40
0.0
 40
0.0
 40
0.2636122191
 40
0.4739235737
 40
0.6720084802
 40
0.8531478582
 40
1.0
 40
1.0
 40
1.0
 40
1.0
 10
92.7145086783
 20
237.6500895622
 30
0.0
 10
92.7019512882
 20
237.3227208512
 30
0.0
 10
92.6472414354
 20
236.7298619774
 30
0.0
 10
92.3424984233
 20
235.9432949756
 30
0.0
 10
91.9107284412
 20
235.3372879131
 30
0.0
 10
91.3655924744
 20
234.9557246901
 30
0.0
 10
90.9569876895
 20
234.8475877009
 30
0.0
 10
90.7745389846
 20
234.8520593914
 30
0.0
  0
SPLINE
  5
2ED
100
AcDbEntity
  8
0
100
AcDbSpline
 62
7
  6
BYLAYER
 70
0
 71
3
 72
13
 73
9
 74
0
 42
0.0000001
 43
0.0000001
 44
0.0000000001
 40
0.0
 40
0.0
 40
0.0
 40
0.0
 40
0.1484101151
 40
0.2899491237
 40
0.4445872652
 40
0.6043339923
 40
0.7565068627
 40
1.0
 40
1.0
 40
1.0
 40
1.0
 10
90.7745389873
 20
109.7724504124
 30
0.0
 10
90.9586664903
 20
109.7588947887
 30
0.0
 10
91.3187851951
 20
109.684311064
 30
0.0
 10
91.7983268722
 20
109.384578543
 30
0.0
 10
92.1525908979
 20
108.9357923187
 30
0.0
 10
92.4640791412
 20
108.4410522058
 30
0.0
 10
92.6472561898
 20
107.767271479
 30
0.0
 10
92.6910761871
 20
107.27642215
 30
0.0
 10
92.7145086784
 20
106.9744184256
 30
0.0
  0
SPLINE
  5
2EE
100
AcDbEntity
  8
0
100
AcDbSpline
 62
7
  6
BYLAYER
 70
0
 71
3
 72
12
 73
8
 74
0
 42
0.0000001
 43
0.0000001
 44
0.0000000001
 40
0.0
 40
0.0
 40
0.0
 40
0.0
 40
0.2749047548
 40
0.466927125
 40
0.673331297
 40
0.8502123793
 40
1.0
 40
1.0
 40
1.0
 40
1.0
 10
92.7145086784
 20
106.9744184585
 30
0.0
 10
92.6948491339
 20
107.3154870682
 30
0.0
 10
92.6482710431
 20
107.9009425171
 30
0.0
 10
92.3369816824
 20
108.6859882667
 30
0.0
 10
91.9184827126
 20
109.2793993765
 30
0.0
 10
91.3677211296
 20
109.6696927095
 30
0.0
 10
90.96068368
 20
109.7733469059
 30
0.0
 10
90.7745389873
 20
109.7724504124
 30
0.0
  0
SPLINE
  5
2EF
100
AcDbEntity
  8
0
100
AcDbSpline
 62
7
  6
BYLAYER
 70
0
 71
3
 72
13
 73
9
 74
0
 42
0.0000001
 43
0.0000001
 44
0.0000000001
 40
0.0
 40
0.0
 40
0.0
 40
0.0
 40
0.1484101151
 40
0.2899491237
 40
0.4445872652
 40
0.6043339923
 40
0.7565068627
 40
1.0
 40
1.0
 40
1.0
 40
1.0
 10
90.7745389873
 20
234.8520593915
 30
0.0
 10
90.9586664903
 20
234.8656150152
 30
0.0
 10
91.3187851951
 20
234.9401987399
 30
0.0
 10
91.7983268722
 20
235.2399312609
 30
0.0
 10
92.1525908979
 20
235.6887174852
 30
0.0
 10
92.4640791412
 20
236.1834575981
 30
0.0
 10
92.6472561898
 20
236.8572383249
 30
0.0
 10
92.6910761871
 20
237.3480876539
 30
0.0
 10
92.7145086784
 20
237.6500913783
 30
0.0
  0
SPLINE
  5
2F0
100
AcDbEntity
  8
0
100
AcDbSpline
 62
7
  6
BYLAYER
 70
0
 71
3
 72
10
 73
6
 74
0
 42
0.0000001
 43
0.0000001
 44
0.0000000001
 40
0.0
 40
0.0
 40
0.0
 40
0.0
 40
0.3675169448
 40
0.6986290389
 40
1.0
 40
1.0
 40
1.0
 40
1.0
 10
123.7295204495
 20
234.7682037102
 30
0.0
 10
123.8322832656
 20
234.6862384665
 30
0.0
 10
124.0412913004
 20
234.5449581974
 30
0.0
 10
124.3799485933
 20
234.4212298353
 30
0.0
 10
124.6067236461
 20
234.390960682
 30
0.0
 10
124.7145086209
 20
234.3919635802
 30
0.0
  0
SPLINE
  5
2F1
100
AcDbEntity
  8
0
100
AcDbSpline
 62
7
  6
BYLAYER
 70
0
 71
3
 72
13
 73
9
 74
0
 42
0.0000001
 43
0.0000001
 44
0.0000000001
 40
0.0
 40
0.0
 40
0.0
 40
0.0
 40
0.0341242556
 40
0.1341058358
 40
0.2930431159
 40
0.5001743397
 40
0.7413229581
 40
1.0
 40
1.0
 40
1.0
 40
1.0
 10
92.7145084145
 20
89.2778199348
 30
0.0
 10
92.6462676292
 20
89.2780709218
 30
0.0
 10
92.8022939481
 20
89.7094725768
 30
0.0
 10
92.6526384713
 20
90.1424894692
 30
0.0
 10
92.7317179359
 20
91.1566497396
 30
0.0
 10
92.7005803366
 20
92.3379448043
 30
0.0
 10
92.713763145
 20
93.7631214469
 30
0.0
 10
92.7132107308
 20
94.7598466697
 30
0.0
 10
92.7145086463
 20
95.2771440589
 30
0.0
  0
SPLINE
  5
2F2
100
AcDbEntity
  8
0
100
AcDbSpline
 62
7
  6
BYLAYER
 70
0
 71
3
 72
13
 73
9
 74
0
 42
0.0000001
 43
0.0000001
 44
0.0000000001
 40
0.0
 40
0.0
 40
0.0
 40
0.0
 40
0.25897199
 40
0.5002110178
 40
0.7072465034
 40
0.8661163382
 40
0.9659544364
 40
1.0
 40
1.0
 40
1.0
 40
1.0
 10
92.7145084104
 20
95.2771564602
 30
0.0
 10
92.7132093762
 20
94.7592681658
 30
0.0
 10
92.7137657567
 20
93.761775432
 30
0.0
 10
92.7005705034
 20
92.3360054602
 30
0.0
 10
92.7317181752
 20
91.1548549751
 30
0.0
 10
92.6526525004
 20
90.1413350182
 30
0.0
 10
92.8021613949
 20
89.7087122498
 30
0.0
 10
92.6464251503
 20
89.2780874933
 30
0.0
 10
92.7145086453
 20
89.2778199313
 30
0.0
  0
SPLINE
  5
2F3
100
AcDbEntity
  8
0
100
AcDbSpline
 62
7
  6
BYLAYER
 70
0
 71
3
 72
14
 73
10
 74
0
 42
0.0000001
 43
0.0000001
 44
0.0000000001
 40
0.0
 40
0.0
 40
0.0
 40
0.0
 40
0.195411381
 40
0.3850632893
 40
0.5526259411
 40
0.7010906183
 40
0.8247632351
 40
0.9198786779
 40
1.0
 40
1.0
 40
1.0
 40
1.0
 10
67.429366506
 20
110.4119898543
 30
0.0
 10
66.7110385729
 20
110.4198275486
 30
0.0
 10
65.295492466
 20
110.4924134851
 30
0.0
 10
63.2798750457
 20
110.7674163359
 30
0.0
 10
61.4676097543
 20
111.1957021719
 30
0.0
 10
59.944284006
 20
111.7521883699
 30
0.0
 10
58.763907383
 20
112.4244110021
 30
0.0
 10
57.9580393879
 20
113.1984983836
 30
0.0
 10
57.7295179463
 20
113.8436905357
 30
0.0
 10
57.7295179463
 20
114.1382322824
 30
0.0
  0
SPLINE
  5
2F4
100
AcDbEntity
  8
0
100
AcDbSpline
 62
7
  6
BYLAYER
 70
0
 71
3
 72
10
 73
6
 74
0
 42
0.0000001
 43
0.0000001
 44
0.0000000001
 40
0.0
 40
0.0
 40
0.0
 40
0.0
 40
0.2928703025
 40
0.6339476705
 40
1.0
 40
1.0
 40
1.0
 40
1.0
 10
90.7595331008
 20
235.5588475813
 30
0.0
 10
90.7603913846
 20
235.4898377679
 30
0.0
 10
90.7628622192
 20
235.3404666604
 30
0.0
 10
90.7679169958
 20
235.104869444
 30
0.0
 10
90.7721720413
 20
234.9382874725
 30
0.0
 10
90.7745389874
 20
234.8520593915
 30
0.0
  0
SPLINE
  5
2F5
100
AcDbEntity
  8
0
100
AcDbSpline
 62
7
  6
BYLAYER
 70
0
 71
3
 72
14
 73
10
 74
0
 42
0.0000001
 43
0.0000001
 44
0.0000000001
 40
0.0
 40
0.0
 40
0.0
 40
0.0
 40
0.1888922997
 40
0.3722956055
 40
0.5353137002
 40
0.681898675
 40
0.8077187877
 40
0.9093363653
 40
1.0
 40
1.0
 40
1.0
 40
1.0
 10
67.4293664015
 20
234.9193081341
 30
0.0
 10
66.7092340787
 20
234.9096952792
 30
0.0
 10
65.289787155
 20
234.8232626782
 30
0.0
 10
63.2715412485
 20
234.4946532131
 30
0.0
 10
61.457959481
 20
233.983475605
 30
0.0
 10
59.9298612768
 20
233.3174509125
 30
0.0
 10
58.7412401575
 20
232.5091329042
 30
0.0
 10
57.9404293502
 20
231.5703509933
 30
0.0
 10
57.7295179463
 20
230.8319540295
 30
0.0
 10
57.7295179463
 20
230.4862775215
 30
0.0
  0
SPLINE
  5
2F6
100
AcDbEntity
  8
0
100
AcDbSpline
 62
7
  6
BYLAYER
 70
0
 71
3
 72
14
 73
10
 74
0
 42
0.0000001
 43
0.0000001
 44
0.0000000001
 40
0.0
 40
0.0
 40
0.0
 40
0.0
 40
0.1430320153
 40
0.2842891829
 40
0.4293987444
 40
0.572885874
 40
0.7148523138
 40
0.8611675637
 40
1.0
 40
1.0
 40
1.0
 40
1.0
 10
57.7295179463
 20
244.9705146236
 30
0.0
 10
57.7295179463
 20
245.6927239593
 30
0.0
 10
57.8961762825
 20
247.1336763565
 30
0.0
 10
58.6324412008
 20
249.1915444365
 30
0.0
 10
59.8146618317
 20
251.0346625044
 30
0.0
 10
61.3789931383
 20
252.5696847823
 30
0.0
 10
63.2424888363
 20
253.7335462009
 30
0.0
 10
65.2896014007
 20
254.4621575246
 30
0.0
 10
66.7286114456
 20
254.654546091
 30
0.0
 10
67.4293664015
 20
254.6732478071
 30
0.0
  0
SPLINE
  5
2F7
100
AcDbEntity
  8
0
100
AcDbSpline
 62
7
  6
BYLAYER
 70
0
 71
3
 72
13
 73
9
 74
0
 42
0.0000001
 43
0.0000001
 44
0.0000000001
 40
0.0
 40
0.0
 40
0.0
 40
0.0
 40
0.0340867313
 40
0.1339876352
 40
0.2928982271
 40
0.4999937395
 40
0.7411680686
 40
1.0
 40
1.0
 40
1.0
 40
1.0
 10
92.7145088375
 20
255.3466898755
 30
0.0
 10
92.6463427943
 20
255.346483506
 30
0.0
 10
92.802215537
 20
254.915362546
 30
0.0
 10
92.6526456464
 20
254.4826534854
 30
0.0
 10
92.7317196642
 20
253.4687245494
 30
0.0
 10
92.7005756341
 20
252.2875280922
 30
0.0
 10
92.7137634834
 20
250.8620447232
 30
0.0
 10
92.7132062887
 20
249.8649609137
 30
0.0
 10
92.7145086999
 20
249.3473526559
 30
0.0
  0
SPLINE
  5
2F8
100
AcDbEntity
  8
0
100
AcDbSpline
 62
7
  6
BYLAYER
 70
0
 71
3
 72
14
 73
10
 74
0
 42
0.0000001
 43
0.0000001
 44
0.0000000001
 40
0.0
 40
0.0
 40
0.0
 40
0.0
 40
0.1913000001
 40
0.3869875157
 40
0.5464879932
 40
0.6984190309
 40
0.8233686039
 40
0.9170470279
 40
1.0
 40
1.0
 40
1.0
 40
1.0
 10
67.4293665088
 20
234.2125199497
 30
0.0
 10
66.7261493635
 20
234.208448667
 30
0.0
 10
65.3034265372
 20
234.1330095546
 30
0.0
 10
63.3108882406
 20
233.8593002679
 30
0.0
 10
61.4911327694
 20
233.4395923043
 30
0.0
 10
59.9806718216
 20
232.8846613434
 30
0.0
 10
58.783745799
 20
232.2161062711
 30
0.0
 10
57.9680038436
 20
231.4407733321
 30
0.0
 10
57.7295179463
 20
230.7912170399
 30
0.0
 10
57.7295179463
 20
230.4862775215
 30
0.0
  0
SPLINE
  5
2F9
100
AcDbEntity
  8
0
100
AcDbSpline
 62
7
  6
BYLAYER
 70
0
 71
3
 72
10
 73
6
 74
0
 42
0.0000001
 43
0.0000001
 44
0.0000000001
 40
0.0
 40
0.0
 40
0.0
 40
0.0
 40
0.3249271517
 40
0.6459568216
 40
1.0
 40
1.0
 40
1.0
 40
1.0
 10
124.7145086784
 20
234.3919635799
 30
0.0
 10
124.5983127111
 20
234.3938666574
 30
0.0
 10
124.3665192197
 20
234.4225668787
 30
0.0
 10
124.0299614912
 20
234.5526892184
 30
0.0
 10
123.8284316846
 20
234.689097136
 30
0.0
 10
123.7295206224
 20
234.7681572221
 30
0.0
  0
SPLINE
  5
2FA
100
AcDbEntity
  8
0
100
AcDbSpline
 62
7
  6
BYLAYER
 70
0
 71
3
 72
10
 73
6
 74
0
 42
0.0000001
 43
0.0000001
 44
0.0000000001
 40
0.0
 40
0.0
 40
0.0
 40
0.0
 40
0.3675161796
 40
0.6986294193
 40
1.0
 40
1.0
 40
1.0
 40
1.0
 10
123.7295204404
 20
109.8563061602
 30
0.0
 10
123.8322829831
 20
109.9382713132
 30
0.0
 10
124.0412912417
 20
110.0795515191
 30
0.0
 10
124.3799484926
 20
110.2032799375
 30
0.0
 10
124.6067238382
 20
110.2335492626
 30
0.0
 10
124.7145086784
 20
110.2325462241
 30
0.0
  0
LINE
  5
2FB
100
AcDbEntity
  8
0
100
AcDbLine
 62
7
  6
BYLAYER
 10
130.8295179463
 20
234.3539420253
 11
130.8295179463
 21
235.0609691542
  0
SPLINE
  5
2FC
100
AcDbEntity
  8
0
100
AcDbSpline
 62
7
  6
BYLAYER
 70
0
 71
3
 72
10
 73
6
 74
0
 42
0.0000001
 43
0.0000001
 44
0.0000000001
 40
0.0
 40
0.0
 40
0.0
 40
0.0
 40
0.2929053699
 40
0.6339823492
 40
1.0
 40
1.0
 40
1.0
 40
1.0
 10
124.7145086784
 20
235.0989907087
 30
0.0
 10
124.7151154678
 20
235.0299621837
 30
0.0
 10
124.7158159382
 20
234.880547277
 30
0.0
 10
124.7157631974
 20
234.6448692927
 30
0.0
 10
124.7150449028
 20
234.4782240214
 30
0.0
 10
124.7145086784
 20
234.3919635799
 30
0.0
  0
SPLINE
  5
2FD
100
AcDbEntity
  8
0
100
AcDbSpline
 62
7
  6
BYLAYER
 70
0
 71
3
 72
14
 73
10
 74
0
 42
0.0000001
 43
0.0000001
 44
0.0000000001
 40
0.0
 40
0.0
 40
0.0
 40
0.0
 40
0.1888922997
 40
0.3722956055
 40
0.5353137002
 40
0.681898675
 40
0.8077187877
 40
0.9093363653
 40
1.0
 40
1.0
 40
1.0
 40
1.0
 10
67.4293664015
 20
109.7052016698
 30
0.0
 10
66.7092340788
 20
109.7148145247
 30
0.0
 10
65.289787155
 20
109.8012471257
 30
0.0
 10
63.2715412485
 20
110.1298565909
 30
0.0
 10
61.4579594811
 20
110.6410341989
 30
0.0
 10
59.9298612769
 20
111.3070588914
 30
0.0
 10
58.7412401575
 20
112.1153768997
 30
0.0
 10
57.9404293502
 20
113.0541588107
 30
0.0
 10
57.7295179463
 20
113.7925557744
 30
0.0
 10
57.7295179463
 20
114.1382322824
 30
0.0
  0
SPLINE
  5
2FE
100
AcDbEntity
  8
0
100
AcDbSpline
 62
7
  6
BYLAYER
 70
0
 71
3
 72
14
 73
10
 74
0
 42
0.0000001
 43
0.0000001
 44
0.0000000001
 40
0.0
 40
0.0
 40
0.0
 40
0.0
 40
0.1430320153
 40
0.2842891829
 40
0.4293987444
 40
0.572885874
 40
0.7148523138
 40
0.8611675637
 40
1.0
 40
1.0
 40
1.0
 40
1.0
 10
57.7295179463
 20
99.6539951803
 30
0.0
 10
57.7295179463
 20
98.9317858447
 30
0.0
 10
57.8961762825
 20
97.4908334474
 30
0.0
 10
58.6324412009
 20
95.4329653674
 30
0.0
 10
59.8146618318
 20
93.5898472995
 30
0.0
 10
61.3789931383
 20
92.0548250216
 30
0.0
 10
63.2424888364
 20
90.890963603
 30
0.0
 10
65.2896014007
 20
90.1623522794
 30
0.0
 10
66.7286114456
 20
89.969963713
 30
0.0
 10
67.4293664015
 20
89.9512619968
 30
0.0
  0
SPLINE
  5
2FF
100
AcDbEntity
  8
0
100
AcDbSpline
 62
7
  6
BYLAYER
 70
0
 71
3
 72
10
 73
6
 74
0
 42
0.0000001
 43
0.0000001
 44
0.0000000001
 40
0.0
 40
0.0
 40
0.0
 40
0.0
 40
0.3333606542
 40
0.6666939922
 40
1.0
 40
1.0
 40
1.0
 40
1.0
 10
38.0795179463
 20
176.5276452111
 30
0.0
 10
38.6573026791
 20
176.3393392638
 30
0.0
 10
39.8128496078
 20
175.9628189098
 30
0.0
 10
41.5461876523
 20
175.398333812
 30
0.0
 10
42.701747454
 20
175.0221746752
 30
0.0
 10
43.2795179463
 20
174.8341466943
 30
0.0
  0
SPLINE
  5
300
100
AcDbEntity
  8
0
100
AcDbSpline
 62
7
  6
BYLAYER
 70
0
 71
3
 72
10
 73
6
 74
0
 42
0.0000001
 43
0.0000001
 44
0.0000000001
 40
0.0
 40
0.0
 40
0.0
 40
0.0
 40
0.3333606542
 40
0.6666939922
 40
1.0
 40
1.0
 40
1.0
 40
1.0
 10
38.0795179463
 20
218.0968645928
 30
0.0
 10
38.6573026791
 20
218.2851705401
 30
0.0
 10
39.8128496078
 20
218.6616908941
 30
0.0
 10
41.5461876523
 20
219.2261759919
 30
0.0
 10
42.701747454
 20
219.6023351288
 30
0.0
 10
43.2795179463
 20
219.7903631096
 30
0.0
  0
SPLINE
  5
301
100
AcDbEntity
  8
0
100
AcDbSpline
 62
7
  6
BYLAYER
 70
0
 71
3
 72
22
 73
18
 74
0
 42
0.0000001
 43
0.0000001
 44
0.0000000001
 40
0.0
 40
0.0
 40
0.0
 40
0.0
 40
0.0675770041
 40
0.1348194885
 40
0.2016696691
 40
0.2676719368
 40
0.3339103825
 40
0.4002184149
 40
0.4665124339
 40
0.5327667141
 40
0.5990189705
 40
0.6653707727
 40
0.7317747064
 40
0.7979950502
 40
0.8650754076
 40
0.9324834095
 40
1.0
 40
1.0
 40
1.0
 40
1.0
 10
102.2295121889
 20
140.3122546195
 30
0.0
 10
101.0286917863
 20
140.3082501704
 30
0.0
 10
98.6251829379
 20
140.0583666602
 30
0.0
 10
95.1971458989
 20
138.9272401185
 30
0.0
 10
92.1036104305
 20
137.1216764094
 30
0.0
 10
89.465947328
 20
134.725974962
 30
0.0
 10
87.3843577361
 20
131.8457387067
 30
0.0
 10
85.9407625923
 20
128.5926626001
 30
0.0
 10
85.2011239318
 20
125.1110870719
 30
0.0
 10
85.1970893667
 20
121.5528607274
 30
0.0
 10
85.9285550906
 20
118.0695609348
 30
0.0
 10
87.3657757104
 20
114.8103542066
 30
0.0
 10
89.4461095894
 20
111.9196039427
 30
0.0
 10
92.0887199729
 20
109.5127989055
 30
0.0
 10
95.1906077331
 20
107.699269307
 30
0.0
 10
98.6244206389
 20
106.5664846696
 30
0.0
 10
101.029768632
 20
106.3154405845
 30
0.0
 10
102.2295179464
 20
106.3122548747
 30
0.0
  0
SPLINE
  5
302
100
AcDbEntity
  8
0
100
AcDbSpline
 62
7
  6
BYLAYER
 70
0
 71
3
 72
22
 73
18
 74
0
 42
0.0000001
 43
0.0000001
 44
0.0000000001
 40
0.0
 40
0.0
 40
0.0
 40
0.0
 40
0.0675770041
 40
0.1348194885
 40
0.2016696691
 40
0.2676719368
 40
0.3339103825
 40
0.4002184149
 40
0.4665124339
 40
0.5327667141
 40
0.5990189705
 40
0.6653707727
 40
0.7317747064
 40
0.7979950502
 40
0.8650754076
 40
0.9324834095
 40
1.0
 40
1.0
 40
1.0
 40
1.0
 10
102.2295121889
 20
238.3122546195
 30
0.0
 10
101.0286917863
 20
238.3082501704
 30
0.0
 10
98.6251829379
 20
238.0583666602
 30
0.0
 10
95.1971458989
 20
236.9272401185
 30
0.0
 10
92.1036104305
 20
235.1216764094
 30
0.0
 10
89.465947328
 20
232.725974962
 30
0.0
 10
87.3843577361
 20
229.8457387067
 30
0.0
 10
85.9407625923
 20
226.5926626001
 30
0.0
 10
85.2011239318
 20
223.1110870719
 30
0.0
 10
85.1970893667
 20
219.5528607275
 30
0.0
 10
85.9285550906
 20
216.0695609348
 30
0.0
 10
87.3657757104
 20
212.8103542066
 30
0.0
 10
89.4461095894
 20
209.9196039427
 30
0.0
 10
92.0887199729
 20
207.5127989055
 30
0.0
 10
95.1906077331
 20
205.699269307
 30
0.0
 10
98.6244206389
 20
204.5664846696
 30
0.0
 10
101.029768632
 20
204.3154405845
 30
0.0
 10
102.2295179464
 20
204.3122548747
 30
0.0
  0
SPLINE
  5
303
100
AcDbEntity
  8
0
100
AcDbSpline
 62
7
  6
BYLAYER
 70
0
 71
3
 72
12
 73
8
 74
0
 42
0.0000001
 43
0.0000001
 44
0.0000000001
 40
0.0
 40
0.0
 40
0.0
 40
0.0
 40
0.2040230131
 40
0.4020669766
 40
0.598519154
 40
0.7963662539
 40
1.0
 40
1.0
 40
1.0
 40
1.0
 10
213.82950933
 20
191.774754902
 30
0.0
 10
214.2018105023
 20
191.7687347235
 30
0.0
 10
214.9410734176
 20
191.6582458647
 30
0.0
 10
215.9269098829
 20
191.1460731216
 30
0.0
 10
216.7025322083
 20
190.3697354229
 30
0.0
 10
217.2133686331
 20
189.3844993796
 30
0.0
 10
217.323623336
 20
188.6463389497
 30
0.0
 10
217.3295179463
 20
188.2747462845
 30
0.0
  0
SPLINE
  5
304
100
AcDbEntity
  8
0
100
AcDbSpline
 62
7
  6
BYLAYER
 70
0
 71
3
 72
12
 73
8
 74
0
 42
0.0000001
 43
0.0000001
 44
0.0000000001
 40
0.0
 40
0.0
 40
0.0
 40
0.0
 40
0.2040230123
 40
0.4020669762
 40
0.598519154
 40
0.7963662544
 40
1.0
 40
1.0
 40
1.0
 40
1.0
 10
217.3295179463
 20
156.3497635146
 30
0.0
 10
217.3234977684
 20
155.9774623441
 30
0.0
 10
217.2130089092
 20
155.2381994305
 30
0.0
 10
216.7008361674
 20
154.2523629662
 30
0.0
 10
215.9244984681
 20
153.4767406397
 30
0.0
 10
214.9392624255
 20
152.9659042154
 30
0.0
 10
214.2011019965
 20
152.8556495119
 30
0.0
 10
213.8295093327
 20
152.849754902
 30
0.0
  0
SPLINE
  5
305
100
AcDbEntity
  8
0
100
AcDbSpline
 62
7
  6
BYLAYER
 70
0
 71
3
 72
12
 73
8
 74
0
 42
0.0000001
 43
0.0000001
 44
0.0000000001
 40
0.0
 40
0.0
 40
0.0
 40
0.0
 40
0.2039123102
 40
0.4020095295
 40
0.5985591735
 40
0.7964654912
 40
1.0
 40
1.0
 40
1.0
 40
1.0
 10
209.9204035677
 20
159.7234113933
 30
0.0
 10
210.3393052286
 20
159.7394366485
 30
0.0
 10
211.168742376
 20
159.8810933458
 30
0.0
 10
212.2696221365
 20
160.4750053666
 30
0.0
 10
213.1333243128
 20
161.3593388225
 30
0.0
 10
213.7006275648
 20
162.4727580944
 30
0.0
 10
213.8231498012
 20
163.3039958156
 30
0.0
 10
213.8295179463
 20
163.7223787355
 30
0.0
  0
SPLINE
  5
306
100
AcDbEntity
  8
0
100
AcDbSpline
 62
7
  6
BYLAYER
 70
0
 71
3
 72
12
 73
8
 74
0
 42
0.0000001
 43
0.0000001
 44
0.0000000001
 40
0.0
 40
0.0
 40
0.0
 40
0.0
 40
0.2039123102
 40
0.4020095295
 40
0.5985591735
 40
0.7964654912
 40
1.0
 40
1.0
 40
1.0
 40
1.0
 10
213.8295179463
 20
180.9021310684
 30
0.0
 10
213.8230148628
 20
181.3212887
 30
0.0
 10
213.7002407139
 20
182.1537303555
 30
0.0
 10
213.1314955553
 20
183.2678204238
 30
0.0
 10
212.2670149301
 20
184.1513929218
 30
0.0
 10
211.1667730307
 20
184.7438481668
 30
0.0
 10
210.3385337829
 20
184.8852256616
 30
0.0
 10
209.9204035678
 20
184.9010984106
 30
0.0
  0
SPLINE
  5
307
100
AcDbEntity
  8
0
100
AcDbSpline
 62
7
  6
BYLAYER
 70
0
 71
3
 72
11
 73
7
 74
0
 42
0.0000001
 43
0.0000001
 44
0.0000000001
 40
0.0
 40
0.0
 40
0.0
 40
0.0
 40
0.2705088835
 40
0.5000026258
 40
0.7300954672
 40
1.0
 40
1.0
 40
1.0
 40
1.0
 10
37.2795179463
 20
83.0874288641
 30
0.0
 10
37.7940301882
 20
82.8690057678
 30
0.0
 10
38.7722722487
 20
82.5245415059
 30
0.0
 10
40.2807830276
 20
82.2990265647
 30
0.0
 10
41.7879379355
 20
82.5250964444
 30
0.0
 10
42.7662973374
 20
82.8691592146
 30
0.0
 10
43.2795179463
 20
83.0874288641
 30
0.0
  0
SPLINE
  5
308
100
AcDbEntity
  8
0
100
AcDbSpline
 62
7
  6
BYLAYER
 70
0
 71
3
 72
11
 73
7
 74
0
 42
0.0000001
 43
0.0000001
 44
0.0000000001
 40
0.0
 40
0.0
 40
0.0
 40
0.0
 40
0.2699073257
 40
0.4999973294
 40
0.7294900905
 40
1.0
 40
1.0
 40
1.0
 40
1.0
 10
43.2795179463
 20
281.5370809399
 30
0.0
 10
42.7662913387
 20
281.7553512509
 30
0.0
 10
41.7879325786
 20
282.0994158857
 30
0.0
 10
40.2807794433
 20
282.3254820006
 30
0.0
 10
38.772274389
 20
282.0999692448
 30
0.0
 10
37.7940323971
 20
281.7555042792
 30
0.0
 10
37.2795179463
 20
281.5370809399
 30
0.0
  0
SPLINE
  5
309
100
AcDbEntity
  8
0
100
AcDbSpline
 62
7
  6
BYLAYER
 70
0
 71
3
 72
10
 73
6
 74
0
 42
0.0000001
 43
0.0000001
 44
0.0000000001
 40
0.0
 40
0.0
 40
0.0
 40
0.0
 40
0.3025410781
 40
0.6288092182
 40
1.0
 40
1.0
 40
1.0
 40
1.0
 10
31.1795179463
 20
181.848153287
 30
0.0
 10
31.1792405681
 20
181.9713331263
 30
0.0
 10
31.2077447131
 20
182.2280484871
 30
0.0
 10
31.3322125147
 20
182.6177771299
 30
0.0
 10
31.4610868931
 20
182.8720463389
 30
0.0
 10
31.5367835363
 20
183.0028538252
 30
0.0
  0
SPLINE
  5
30A
100
AcDbEntity
  8
0
100
AcDbSpline
 62
7
  6
BYLAYER
 70
0
 71
3
 72
10
 73
6
 74
0
 42
0.0000001
 43
0.0000001
 44
0.0000000001
 40
0.0
 40
0.0
 40
0.0
 40
0.0
 40
0.3717201325
 40
0.698232703
 40
1.0
 40
1.0
 40
1.0
 40
1.0
 10
31.5367835363
 20
180.6934527484
 30
0.0
 10
31.4609985046
 20
180.8244579908
 30
0.0
 10
31.3319887076
 20
181.0790206711
 30
0.0
 10
31.2076784676
 20
181.4687891754
 30
0.0
 10
31.179142271
 20
181.7252888299
 30
0.0
 10
31.1795179463
 20
181.848153287
 30
0.0
  0
SPLINE
  5
30B
100
AcDbEntity
  8
0
100
AcDbSpline
 62
7
  6
BYLAYER
 70
0
 71
3
 72
10
 73
6
 74
0
 42
0.0000001
 43
0.0000001
 44
0.0000000001
 40
0.0
 40
0.0
 40
0.0
 40
0.0
 40
0.3025410781
 40
0.6288092182
 40
1.0
 40
1.0
 40
1.0
 40
1.0
 10
31.1795179463
 20
212.7763565173
 30
0.0
 10
31.1792405681
 20
212.8995363566
 30
0.0
 10
31.2077447131
 20
213.1562517174
 30
0.0
 10
31.3322125147
 20
213.5459803602
 30
0.0
 10
31.4610868931
 20
213.8002495692
 30
0.0
 10
31.5367835363
 20
213.9310570555
 30
0.0
  0
SPLINE
  5
30C
100
AcDbEntity
  8
0
100
AcDbSpline
 62
7
  6
BYLAYER
 70
0
 71
3
 72
10
 73
6
 74
0
 42
0.0000001
 43
0.0000001
 44
0.0000000001
 40
0.0
 40
0.0
 40
0.0
 40
0.0
 40
0.3717201325
 40
0.698232703
 40
1.0
 40
1.0
 40
1.0
 40
1.0
 10
31.5367835363
 20
211.6216559787
 30
0.0
 10
31.4609985046
 20
211.7526612211
 30
0.0
 10
31.3319887076
 20
212.0072239013
 30
0.0
 10
31.2076784676
 20
212.3969924057
 30
0.0
 10
31.179142271
 20
212.6534920602
 30
0.0
 10
31.1795179463
 20
212.7763565173
 30
0.0
  0
SPLINE
  5
30D
100
AcDbEntity
  8
0
100
AcDbSpline
 62
7
  6
BYLAYER
 70
0
 71
3
 72
11
 73
7
 74
0
 42
0.0000001
 43
0.0000001
 44
0.0000000001
 40
0.0
 40
0.0
 40
0.0
 40
0.0
 40
0.2421217532
 40
0.4887981997
 40
0.7417830271
 40
1.0
 40
1.0
 40
1.0
 40
1.0
 10
102.2295179463
 20
136.812254902
 30
0.0
 10
101.6237958329
 20
136.8179105355
 30
0.0
 10
100.4008699798
 20
136.8110984985
 30
0.0
 10
98.5450445787
 20
136.8113406828
 30
0.0
 10
96.6490424553
 20
136.8173928016
 30
0.0
 10
95.3698776808
 20
136.7981647695
 30
0.0
 10
94.7240153348
 20
136.81225797
 30
0.0
  0
SPLINE
  5
30E
100
AcDbEntity
  8
0
100
AcDbSpline
 62
7
  6
BYLAYER
 70
0
 71
3
 72
11
 73
7
 74
0
 42
0.0000001
 43
0.0000001
 44
0.0000000001
 40
0.0
 40
0.0
 40
0.0
 40
0.0
 40
0.2421217532
 40
0.4887981997
 40
0.7417830271
 40
1.0
 40
1.0
 40
1.0
 40
1.0
 10
102.2295179463
 20
234.812254902
 30
0.0
 10
101.6237958329
 20
234.8179105355
 30
0.0
 10
100.4008699798
 20
234.8110984985
 30
0.0
 10
98.5450445787
 20
234.8113406828
 30
0.0
 10
96.6490424553
 20
234.8173928016
 30
0.0
 10
95.3698776808
 20
234.7981647695
 30
0.0
 10
94.7240153348
 20
234.81225797
 30
0.0
  0
SPLINE
  5
30F
100
AcDbEntity
  8
0
100
AcDbSpline
 62
7
  6
BYLAYER
 70
0
 71
3
 72
11
 73
7
 74
0
 42
0.0000001
 43
0.0000001
 44
0.0000000001
 40
0.0
 40
0.0
 40
0.0
 40
0.0
 40
0.3590639349
 40
0.6610604834
 40
0.8812748567
 40
1.0
 40
1.0
 40
1.0
 40
1.0
 10
188.3368835121
 20
150.612254902
 30
0.0
 10
188.3379726254
 20
150.4846215744
 30
0.0
 10
188.3498931183
 20
150.2500241028
 30
0.0
 10
188.4129846857
 20
149.9388699732
 30
0.0
 10
188.4805371683
 20
149.7286139371
 30
0.0
 10
188.5649796609
 20
149.6196423223
 30
0.0
 10
188.6065318054
 20
149.612254902
 30
0.0
  0
SPLINE
  5
310
100
AcDbEntity
  8
0
100
AcDbSpline
 62
7
  6
BYLAYER
 70
0
 71
3
 72
11
 73
7
 74
0
 42
0.0000001
 43
0.0000001
 44
0.0000000001
 40
0.0
 40
0.0
 40
0.0
 40
0.0
 40
0.1178953598
 40
0.341314225
 40
0.6464635774
 40
1.0
 40
1.0
 40
1.0
 40
1.0
 10
188.6065318054
 20
195.012254902
 30
0.0
 10
188.5650870495
 20
195.0060303958
 30
0.0
 10
188.480181983
 20
194.8945675802
 30
0.0
 10
188.4122277282
 20
194.683650377
 30
0.0
 10
188.349778165
 20
194.3715272727
 30
0.0
 10
188.3376125279
 20
194.1379283049
 30
0.0
 10
188.3368835121
 20
194.012254902
 30
0.0
  0
SPLINE
  5
311
100
AcDbEntity
  8
0
100
AcDbSpline
 62
7
  6
BYLAYER
 70
0
 71
3
 72
8
 73
4
 74
0
 42
0.0000001
 43
0.0000001
 44
0.0000000001
 40
0.0
 40
0.0
 40
0.0
 40
0.0
 40
1.0
 40
1.0
 40
1.0
 40
1.0
 10
173.8295179465
 20
227.8122549019
 30
0.0
 10
176.2172451909
 20
227.8122549019
 30
0.0
 10
178.8005674526
 20
225.1998066318
 30
0.0
 10
178.8295179463
 20
222.812254902
 30
0.0
  0
SPLINE
  5
312
100
AcDbEntity
  8
0
100
AcDbSpline
 62
7
  6
BYLAYER
 70
0
 71
3
 72
8
 73
4
 74
0
 42
0.0000001
 43
0.0000001
 44
0.0000000001
 40
0.0
 40
0.0
 40
0.0
 40
0.0
 40
1.0
 40
1.0
 40
1.0
 40
1.0
 10
178.8295179463
 20
121.812254902
 30
0.0
 10
178.7533110475
 20
119.4257440802
 30
0.0
 10
176.2172451909
 20
116.8122549021
 30
0.0
 10
173.8295179465
 20
116.812254902
 30
0.0
  0
SPLINE
  5
313
100
AcDbEntity
  8
0
100
AcDbSpline
 62
7
  6
BYLAYER
 70
0
 71
3
 72
8
 73
4
 74
0
 42
0.0000001
 43
0.0000001
 44
0.0000000001
 40
0.0
 40
0.0
 40
0.0
 40
0.0
 40
1.0
 40
1.0
 40
1.0
 40
1.0
 10
178.8295179463
 20
241.312254902
 30
0.0
 10
178.7533110475
 20
243.6987657237
 30
0.0
 10
176.2172451909
 20
246.3122549018
 30
0.0
 10
173.8295179465
 20
246.3122549019
 30
0.0
  0
SPLINE
  5
314
100
AcDbEntity
  8
0
100
AcDbSpline
 62
7
  6
BYLAYER
 70
0
 71
3
 72
8
 73
4
 74
0
 42
0.0000001
 43
0.0000001
 44
0.0000000001
 40
0.0
 40
0.0
 40
0.0
 40
0.0
 40
1.0
 40
1.0
 40
1.0
 40
1.0
 10
173.8295179465
 20
116.812254902
 30
0.0
 10
176.2172451909
 20
116.8122549021
 30
0.0
 10
178.8005674526
 20
119.4247031721
 30
0.0
 10
178.8295179463
 20
121.812254902
 30
0.0
  0
SPLINE
  5
315
100
AcDbEntity
  8
0
100
AcDbSpline
 62
7
  6
BYLAYER
 70
0
 71
3
 72
8
 73
4
 74
0
 42
0.0000001
 43
0.0000001
 44
0.0000000001
 40
0.0
 40
0.0
 40
0.0
 40
0.0
 40
1.0
 40
1.0
 40
1.0
 40
1.0
 10
178.8295179463
 20
222.812254902
 30
0.0
 10
178.7533110475
 20
225.1987657237
 30
0.0
 10
176.2172451909
 20
227.8122549018
 30
0.0
 10
173.8295179465
 20
227.8122549019
 30
0.0
  0
SPLINE
  5
316
100
AcDbEntity
  8
0
100
AcDbSpline
 62
7
  6
BYLAYER
 70
0
 71
3
 72
8
 73
4
 74
0
 42
0.0000001
 43
0.0000001
 44
0.0000000001
 40
0.0
 40
0.0
 40
0.0
 40
0.0
 40
1.0
 40
1.0
 40
1.0
 40
1.0
 10
173.8295179465
 20
98.312254902
 30
0.0
 10
176.2172451909
 20
98.3122549021
 30
0.0
 10
178.8005674526
 20
100.9247031721
 30
0.0
 10
178.8295179463
 20
103.312254902
 30
0.0
  0
SPLINE
  5
317
100
AcDbEntity
  8
0
100
AcDbSpline
 62
7
  6
BYLAYER
 70
0
 71
3
 72
8
 73
4
 74
0
 42
0.0000001
 43
0.0000001
 44
0.0000000001
 40
0.0
 40
0.0
 40
0.0
 40
0.0
 40
1.0
 40
1.0
 40
1.0
 40
1.0
 10
178.8295179463
 20
103.312254902
 30
0.0
 10
178.7533110475
 20
100.9257440802
 30
0.0
 10
176.2172451909
 20
98.3122549021
 30
0.0
 10
173.8295179465
 20
98.312254902
 30
0.0
  0
SPLINE
  5
318
100
AcDbEntity
  8
0
100
AcDbSpline
 62
7
  6
BYLAYER
 70
0
 71
3
 72
19
 73
15
 74
0
 42
0.0000001
 43
0.0000001
 44
0.0000000001
 40
0.0
 40
0.0
 40
0.0
 40
0.0
 40
0.0975460047
 40
0.1911026861
 40
0.2786095302
 40
0.3589355273
 40
0.4308738528
 40
0.4994929187
 40
0.5683450148
 40
0.6412077687
 40
0.7206763541
 40
0.8068545976
 40
0.8999206144
 40
1.0
 40
1.0
 40
1.0
 40
1.0
 10
178.8295179463
 20
103.312254902
 30
0.0
 10
179.4431719198
 20
103.3048139803
 30
0.0
 10
180.6463969925
 20
103.1685098037
 30
0.0
 10
182.332739851
 20
102.6541664126
 30
0.0
 10
183.7848057273
 20
101.8533920923
 30
0.0
 10
184.9072291207
 20
100.8195169805
 30
0.0
 10
185.6314198424
 20
99.6071285863
 30
0.0
 10
185.8956391656
 20
98.2866156226
 30
0.0
 10
185.6559869321
 20
96.9542009904
 30
0.0
 10
184.9379177224
 20
95.7332122541
 30
0.0
 10
183.8175603704
 20
94.7078476224
 30
0.0
 10
182.3740008987
 20
93.9266171911
 30
0.0
 10
180.6778118225
 20
93.4266711378
 30
0.0
 10
179.4591554956
 20
93.312254902
 30
0.0
 10
178.8295179463
 20
93.312254902
 30
0.0
  0
SPLINE
  5
319
100
AcDbEntity
  8
0
100
AcDbSpline
 62
7
  6
BYLAYER
 70
0
 71
3
 72
19
 73
15
 74
0
 42
0.0000001
 43
0.0000001
 44
0.0000000001
 40
0.0
 40
0.0
 40
0.0
 40
0.0
 40
0.0932531792
 40
0.1843674857
 40
0.2709964157
 40
0.3516784714
 40
0.4241417535
 40
0.4931390686
 40
0.5620752655
 40
0.6343485084
 40
0.7127896697
 40
0.7996399876
 40
0.8956001154
 40
1.0
 40
1.0
 40
1.0
 40
1.0
 10
178.8295179463
 20
121.812254902
 30
0.0
 10
179.416174363
 20
121.8062311323
 30
0.0
 10
180.5767753954
 20
121.6779412785
 30
0.0
 10
182.2218436166
 20
121.1967331675
 30
0.0
 10
183.6707050465
 20
120.4311549814
 30
0.0
 10
184.817101451
 20
119.4250559962
 30
0.0
 10
185.5812913931
 20
118.2289123184
 30
0.0
 10
185.8925933598
 20
116.9125878623
 30
0.0
 10
185.6989035284
 20
115.5729925651
 30
0.0
 10
185.0220199051
 20
114.339085485
 30
0.0
 10
183.9322141419
 20
113.2892995003
 30
0.0
 10
182.4895157786
 20
112.4714273417
 30
0.0
 10
180.7508670825
 20
111.9360170679
 30
0.0
 10
179.486332988
 20
111.812254902
 30
0.0
 10
178.8295179463
 20
111.812254902
 30
0.0
  0
SPLINE
  5
31A
100
AcDbEntity
  8
0
100
AcDbSpline
 62
7
  6
BYLAYER
 70
0
 71
3
 72
19
 73
15
 74
0
 42
0.0000001
 43
0.0000001
 44
0.0000000001
 40
0.0
 40
0.0
 40
0.0
 40
0.0
 40
0.0990431128
 40
0.1921030904
 40
0.2785571971
 40
0.3583775575
 40
0.4318541874
 40
0.501389049
 40
0.57064252
 40
0.6430531528
 40
0.7238684606
 40
0.8115326022
 40
0.9044179993
 40
1.0
 40
1.0
 40
1.0
 40
1.0
 10
178.8295179463
 20
241.312254902
 30
0.0
 10
179.4523912375
 20
241.3294647715
 30
0.0
 10
180.662479008
 20
241.4532363452
 30
0.0
 10
182.3464936184
 20
241.9786576985
 30
0.0
 10
183.786005267
 20
242.7732169755
 30
0.0
 10
184.9090260134
 20
243.8059479748
 30
0.0
 10
185.6395733112
 20
245.0302737567
 30
0.0
 10
185.8974858461
 20
246.3717363149
 30
0.0
 10
185.6415106602
 20
247.70698328
 30
0.0
 10
184.908401935
 20
248.9277475523
 30
0.0
 10
183.767531723
 20
249.9537027451
 30
0.0
 10
182.3009413721
 20
250.7277708017
 30
0.0
 10
180.6195677617
 20
251.2055761925
 30
0.0
 10
179.4308540133
 20
251.312254902
 30
0.0
 10
178.8295179463
 20
251.312254902
 30
0.0
  0
SPLINE
  5
31B
100
AcDbEntity
  8
0
100
AcDbSpline
 62
7
  6
BYLAYER
 70
0
 71
3
 72
19
 73
15
 74
0
 42
0.0000001
 43
0.0000001
 44
0.0000000001
 40
0.0
 40
0.0
 40
0.0
 40
0.0
 40
0.0932531792
 40
0.1843674857
 40
0.2709964157
 40
0.3516784714
 40
0.4241417535
 40
0.4931390686
 40
0.5620752655
 40
0.6343485084
 40
0.7127896697
 40
0.7996399876
 40
0.8956001154
 40
1.0
 40
1.0
 40
1.0
 40
1.0
 10
178.8295179463
 20
222.812254902
 30
0.0
 10
179.416174363
 20
222.8182786717
 30
0.0
 10
180.5767753954
 20
222.9465685254
 30
0.0
 10
182.2218436166
 20
223.4277766364
 30
0.0
 10
183.6707050465
 20
224.1933548226
 30
0.0
 10
184.817101451
 20
225.1994538077
 30
0.0
 10
185.5812913931
 20
226.3955974855
 30
0.0
 10
185.8925933598
 20
227.7119219416
 30
0.0
 10
185.6989035284
 20
229.0515172389
 30
0.0
 10
185.0220199051
 20
230.2854243189
 30
0.0
 10
183.9322141419
 20
231.3352103036
 30
0.0
 10
182.4895157786
 20
232.1530824623
 30
0.0
 10
180.7508670825
 20
232.688492736
 30
0.0
 10
179.486332988
 20
232.812254902
 30
0.0
 10
178.8295179463
 20
232.812254902
 30
0.0
  0
SPLINE
  5
31C
100
AcDbEntity
  8
0
100
AcDbSpline
 62
7
  6
BYLAYER
 70
0
 71
3
 72
12
 73
8
 74
0
 42
0.0000001
 43
0.0000001
 44
0.0000000001
 40
0.0
 40
0.0
 40
0.0
 40
0.0
 40
0.2040230123
 40
0.4020669762
 40
0.598519154
 40
0.7963662544
 40
1.0
 40
1.0
 40
1.0
 40
1.0
 10
217.3295179463
 20
188.2747462894
 30
0.0
 10
217.3234977684
 20
188.6470474599
 30
0.0
 10
217.2130089092
 20
189.3863103734
 30
0.0
 10
216.7008361674
 20
190.3721468377
 30
0.0
 10
215.9244984681
 20
191.1477691642
 30
0.0
 10
214.9392624255
 20
191.6586055886
 30
0.0
 10
214.2011019965
 20
191.7688602921
 30
0.0
 10
213.8295093327
 20
191.774754902
 30
0.0
  0
SPLINE
  5
31D
100
AcDbEntity
  8
0
100
AcDbSpline
 62
7
  6
BYLAYER
 70
0
 71
3
 72
12
 73
8
 74
0
 42
0.0000001
 43
0.0000001
 44
0.0000000001
 40
0.0
 40
0.0
 40
0.0
 40
0.0
 40
0.204022489
 40
0.4020667144
 40
0.5985191366
 40
0.7963665936
 40
1.0
 40
1.0
 40
1.0
 40
1.0
 10
213.8295118499
 20
152.849754902
 30
0.0
 10
214.201811767
 20
152.8557747143
 30
0.0
 10
214.9410735458
 20
152.9662638448
 30
0.0
 10
215.9269093354
 20
153.478435714
 30
0.0
 10
216.7025323668
 20
154.2547737782
 30
0.0
 10
217.2133685567
 20
155.2400094321
 30
0.0
 10
217.3236236438
 20
155.9781692531
 30
0.0
 10
217.3295179463
 20
156.3497609991
 30
0.0
  0
ENDSEC
  0
SECTION
  2
OBJECTS
  0
DICTIONARY
  5
C
100
AcDbDictionary
280
0
281
1
  3
ACAD_GROUP
350
D
  3
ACAD_MLINESTYLE
350
17
  3
ACAD_LAYOUT
350
1A
  3
ACAD_PLOTSETTINGS
350
19
  3
ACAD_PLOTSTYLENAME
350
E
  0
DICTIONARY
  5
D
102
{ACAD_REACTORS
330
C
102
}
100
AcDbDictionary
280
0
281
1
  0
ACDBDICTIONARYWDFLT
  5
E
102
{ACAD_REACTORS
330
C
102
}
100
AcDbDictionary
281
1
  3
Normal
350
F
100
AcDbDictionaryWithDefault
340
F
  0
DICTIONARY
  5
17
102
{ACAD_REACTORS
330
C
102
}
100
AcDbDictionary
280
0
281
1
  3
Standard
350
18
  0
DICTIONARY
  5
19
102
{ACAD_REACTORS
330
C
102
}
100
AcDbDictionary
281
1
  0
DICTIONARY
  5
1A
102
{ACAD_REACTORS
330
C
102
}
100
AcDbDictionary
281
1
  3
Model
350
31E
  3
Layout1
350
31F
  0
ACDBPLACEHOLDER
  5
F
102
{ACAD_REACTORS
330
E
102
}
  0
MLINESTYLE
  5
18
102
{ACAD_REACTORS
330
17
102
}
100
AcDbMlineStyle
  2
STANDARD
 70
0
  3

 62
256
 51
90.0
 52
90.0
 71
2
 49
0.5
 62
256
  6
BYLAYER
 49
-0.5
 62
256
  6
BYLAYER
  0
LAYOUT
  5
31E
102
{ACAD_REACTORS
330
1A
102
}
100
AcDbPlotSettings
  1

  2
none_device
  4

  6

 40
0.0
 41
0.0
 42
0.0
 43
0.0
 44
210.0
 45
297.0
 46
0.0
 47
0.0
 48
0.0
 49
0.0
140
0.0
141
0.0
142
1.0
143
1.0
 70
1024
 72
1
 73
0
 74
0
  7

 75
0
147
1.0
148
0.0
149
0.0
100
AcDbLayout
  1
Model
 70
0
 71
0
 10
0.0
 20
0.0
 11
210.0
 21
297.0
 12
0.0
 22
0.0
 32
0.0
 14
0.0
 24
0.0
 34
0.0
 15
0.0
 25
0.0
 35
0.0
146
0.0
 13
0.0
 23
0.0
 33
0.0
 16
1.0
 26
0.0
 36
0.0
 17
0.0
 27
1.0
 37
0.0
 76
0
330
210
345
0
346
0
  0
LAYOUT
  5
31F
102
{ACAD_REACTORS
330
1A
102
}
100
AcDbPlotSettings
  1

  2
none_device
  4

  6

 40
0.0
 41
0.0
 42
0.0
 43
0.0
 44
210.0
 45
297.0
 46
0.0
 47
0.0
 48
0.0
 49
0.0
140
0.0
141
0.0
142
1.0
143
1.0
 70
0
 72
1
 73
0
 74
0
  7

 75
0
147
1.0
148
0.0
149
0.0
100
AcDbLayout
  1
Layout1
 70
0
 71
1
 10
0.0
 20
0.0
 11
210.0
 21
297.0
 12
0.0
 22
0.0
 32
0.0
 14
0.0
 24
0.0
 34
0.0
 15
0.0
 25
0.0
 35
0.0
146
0.0
 13
0.0
 23
0.0
 33
0.0
 16
1.0
 26
0.0
 36
0.0
 17
0.0
 27
1.0
 37
0.0
 76
0
330
211
345
0
346
0
  0
ENDSEC
  0
EOF
