  0
SECTION
  2
HEADER
  9
$ACADVER
  1
AC1006
  9
$EXTMIN
 10
-2.521000
 20
-5.384236
  9
$EXTMAX
 10
2.513000
 20
5.388000
  9
$LTSCALE
 40
0.000394
  9
$PDMODE
 70
    35
  9
$PDSIZE
 40
0.000315
  0
ENDSEC
  0
SECTION
  2
TABLES
  0
TABLE
  2
LTYPE
 70
     9
  0
LTYPE
  2
CONTINUOUS
 70
    64
  3
Solid line
 72
    65
 73
     0
 40
0.000000
  0
LTYPE
  2
DASHED
 70
    64
  3
__ __ __ __ __ __ __ __ __ __ __ __ __ __ __
 72
    65
 73
     2
 40
0.000003
 49
0.000002
 49
-0.000001
  0
LTYPE
  2
HIDDEN
 70
    64
  3
 _ _ _ _ _ _ _ _ _ _ _ _ _ _ _ _ _ _ _ _ _ _
 72
    65
 73
     2
 40
0.000001
 49
0.000001
 49
-0.000000
  0
LTYPE
  2
CENTER
 70
    64
  3
____ _ ____ _ ____ _ ____ _ ____ _ ____ _ ____
 72
    65
 73
     4
 40
0.000008
 49
0.000005
 49
-0.000001
 49
0.000001
 49
-0.000001
  0
LTYPE
  2
PHANTOM
 70
    64
  3
_____ _ _ _____ _ _ _____ _ _ _____ _ _ ____
 72
    65
 73
     6
 40
0.000010
 49
0.000005
 49
-0.000001
 49
0.000001
 49
-0.000001
 49
0.000001
 49
-0.000001
  0
LTYPE
  2
DOT
 70
    64
  3
...............................................
 72
    65
 73
     2
 40
0.000001
 49
0.000000
 49
-0.000001
  0
LTYPE
  2
DASHDOT
 70
    64
  3
__ . __ . __ . __ . __ . __ . __ . __ . __ . __
 72
    65
 73
     4
 40
0.000004
 49
0.000002
 49
-0.000001
 49
0.000000
 49
-0.000001
  0
LTYPE
  2
BORDER
 70
    64
  3
__ __ . __ __ . __ __ . __ __ . __ __ . __ __
 72
    65
 73
     6
 40
0.000007
 49
0.000002
 49
-0.000001
 49
0.000002
 49
-0.000001
 49
0.000000
 49
-0.000001
  0
LTYPE
  2
DIVIDE
 70
    64
  3
__ . . __ . . __ . . __ . . __ . . __ . . __
 72
    65
 73
     6
 40
0.000005
 49
0.000002
 49
-0.000001
 49
0.000000
 49
-0.000001
 49
0.000000
 49
-0.000001
  0
LTYPE
  2
DOTDOT
 70
    64
  3
 . .  . .  . .  . .  . .  . . 
 72
    65
 73
     5
 40
0.000002
 49
-0.000001
 49
0.000000
 49
-0.000001
 49
0.000000
 49
-0.000001
  0
ENDTAB
  0
TABLE
  2
STYLE
 70
     0
  0
ENDTAB
  0
TABLE
  2
LAYER
 70
     3
  0
LAYER
  2
FOREGROUND
 70
    64
 62
     7
  6
CONTINUOUS
  0
LAYER
  2
BACKGROUND
 70
    65
 62
    -7
  6
CONTINUOUS
  0
LAYER
  2
PLAN_1
 70
    64
 62
     7
  6
CONTINUOUS
  0
ENDTAB
  0
ENDSEC
  0
SECTION
  2
ENTITIES
  0
POLYLINE
  8
PLAN_1
  6
CONTINUOUS
 66
     1
 40
0.003000
 41
0.003000
  0
VERTEX
  8
PLAN_1
  6
CONTINUOUS
 10
0.534949
 20
-5.378850
  0
VERTEX
  8
PLAN_1
  6
CONTINUOUS
 10
0.501283
 20
-5.378850
  0
VERTEX
  8
PLAN_1
  6
CONTINUOUS
 10
0.448098
 20
-5.297382
  0
VERTEX
  8
PLAN_1
  6
CONTINUOUS
 10
0.392217
 20
-5.378850
  0
VERTEX
  8
PLAN_1
  6
CONTINUOUS
 10
0.359898
 20
-5.378850
  0
VERTEX
  8
PLAN_1
  6
CONTINUOUS
 10
0.431264
 20
-5.276512
  0
VERTEX
  8
PLAN_1
  6
CONTINUOUS
 10
0.364614
 20
-5.179563
  0
VERTEX
  8
PLAN_1
  6
CONTINUOUS
 10
0.398276
 20
-5.179563
  0
VERTEX
  8
PLAN_1
  6
CONTINUOUS
 10
0.448772
 20
-5.256315
  0
VERTEX
  8
PLAN_1
  6
CONTINUOUS
 10
0.499264
 20
-5.179563
  0
VERTEX
  8
PLAN_1
  6
CONTINUOUS
 10
0.531583
 20
-5.179563
  0
VERTEX
  8
PLAN_1
  6
CONTINUOUS
 10
0.464929
 20
-5.276512
  0
VERTEX
  8
PLAN_1
  6
CONTINUOUS
 10
0.534949
 20
-5.378850
  0
SEQEND
  8
0
  0
POLYLINE
  8
PLAN_1
  6
CONTINUOUS
 66
     1
 40
0.003000
 41
0.003000
  0
VERTEX
  8
PLAN_1
  6
CONTINUOUS
 10
0.701244
 20
-5.239484
  0
VERTEX
  8
PLAN_1
  6
CONTINUOUS
 10
0.699224
 20
-5.233425
  0
VERTEX
  8
PLAN_1
  6
CONTINUOUS
 10
0.697205
 20
-5.228039
  0
VERTEX
  8
PLAN_1
  6
CONTINUOUS
 10
0.694512
 20
-5.222650
  0
VERTEX
  8
PLAN_1
  6
CONTINUOUS
 10
0.691819
 20
-5.218610
  0
VERTEX
  8
PLAN_1
  6
CONTINUOUS
 10
0.688453
 20
-5.214571
  0
VERTEX
  8
PLAN_1
  6
CONTINUOUS
 10
0.685087
 20
-5.211205
  0
VERTEX
  8
PLAN_1
  6
CONTINUOUS
 10
0.681047
 20
-5.208512
  0
VERTEX
  8
PLAN_1
  6
CONTINUOUS
 10
0.677681
 20
-5.205819
  0
VERTEX
  8
PLAN_1
  6
CONTINUOUS
 10
0.673642
 20
-5.203799
  0
VERTEX
  8
PLAN_1
  6
CONTINUOUS
 10
0.669602
 20
-5.202453
  0
VERTEX
  8
PLAN_1
  6
CONTINUOUS
 10
0.664890
 20
-5.201106
  0
VERTEX
  8
PLAN_1
  6
CONTINUOUS
 10
0.660850
 20
-5.199760
  0
VERTEX
  8
PLAN_1
  6
CONTINUOUS
 10
0.652772
 20
-5.198413
  0
VERTEX
  8
PLAN_1
  6
CONTINUOUS
 10
0.645362
 20
-5.198413
  0
VERTEX
  8
PLAN_1
  6
CONTINUOUS
 10
0.638630
 20
-5.198413
  0
VERTEX
  8
PLAN_1
  6
CONTINUOUS
 10
0.631898
 20
-5.199760
  0
VERTEX
  8
PLAN_1
  6
CONTINUOUS
 10
0.625839
 20
-5.201106
  0
VERTEX
  8
PLAN_1
  6
CONTINUOUS
 10
0.619780
 20
-5.203126
  0
VERTEX
  8
PLAN_1
  6
CONTINUOUS
 10
0.614394
 20
-5.205819
  0
VERTEX
  8
PLAN_1
  6
CONTINUOUS
 10
0.609008
 20
-5.209185
  0
VERTEX
  8
PLAN_1
  6
CONTINUOUS
 10
0.603622
 20
-5.213224
  0
VERTEX
  8
PLAN_1
  6
CONTINUOUS
 10
0.598909
 20
-5.217937
  0
VERTEX
  8
PLAN_1
  6
CONTINUOUS
 10
0.594870
 20
-5.223323
  0
VERTEX
  8
PLAN_1
  6
CONTINUOUS
 10
0.590831
 20
-5.229386
  0
VERTEX
  8
PLAN_1
  6
CONTINUOUS
 10
0.588138
 20
-5.236118
  0
VERTEX
  8
PLAN_1
  6
CONTINUOUS
 10
0.584772
 20
-5.242850
  0
VERTEX
  8
PLAN_1
  6
CONTINUOUS
 10
0.582752
 20
-5.250929
  0
VERTEX
  8
PLAN_1
  6
CONTINUOUS
 10
0.581406
 20
-5.259008
  0
VERTEX
  8
PLAN_1
  6
CONTINUOUS
 10
0.580059
 20
-5.267760
  0
VERTEX
  8
PLAN_1
  6
CONTINUOUS
 10
0.580059
 20
-5.277185
  0
VERTEX
  8
PLAN_1
  6
CONTINUOUS
 10
0.580059
 20
-5.285937
  0
VERTEX
  8
PLAN_1
  6
CONTINUOUS
 10
0.580732
 20
-5.294689
  0
VERTEX
  8
PLAN_1
  6
CONTINUOUS
 10
0.582079
 20
-5.302772
  0
VERTEX
  8
PLAN_1
  6
CONTINUOUS
 10
0.583425
 20
-5.310177
  0
VERTEX
  8
PLAN_1
  6
CONTINUOUS
 10
0.585445
 20
-5.317583
  0
VERTEX
  8
PLAN_1
  6
CONTINUOUS
 10
0.588138
 20
-5.324315
  0
VERTEX
  8
PLAN_1
  6
CONTINUOUS
 10
0.590831
 20
-5.330374
  0
VERTEX
  8
PLAN_1
  6
CONTINUOUS
 10
0.594197
 20
-5.336433
  0
VERTEX
  8
PLAN_1
  6
CONTINUOUS
 10
0.598909
 20
-5.341819
  0
VERTEX
  8
PLAN_1
  6
CONTINUOUS
 10
0.603622
 20
-5.346531
  0
VERTEX
  8
PLAN_1
  6
CONTINUOUS
 10
0.609008
 20
-5.350571
  0
VERTEX
  8
PLAN_1
  6
CONTINUOUS
 10
0.615067
 20
-5.353937
  0
VERTEX
  8
PLAN_1
  6
CONTINUOUS
 10
0.621799
 20
-5.356630
  0
VERTEX
  8
PLAN_1
  6
CONTINUOUS
 10
0.629205
 20
-5.358650
  0
VERTEX
  8
PLAN_1
  6
CONTINUOUS
 10
0.637283
 20
-5.359996
  0
VERTEX
  8
PLAN_1
  6
CONTINUOUS
 10
0.646035
 20
-5.360669
  0
VERTEX
  8
PLAN_1
  6
CONTINUOUS
 10
0.653445
 20
-5.359996
  0
VERTEX
  8
PLAN_1
  6
CONTINUOUS
 10
0.660850
 20
-5.358650
  0
VERTEX
  8
PLAN_1
  6
CONTINUOUS
 10
0.664890
 20
-5.357303
  0
VERTEX
  8
PLAN_1
  6
CONTINUOUS
 10
0.669602
 20
-5.355283
  0
VERTEX
  8
PLAN_1
  6
CONTINUOUS
 10
0.673642
 20
-5.353264
  0
VERTEX
  8
PLAN_1
  6
CONTINUOUS
 10
0.677681
 20
-5.350571
  0
VERTEX
  8
PLAN_1
  6
CONTINUOUS
 10
0.681720
 20
-5.347205
  0
VERTEX
  8
PLAN_1
  6
CONTINUOUS
 10
0.685760
 20
-5.343165
  0
VERTEX
  8
PLAN_1
  6
CONTINUOUS
 10
0.689126
 20
-5.339126
  0
VERTEX
  8
PLAN_1
  6
CONTINUOUS
 10
0.692492
 20
-5.333740
  0
VERTEX
  8
PLAN_1
  6
CONTINUOUS
 10
0.695858
 20
-5.327681
  0
VERTEX
  8
PLAN_1
  6
CONTINUOUS
 10
0.698551
 20
-5.321622
  0
VERTEX
  8
PLAN_1
  6
CONTINUOUS
 10
0.701244
 20
-5.314217
  0
VERTEX
  8
PLAN_1
  6
CONTINUOUS
 10
0.702591
 20
-5.305465
  0
VERTEX
  8
PLAN_1
  6
CONTINUOUS
 10
0.728850
 20
-5.305465
  0
VERTEX
  8
PLAN_1
  6
CONTINUOUS
 10
0.727504
 20
-5.312870
  0
VERTEX
  8
PLAN_1
  6
CONTINUOUS
 10
0.726157
 20
-5.318929
  0
VERTEX
  8
PLAN_1
  6
CONTINUOUS
 10
0.724807
 20
-5.324988
  0
VERTEX
  8
PLAN_1
  6
CONTINUOUS
 10
0.722787
 20
-5.330374
  0
VERTEX
  8
PLAN_1
  6
CONTINUOUS
 10
0.718075
 20
-5.341146
  0
VERTEX
  8
PLAN_1
  6
CONTINUOUS
 10
0.712689
 20
-5.349898
  0
VERTEX
  8
PLAN_1
  6
CONTINUOUS
 10
0.706630
 20
-5.357303
  0
VERTEX
  8
PLAN_1
  6
CONTINUOUS
 10
0.700571
 20
-5.363362
  0
VERTEX
  8
PLAN_1
  6
CONTINUOUS
 10
0.693839
 20
-5.368748
  0
VERTEX
  8
PLAN_1
  6
CONTINUOUS
 10
0.687106
 20
-5.373465
  0
VERTEX
  8
PLAN_1
  6
CONTINUOUS
 10
0.679701
 20
-5.376831
  0
VERTEX
  8
PLAN_1
  6
CONTINUOUS
 10
0.672969
 20
-5.379524
  0
VERTEX
  8
PLAN_1
  6
CONTINUOUS
 10
0.666236
 20
-5.380870
  0
VERTEX
  8
PLAN_1
  6
CONTINUOUS
 10
0.660177
 20
-5.382217
  0
VERTEX
  8
PLAN_1
  6
CONTINUOUS
 10
0.649402
 20
-5.384236
  0
VERTEX
  8
PLAN_1
  6
CONTINUOUS
 10
0.641996
 20
-5.384236
  0
VERTEX
  8
PLAN_1
  6
CONTINUOUS
 10
0.633244
 20
-5.383563
  0
VERTEX
  8
PLAN_1
  6
CONTINUOUS
 10
0.625165
 20
-5.382890
  0
VERTEX
  8
PLAN_1
  6
CONTINUOUS
 10
0.617087
 20
-5.380870
  0
VERTEX
  8
PLAN_1
  6
CONTINUOUS
 10
0.609008
 20
-5.378177
  0
VERTEX
  8
PLAN_1
  6
CONTINUOUS
 10
0.600929
 20
-5.374811
  0
VERTEX
  8
PLAN_1
  6
CONTINUOUS
 10
0.593524
 20
-5.370768
  0
VERTEX
  8
PLAN_1
  6
CONTINUOUS
 10
0.586791
 20
-5.366055
  0
VERTEX
  8
PLAN_1
  6
CONTINUOUS
 10
0.580059
 20
-5.359996
  0
VERTEX
  8
PLAN_1
  6
CONTINUOUS
 10
0.573996
 20
-5.353264
  0
VERTEX
  8
PLAN_1
  6
CONTINUOUS
 10
0.568610
 20
-5.345185
  0
VERTEX
  8
PLAN_1
  6
CONTINUOUS
 10
0.563898
 20
-5.336433
  0
VERTEX
  8
PLAN_1
  6
CONTINUOUS
 10
0.559858
 20
-5.327008
  0
VERTEX
  8
PLAN_1
  6
CONTINUOUS
 10
0.556492
 20
-5.316236
  0
VERTEX
  8
PLAN_1
  6
CONTINUOUS
 10
0.554472
 20
-5.304791
  0
VERTEX
  8
PLAN_1
  6
CONTINUOUS
 10
0.552453
 20
-5.291996
  0
VERTEX
  8
PLAN_1
  6
CONTINUOUS
 10
0.552453
 20
-5.278531
  0
VERTEX
  8
PLAN_1
  6
CONTINUOUS
 10
0.552453
 20
-5.267087
  0
VERTEX
  8
PLAN_1
  6
CONTINUOUS
 10
0.553799
 20
-5.256315
  0
VERTEX
  8
PLAN_1
  6
CONTINUOUS
 10
0.555819
 20
-5.245543
  0
VERTEX
  8
PLAN_1
  6
CONTINUOUS
 10
0.558512
 20
-5.236118
  0
VERTEX
  8
PLAN_1
  6
CONTINUOUS
 10
0.561878
 20
-5.226689
  0
VERTEX
  8
PLAN_1
  6
CONTINUOUS
 10
0.566591
 20
-5.218610
  0
VERTEX
  8
PLAN_1
  6
CONTINUOUS
 10
0.571303
 20
-5.210531
  0
VERTEX
  8
PLAN_1
  6
CONTINUOUS
 10
0.576689
 20
-5.203126
  0
VERTEX
  8
PLAN_1
  6
CONTINUOUS
 10
0.583425
 20
-5.197067
  0
VERTEX
  8
PLAN_1
  6
CONTINUOUS
 10
0.590157
 20
-5.191008
  0
VERTEX
  8
PLAN_1
  6
CONTINUOUS
 10
0.598236
 20
-5.186295
  0
VERTEX
  8
PLAN_1
  6
CONTINUOUS
 10
0.606315
 20
-5.182256
  0
VERTEX
  8
PLAN_1
  6
CONTINUOUS
 10
0.615067
 20
-5.178890
  0
VERTEX
  8
PLAN_1
  6
CONTINUOUS
 10
0.624492
 20
-5.176197
  0
VERTEX
  8
PLAN_1
  6
CONTINUOUS
 10
0.634591
 20
-5.174850
  0
VERTEX
  8
PLAN_1
  6
CONTINUOUS
 10
0.645362
 20
-5.174177
  0
VERTEX
  8
PLAN_1
  6
CONTINUOUS
 10
0.654791
 20
-5.174850
  0
VERTEX
  8
PLAN_1
  6
CONTINUOUS
 10
0.663543
 20
-5.175524
  0
VERTEX
  8
PLAN_1
  6
CONTINUOUS
 10
0.671622
 20
-5.177543
  0
VERTEX
  8
PLAN_1
  6
CONTINUOUS
 10
0.679028
 20
-5.180236
  0
VERTEX
  8
PLAN_1
  6
CONTINUOUS
 10
0.686433
 20
-5.182929
  0
VERTEX
  8
PLAN_1
  6
CONTINUOUS
 10
0.692492
 20
-5.186295
  0
VERTEX
  8
PLAN_1
  6
CONTINUOUS
 10
0.698551
 20
-5.190335
  0
VERTEX
  8
PLAN_1
  6
CONTINUOUS
 10
0.703937
 20
-5.194374
  0
VERTEX
  8
PLAN_1
  6
CONTINUOUS
 10
0.708650
 20
-5.199087
  0
VERTEX
  8
PLAN_1
  6
CONTINUOUS
 10
0.712689
 20
-5.204472
  0
VERTEX
  8
PLAN_1
  6
CONTINUOUS
 10
0.716728
 20
-5.209858
  0
VERTEX
  8
PLAN_1
  6
CONTINUOUS
 10
0.720094
 20
-5.215244
  0
VERTEX
  8
PLAN_1
  6
CONTINUOUS
 10
0.722787
 20
-5.221303
  0
VERTEX
  8
PLAN_1
  6
CONTINUOUS
 10
0.724807
 20
-5.227366
  0
VERTEX
  8
PLAN_1
  6
CONTINUOUS
 10
0.726157
 20
-5.233425
  0
VERTEX
  8
PLAN_1
  6
CONTINUOUS
 10
0.726831
 20
-5.239484
  0
VERTEX
  8
PLAN_1
  6
CONTINUOUS
 10
0.701244
 20
-5.239484
  0
SEQEND
  8
0
  0
POLYLINE
  8
PLAN_1
  6
CONTINUOUS
 66
     1
 40
0.003000
 41
0.003000
  0
VERTEX
  8
PLAN_1
  6
CONTINUOUS
 10
0.792134
 20
-5.378850
  0
VERTEX
  8
PLAN_1
  6
CONTINUOUS
 10
0.765205
 20
-5.378850
  0
VERTEX
  8
PLAN_1
  6
CONTINUOUS
 10
0.765205
 20
-5.179563
  0
VERTEX
  8
PLAN_1
  6
CONTINUOUS
 10
0.856768
 20
-5.179563
  0
VERTEX
  8
PLAN_1
  6
CONTINUOUS
 10
0.869559
 20
-5.180236
  0
VERTEX
  8
PLAN_1
  6
CONTINUOUS
 10
0.881008
 20
-5.182256
  0
VERTEX
  8
PLAN_1
  6
CONTINUOUS
 10
0.887067
 20
-5.183602
  0
VERTEX
  8
PLAN_1
  6
CONTINUOUS
 10
0.892453
 20
-5.185622
  0
VERTEX
  8
PLAN_1
  6
CONTINUOUS
 10
0.897165
 20
-5.187642
  0
VERTEX
  8
PLAN_1
  6
CONTINUOUS
 10
0.901878
 20
-5.190335
  0
VERTEX
  8
PLAN_1
  6
CONTINUOUS
 10
0.906591
 20
-5.193701
  0
VERTEX
  8
PLAN_1
  6
CONTINUOUS
 10
0.910630
 20
-5.197740
  0
VERTEX
  8
PLAN_1
  6
CONTINUOUS
 10
0.913996
 20
-5.202453
  0
VERTEX
  8
PLAN_1
  6
CONTINUOUS
 10
0.916689
 20
-5.207165
  0
VERTEX
  8
PLAN_1
  6
CONTINUOUS
 10
0.919382
 20
-5.212551
  0
VERTEX
  8
PLAN_1
  6
CONTINUOUS
 10
0.921402
 20
-5.218610
  0
VERTEX
  8
PLAN_1
  6
CONTINUOUS
 10
0.922075
 20
-5.226016
  0
VERTEX
  8
PLAN_1
  6
CONTINUOUS
 10
0.922748
 20
-5.233425
  0
VERTEX
  8
PLAN_1
  6
CONTINUOUS
 10
0.922075
 20
-5.238811
  0
VERTEX
  8
PLAN_1
  6
CONTINUOUS
 10
0.922075
 20
-5.243524
  0
VERTEX
  8
PLAN_1
  6
CONTINUOUS
 10
0.921402
 20
-5.248236
  0
VERTEX
  8
PLAN_1
  6
CONTINUOUS
 10
0.920055
 20
-5.252276
  0
VERTEX
  8
PLAN_1
  6
CONTINUOUS
 10
0.917362
 20
-5.259008
  0
VERTEX
  8
PLAN_1
  6
CONTINUOUS
 10
0.913323
 20
-5.265067
  0
VERTEX
  8
PLAN_1
  6
CONTINUOUS
 10
0.909283
 20
-5.270453
  0
VERTEX
  8
PLAN_1
  6
CONTINUOUS
 10
0.904571
 20
-5.274492
  0
VERTEX
  8
PLAN_1
  6
CONTINUOUS
 10
0.899858
 20
-5.277858
  0
VERTEX
  8
PLAN_1
  6
CONTINUOUS
 10
0.894472
 20
-5.281224
  0
VERTEX
  8
PLAN_1
  6
CONTINUOUS
 10
0.899185
 20
-5.282571
  0
VERTEX
  8
PLAN_1
  6
CONTINUOUS
 10
0.903224
 20
-5.285264
  0
VERTEX
  8
PLAN_1
  6
CONTINUOUS
 10
0.907264
 20
-5.287283
  0
VERTEX
  8
PLAN_1
  6
CONTINUOUS
 10
0.910630
 20
-5.291323
  0
VERTEX
  8
PLAN_1
  6
CONTINUOUS
 10
0.913323
 20
-5.295362
  0
VERTEX
  8
PLAN_1
  6
CONTINUOUS
 10
0.916016
 20
-5.301425
  0
VERTEX
  8
PLAN_1
  6
CONTINUOUS
 10
0.918035
 20
-5.308831
  0
VERTEX
  8
PLAN_1
  6
CONTINUOUS
 10
0.918709
 20
-5.318256
  0
VERTEX
  8
PLAN_1
  6
CONTINUOUS
 10
0.920055
 20
-5.354610
  0
VERTEX
  8
PLAN_1
  6
CONTINUOUS
 10
0.920728
 20
-5.358650
  0
VERTEX
  8
PLAN_1
  6
CONTINUOUS
 10
0.920728
 20
-5.362016
  0
VERTEX
  8
PLAN_1
  6
CONTINUOUS
 10
0.921402
 20
-5.364709
  0
VERTEX
  8
PLAN_1
  6
CONTINUOUS
 10
0.922075
 20
-5.366728
  0
VERTEX
  8
PLAN_1
  6
CONTINUOUS
 10
0.923421
 20
-5.368748
  0
VERTEX
  8
PLAN_1
  6
CONTINUOUS
 10
0.925441
 20
-5.370768
  0
VERTEX
  8
PLAN_1
  6
CONTINUOUS
 10
0.927461
 20
-5.372787
  0
VERTEX
  8
PLAN_1
  6
CONTINUOUS
 10
0.930154
 20
-5.374811
  0
VERTEX
  8
PLAN_1
  6
CONTINUOUS
 10
0.930154
 20
-5.378850
  0
VERTEX
  8
PLAN_1
  6
CONTINUOUS
 10
0.897165
 20
-5.378850
  0
VERTEX
  8
PLAN_1
  6
CONTINUOUS
 10
0.895819
 20
-5.373465
  0
VERTEX
  8
PLAN_1
  6
CONTINUOUS
 10
0.895146
 20
-5.366728
  0
VERTEX
  8
PLAN_1
  6
CONTINUOUS
 10
0.893799
 20
-5.359996
  0
VERTEX
  8
PLAN_1
  6
CONTINUOUS
 10
0.893799
 20
-5.351917
  0
VERTEX
  8
PLAN_1
  6
CONTINUOUS
 10
0.893126
 20
-5.345185
  0
VERTEX
  8
PLAN_1
  6
CONTINUOUS
 10
0.892453
 20
-5.338453
  0
VERTEX
  8
PLAN_1
  6
CONTINUOUS
 10
0.892453
 20
-5.333067
  0
VERTEX
  8
PLAN_1
  6
CONTINUOUS
 10
0.892453
 20
-5.329028
  0
VERTEX
  8
PLAN_1
  6
CONTINUOUS
 10
0.892453
 20
-5.322969
  0
VERTEX
  8
PLAN_1
  6
CONTINUOUS
 10
0.891780
 20
-5.316236
  0
VERTEX
  8
PLAN_1
  6
CONTINUOUS
 10
0.889760
 20
-5.310850
  0
VERTEX
  8
PLAN_1
  6
CONTINUOUS
 10
0.887067
 20
-5.304791
  0
VERTEX
  8
PLAN_1
  6
CONTINUOUS
 10
0.885047
 20
-5.302772
  0
VERTEX
  8
PLAN_1
  6
CONTINUOUS
 10
0.882354
 20
-5.300075
  0
VERTEX
  8
PLAN_1
  6
CONTINUOUS
 10
0.879661
 20
-5.298728
  0
VERTEX
  8
PLAN_1
  6
CONTINUOUS
 10
0.876295
 20
-5.296709
  0
VERTEX
  8
PLAN_1
  6
CONTINUOUS
 10
0.872256
 20
-5.295362
  0
VERTEX
  8
PLAN_1
  6
CONTINUOUS
 10
0.867539
 20
-5.294016
  0
VERTEX
  8
PLAN_1
  6
CONTINUOUS
 10
0.862827
 20
-5.294016
  0
VERTEX
  8
PLAN_1
  6
CONTINUOUS
 10
0.856768
 20
-5.293343
  0
VERTEX
  8
PLAN_1
  6
CONTINUOUS
 10
0.792134
 20
-5.293343
  0
VERTEX
  8
PLAN_1
  6
CONTINUOUS
 10
0.792134
 20
-5.378850
  0
SEQEND
  8
0
  0
POLYLINE
  8
PLAN_1
  6
CONTINUOUS
 66
     1
 40
0.003000
 41
0.003000
  0
VERTEX
  8
PLAN_1
  6
CONTINUOUS
 10
0.792134
 20
-5.270453
  0
VERTEX
  8
PLAN_1
  6
CONTINUOUS
 10
0.854075
 20
-5.270453
  0
VERTEX
  8
PLAN_1
  6
CONTINUOUS
 10
0.861480
 20
-5.270453
  0
VERTEX
  8
PLAN_1
  6
CONTINUOUS
 10
0.868886
 20
-5.269106
  0
VERTEX
  8
PLAN_1
  6
CONTINUOUS
 10
0.875622
 20
-5.267087
  0
VERTEX
  8
PLAN_1
  6
CONTINUOUS
 10
0.881681
 20
-5.264394
  0
VERTEX
  8
PLAN_1
  6
CONTINUOUS
 10
0.884374
 20
-5.262374
  0
VERTEX
  8
PLAN_1
  6
CONTINUOUS
 10
0.887067
 20
-5.259681
  0
VERTEX
  8
PLAN_1
  6
CONTINUOUS
 10
0.889087
 20
-5.256988
  0
VERTEX
  8
PLAN_1
  6
CONTINUOUS
 10
0.891106
 20
-5.253622
  0
VERTEX
  8
PLAN_1
  6
CONTINUOUS
 10
0.892453
 20
-5.250256
  0
VERTEX
  8
PLAN_1
  6
CONTINUOUS
 10
0.893799
 20
-5.246217
  0
VERTEX
  8
PLAN_1
  6
CONTINUOUS
 10
0.894472
 20
-5.241504
  0
VERTEX
  8
PLAN_1
  6
CONTINUOUS
 10
0.894472
 20
-5.236118
  0
VERTEX
  8
PLAN_1
  6
CONTINUOUS
 10
0.894472
 20
-5.230732
  0
VERTEX
  8
PLAN_1
  6
CONTINUOUS
 10
0.893799
 20
-5.226016
  0
VERTEX
  8
PLAN_1
  6
CONTINUOUS
 10
0.892453
 20
-5.221303
  0
VERTEX
  8
PLAN_1
  6
CONTINUOUS
 10
0.891106
 20
-5.217937
  0
VERTEX
  8
PLAN_1
  6
CONTINUOUS
 10
0.889087
 20
-5.214571
  0
VERTEX
  8
PLAN_1
  6
CONTINUOUS
 10
0.887067
 20
-5.211878
  0
VERTEX
  8
PLAN_1
  6
CONTINUOUS
 10
0.884374
 20
-5.209858
  0
VERTEX
  8
PLAN_1
  6
CONTINUOUS
 10
0.881681
 20
-5.207839
  0
VERTEX
  8
PLAN_1
  6
CONTINUOUS
 10
0.876295
 20
-5.205146
  0
VERTEX
  8
PLAN_1
  6
CONTINUOUS
 10
0.870232
 20
-5.203799
  0
VERTEX
  8
PLAN_1
  6
CONTINUOUS
 10
0.864173
 20
-5.203126
  0
VERTEX
  8
PLAN_1
  6
CONTINUOUS
 10
0.858787
 20
-5.202453
  0
VERTEX
  8
PLAN_1
  6
CONTINUOUS
 10
0.792134
 20
-5.202453
  0
VERTEX
  8
PLAN_1
  6
CONTINUOUS
 10
0.792134
 20
-5.270453
  0
SEQEND
  8
0
  0
POLYLINE
  8
PLAN_1
  6
CONTINUOUS
 66
     1
 40
0.003000
 41
0.003000
  0
VERTEX
  8
PLAN_1
  6
CONTINUOUS
 10
0.936886
 20
-5.179563
  0
VERTEX
  8
PLAN_1
  6
CONTINUOUS
 10
1.098472
 20
-5.179563
  0
VERTEX
  8
PLAN_1
  6
CONTINUOUS
 10
1.098472
 20
-5.203799
  0
VERTEX
  8
PLAN_1
  6
CONTINUOUS
 10
1.031146
 20
-5.203799
  0
VERTEX
  8
PLAN_1
  6
CONTINUOUS
 10
1.031146
 20
-5.378850
  0
VERTEX
  8
PLAN_1
  6
CONTINUOUS
 10
1.004213
 20
-5.378850
  0
VERTEX
  8
PLAN_1
  6
CONTINUOUS
 10
1.004213
 20
-5.203799
  0
VERTEX
  8
PLAN_1
  6
CONTINUOUS
 10
0.936886
 20
-5.203799
  0
VERTEX
  8
PLAN_1
  6
CONTINUOUS
 10
0.936886
 20
-5.179563
  0
SEQEND
  8
0
  0
POLYLINE
  8
PLAN_1
  6
CONTINUOUS
 66
     1
 40
0.003000
 41
0.003000
  0
VERTEX
  8
PLAN_1
  6
CONTINUOUS
 10
1.286311
 20
-5.224669
  0
VERTEX
  8
PLAN_1
  6
CONTINUOUS
 10
1.305161
 20
-5.224669
  0
VERTEX
  8
PLAN_1
  6
CONTINUOUS
 10
1.301122
 20
-5.239484
  0
VERTEX
  8
PLAN_1
  6
CONTINUOUS
 10
1.296409
 20
-5.254295
  0
VERTEX
  8
PLAN_1
  6
CONTINUOUS
 10
1.292370
 20
-5.268433
  0
VERTEX
  8
PLAN_1
  6
CONTINUOUS
 10
1.288331
 20
-5.281898
  0
VERTEX
  8
PLAN_1
  6
CONTINUOUS
 10
1.284965
 20
-5.293343
  0
VERTEX
  8
PLAN_1
  6
CONTINUOUS
 10
1.282272
 20
-5.303445
  0
VERTEX
  8
PLAN_1
  6
CONTINUOUS
 10
1.280252
 20
-5.310850
  0
VERTEX
  8
PLAN_1
  6
CONTINUOUS
 10
1.280252
 20
-5.314890
  0
VERTEX
  8
PLAN_1
  6
CONTINUOUS
 10
1.280252
 20
-5.316909
  0
VERTEX
  8
PLAN_1
  6
CONTINUOUS
 10
1.280252
 20
-5.318929
  0
VERTEX
  8
PLAN_1
  6
CONTINUOUS
 10
1.280925
 20
-5.320276
  0
VERTEX
  8
PLAN_1
  6
CONTINUOUS
 10
1.280925
 20
-5.320949
  0
VERTEX
  8
PLAN_1
  6
CONTINUOUS
 10
1.282272
 20
-5.322295
  0
VERTEX
  8
PLAN_1
  6
CONTINUOUS
 10
1.282945
 20
-5.322969
  0
VERTEX
  8
PLAN_1
  6
CONTINUOUS
 10
1.284291
 20
-5.322969
  0
VERTEX
  8
PLAN_1
  6
CONTINUOUS
 10
1.285638
 20
-5.322969
  0
VERTEX
  8
PLAN_1
  6
CONTINUOUS
 10
1.289004
 20
-5.322969
  0
VERTEX
  8
PLAN_1
  6
CONTINUOUS
 10
1.293043
 20
-5.321622
  0
VERTEX
  8
PLAN_1
  6
CONTINUOUS
 10
1.296409
 20
-5.320276
  0
VERTEX
  8
PLAN_1
  6
CONTINUOUS
 10
1.299776
 20
-5.318256
  0
VERTEX
  8
PLAN_1
  6
CONTINUOUS
 10
1.303142
 20
-5.315563
  0
VERTEX
  8
PLAN_1
  6
CONTINUOUS
 10
1.306508
 20
-5.312197
  0
VERTEX
  8
PLAN_1
  6
CONTINUOUS
 10
1.309878
 20
-5.308157
  0
VERTEX
  8
PLAN_1
  6
CONTINUOUS
 10
1.312571
 20
-5.304118
  0
VERTEX
  8
PLAN_1
  6
CONTINUOUS
 10
1.315264
 20
-5.300075
  0
VERTEX
  8
PLAN_1
  6
CONTINUOUS
 10
1.317957
 20
-5.295362
  0
VERTEX
  8
PLAN_1
  6
CONTINUOUS
 10
1.319976
 20
-5.289976
  0
VERTEX
  8
PLAN_1
  6
CONTINUOUS
 10
1.321996
 20
-5.285264
  0
VERTEX
  8
PLAN_1
  6
CONTINUOUS
 10
1.323343
 20
-5.279878
  0
VERTEX
  8
PLAN_1
  6
CONTINUOUS
 10
1.324016
 20
-5.274492
  0
VERTEX
  8
PLAN_1
  6
CONTINUOUS
 10
1.324689
 20
-5.269106
  0
VERTEX
  8
PLAN_1
  6
CONTINUOUS
 10
1.325362
 20
-5.263047
  0
VERTEX
  8
PLAN_1
  6
CONTINUOUS
 10
1.324689
 20
-5.254969
  0
VERTEX
  8
PLAN_1
  6
CONTINUOUS
 10
1.323343
 20
-5.247563
  0
VERTEX
  8
PLAN_1
  6
CONTINUOUS
 10
1.321323
 20
-5.240157
  0
VERTEX
  8
PLAN_1
  6
CONTINUOUS
 10
1.318630
 20
-5.233425
  0
VERTEX
  8
PLAN_1
  6
CONTINUOUS
 10
1.315937
 20
-5.226689
  0
VERTEX
  8
PLAN_1
  6
CONTINUOUS
 10
1.311898
 20
-5.221303
  0
VERTEX
  8
PLAN_1
  6
CONTINUOUS
 10
1.307181
 20
-5.215917
  0
VERTEX
  8
PLAN_1
  6
CONTINUOUS
 10
1.302469
 20
-5.210531
  0
VERTEX
  8
PLAN_1
  6
CONTINUOUS
 10
1.296409
 20
-5.206492
  0
VERTEX
  8
PLAN_1
  6
CONTINUOUS
 10
1.290350
 20
-5.202453
  0
VERTEX
  8
PLAN_1
  6
CONTINUOUS
 10
1.284291
 20
-5.199087
  0
VERTEX
  8
PLAN_1
  6
CONTINUOUS
 10
1.277559
 20
-5.196394
  0
VERTEX
  8
PLAN_1
  6
CONTINUOUS
 10
1.270154
 20
-5.194374
  0
VERTEX
  8
PLAN_1
  6
CONTINUOUS
 10
1.263421
 20
-5.193028
  0
VERTEX
  8
PLAN_1
  6
CONTINUOUS
 10
1.255343
 20
-5.191681
  0
VERTEX
  8
PLAN_1
  6
CONTINUOUS
 10
1.247937
 20
-5.191681
  0
VERTEX
  8
PLAN_1
  6
CONTINUOUS
 10
1.238512
 20
-5.192354
  0
VERTEX
  8
PLAN_1
  6
CONTINUOUS
 10
1.229756
 20
-5.193701
  0
VERTEX
  8
PLAN_1
  6
CONTINUOUS
 10
1.221677
 20
-5.195720
  0
VERTEX
  8
PLAN_1
  6
CONTINUOUS
 10
1.213598
 20
-5.198413
  0
VERTEX
  8
PLAN_1
  6
CONTINUOUS
 10
1.206193
 20
-5.202453
  0
VERTEX
  8
PLAN_1
  6
CONTINUOUS
 10
1.199461
 20
-5.206492
  0
VERTEX
  8
PLAN_1
  6
CONTINUOUS
 10
1.192728
 20
-5.211878
  0
VERTEX
  8
PLAN_1
  6
CONTINUOUS
 10
1.187343
 20
-5.217937
  0
VERTEX
  8
PLAN_1
  6
CONTINUOUS
 10
1.181957
 20
-5.223996
  0
VERTEX
  8
PLAN_1
  6
CONTINUOUS
 10
1.177244
 20
-5.230732
  0
VERTEX
  8
PLAN_1
  6
CONTINUOUS
 10
1.173205
 20
-5.238138
  0
VERTEX
  8
PLAN_1
  6
CONTINUOUS
 10
1.169839
 20
-5.245543
  0
VERTEX
  8
PLAN_1
  6
CONTINUOUS
 10
1.167146
 20
-5.254295
  0
VERTEX
  8
PLAN_1
  6
CONTINUOUS
 10
1.165126
 20
-5.262374
  0
VERTEX
  8
PLAN_1
  6
CONTINUOUS
 10
1.163780
 20
-5.271126
  0
VERTEX
  8
PLAN_1
  6
CONTINUOUS
 10
1.163102
 20
-5.280551
  0
VERTEX
  8
PLAN_1
  6
CONTINUOUS
 10
1.163780
 20
-5.289303
  0
VERTEX
  8
PLAN_1
  6
CONTINUOUS
 10
1.165126
 20
-5.298055
  0
VERTEX
  8
PLAN_1
  6
CONTINUOUS
 10
1.167146
 20
-5.306811
  0
VERTEX
  8
PLAN_1
  6
CONTINUOUS
 10
1.169839
 20
-5.314890
  0
VERTEX
  8
PLAN_1
  6
CONTINUOUS
 10
1.173878
 20
-5.322295
  0
VERTEX
  8
PLAN_1
  6
CONTINUOUS
 10
1.177917
 20
-5.329701
  0
VERTEX
  8
PLAN_1
  6
CONTINUOUS
 10
1.182630
 20
-5.335760
  0
VERTEX
  8
PLAN_1
  6
CONTINUOUS
 10
1.188016
 20
-5.341819
  0
VERTEX
  8
PLAN_1
  6
CONTINUOUS
 10
1.194075
 20
-5.347878
  0
VERTEX
  8
PLAN_1
  6
CONTINUOUS
 10
1.200807
 20
-5.352591
  0
VERTEX
  8
PLAN_1
  6
CONTINUOUS
 10
1.208213
 20
-5.356630
  0
VERTEX
  8
PLAN_1
  6
CONTINUOUS
 10
1.215618
 20
-5.360669
  0
VERTEX
  8
PLAN_1
  6
CONTINUOUS
 10
1.223697
 20
-5.363362
  0
VERTEX
  8
PLAN_1
  6
CONTINUOUS
 10
1.231776
 20
-5.365382
  0
VERTEX
  8
PLAN_1
  6
CONTINUOUS
 10
1.240531
 20
-5.366728
  0
VERTEX
  8
PLAN_1
  6
CONTINUOUS
 10
1.249957
 20
-5.366728
  0
VERTEX
  8
PLAN_1
  6
CONTINUOUS
 10
1.259382
 20
-5.366728
  0
VERTEX
  8
PLAN_1
  6
CONTINUOUS
 10
1.268807
 20
-5.364709
  0
VERTEX
  8
PLAN_1
  6
CONTINUOUS
 10
1.278232
 20
-5.362016
  0
VERTEX
  8
PLAN_1
  6
CONTINUOUS
 10
1.286984
 20
-5.358650
  0
VERTEX
  8
PLAN_1
  6
CONTINUOUS
 10
1.295736
 20
-5.353937
  0
VERTEX
  8
PLAN_1
  6
CONTINUOUS
 10
1.303815
 20
-5.348551
  0
VERTEX
  8
PLAN_1
  6
CONTINUOUS
 10
1.310551
 20
-5.342492
  0
VERTEX
  8
PLAN_1
  6
CONTINUOUS
 10
1.317283
 20
-5.335087
  0
VERTEX
  8
PLAN_1
  6
CONTINUOUS
 10
1.335461
 20
-5.335087
  0
VERTEX
  8
PLAN_1
  6
CONTINUOUS
 10
1.332094
 20
-5.341146
  0
VERTEX
  8
PLAN_1
  6
CONTINUOUS
 10
1.328055
 20
-5.345858
  0
VERTEX
  8
PLAN_1
  6
CONTINUOUS
 10
1.324016
 20
-5.351244
  0
VERTEX
  8
PLAN_1
  6
CONTINUOUS
 10
1.319303
 20
-5.355957
  0
VERTEX
  8
PLAN_1
  6
CONTINUOUS
 10
1.314591
 20
-5.359996
  0
VERTEX
  8
PLAN_1
  6
CONTINUOUS
 10
1.309878
 20
-5.364035
  0
VERTEX
  8
PLAN_1
  6
CONTINUOUS
 10
1.304488
 20
-5.368075
  0
VERTEX
  8
PLAN_1
  6
CONTINUOUS
 10
1.299102
 20
-5.371441
  0
VERTEX
  8
PLAN_1
  6
CONTINUOUS
 10
1.293043
 20
-5.374138
  0
VERTEX
  8
PLAN_1
  6
CONTINUOUS
 10
1.287657
 20
-5.376831
  0
VERTEX
  8
PLAN_1
  6
CONTINUOUS
 10
1.281598
 20
-5.378850
  0
VERTEX
  8
PLAN_1
  6
CONTINUOUS
 10
1.274866
 20
-5.380870
  0
VERTEX
  8
PLAN_1
  6
CONTINUOUS
 10
1.268807
 20
-5.382217
  0
VERTEX
  8
PLAN_1
  6
CONTINUOUS
 10
1.262075
 20
-5.383563
  0
VERTEX
  8
PLAN_1
  6
CONTINUOUS
 10
1.256016
 20
-5.384236
  0
VERTEX
  8
PLAN_1
  6
CONTINUOUS
 10
1.249283
 20
-5.384236
  0
VERTEX
  8
PLAN_1
  6
CONTINUOUS
 10
1.237839
 20
-5.383563
  0
VERTEX
  8
PLAN_1
  6
CONTINUOUS
 10
1.227736
 20
-5.382217
  0
VERTEX
  8
PLAN_1
  6
CONTINUOUS
 10
1.216965
 20
-5.379524
  0
VERTEX
  8
PLAN_1
  6
CONTINUOUS
 10
1.207539
 20
-5.376157
  0
VERTEX
  8
PLAN_1
  6
CONTINUOUS
 10
1.198114
 20
-5.371441
  0
VERTEX
  8
PLAN_1
  6
CONTINUOUS
 10
1.189362
 20
-5.366728
  0
VERTEX
  8
PLAN_1
  6
CONTINUOUS
 10
1.181283
 20
-5.360669
  0
VERTEX
  8
PLAN_1
  6
CONTINUOUS
 10
1.173878
 20
-5.353937
  0
VERTEX
  8
PLAN_1
  6
CONTINUOUS
 10
1.167146
 20
-5.346531
  0
VERTEX
  8
PLAN_1
  6
CONTINUOUS
 10
1.161083
 20
-5.338453
  0
VERTEX
  8
PLAN_1
  6
CONTINUOUS
 10
1.155697
 20
-5.329701
  0
VERTEX
  8
PLAN_1
  6
CONTINUOUS
 10
1.150984
 20
-5.320276
  0
VERTEX
  8
PLAN_1
  6
CONTINUOUS
 10
1.147618
 20
-5.310177
  0
VERTEX
  8
PLAN_1
  6
CONTINUOUS
 10
1.144925
 20
-5.300075
  0
VERTEX
  8
PLAN_1
  6
CONTINUOUS
 10
1.143579
 20
-5.289976
  0
VERTEX
  8
PLAN_1
  6
CONTINUOUS
 10
1.142906
 20
-5.278531
  0
VERTEX
  8
PLAN_1
  6
CONTINUOUS
 10
1.143579
 20
-5.267760
  0
VERTEX
  8
PLAN_1
  6
CONTINUOUS
 10
1.144925
 20
-5.257661
  0
VERTEX
  8
PLAN_1
  6
CONTINUOUS
 10
1.147618
 20
-5.247563
  0
VERTEX
  8
PLAN_1
  6
CONTINUOUS
 10
1.151657
 20
-5.238138
  0
VERTEX
  8
PLAN_1
  6
CONTINUOUS
 10
1.155697
 20
-5.228713
  0
VERTEX
  8
PLAN_1
  6
CONTINUOUS
 10
1.161083
 20
-5.219957
  0
VERTEX
  8
PLAN_1
  6
CONTINUOUS
 10
1.167146
 20
-5.212551
  0
VERTEX
  8
PLAN_1
  6
CONTINUOUS
 10
1.173878
 20
-5.205146
  0
VERTEX
  8
PLAN_1
  6
CONTINUOUS
 10
1.181283
 20
-5.198413
  0
VERTEX
  8
PLAN_1
  6
CONTINUOUS
 10
1.189362
 20
-5.192354
  0
VERTEX
  8
PLAN_1
  6
CONTINUOUS
 10
1.198114
 20
-5.186969
  0
VERTEX
  8
PLAN_1
  6
CONTINUOUS
 10
1.207539
 20
-5.182256
  0
VERTEX
  8
PLAN_1
  6
CONTINUOUS
 10
1.216965
 20
-5.178890
  0
VERTEX
  8
PLAN_1
  6
CONTINUOUS
 10
1.227063
 20
-5.176197
  0
VERTEX
  8
PLAN_1
  6
CONTINUOUS
 10
1.237165
 20
-5.174850
  0
VERTEX
  8
PLAN_1
  6
CONTINUOUS
 10
1.247937
 20
-5.174177
  0
VERTEX
  8
PLAN_1
  6
CONTINUOUS
 10
1.257362
 20
-5.174850
  0
VERTEX
  8
PLAN_1
  6
CONTINUOUS
 10
1.266787
 20
-5.176197
  0
VERTEX
  8
PLAN_1
  6
CONTINUOUS
 10
1.275539
 20
-5.178217
  0
VERTEX
  8
PLAN_1
  6
CONTINUOUS
 10
1.284291
 20
-5.180909
  0
VERTEX
  8
PLAN_1
  6
CONTINUOUS
 10
1.292370
 20
-5.184276
  0
VERTEX
  8
PLAN_1
  6
CONTINUOUS
 10
1.300449
 20
-5.188315
  0
VERTEX
  8
PLAN_1
  6
CONTINUOUS
 10
1.307854
 20
-5.193028
  0
VERTEX
  8
PLAN_1
  6
CONTINUOUS
 10
1.314591
 20
-5.199087
  0
VERTEX
  8
PLAN_1
  6
CONTINUOUS
 10
1.320650
 20
-5.205146
  0
VERTEX
  8
PLAN_1
  6
CONTINUOUS
 10
1.326709
 20
-5.211205
  0
VERTEX
  8
PLAN_1
  6
CONTINUOUS
 10
1.331421
 20
-5.218610
  0
VERTEX
  8
PLAN_1
  6
CONTINUOUS
 10
1.335461
 20
-5.226016
  0
VERTEX
  8
PLAN_1
  6
CONTINUOUS
 10
1.338827
 20
-5.234098
  0
VERTEX
  8
PLAN_1
  6
CONTINUOUS
 10
1.341520
 20
-5.242850
  0
VERTEX
  8
PLAN_1
  6
CONTINUOUS
 10
1.342866
 20
-5.251602
  0
VERTEX
  8
PLAN_1
  6
CONTINUOUS
 10
1.343539
 20
-5.261028
  0
VERTEX
  8
PLAN_1
  6
CONTINUOUS
 10
1.342866
 20
-5.270453
  0
VERTEX
  8
PLAN_1
  6
CONTINUOUS
 10
1.341520
 20
-5.279205
  0
VERTEX
  8
PLAN_1
  6
CONTINUOUS
 10
1.339500
 20
-5.287283
  0
VERTEX
  8
PLAN_1
  6
CONTINUOUS
 10
1.336134
 20
-5.294689
  0
VERTEX
  8
PLAN_1
  6
CONTINUOUS
 10
1.332768
 20
-5.302098
  0
VERTEX
  8
PLAN_1
  6
CONTINUOUS
 10
1.328728
 20
-5.308157
  0
VERTEX
  8
PLAN_1
  6
CONTINUOUS
 10
1.324016
 20
-5.314217
  0
VERTEX
  8
PLAN_1
  6
CONTINUOUS
 10
1.319303
 20
-5.320276
  0
VERTEX
  8
PLAN_1
  6
CONTINUOUS
 10
1.313917
 20
-5.324988
  0
VERTEX
  8
PLAN_1
  6
CONTINUOUS
 10
1.308528
 20
-5.329028
  0
VERTEX
  8
PLAN_1
  6
CONTINUOUS
 10
1.303142
 20
-5.333067
  0
VERTEX
  8
PLAN_1
  6
CONTINUOUS
 10
1.297756
 20
-5.335760
  0
VERTEX
  8
PLAN_1
  6
CONTINUOUS
 10
1.292370
 20
-5.338453
  0
VERTEX
  8
PLAN_1
  6
CONTINUOUS
 10
1.286984
 20
-5.339799
  0
VERTEX
  8
PLAN_1
  6
CONTINUOUS
 10
1.281598
 20
-5.341146
  0
VERTEX
  8
PLAN_1
  6
CONTINUOUS
 10
1.276886
 20
-5.341146
  0
VERTEX
  8
PLAN_1
  6
CONTINUOUS
 10
1.273520
 20
-5.341146
  0
VERTEX
  8
PLAN_1
  6
CONTINUOUS
 10
1.270154
 20
-5.340472
  0
VERTEX
  8
PLAN_1
  6
CONTINUOUS
 10
1.267461
 20
-5.339126
  0
VERTEX
  8
PLAN_1
  6
CONTINUOUS
 10
1.264768
 20
-5.337106
  0
VERTEX
  8
PLAN_1
  6
CONTINUOUS
 10
1.262748
 20
-5.334413
  0
VERTEX
  8
PLAN_1
  6
CONTINUOUS
 10
1.260728
 20
-5.331720
  0
VERTEX
  8
PLAN_1
  6
CONTINUOUS
 10
1.259382
 20
-5.327681
  0
VERTEX
  8
PLAN_1
  6
CONTINUOUS
 10
1.259382
 20
-5.323642
  0
VERTEX
  8
PLAN_1
  6
CONTINUOUS
 10
1.258709
 20
-5.324315
  0
VERTEX
  8
PLAN_1
  6
CONTINUOUS
 10
1.255343
 20
-5.327008
  0
VERTEX
  8
PLAN_1
  6
CONTINUOUS
 10
1.251976
 20
-5.330374
  0
VERTEX
  8
PLAN_1
  6
CONTINUOUS
 10
1.247937
 20
-5.333067
  0
VERTEX
  8
PLAN_1
  6
CONTINUOUS
 10
1.243898
 20
-5.335760
  0
VERTEX
  8
PLAN_1
  6
CONTINUOUS
 10
1.239185
 20
-5.337780
  0
VERTEX
  8
PLAN_1
  6
CONTINUOUS
 10
1.235142
 20
-5.339799
  0
VERTEX
  8
PLAN_1
  6
CONTINUOUS
 10
1.230429
 20
-5.341146
  0
VERTEX
  8
PLAN_1
  6
CONTINUOUS
 10
1.225043
 20
-5.341146
  0
VERTEX
  8
PLAN_1
  6
CONTINUOUS
 10
1.221004
 20
-5.341146
  0
VERTEX
  8
PLAN_1
  6
CONTINUOUS
 10
1.216965
 20
-5.340472
  0
VERTEX
  8
PLAN_1
  6
CONTINUOUS
 10
1.212925
 20
-5.339126
  0
VERTEX
  8
PLAN_1
  6
CONTINUOUS
 10
1.208886
 20
-5.337780
  0
VERTEX
  8
PLAN_1
  6
CONTINUOUS
 10
1.205520
 20
-5.335760
  0
VERTEX
  8
PLAN_1
  6
CONTINUOUS
 10
1.202154
 20
-5.333740
  0
VERTEX
  8
PLAN_1
  6
CONTINUOUS
 10
1.198787
 20
-5.331047
  0
VERTEX
  8
PLAN_1
  6
CONTINUOUS
 10
1.196094
 20
-5.328354
  0
VERTEX
  8
PLAN_1
  6
CONTINUOUS
 10
1.193402
 20
-5.324988
  0
VERTEX
  8
PLAN_1
  6
CONTINUOUS
 10
1.191382
 20
-5.321622
  0
VERTEX
  8
PLAN_1
  6
CONTINUOUS
 10
1.189362
 20
-5.317583
  0
VERTEX
  8
PLAN_1
  6
CONTINUOUS
 10
1.187343
 20
-5.314217
  0
VERTEX
  8
PLAN_1
  6
CONTINUOUS
 10
1.185996
 20
-5.310177
  0
VERTEX
  8
PLAN_1
  6
CONTINUOUS
 10
1.185323
 20
-5.305465
  0
VERTEX
  8
PLAN_1
  6
CONTINUOUS
 10
1.184650
 20
-5.301425
  0
VERTEX
  8
PLAN_1
  6
CONTINUOUS
 10
1.184650
 20
-5.296709
  0
VERTEX
  8
PLAN_1
  6
CONTINUOUS
 10
1.184650
 20
-5.289976
  0
VERTEX
  8
PLAN_1
  6
CONTINUOUS
 10
1.185323
 20
-5.282571
  0
VERTEX
  8
PLAN_1
  6
CONTINUOUS
 10
1.187343
 20
-5.275839
  0
VERTEX
  8
PLAN_1
  6
CONTINUOUS
 10
1.189362
 20
-5.269106
  0
VERTEX
  8
PLAN_1
  6
CONTINUOUS
 10
1.191382
 20
-5.262374
  0
VERTEX
  8
PLAN_1
  6
CONTINUOUS
 10
1.194748
 20
-5.256315
  0
VERTEX
  8
PLAN_1
  6
CONTINUOUS
 10
1.198114
 20
-5.250256
  0
VERTEX
  8
PLAN_1
  6
CONTINUOUS
 10
1.202154
 20
-5.244197
  0
VERTEX
  8
PLAN_1
  6
CONTINUOUS
 10
1.206193
 20
-5.239484
  0
VERTEX
  8
PLAN_1
  6
CONTINUOUS
 10
1.211579
 20
-5.234772
  0
VERTEX
  8
PLAN_1
  6
CONTINUOUS
 10
1.216291
 20
-5.230732
  0
VERTEX
  8
PLAN_1
  6
CONTINUOUS
 10
1.222350
 20
-5.226689
  0
VERTEX
  8
PLAN_1
  6
CONTINUOUS
 10
1.228409
 20
-5.223996
  0
VERTEX
  8
PLAN_1
  6
CONTINUOUS
 10
1.234469
 20
-5.221976
  0
VERTEX
  8
PLAN_1
  6
CONTINUOUS
 10
1.241205
 20
-5.220630
  0
VERTEX
  8
PLAN_1
  6
CONTINUOUS
 10
1.248610
 20
-5.219957
  0
VERTEX
  8
PLAN_1
  6
CONTINUOUS
 10
1.253323
 20
-5.220630
  0
VERTEX
  8
PLAN_1
  6
CONTINUOUS
 10
1.258035
 20
-5.221303
  0
VERTEX
  8
PLAN_1
  6
CONTINUOUS
 10
1.262748
 20
-5.222650
  0
VERTEX
  8
PLAN_1
  6
CONTINUOUS
 10
1.266787
 20
-5.225343
  0
VERTEX
  8
PLAN_1
  6
CONTINUOUS
 10
1.270827
 20
-5.228039
  0
VERTEX
  8
PLAN_1
  6
CONTINUOUS
 10
1.274193
 20
-5.232079
  0
VERTEX
  8
PLAN_1
  6
CONTINUOUS
 10
1.277559
 20
-5.236791
  0
VERTEX
  8
PLAN_1
  6
CONTINUOUS
 10
1.280252
 20
-5.242177
  0
VERTEX
  8
PLAN_1
  6
CONTINUOUS
 10
1.286311
 20
-5.224669
  0
SEQEND
  8
0
  0
POLYLINE
  8
PLAN_1
  6
CONTINUOUS
 66
     1
 40
0.003000
 41
0.003000
  0
VERTEX
  8
PLAN_1
  6
CONTINUOUS
 10
1.249283
 20
-5.240157
  0
VERTEX
  8
PLAN_1
  6
CONTINUOUS
 10
1.244571
 20
-5.240831
  0
VERTEX
  8
PLAN_1
  6
CONTINUOUS
 10
1.240531
 20
-5.241504
  0
VERTEX
  8
PLAN_1
  6
CONTINUOUS
 10
1.235815
 20
-5.243524
  0
VERTEX
  8
PLAN_1
  6
CONTINUOUS
 10
1.232449
 20
-5.245543
  0
VERTEX
  8
PLAN_1
  6
CONTINUOUS
 10
1.228409
 20
-5.248236
  0
VERTEX
  8
PLAN_1
  6
CONTINUOUS
 10
1.225043
 20
-5.250929
  0
VERTEX
  8
PLAN_1
  6
CONTINUOUS
 10
1.221677
 20
-5.254969
  0
VERTEX
  8
PLAN_1
  6
CONTINUOUS
 10
1.218984
 20
-5.258335
  0
VERTEX
  8
PLAN_1
  6
CONTINUOUS
 10
1.216291
 20
-5.263047
  0
VERTEX
  8
PLAN_1
  6
CONTINUOUS
 10
1.214272
 20
-5.267087
  0
VERTEX
  8
PLAN_1
  6
CONTINUOUS
 10
1.212252
 20
-5.271799
  0
VERTEX
  8
PLAN_1
  6
CONTINUOUS
 10
1.210232
 20
-5.275839
  0
VERTEX
  8
PLAN_1
  6
CONTINUOUS
 10
1.208886
 20
-5.280551
  0
VERTEX
  8
PLAN_1
  6
CONTINUOUS
 10
1.208213
 20
-5.285264
  0
VERTEX
  8
PLAN_1
  6
CONTINUOUS
 10
1.207539
 20
-5.289976
  0
VERTEX
  8
PLAN_1
  6
CONTINUOUS
 10
1.207539
 20
-5.294016
  0
VERTEX
  8
PLAN_1
  6
CONTINUOUS
 10
1.207539
 20
-5.300075
  0
VERTEX
  8
PLAN_1
  6
CONTINUOUS
 10
1.208886
 20
-5.305465
  0
VERTEX
  8
PLAN_1
  6
CONTINUOUS
 10
1.210906
 20
-5.309504
  0
VERTEX
  8
PLAN_1
  6
CONTINUOUS
 10
1.213598
 20
-5.313543
  0
VERTEX
  8
PLAN_1
  6
CONTINUOUS
 10
1.216965
 20
-5.316909
  0
VERTEX
  8
PLAN_1
  6
CONTINUOUS
 10
1.221004
 20
-5.318929
  0
VERTEX
  8
PLAN_1
  6
CONTINUOUS
 10
1.225717
 20
-5.320949
  0
VERTEX
  8
PLAN_1
  6
CONTINUOUS
 10
1.230429
 20
-5.320949
  0
VERTEX
  8
PLAN_1
  6
CONTINUOUS
 10
1.235142
 20
-5.320949
  0
VERTEX
  8
PLAN_1
  6
CONTINUOUS
 10
1.239185
 20
-5.319602
  0
VERTEX
  8
PLAN_1
  6
CONTINUOUS
 10
1.243224
 20
-5.318256
  0
VERTEX
  8
PLAN_1
  6
CONTINUOUS
 10
1.247264
 20
-5.315563
  0
VERTEX
  8
PLAN_1
  6
CONTINUOUS
 10
1.250630
 20
-5.312870
  0
VERTEX
  8
PLAN_1
  6
CONTINUOUS
 10
1.253996
 20
-5.309504
  0
VERTEX
  8
PLAN_1
  6
CONTINUOUS
 10
1.257362
 20
-5.306138
  0
VERTEX
  8
PLAN_1
  6
CONTINUOUS
 10
1.260055
 20
-5.302098
  0
VERTEX
  8
PLAN_1
  6
CONTINUOUS
 10
1.264768
 20
-5.293343
  0
VERTEX
  8
PLAN_1
  6
CONTINUOUS
 10
1.268807
 20
-5.283917
  0
VERTEX
  8
PLAN_1
  6
CONTINUOUS
 10
1.270154
 20
-5.279205
  0
VERTEX
  8
PLAN_1
  6
CONTINUOUS
 10
1.270827
 20
-5.274492
  0
VERTEX
  8
PLAN_1
  6
CONTINUOUS
 10
1.271500
 20
-5.269780
  0
VERTEX
  8
PLAN_1
  6
CONTINUOUS
 10
1.272173
 20
-5.265740
  0
VERTEX
  8
PLAN_1
  6
CONTINUOUS
 10
1.271500
 20
-5.261028
  0
VERTEX
  8
PLAN_1
  6
CONTINUOUS
 10
1.270154
 20
-5.256315
  0
VERTEX
  8
PLAN_1
  6
CONTINUOUS
 10
1.268134
 20
-5.251602
  0
VERTEX
  8
PLAN_1
  6
CONTINUOUS
 10
1.264768
 20
-5.247563
  0
VERTEX
  8
PLAN_1
  6
CONTINUOUS
 10
1.261402
 20
-5.244870
  0
VERTEX
  8
PLAN_1
  6
CONTINUOUS
 10
1.258035
 20
-5.242177
  0
VERTEX
  8
PLAN_1
  6
CONTINUOUS
 10
1.253323
 20
-5.240831
  0
VERTEX
  8
PLAN_1
  6
CONTINUOUS
 10
1.249283
 20
-5.240157
  0
SEQEND
  8
0
  0
POLYLINE
  8
PLAN_1
  6
CONTINUOUS
 66
     1
 40
0.003000
 41
0.003000
  0
VERTEX
  8
PLAN_1
  6
CONTINUOUS
 10
1.483579
 20
-5.378850
  0
VERTEX
  8
PLAN_1
  6
CONTINUOUS
 10
1.457996
 20
-5.378850
  0
VERTEX
  8
PLAN_1
  6
CONTINUOUS
 10
1.457996
 20
-5.240157
  0
VERTEX
  8
PLAN_1
  6
CONTINUOUS
 10
1.412213
 20
-5.240157
  0
VERTEX
  8
PLAN_1
  6
CONTINUOUS
 10
1.412213
 20
-5.221303
  0
VERTEX
  8
PLAN_1
  6
CONTINUOUS
 10
1.422984
 20
-5.219957
  0
VERTEX
  8
PLAN_1
  6
CONTINUOUS
 10
1.432409
 20
-5.218610
  0
VERTEX
  8
PLAN_1
  6
CONTINUOUS
 10
1.436449
 20
-5.217937
  0
VERTEX
  8
PLAN_1
  6
CONTINUOUS
 10
1.440488
 20
-5.216591
  0
VERTEX
  8
PLAN_1
  6
CONTINUOUS
 10
1.443854
 20
-5.215244
  0
VERTEX
  8
PLAN_1
  6
CONTINUOUS
 10
1.447220
 20
-5.213898
  0
VERTEX
  8
PLAN_1
  6
CONTINUOUS
 10
1.450587
 20
-5.211205
  0
VERTEX
  8
PLAN_1
  6
CONTINUOUS
 10
1.453280
 20
-5.209185
  0
VERTEX
  8
PLAN_1
  6
CONTINUOUS
 10
1.455303
 20
-5.206492
  0
VERTEX
  8
PLAN_1
  6
CONTINUOUS
 10
1.457323
 20
-5.203126
  0
VERTEX
  8
PLAN_1
  6
CONTINUOUS
 10
1.459343
 20
-5.199087
  0
VERTEX
  8
PLAN_1
  6
CONTINUOUS
 10
1.461362
 20
-5.194374
  0
VERTEX
  8
PLAN_1
  6
CONTINUOUS
 10
1.463382
 20
-5.189661
  0
VERTEX
  8
PLAN_1
  6
CONTINUOUS
 10
1.464728
 20
-5.183602
  0
VERTEX
  8
PLAN_1
  6
CONTINUOUS
 10
1.483579
 20
-5.183602
  0
VERTEX
  8
PLAN_1
  6
CONTINUOUS
 10
1.483579
 20
-5.378850
  0
SEQEND
  8
0
  0
POLYLINE
  8
PLAN_1
  6
CONTINUOUS
 66
     1
 40
0.003000
 41
0.003000
  0
VERTEX
  8
PLAN_1
  6
CONTINUOUS
 10
1.579181
 20
-5.265740
  0
VERTEX
  8
PLAN_1
  6
CONTINUOUS
 10
1.582547
 20
-5.263047
  0
VERTEX
  8
PLAN_1
  6
CONTINUOUS
 10
1.585913
 20
-5.261028
  0
VERTEX
  8
PLAN_1
  6
CONTINUOUS
 10
1.589953
 20
-5.259008
  0
VERTEX
  8
PLAN_1
  6
CONTINUOUS
 10
1.594665
 20
-5.256988
  0
VERTEX
  8
PLAN_1
  6
CONTINUOUS
 10
1.599378
 20
-5.255642
  0
VERTEX
  8
PLAN_1
  6
CONTINUOUS
 10
1.604768
 20
-5.254295
  0
VERTEX
  8
PLAN_1
  6
CONTINUOUS
 10
1.610827
 20
-5.253622
  0
VERTEX
  8
PLAN_1
  6
CONTINUOUS
 10
1.616886
 20
-5.252949
  0
VERTEX
  8
PLAN_1
  6
CONTINUOUS
 10
1.622945
 20
-5.253622
  0
VERTEX
  8
PLAN_1
  6
CONTINUOUS
 10
1.629004
 20
-5.254295
  0
VERTEX
  8
PLAN_1
  6
CONTINUOUS
 10
1.634390
 20
-5.255642
  0
VERTEX
  8
PLAN_1
  6
CONTINUOUS
 10
1.640449
 20
-5.257661
  0
VERTEX
  8
PLAN_1
  6
CONTINUOUS
 10
1.645835
 20
-5.259681
  0
VERTEX
  8
PLAN_1
  6
CONTINUOUS
 10
1.651220
 20
-5.262374
  0
VERTEX
  8
PLAN_1
  6
CONTINUOUS
 10
1.655933
 20
-5.265740
  0
VERTEX
  8
PLAN_1
  6
CONTINUOUS
 10
1.660646
 20
-5.269106
  0
VERTEX
  8
PLAN_1
  6
CONTINUOUS
 10
1.665358
 20
-5.273819
  0
VERTEX
  8
PLAN_1
  6
CONTINUOUS
 10
1.669398
 20
-5.278531
  0
VERTEX
  8
PLAN_1
  6
CONTINUOUS
 10
1.672764
 20
-5.283244
  0
VERTEX
  8
PLAN_1
  6
CONTINUOUS
 10
1.675461
 20
-5.288630
  0
VERTEX
  8
PLAN_1
  6
CONTINUOUS
 10
1.678154
 20
-5.294689
  0
VERTEX
  8
PLAN_1
  6
CONTINUOUS
 10
1.679500
 20
-5.301425
  0
VERTEX
  8
PLAN_1
  6
CONTINUOUS
 10
1.680846
 20
-5.308157
  0
VERTEX
  8
PLAN_1
  6
CONTINUOUS
 10
1.680846
 20
-5.315563
  0
VERTEX
  8
PLAN_1
  6
CONTINUOUS
 10
1.680846
 20
-5.324988
  0
VERTEX
  8
PLAN_1
  6
CONTINUOUS
 10
1.678827
 20
-5.335760
  0
VERTEX
  8
PLAN_1
  6
CONTINUOUS
 10
1.676807
 20
-5.341146
  0
VERTEX
  8
PLAN_1
  6
CONTINUOUS
 10
1.674787
 20
-5.347205
  0
VERTEX
  8
PLAN_1
  6
CONTINUOUS
 10
1.672091
 20
-5.352591
  0
VERTEX
  8
PLAN_1
  6
CONTINUOUS
 10
1.668724
 20
-5.357976
  0
VERTEX
  8
PLAN_1
  6
CONTINUOUS
 10
1.664685
 20
-5.363362
  0
VERTEX
  8
PLAN_1
  6
CONTINUOUS
 10
1.659299
 20
-5.368075
  0
VERTEX
  8
PLAN_1
  6
CONTINUOUS
 10
1.653913
 20
-5.372787
  0
VERTEX
  8
PLAN_1
  6
CONTINUOUS
 10
1.647181
 20
-5.376831
  0
VERTEX
  8
PLAN_1
  6
CONTINUOUS
 10
1.639776
 20
-5.379524
  0
VERTEX
  8
PLAN_1
  6
CONTINUOUS
 10
1.631024
 20
-5.382217
  0
VERTEX
  8
PLAN_1
  6
CONTINUOUS
 10
1.620925
 20
-5.383563
  0
VERTEX
  8
PLAN_1
  6
CONTINUOUS
 10
1.610154
 20
-5.384236
  0
VERTEX
  8
PLAN_1
  6
CONTINUOUS
 10
1.600724
 20
-5.383563
  0
VERTEX
  8
PLAN_1
  6
CONTINUOUS
 10
1.590626
 20
-5.382217
  0
VERTEX
  8
PLAN_1
  6
CONTINUOUS
 10
1.585240
 20
-5.380197
  0
VERTEX
  8
PLAN_1
  6
CONTINUOUS
 10
1.580528
 20
-5.378850
  0
VERTEX
  8
PLAN_1
  6
CONTINUOUS
 10
1.575815
 20
-5.376157
  0
VERTEX
  8
PLAN_1
  6
CONTINUOUS
 10
1.571102
 20
-5.373465
  0
VERTEX
  8
PLAN_1
  6
CONTINUOUS
 10
1.566390
 20
-5.370094
  0
VERTEX
  8
PLAN_1
  6
CONTINUOUS
 10
1.562350
 20
-5.366728
  0
VERTEX
  8
PLAN_1
  6
CONTINUOUS
 10
1.558984
 20
-5.362016
  0
VERTEX
  8
PLAN_1
  6
CONTINUOUS
 10
1.555618
 20
-5.357303
  0
VERTEX
  8
PLAN_1
  6
CONTINUOUS
 10
1.552925
 20
-5.351244
  0
VERTEX
  8
PLAN_1
  6
CONTINUOUS
 10
1.550232
 20
-5.345185
  0
VERTEX
  8
PLAN_1
  6
CONTINUOUS
 10
1.548886
 20
-5.338453
  0
VERTEX
  8
PLAN_1
  6
CONTINUOUS
 10
1.547539
 20
-5.330374
  0
VERTEX
  8
PLAN_1
  6
CONTINUOUS
 10
1.572449
 20
-5.330374
  0
VERTEX
  8
PLAN_1
  6
CONTINUOUS
 10
1.573122
 20
-5.334413
  0
VERTEX
  8
PLAN_1
  6
CONTINUOUS
 10
1.574469
 20
-5.338453
  0
VERTEX
  8
PLAN_1
  6
CONTINUOUS
 10
1.575815
 20
-5.341819
  0
VERTEX
  8
PLAN_1
  6
CONTINUOUS
 10
1.577161
 20
-5.345185
  0
VERTEX
  8
PLAN_1
  6
CONTINUOUS
 10
1.579181
 20
-5.347878
  0
VERTEX
  8
PLAN_1
  6
CONTINUOUS
 10
1.581201
 20
-5.350571
  0
VERTEX
  8
PLAN_1
  6
CONTINUOUS
 10
1.583220
 20
-5.353264
  0
VERTEX
  8
PLAN_1
  6
CONTINUOUS
 10
1.585913
 20
-5.355283
  0
VERTEX
  8
PLAN_1
  6
CONTINUOUS
 10
1.591972
 20
-5.358650
  0
VERTEX
  8
PLAN_1
  6
CONTINUOUS
 10
1.598705
 20
-5.361343
  0
VERTEX
  8
PLAN_1
  6
CONTINUOUS
 10
1.606114
 20
-5.362689
  0
VERTEX
  8
PLAN_1
  6
CONTINUOUS
 10
1.614193
 20
-5.363362
  0
VERTEX
  8
PLAN_1
  6
CONTINUOUS
 10
1.618906
 20
-5.362689
  0
VERTEX
  8
PLAN_1
  6
CONTINUOUS
 10
1.622945
 20
-5.362016
  0
VERTEX
  8
PLAN_1
  6
CONTINUOUS
 10
1.626984
 20
-5.361343
  0
VERTEX
  8
PLAN_1
  6
CONTINUOUS
 10
1.631024
 20
-5.359323
  0
VERTEX
  8
PLAN_1
  6
CONTINUOUS
 10
1.634390
 20
-5.357976
  0
VERTEX
  8
PLAN_1
  6
CONTINUOUS
 10
1.637756
 20
-5.355283
  0
VERTEX
  8
PLAN_1
  6
CONTINUOUS
 10
1.641122
 20
-5.352591
  0
VERTEX
  8
PLAN_1
  6
CONTINUOUS
 10
1.643815
 20
-5.349898
  0
VERTEX
  8
PLAN_1
  6
CONTINUOUS
 10
1.646508
 20
-5.346531
  0
VERTEX
  8
PLAN_1
  6
CONTINUOUS
 10
1.648528
 20
-5.343165
  0
VERTEX
  8
PLAN_1
  6
CONTINUOUS
 10
1.650547
 20
-5.339799
  0
VERTEX
  8
PLAN_1
  6
CONTINUOUS
 10
1.651894
 20
-5.335760
  0
VERTEX
  8
PLAN_1
  6
CONTINUOUS
 10
1.653240
 20
-5.331720
  0
VERTEX
  8
PLAN_1
  6
CONTINUOUS
 10
1.654587
 20
-5.327681
  0
VERTEX
  8
PLAN_1
  6
CONTINUOUS
 10
1.654587
 20
-5.322969
  0
VERTEX
  8
PLAN_1
  6
CONTINUOUS
 10
1.655260
 20
-5.318256
  0
VERTEX
  8
PLAN_1
  6
CONTINUOUS
 10
1.654587
 20
-5.313543
  0
VERTEX
  8
PLAN_1
  6
CONTINUOUS
 10
1.653913
 20
-5.308831
  0
VERTEX
  8
PLAN_1
  6
CONTINUOUS
 10
1.653240
 20
-5.304118
  0
VERTEX
  8
PLAN_1
  6
CONTINUOUS
 10
1.651894
 20
-5.300075
  0
VERTEX
  8
PLAN_1
  6
CONTINUOUS
 10
1.649874
 20
-5.296035
  0
VERTEX
  8
PLAN_1
  6
CONTINUOUS
 10
1.647854
 20
-5.292669
  0
VERTEX
  8
PLAN_1
  6
CONTINUOUS
 10
1.645161
 20
-5.289303
  0
VERTEX
  8
PLAN_1
  6
CONTINUOUS
 10
1.642469
 20
-5.286610
  0
VERTEX
  8
PLAN_1
  6
CONTINUOUS
 10
1.639102
 20
-5.283917
  0
VERTEX
  8
PLAN_1
  6
CONTINUOUS
 10
1.636409
 20
-5.281224
  0
VERTEX
  8
PLAN_1
  6
CONTINUOUS
 10
1.632370
 20
-5.279878
  0
VERTEX
  8
PLAN_1
  6
CONTINUOUS
 10
1.629004
 20
-5.277858
  0
VERTEX
  8
PLAN_1
  6
CONTINUOUS
 10
1.624965
 20
-5.276512
  0
VERTEX
  8
PLAN_1
  6
CONTINUOUS
 10
1.620252
 20
-5.275839
  0
VERTEX
  8
PLAN_1
  6
CONTINUOUS
 10
1.616213
 20
-5.275165
  0
VERTEX
  8
PLAN_1
  6
CONTINUOUS
 10
1.611500
 20
-5.275165
  0
VERTEX
  8
PLAN_1
  6
CONTINUOUS
 10
1.606787
 20
-5.275165
  0
VERTEX
  8
PLAN_1
  6
CONTINUOUS
 10
1.601402
 20
-5.276512
  0
VERTEX
  8
PLAN_1
  6
CONTINUOUS
 10
1.596685
 20
-5.277858
  0
VERTEX
  8
PLAN_1
  6
CONTINUOUS
 10
1.591972
 20
-5.279878
  0
VERTEX
  8
PLAN_1
  6
CONTINUOUS
 10
1.587260
 20
-5.282571
  0
VERTEX
  8
PLAN_1
  6
CONTINUOUS
 10
1.583220
 20
-5.285937
  0
VERTEX
  8
PLAN_1
  6
CONTINUOUS
 10
1.579181
 20
-5.289303
  0
VERTEX
  8
PLAN_1
  6
CONTINUOUS
 10
1.575815
 20
-5.294016
  0
VERTEX
  8
PLAN_1
  6
CONTINUOUS
 10
1.554272
 20
-5.292669
  0
VERTEX
  8
PLAN_1
  6
CONTINUOUS
 10
1.569083
 20
-5.188315
  0
VERTEX
  8
PLAN_1
  6
CONTINUOUS
 10
1.670071
 20
-5.188315
  0
VERTEX
  8
PLAN_1
  6
CONTINUOUS
 10
1.670071
 20
-5.211878
  0
VERTEX
  8
PLAN_1
  6
CONTINUOUS
 10
1.587933
 20
-5.211878
  0
VERTEX
  8
PLAN_1
  6
CONTINUOUS
 10
1.579181
 20
-5.265740
  0
SEQEND
  8
0
  0
POLYLINE
  8
PLAN_1
  6
CONTINUOUS
 66
     1
 40
0.003000
 41
0.003000
  0
VERTEX
  8
PLAN_1
  6
CONTINUOUS
 10
1.744130
 20
-5.378850
  0
VERTEX
  8
PLAN_1
  6
CONTINUOUS
 10
1.717201
 20
-5.378850
  0
VERTEX
  8
PLAN_1
  6
CONTINUOUS
 10
1.717201
 20
-5.179563
  0
VERTEX
  8
PLAN_1
  6
CONTINUOUS
 10
1.809437
 20
-5.179563
  0
VERTEX
  8
PLAN_1
  6
CONTINUOUS
 10
1.821559
 20
-5.180236
  0
VERTEX
  8
PLAN_1
  6
CONTINUOUS
 10
1.833677
 20
-5.182256
  0
VERTEX
  8
PLAN_1
  6
CONTINUOUS
 10
1.839063
 20
-5.183602
  0
VERTEX
  8
PLAN_1
  6
CONTINUOUS
 10
1.844449
 20
-5.185622
  0
VERTEX
  8
PLAN_1
  6
CONTINUOUS
 10
1.849835
 20
-5.187642
  0
VERTEX
  8
PLAN_1
  6
CONTINUOUS
 10
1.854547
 20
-5.190335
  0
VERTEX
  8
PLAN_1
  6
CONTINUOUS
 10
1.858587
 20
-5.193701
  0
VERTEX
  8
PLAN_1
  6
CONTINUOUS
 10
1.862626
 20
-5.197740
  0
VERTEX
  8
PLAN_1
  6
CONTINUOUS
 10
1.866665
 20
-5.202453
  0
VERTEX
  8
PLAN_1
  6
CONTINUOUS
 10
1.869358
 20
-5.207165
  0
VERTEX
  8
PLAN_1
  6
CONTINUOUS
 10
1.871378
 20
-5.212551
  0
VERTEX
  8
PLAN_1
  6
CONTINUOUS
 10
1.873398
 20
-5.218610
  0
VERTEX
  8
PLAN_1
  6
CONTINUOUS
 10
1.874744
 20
-5.226016
  0
VERTEX
  8
PLAN_1
  6
CONTINUOUS
 10
1.874744
 20
-5.233425
  0
VERTEX
  8
PLAN_1
  6
CONTINUOUS
 10
1.874744
 20
-5.238811
  0
VERTEX
  8
PLAN_1
  6
CONTINUOUS
 10
1.874071
 20
-5.243524
  0
VERTEX
  8
PLAN_1
  6
CONTINUOUS
 10
1.873398
 20
-5.248236
  0
VERTEX
  8
PLAN_1
  6
CONTINUOUS
 10
1.872724
 20
-5.252276
  0
VERTEX
  8
PLAN_1
  6
CONTINUOUS
 10
1.869358
 20
-5.259008
  0
VERTEX
  8
PLAN_1
  6
CONTINUOUS
 10
1.865992
 20
-5.265067
  0
VERTEX
  8
PLAN_1
  6
CONTINUOUS
 10
1.861280
 20
-5.270453
  0
VERTEX
  8
PLAN_1
  6
CONTINUOUS
 10
1.856567
 20
-5.274492
  0
VERTEX
  8
PLAN_1
  6
CONTINUOUS
 10
1.851854
 20
-5.277858
  0
VERTEX
  8
PLAN_1
  6
CONTINUOUS
 10
1.847142
 20
-5.281224
  0
VERTEX
  8
PLAN_1
  6
CONTINUOUS
 10
1.851181
 20
-5.282571
  0
VERTEX
  8
PLAN_1
  6
CONTINUOUS
 10
1.855220
 20
-5.285264
  0
VERTEX
  8
PLAN_1
  6
CONTINUOUS
 10
1.859260
 20
-5.287283
  0
VERTEX
  8
PLAN_1
  6
CONTINUOUS
 10
1.863299
 20
-5.291323
  0
VERTEX
  8
PLAN_1
  6
CONTINUOUS
 10
1.865992
 20
-5.295362
  0
VERTEX
  8
PLAN_1
  6
CONTINUOUS
 10
1.868685
 20
-5.301425
  0
VERTEX
  8
PLAN_1
  6
CONTINUOUS
 10
1.870031
 20
-5.308831
  0
VERTEX
  8
PLAN_1
  6
CONTINUOUS
 10
1.871378
 20
-5.318256
  0
VERTEX
  8
PLAN_1
  6
CONTINUOUS
 10
1.872724
 20
-5.354610
  0
VERTEX
  8
PLAN_1
  6
CONTINUOUS
 10
1.872724
 20
-5.358650
  0
VERTEX
  8
PLAN_1
  6
CONTINUOUS
 10
1.873398
 20
-5.362016
  0
VERTEX
  8
PLAN_1
  6
CONTINUOUS
 10
1.874071
 20
-5.364709
  0
VERTEX
  8
PLAN_1
  6
CONTINUOUS
 10
1.874744
 20
-5.366728
  0
VERTEX
  8
PLAN_1
  6
CONTINUOUS
 10
1.876091
 20
-5.368748
  0
VERTEX
  8
PLAN_1
  6
CONTINUOUS
 10
1.877437
 20
-5.370768
  0
VERTEX
  8
PLAN_1
  6
CONTINUOUS
 10
1.880130
 20
-5.372787
  0
VERTEX
  8
PLAN_1
  6
CONTINUOUS
 10
1.882823
 20
-5.374811
  0
VERTEX
  8
PLAN_1
  6
CONTINUOUS
 10
1.882823
 20
-5.378850
  0
VERTEX
  8
PLAN_1
  6
CONTINUOUS
 10
1.849835
 20
-5.378850
  0
VERTEX
  8
PLAN_1
  6
CONTINUOUS
 10
1.848488
 20
-5.373465
  0
VERTEX
  8
PLAN_1
  6
CONTINUOUS
 10
1.847142
 20
-5.366728
  0
VERTEX
  8
PLAN_1
  6
CONTINUOUS
 10
1.846469
 20
-5.359996
  0
VERTEX
  8
PLAN_1
  6
CONTINUOUS
 10
1.845795
 20
-5.351917
  0
VERTEX
  8
PLAN_1
  6
CONTINUOUS
 10
1.845122
 20
-5.345185
  0
VERTEX
  8
PLAN_1
  6
CONTINUOUS
 10
1.845122
 20
-5.338453
  0
VERTEX
  8
PLAN_1
  6
CONTINUOUS
 10
1.845122
 20
-5.333067
  0
VERTEX
  8
PLAN_1
  6
CONTINUOUS
 10
1.845122
 20
-5.329028
  0
VERTEX
  8
PLAN_1
  6
CONTINUOUS
 10
1.844449
 20
-5.322969
  0
VERTEX
  8
PLAN_1
  6
CONTINUOUS
 10
1.843776
 20
-5.316236
  0
VERTEX
  8
PLAN_1
  6
CONTINUOUS
 10
1.842429
 20
-5.310850
  0
VERTEX
  8
PLAN_1
  6
CONTINUOUS
 10
1.839063
 20
-5.304791
  0
VERTEX
  8
PLAN_1
  6
CONTINUOUS
 10
1.837043
 20
-5.302772
  0
VERTEX
  8
PLAN_1
  6
CONTINUOUS
 10
1.835024
 20
-5.300075
  0
VERTEX
  8
PLAN_1
  6
CONTINUOUS
 10
1.831657
 20
-5.298728
  0
VERTEX
  8
PLAN_1
  6
CONTINUOUS
 10
1.828291
 20
-5.296709
  0
VERTEX
  8
PLAN_1
  6
CONTINUOUS
 10
1.824925
 20
-5.295362
  0
VERTEX
  8
PLAN_1
  6
CONTINUOUS
 10
1.820213
 20
-5.294016
  0
VERTEX
  8
PLAN_1
  6
CONTINUOUS
 10
1.814823
 20
-5.294016
  0
VERTEX
  8
PLAN_1
  6
CONTINUOUS
 10
1.809437
 20
-5.293343
  0
VERTEX
  8
PLAN_1
  6
CONTINUOUS
 10
1.744130
 20
-5.293343
  0
VERTEX
  8
PLAN_1
  6
CONTINUOUS
 10
1.744130
 20
-5.378850
  0
SEQEND
  8
0
  0
POLYLINE
  8
PLAN_1
  6
CONTINUOUS
 66
     1
 40
0.003000
 41
0.003000
  0
VERTEX
  8
PLAN_1
  6
CONTINUOUS
 10
1.744130
 20
-5.270453
  0
VERTEX
  8
PLAN_1
  6
CONTINUOUS
 10
1.806744
 20
-5.270453
  0
VERTEX
  8
PLAN_1
  6
CONTINUOUS
 10
1.814150
 20
-5.270453
  0
VERTEX
  8
PLAN_1
  6
CONTINUOUS
 10
1.821559
 20
-5.269106
  0
VERTEX
  8
PLAN_1
  6
CONTINUOUS
 10
1.828291
 20
-5.267087
  0
VERTEX
  8
PLAN_1
  6
CONTINUOUS
 10
1.834350
 20
-5.264394
  0
VERTEX
  8
PLAN_1
  6
CONTINUOUS
 10
1.837043
 20
-5.262374
  0
VERTEX
  8
PLAN_1
  6
CONTINUOUS
 10
1.839736
 20
-5.259681
  0
VERTEX
  8
PLAN_1
  6
CONTINUOUS
 10
1.841756
 20
-5.256988
  0
VERTEX
  8
PLAN_1
  6
CONTINUOUS
 10
1.843776
 20
-5.253622
  0
VERTEX
  8
PLAN_1
  6
CONTINUOUS
 10
1.845122
 20
-5.250256
  0
VERTEX
  8
PLAN_1
  6
CONTINUOUS
 10
1.846469
 20
-5.246217
  0
VERTEX
  8
PLAN_1
  6
CONTINUOUS
 10
1.847142
 20
-5.241504
  0
VERTEX
  8
PLAN_1
  6
CONTINUOUS
 10
1.847142
 20
-5.236118
  0
VERTEX
  8
PLAN_1
  6
CONTINUOUS
 10
1.847142
 20
-5.230732
  0
VERTEX
  8
PLAN_1
  6
CONTINUOUS
 10
1.846469
 20
-5.226016
  0
VERTEX
  8
PLAN_1
  6
CONTINUOUS
 10
1.845122
 20
-5.221303
  0
VERTEX
  8
PLAN_1
  6
CONTINUOUS
 10
1.843776
 20
-5.217937
  0
VERTEX
  8
PLAN_1
  6
CONTINUOUS
 10
1.841756
 20
-5.214571
  0
VERTEX
  8
PLAN_1
  6
CONTINUOUS
 10
1.839063
 20
-5.211878
  0
VERTEX
  8
PLAN_1
  6
CONTINUOUS
 10
1.837043
 20
-5.209858
  0
VERTEX
  8
PLAN_1
  6
CONTINUOUS
 10
1.834350
 20
-5.207839
  0
VERTEX
  8
PLAN_1
  6
CONTINUOUS
 10
1.828291
 20
-5.205146
  0
VERTEX
  8
PLAN_1
  6
CONTINUOUS
 10
1.822906
 20
-5.203799
  0
VERTEX
  8
PLAN_1
  6
CONTINUOUS
 10
1.816843
 20
-5.203126
  0
VERTEX
  8
PLAN_1
  6
CONTINUOUS
 10
1.811457
 20
-5.202453
  0
VERTEX
  8
PLAN_1
  6
CONTINUOUS
 10
1.744130
 20
-5.202453
  0
VERTEX
  8
PLAN_1
  6
CONTINUOUS
 10
1.744130
 20
-5.270453
  0
SEQEND
  8
0
  0
SOLID
  8
PLAN_1
 10
1.946110
 20
-5.378850
 11
1.917161
 21
-5.378850
 12
1.946110
 22
-5.349224
 13
1.917161
 23
-5.349224
  0
POLYLINE
  8
PLAN_1
  6
CONTINUOUS
 66
     1
 40
0.003000
 41
0.003000
  0
VERTEX
  8
PLAN_1
  6
CONTINUOUS
 10
1.946110
 20
-5.378850
  0
VERTEX
  8
PLAN_1
  6
CONTINUOUS
 10
1.917161
 20
-5.378850
  0
VERTEX
  8
PLAN_1
  6
CONTINUOUS
 10
1.917161
 20
-5.349224
  0
VERTEX
  8
PLAN_1
  6
CONTINUOUS
 10
1.946110
 20
-5.349224
  0
VERTEX
  8
PLAN_1
  6
CONTINUOUS
 10
1.946110
 20
-5.378850
  0
SEQEND
  8
0
  0
POLYLINE
  8
PLAN_1
  6
CONTINUOUS
 66
     1
 40
0.003000
 41
0.003000
  0
VERTEX
  8
PLAN_1
  6
CONTINUOUS
 10
2.141358
 20
-5.378850
  0
VERTEX
  8
PLAN_1
  6
CONTINUOUS
 10
1.994587
 20
-5.378850
  0
VERTEX
  8
PLAN_1
  6
CONTINUOUS
 10
1.994587
 20
-5.179563
  0
VERTEX
  8
PLAN_1
  6
CONTINUOUS
 10
2.139339
 20
-5.179563
  0
VERTEX
  8
PLAN_1
  6
CONTINUOUS
 10
2.139339
 20
-5.203799
  0
VERTEX
  8
PLAN_1
  6
CONTINUOUS
 10
2.021516
 20
-5.203799
  0
VERTEX
  8
PLAN_1
  6
CONTINUOUS
 10
2.021516
 20
-5.264394
  0
VERTEX
  8
PLAN_1
  6
CONTINUOUS
 10
2.130587
 20
-5.264394
  0
VERTEX
  8
PLAN_1
  6
CONTINUOUS
 10
2.130587
 20
-5.288630
  0
VERTEX
  8
PLAN_1
  6
CONTINUOUS
 10
2.021516
 20
-5.288630
  0
VERTEX
  8
PLAN_1
  6
CONTINUOUS
 10
2.021516
 20
-5.355283
  0
VERTEX
  8
PLAN_1
  6
CONTINUOUS
 10
2.141358
 20
-5.355283
  0
VERTEX
  8
PLAN_1
  6
CONTINUOUS
 10
2.141358
 20
-5.378850
  0
SEQEND
  8
0
  0
POLYLINE
  8
PLAN_1
  6
CONTINUOUS
 66
     1
 40
0.003000
 41
0.003000
  0
VERTEX
  8
PLAN_1
  6
CONTINUOUS
 10
2.206665
 20
-5.378850
  0
VERTEX
  8
PLAN_1
  6
CONTINUOUS
 10
2.179732
 20
-5.378850
  0
VERTEX
  8
PLAN_1
  6
CONTINUOUS
 10
2.179732
 20
-5.179563
  0
VERTEX
  8
PLAN_1
  6
CONTINUOUS
 10
2.269280
 20
-5.179563
  0
VERTEX
  8
PLAN_1
  6
CONTINUOUS
 10
2.276012
 20
-5.180236
  0
VERTEX
  8
PLAN_1
  6
CONTINUOUS
 10
2.282071
 20
-5.180909
  0
VERTEX
  8
PLAN_1
  6
CONTINUOUS
 10
2.288130
 20
-5.182256
  0
VERTEX
  8
PLAN_1
  6
CONTINUOUS
 10
2.294189
 20
-5.183602
  0
VERTEX
  8
PLAN_1
  6
CONTINUOUS
 10
2.299575
 20
-5.186295
  0
VERTEX
  8
PLAN_1
  6
CONTINUOUS
 10
2.304287
 20
-5.188988
  0
VERTEX
  8
PLAN_1
  6
CONTINUOUS
 10
2.308327
 20
-5.192354
  0
VERTEX
  8
PLAN_1
  6
CONTINUOUS
 10
2.312366
 20
-5.195720
  0
VERTEX
  8
PLAN_1
  6
CONTINUOUS
 10
2.316406
 20
-5.199760
  0
VERTEX
  8
PLAN_1
  6
CONTINUOUS
 10
2.319098
 20
-5.203799
  0
VERTEX
  8
PLAN_1
  6
CONTINUOUS
 10
2.321791
 20
-5.208512
  0
VERTEX
  8
PLAN_1
  6
CONTINUOUS
 10
2.324484
 20
-5.213224
  0
VERTEX
  8
PLAN_1
  6
CONTINUOUS
 10
2.325831
 20
-5.218610
  0
VERTEX
  8
PLAN_1
  6
CONTINUOUS
 10
2.327177
 20
-5.223996
  0
VERTEX
  8
PLAN_1
  6
CONTINUOUS
 10
2.327850
 20
-5.230059
  0
VERTEX
  8
PLAN_1
  6
CONTINUOUS
 10
2.328524
 20
-5.235445
  0
VERTEX
  8
PLAN_1
  6
CONTINUOUS
 10
2.327850
 20
-5.240831
  0
VERTEX
  8
PLAN_1
  6
CONTINUOUS
 10
2.327850
 20
-5.246217
  0
VERTEX
  8
PLAN_1
  6
CONTINUOUS
 10
2.326504
 20
-5.251602
  0
VERTEX
  8
PLAN_1
  6
CONTINUOUS
 10
2.325157
 20
-5.256988
  0
VERTEX
  8
PLAN_1
  6
CONTINUOUS
 10
2.323138
 20
-5.261701
  0
VERTEX
  8
PLAN_1
  6
CONTINUOUS
 10
2.321118
 20
-5.266413
  0
VERTEX
  8
PLAN_1
  6
CONTINUOUS
 10
2.318425
 20
-5.271126
  0
VERTEX
  8
PLAN_1
  6
CONTINUOUS
 10
2.315059
 20
-5.275839
  0
VERTEX
  8
PLAN_1
  6
CONTINUOUS
 10
2.311020
 20
-5.279878
  0
VERTEX
  8
PLAN_1
  6
CONTINUOUS
 10
2.306980
 20
-5.283244
  0
VERTEX
  8
PLAN_1
  6
CONTINUOUS
 10
2.302268
 20
-5.286610
  0
VERTEX
  8
PLAN_1
  6
CONTINUOUS
 10
2.296882
 20
-5.289303
  0
VERTEX
  8
PLAN_1
  6
CONTINUOUS
 10
2.290823
 20
-5.291996
  0
VERTEX
  8
PLAN_1
  6
CONTINUOUS
 10
2.284091
 20
-5.293343
  0
VERTEX
  8
PLAN_1
  6
CONTINUOUS
 10
2.276685
 20
-5.294689
  0
VERTEX
  8
PLAN_1
  6
CONTINUOUS
 10
2.269280
 20
-5.294689
  0
VERTEX
  8
PLAN_1
  6
CONTINUOUS
 10
2.206665
 20
-5.294689
  0
VERTEX
  8
PLAN_1
  6
CONTINUOUS
 10
2.206665
 20
-5.378850
  0
SEQEND
  8
0
  0
POLYLINE
  8
PLAN_1
  6
CONTINUOUS
 66
     1
 40
0.003000
 41
0.003000
  0
VERTEX
  8
PLAN_1
  6
CONTINUOUS
 10
2.206665
 20
-5.271799
  0
VERTEX
  8
PLAN_1
  6
CONTINUOUS
 10
2.259854
 20
-5.271799
  0
VERTEX
  8
PLAN_1
  6
CONTINUOUS
 10
2.268606
 20
-5.271126
  0
VERTEX
  8
PLAN_1
  6
CONTINUOUS
 10
2.276685
 20
-5.269780
  0
VERTEX
  8
PLAN_1
  6
CONTINUOUS
 10
2.280051
 20
-5.269106
  0
VERTEX
  8
PLAN_1
  6
CONTINUOUS
 10
2.283417
 20
-5.267760
  0
VERTEX
  8
PLAN_1
  6
CONTINUOUS
 10
2.286783
 20
-5.265740
  0
VERTEX
  8
PLAN_1
  6
CONTINUOUS
 10
2.289476
 20
-5.263720
  0
VERTEX
  8
PLAN_1
  6
CONTINUOUS
 10
2.292169
 20
-5.261701
  0
VERTEX
  8
PLAN_1
  6
CONTINUOUS
 10
2.294189
 20
-5.259008
  0
VERTEX
  8
PLAN_1
  6
CONTINUOUS
 10
2.296209
 20
-5.256315
  0
VERTEX
  8
PLAN_1
  6
CONTINUOUS
 10
2.297555
 20
-5.252949
  0
VERTEX
  8
PLAN_1
  6
CONTINUOUS
 10
2.298902
 20
-5.249583
  0
VERTEX
  8
PLAN_1
  6
CONTINUOUS
 10
2.299575
 20
-5.245543
  0
VERTEX
  8
PLAN_1
  6
CONTINUOUS
 10
2.300248
 20
-5.240831
  0
VERTEX
  8
PLAN_1
  6
CONTINUOUS
 10
2.300248
 20
-5.236118
  0
VERTEX
  8
PLAN_1
  6
CONTINUOUS
 10
2.300248
 20
-5.231406
  0
VERTEX
  8
PLAN_1
  6
CONTINUOUS
 10
2.299575
 20
-5.227366
  0
VERTEX
  8
PLAN_1
  6
CONTINUOUS
 10
2.298902
 20
-5.223323
  0
VERTEX
  8
PLAN_1
  6
CONTINUOUS
 10
2.297555
 20
-5.219957
  0
VERTEX
  8
PLAN_1
  6
CONTINUOUS
 10
2.296209
 20
-5.217264
  0
VERTEX
  8
PLAN_1
  6
CONTINUOUS
 10
2.294189
 20
-5.214571
  0
VERTEX
  8
PLAN_1
  6
CONTINUOUS
 10
2.291496
 20
-5.211878
  0
VERTEX
  8
PLAN_1
  6
CONTINUOUS
 10
2.289476
 20
-5.209858
  0
VERTEX
  8
PLAN_1
  6
CONTINUOUS
 10
2.283417
 20
-5.206492
  0
VERTEX
  8
PLAN_1
  6
CONTINUOUS
 10
2.276685
 20
-5.204472
  0
VERTEX
  8
PLAN_1
  6
CONTINUOUS
 10
2.269280
 20
-5.203126
  0
VERTEX
  8
PLAN_1
  6
CONTINUOUS
 10
2.261201
 20
-5.202453
  0
VERTEX
  8
PLAN_1
  6
CONTINUOUS
 10
2.206665
 20
-5.202453
  0
VERTEX
  8
PLAN_1
  6
CONTINUOUS
 10
2.206665
 20
-5.271799
  0
SEQEND
  8
0
  0
POLYLINE
  8
PLAN_1
  6
CONTINUOUS
 66
     1
 40
0.003000
 41
0.003000
  0
VERTEX
  8
PLAN_1
  6
CONTINUOUS
 10
2.482031
 20
-5.238138
  0
VERTEX
  8
PLAN_1
  6
CONTINUOUS
 10
2.481358
 20
-5.232752
  0
VERTEX
  8
PLAN_1
  6
CONTINUOUS
 10
2.480685
 20
-5.227366
  0
VERTEX
  8
PLAN_1
  6
CONTINUOUS
 10
2.479339
 20
-5.222650
  0
VERTEX
  8
PLAN_1
  6
CONTINUOUS
 10
2.477319
 20
-5.218610
  0
VERTEX
  8
PLAN_1
  6
CONTINUOUS
 10
2.474622
 20
-5.215244
  0
VERTEX
  8
PLAN_1
  6
CONTINUOUS
 10
2.471929
 20
-5.211878
  0
VERTEX
  8
PLAN_1
  6
CONTINUOUS
 10
2.468563
 20
-5.208512
  0
VERTEX
  8
PLAN_1
  6
CONTINUOUS
 10
2.465197
 20
-5.206492
  0
VERTEX
  8
PLAN_1
  6
CONTINUOUS
 10
2.461831
 20
-5.203799
  0
VERTEX
  8
PLAN_1
  6
CONTINUOUS
 10
2.457791
 20
-5.202453
  0
VERTEX
  8
PLAN_1
  6
CONTINUOUS
 10
2.453752
 20
-5.200433
  0
VERTEX
  8
PLAN_1
  6
CONTINUOUS
 10
2.449713
 20
-5.199760
  0
VERTEX
  8
PLAN_1
  6
CONTINUOUS
 10
2.441634
 20
-5.197740
  0
VERTEX
  8
PLAN_1
  6
CONTINUOUS
 10
2.432882
 20
-5.197740
  0
VERTEX
  8
PLAN_1
  6
CONTINUOUS
 10
2.426150
 20
-5.197740
  0
VERTEX
  8
PLAN_1
  6
CONTINUOUS
 10
2.418744
 20
-5.198413
  0
VERTEX
  8
PLAN_1
  6
CONTINUOUS
 10
2.410665
 20
-5.200433
  0
VERTEX
  8
PLAN_1
  6
CONTINUOUS
 10
2.403933
 20
-5.203799
  0
VERTEX
  8
PLAN_1
  6
CONTINUOUS
 10
2.400563
 20
-5.205819
  0
VERTEX
  8
PLAN_1
  6
CONTINUOUS
 10
2.397197
 20
-5.207839
  0
VERTEX
  8
PLAN_1
  6
CONTINUOUS
 10
2.394504
 20
-5.211205
  0
VERTEX
  8
PLAN_1
  6
CONTINUOUS
 10
2.391811
 20
-5.213898
  0
VERTEX
  8
PLAN_1
  6
CONTINUOUS
 10
2.389791
 20
-5.217937
  0
VERTEX
  8
PLAN_1
  6
CONTINUOUS
 10
2.388445
 20
-5.221976
  0
VERTEX
  8
PLAN_1
  6
CONTINUOUS
 10
2.387772
 20
-5.227366
  0
VERTEX
  8
PLAN_1
  6
CONTINUOUS
 10
2.387098
 20
-5.232752
  0
VERTEX
  8
PLAN_1
  6
CONTINUOUS
 10
2.387772
 20
-5.238138
  0
VERTEX
  8
PLAN_1
  6
CONTINUOUS
 10
2.389118
 20
-5.242850
  0
VERTEX
  8
PLAN_1
  6
CONTINUOUS
 10
2.391811
 20
-5.246890
  0
VERTEX
  8
PLAN_1
  6
CONTINUOUS
 10
2.394504
 20
-5.250256
  0
VERTEX
  8
PLAN_1
  6
CONTINUOUS
 10
2.398543
 20
-5.252949
  0
VERTEX
  8
PLAN_1
  6
CONTINUOUS
 10
2.402583
 20
-5.254969
  0
VERTEX
  8
PLAN_1
  6
CONTINUOUS
 10
2.406626
 20
-5.256315
  0
VERTEX
  8
PLAN_1
  6
CONTINUOUS
 10
2.410665
 20
-5.257661
  0
VERTEX
  8
PLAN_1
  6
CONTINUOUS
 10
2.467890
 20
-5.270453
  0
VERTEX
  8
PLAN_1
  6
CONTINUOUS
 10
2.477319
 20
-5.273146
  0
VERTEX
  8
PLAN_1
  6
CONTINUOUS
 10
2.485398
 20
-5.277185
  0
VERTEX
  8
PLAN_1
  6
CONTINUOUS
 10
2.489437
 20
-5.279205
  0
VERTEX
  8
PLAN_1
  6
CONTINUOUS
 10
2.493476
 20
-5.281898
  0
VERTEX
  8
PLAN_1
  6
CONTINUOUS
 10
2.496843
 20
-5.284591
  0
VERTEX
  8
PLAN_1
  6
CONTINUOUS
 10
2.500209
 20
-5.287957
  0
VERTEX
  8
PLAN_1
  6
CONTINUOUS
 10
2.502902
 20
-5.291323
  0
VERTEX
  8
PLAN_1
  6
CONTINUOUS
 10
2.505594
 20
-5.294689
  0
VERTEX
  8
PLAN_1
  6
CONTINUOUS
 10
2.507614
 20
-5.298728
  0
VERTEX
  8
PLAN_1
  6
CONTINUOUS
 10
2.509634
 20
-5.303445
  0
VERTEX
  8
PLAN_1
  6
CONTINUOUS
 10
2.510980
 20
-5.308157
  0
VERTEX
  8
PLAN_1
  6
CONTINUOUS
 10
2.512327
 20
-5.312870
  0
VERTEX
  8
PLAN_1
  6
CONTINUOUS
 10
2.513000
 20
-5.318256
  0
VERTEX
  8
PLAN_1
  6
CONTINUOUS
 10
2.513000
 20
-5.324315
  0
VERTEX
  8
PLAN_1
  6
CONTINUOUS
 10
2.512327
 20
-5.332394
  0
VERTEX
  8
PLAN_1
  6
CONTINUOUS
 10
2.510980
 20
-5.340472
  0
VERTEX
  8
PLAN_1
  6
CONTINUOUS
 10
2.508961
 20
-5.347205
  0
VERTEX
  8
PLAN_1
  6
CONTINUOUS
 10
2.505594
 20
-5.353264
  0
VERTEX
  8
PLAN_1
  6
CONTINUOUS
 10
2.501555
 20
-5.358650
  0
VERTEX
  8
PLAN_1
  6
CONTINUOUS
 10
2.497516
 20
-5.364035
  0
VERTEX
  8
PLAN_1
  6
CONTINUOUS
 10
2.492130
 20
-5.368075
  0
VERTEX
  8
PLAN_1
  6
CONTINUOUS
 10
2.486744
 20
-5.372114
  0
VERTEX
  8
PLAN_1
  6
CONTINUOUS
 10
2.480685
 20
-5.374811
  0
VERTEX
  8
PLAN_1
  6
CONTINUOUS
 10
2.474622
 20
-5.377504
  0
VERTEX
  8
PLAN_1
  6
CONTINUOUS
 10
2.467890
 20
-5.379524
  0
VERTEX
  8
PLAN_1
  6
CONTINUOUS
 10
2.461831
 20
-5.381543
  0
VERTEX
  8
PLAN_1
  6
CONTINUOUS
 10
2.455098
 20
-5.382890
  0
VERTEX
  8
PLAN_1
  6
CONTINUOUS
 10
2.448366
 20
-5.383563
  0
VERTEX
  8
PLAN_1
  6
CONTINUOUS
 10
2.441634
 20
-5.384236
  0
VERTEX
  8
PLAN_1
  6
CONTINUOUS
 10
2.434902
 20
-5.384236
  0
VERTEX
  8
PLAN_1
  6
CONTINUOUS
 10
2.422110
 20
-5.383563
  0
VERTEX
  8
PLAN_1
  6
CONTINUOUS
 10
2.411339
 20
-5.382217
  0
VERTEX
  8
PLAN_1
  6
CONTINUOUS
 10
2.401909
 20
-5.380197
  0
VERTEX
  8
PLAN_1
  6
CONTINUOUS
 10
2.394504
 20
-5.377504
  0
VERTEX
  8
PLAN_1
  6
CONTINUOUS
 10
2.387772
 20
-5.374811
  0
VERTEX
  8
PLAN_1
  6
CONTINUOUS
 10
2.383059
 20
-5.371441
  0
VERTEX
  8
PLAN_1
  6
CONTINUOUS
 10
2.378346
 20
-5.368075
  0
VERTEX
  8
PLAN_1
  6
CONTINUOUS
 10
2.374980
 20
-5.365382
  0
VERTEX
  8
PLAN_1
  6
CONTINUOUS
 10
2.368921
 20
-5.359323
  0
VERTEX
  8
PLAN_1
  6
CONTINUOUS
 10
2.364209
 20
-5.353264
  0
VERTEX
  8
PLAN_1
  6
CONTINUOUS
 10
2.360843
 20
-5.347205
  0
VERTEX
  8
PLAN_1
  6
CONTINUOUS
 10
2.358150
 20
-5.341146
  0
VERTEX
  8
PLAN_1
  6
CONTINUOUS
 10
2.356803
 20
-5.334413
  0
VERTEX
  8
PLAN_1
  6
CONTINUOUS
 10
2.355457
 20
-5.328354
  0
VERTEX
  8
PLAN_1
  6
CONTINUOUS
 10
2.354783
 20
-5.321622
  0
VERTEX
  8
PLAN_1
  6
CONTINUOUS
 10
2.354783
 20
-5.314890
  0
VERTEX
  8
PLAN_1
  6
CONTINUOUS
 10
2.379693
 20
-5.314890
  0
VERTEX
  8
PLAN_1
  6
CONTINUOUS
 10
2.380366
 20
-5.320949
  0
VERTEX
  8
PLAN_1
  6
CONTINUOUS
 10
2.381039
 20
-5.327008
  0
VERTEX
  8
PLAN_1
  6
CONTINUOUS
 10
2.382386
 20
-5.332394
  0
VERTEX
  8
PLAN_1
  6
CONTINUOUS
 10
2.385079
 20
-5.337106
  0
VERTEX
  8
PLAN_1
  6
CONTINUOUS
 10
2.387098
 20
-5.341146
  0
VERTEX
  8
PLAN_1
  6
CONTINUOUS
 10
2.390465
 20
-5.345185
  0
VERTEX
  8
PLAN_1
  6
CONTINUOUS
 10
2.393831
 20
-5.348551
  0
VERTEX
  8
PLAN_1
  6
CONTINUOUS
 10
2.397870
 20
-5.351244
  0
VERTEX
  8
PLAN_1
  6
CONTINUOUS
 10
2.401909
 20
-5.353937
  0
VERTEX
  8
PLAN_1
  6
CONTINUOUS
 10
2.405953
 20
-5.355957
  0
VERTEX
  8
PLAN_1
  6
CONTINUOUS
 10
2.410665
 20
-5.357976
  0
VERTEX
  8
PLAN_1
  6
CONTINUOUS
 10
2.415378
 20
-5.358650
  0
VERTEX
  8
PLAN_1
  6
CONTINUOUS
 10
2.424803
 20
-5.360669
  0
VERTEX
  8
PLAN_1
  6
CONTINUOUS
 10
2.434902
 20
-5.361343
  0
VERTEX
  8
PLAN_1
  6
CONTINUOUS
 10
2.442307
 20
-5.360669
  0
VERTEX
  8
PLAN_1
  6
CONTINUOUS
 10
2.451059
 20
-5.359996
  0
VERTEX
  8
PLAN_1
  6
CONTINUOUS
 10
2.459811
 20
-5.357976
  0
VERTEX
  8
PLAN_1
  6
CONTINUOUS
 10
2.467890
 20
-5.355283
  0
VERTEX
  8
PLAN_1
  6
CONTINUOUS
 10
2.471929
 20
-5.353264
  0
VERTEX
  8
PLAN_1
  6
CONTINUOUS
 10
2.475295
 20
-5.350571
  0
VERTEX
  8
PLAN_1
  6
CONTINUOUS
 10
2.478665
 20
-5.347878
  0
VERTEX
  8
PLAN_1
  6
CONTINUOUS
 10
2.481358
 20
-5.345185
  0
VERTEX
  8
PLAN_1
  6
CONTINUOUS
 10
2.484051
 20
-5.341146
  0
VERTEX
  8
PLAN_1
  6
CONTINUOUS
 10
2.485398
 20
-5.337106
  0
VERTEX
  8
PLAN_1
  6
CONTINUOUS
 10
2.486744
 20
-5.332394
  0
VERTEX
  8
PLAN_1
  6
CONTINUOUS
 10
2.486744
 20
-5.327681
  0
VERTEX
  8
PLAN_1
  6
CONTINUOUS
 10
2.486744
 20
-5.320276
  0
VERTEX
  8
PLAN_1
  6
CONTINUOUS
 10
2.484724
 20
-5.314217
  0
VERTEX
  8
PLAN_1
  6
CONTINUOUS
 10
2.483378
 20
-5.311524
  0
VERTEX
  8
PLAN_1
  6
CONTINUOUS
 10
2.482031
 20
-5.309504
  0
VERTEX
  8
PLAN_1
  6
CONTINUOUS
 10
2.480012
 20
-5.307484
  0
VERTEX
  8
PLAN_1
  6
CONTINUOUS
 10
2.477992
 20
-5.304791
  0
VERTEX
  8
PLAN_1
  6
CONTINUOUS
 10
2.472602
 20
-5.301425
  0
VERTEX
  8
PLAN_1
  6
CONTINUOUS
 10
2.465197
 20
-5.298055
  0
VERTEX
  8
PLAN_1
  6
CONTINUOUS
 10
2.455772
 20
-5.295362
  0
VERTEX
  8
PLAN_1
  6
CONTINUOUS
 10
2.444327
 20
-5.292669
  0
VERTEX
  8
PLAN_1
  6
CONTINUOUS
 10
2.403933
 20
-5.283244
  0
VERTEX
  8
PLAN_1
  6
CONTINUOUS
 10
2.397870
 20
-5.281224
  0
VERTEX
  8
PLAN_1
  6
CONTINUOUS
 10
2.391811
 20
-5.279205
  0
VERTEX
  8
PLAN_1
  6
CONTINUOUS
 10
2.384406
 20
-5.275839
  0
VERTEX
  8
PLAN_1
  6
CONTINUOUS
 10
2.377673
 20
-5.271126
  0
VERTEX
  8
PLAN_1
  6
CONTINUOUS
 10
2.374307
 20
-5.268433
  0
VERTEX
  8
PLAN_1
  6
CONTINUOUS
 10
2.370941
 20
-5.265067
  0
VERTEX
  8
PLAN_1
  6
CONTINUOUS
 10
2.368248
 20
-5.261701
  0
VERTEX
  8
PLAN_1
  6
CONTINUOUS
 10
2.366228
 20
-5.257661
  0
VERTEX
  8
PLAN_1
  6
CONTINUOUS
 10
2.364209
 20
-5.252949
  0
VERTEX
  8
PLAN_1
  6
CONTINUOUS
 10
2.362189
 20
-5.247563
  0
VERTEX
  8
PLAN_1
  6
CONTINUOUS
 10
2.361516
 20
-5.242177
  0
VERTEX
  8
PLAN_1
  6
CONTINUOUS
 10
2.361516
 20
-5.236118
  0
VERTEX
  8
PLAN_1
  6
CONTINUOUS
 10
2.361516
 20
-5.230059
  0
VERTEX
  8
PLAN_1
  6
CONTINUOUS
 10
2.362189
 20
-5.224669
  0
VERTEX
  8
PLAN_1
  6
CONTINUOUS
 10
2.363535
 20
-5.218610
  0
VERTEX
  8
PLAN_1
  6
CONTINUOUS
 10
2.364882
 20
-5.213224
  0
VERTEX
  8
PLAN_1
  6
CONTINUOUS
 10
2.367575
 20
-5.207839
  0
VERTEX
  8
PLAN_1
  6
CONTINUOUS
 10
2.370268
 20
-5.203126
  0
VERTEX
  8
PLAN_1
  6
CONTINUOUS
 10
2.373634
 20
-5.197740
  0
VERTEX
  8
PLAN_1
  6
CONTINUOUS
 10
2.377673
 20
-5.193701
  0
VERTEX
  8
PLAN_1
  6
CONTINUOUS
 10
2.381713
 20
-5.189661
  0
VERTEX
  8
PLAN_1
  6
CONTINUOUS
 10
2.387098
 20
-5.185622
  0
VERTEX
  8
PLAN_1
  6
CONTINUOUS
 10
2.392484
 20
-5.182256
  0
VERTEX
  8
PLAN_1
  6
CONTINUOUS
 10
2.398543
 20
-5.179563
  0
VERTEX
  8
PLAN_1
  6
CONTINUOUS
 10
2.405280
 20
-5.177543
  0
VERTEX
  8
PLAN_1
  6
CONTINUOUS
 10
2.412685
 20
-5.175524
  0
VERTEX
  8
PLAN_1
  6
CONTINUOUS
 10
2.420764
 20
-5.174850
  0
VERTEX
  8
PLAN_1
  6
CONTINUOUS
 10
2.429516
 20
-5.174177
  0
VERTEX
  8
PLAN_1
  6
CONTINUOUS
 10
2.442307
 20
-5.174850
  0
VERTEX
  8
PLAN_1
  6
CONTINUOUS
 10
2.453079
 20
-5.176197
  0
VERTEX
  8
PLAN_1
  6
CONTINUOUS
 10
2.462504
 20
-5.178217
  0
VERTEX
  8
PLAN_1
  6
CONTINUOUS
 10
2.471256
 20
-5.181583
  0
VERTEX
  8
PLAN_1
  6
CONTINUOUS
 10
2.478665
 20
-5.184949
  0
VERTEX
  8
PLAN_1
  6
CONTINUOUS
 10
2.484724
 20
-5.188988
  0
VERTEX
  8
PLAN_1
  6
CONTINUOUS
 10
2.490110
 20
-5.193028
  0
VERTEX
  8
PLAN_1
  6
CONTINUOUS
 10
2.494150
 20
-5.197740
  0
VERTEX
  8
PLAN_1
  6
CONTINUOUS
 10
2.498189
 20
-5.203126
  0
VERTEX
  8
PLAN_1
  6
CONTINUOUS
 10
2.500882
 20
-5.208512
  0
VERTEX
  8
PLAN_1
  6
CONTINUOUS
 10
2.502902
 20
-5.213224
  0
VERTEX
  8
PLAN_1
  6
CONTINUOUS
 10
2.504921
 20
-5.218610
  0
VERTEX
  8
PLAN_1
  6
CONTINUOUS
 10
2.506941
 20
-5.228713
  0
VERTEX
  8
PLAN_1
  6
CONTINUOUS
 10
2.507614
 20
-5.238138
  0
VERTEX
  8
PLAN_1
  6
CONTINUOUS
 10
2.482031
 20
-5.238138
  0
SEQEND
  8
0
  0
POLYLINE
  8
PLAN_1
  6
CONTINUOUS
 66
     1
 40
0.008079
 41
0.008079
  0
VERTEX
  8
PLAN_1
  6
CONTINUOUS
 10
-1.062035
 20
-1.046390
  0
VERTEX
  8
PLAN_1
  6
CONTINUOUS
 10
-1.062035
 20
-0.819500
  0
VERTEX
  8
PLAN_1
  6
CONTINUOUS
 10
-0.850630
 20
-0.819500
  0
VERTEX
  8
PLAN_1
  6
CONTINUOUS
 10
-0.850630
 20
-1.046390
  0
SEQEND
  8
0
  0
POLYLINE
  8
PLAN_1
  6
CONTINUOUS
 66
     1
 40
0.008079
 41
0.008079
  0
VERTEX
  8
PLAN_1
  6
CONTINUOUS
 10
-0.859382
 20
-4.583051
  0
VERTEX
  8
PLAN_1
  6
CONTINUOUS
 10
0.819740
 20
-4.583051
  0
VERTEX
  8
PLAN_1
  6
CONTINUOUS
 10
1.021720
 20
-4.380398
  0
VERTEX
  8
PLAN_1
  6
CONTINUOUS
 10
1.021720
 20
-1.021480
  0
VERTEX
  8
PLAN_1
  6
CONTINUOUS
 10
0.819740
 20
-0.819500
  0
VERTEX
  8
PLAN_1
  6
CONTINUOUS
 10
-0.863421
 20
-0.819500
  0
VERTEX
  8
PLAN_1
  6
CONTINUOUS
 10
-1.061362
 20
-1.018114
  0
VERTEX
  8
PLAN_1
  6
CONTINUOUS
 10
-1.061362
 20
-4.379724
  0
VERTEX
  8
PLAN_1
  6
CONTINUOUS
 10
-0.859382
 20
-4.583051
  0
SEQEND
  8
0
  0
POLYLINE
  8
PLAN_1
  6
CONTINUOUS
 66
     1
 40
0.008079
 41
0.008079
  0
VERTEX
  8
PLAN_1
  6
CONTINUOUS
 10
-1.719142
 20
1.044768
  0
VERTEX
  8
PLAN_1
  6
CONTINUOUS
 10
-1.719142
 20
1.965795
  0
VERTEX
  8
PLAN_1
  6
CONTINUOUS
 10
-1.440409
 20
1.965795
  0
VERTEX
  8
PLAN_1
  6
CONTINUOUS
 10
-1.440409
 20
1.205008
  0
SEQEND
  8
0
  0
POLYLINE
  8
PLAN_1
  6
CONTINUOUS
 66
     1
 40
0.008079
 41
0.008079
  0
VERTEX
  8
PLAN_1
  6
CONTINUOUS
 10
-0.999421
 20
1.966469
  0
VERTEX
  8
PLAN_1
  6
CONTINUOUS
 10
-0.999421
 20
5.134181
  0
VERTEX
  8
PLAN_1
  6
CONTINUOUS
 10
-2.108287
 20
5.134181
  0
VERTEX
  8
PLAN_1
  6
CONTINUOUS
 10
-2.108287
 20
1.966469
  0
VERTEX
  8
PLAN_1
  6
CONTINUOUS
 10
-0.999421
 20
1.966469
  0
SEQEND
  8
0
  0
POLYLINE
  8
PLAN_1
  6
CONTINUOUS
 66
     1
 40
0.008079
 41
0.008079
  0
VERTEX
  8
PLAN_1
  6
CONTINUOUS
 10
0.561205
 20
-1.609240
  0
VERTEX
  8
PLAN_1
  6
CONTINUOUS
 10
0.561205
 20
-0.820173
  0
SEQEND
  8
0
  0
POLYLINE
  8
PLAN_1
  6
CONTINUOUS
 66
     1
 40
0.008079
 41
0.008079
  0
VERTEX
  8
PLAN_1
  6
CONTINUOUS
 10
-0.597484
 20
-0.820173
  0
VERTEX
  8
PLAN_1
  6
CONTINUOUS
 10
-0.597484
 20
-1.609240
  0
SEQEND
  8
0
  0
POLYLINE
  8
PLAN_1
  6
CONTINUOUS
 66
     1
 40
0.008079
 41
0.008079
  0
VERTEX
  8
PLAN_1
  6
CONTINUOUS
 10
-0.597484
 20
-3.786579
  0
VERTEX
  8
PLAN_1
  6
CONTINUOUS
 10
-0.597484
 20
-4.581705
  0
SEQEND
  8
0
  0
POLYLINE
  8
PLAN_1
  6
CONTINUOUS
 66
     1
 40
0.008079
 41
0.008079
  0
VERTEX
  8
PLAN_1
  6
CONTINUOUS
 10
0.561205
 20
-4.581705
  0
VERTEX
  8
PLAN_1
  6
CONTINUOUS
 10
0.561205
 20
-3.786579
  0
SEQEND
  8
0
  0
POLYLINE
  8
PLAN_1
  6
CONTINUOUS
 66
     1
 40
0.008079
 41
0.008079
  0
VERTEX
  8
PLAN_1
  6
CONTINUOUS
 10
-0.772531
 20
-0.820173
  0
VERTEX
  8
PLAN_1
  6
CONTINUOUS
 10
-0.772531
 20
-4.581705
  0
SEQEND
  8
0
  0
POLYLINE
  8
PLAN_1
  6
CONTINUOUS
 66
     1
 40
0.008079
 41
0.008079
  0
VERTEX
  8
PLAN_1
  6
CONTINUOUS
 10
-0.675583
 20
-4.581705
  0
VERTEX
  8
PLAN_1
  6
CONTINUOUS
 10
-0.675583
 20
-0.820173
  0
SEQEND
  8
0
  0
POLYLINE
  8
PLAN_1
  6
CONTINUOUS
 66
     1
 40
0.008079
 41
0.008079
  0
VERTEX
  8
PLAN_1
  6
CONTINUOUS
 10
0.734909
 20
-4.581031
  0
VERTEX
  8
PLAN_1
  6
CONTINUOUS
 10
0.734909
 20
-0.819500
  0
SEQEND
  8
0
  0
POLYLINE
  8
PLAN_1
  6
CONTINUOUS
 66
     1
 40
0.008079
 41
0.008079
  0
VERTEX
  8
PLAN_1
  6
CONTINUOUS
 10
0.637957
 20
-0.819500
  0
VERTEX
  8
PLAN_1
  6
CONTINUOUS
 10
0.637957
 20
-4.581031
  0
SEQEND
  8
0
  0
POLYLINE
  8
PLAN_1
  6
CONTINUOUS
 66
     1
 40
0.008079
 41
0.008079
  0
VERTEX
  8
PLAN_1
  6
CONTINUOUS
 10
0.812335
 20
-4.584398
  0
VERTEX
  8
PLAN_1
  6
CONTINUOUS
 10
0.812335
 20
-0.826906
  0
SEQEND
  8
0
  0
POLYLINE
  8
PLAN_1
  6
CONTINUOUS
 66
     1
 40
0.008079
 41
0.008079
  0
VERTEX
  8
PLAN_1
  6
CONTINUOUS
 10
-0.850630
 20
-0.820173
  0
VERTEX
  8
PLAN_1
  6
CONTINUOUS
 10
-0.850630
 20
-4.581705
  0
SEQEND
  8
0
  0
POLYLINE
  8
PLAN_1
  6
CONTINUOUS
 66
     1
 40
0.008079
 41
0.008079
  0
VERTEX
  8
PLAN_1
  6
CONTINUOUS
 10
0.825799
 20
-1.944528
  0
VERTEX
  8
PLAN_1
  6
CONTINUOUS
 10
0.977957
 20
-1.953953
  0
SEQEND
  8
0
  0
POLYLINE
  8
PLAN_1
  6
CONTINUOUS
 66
     1
 40
0.008079
 41
0.008079
  0
VERTEX
  8
PLAN_1
  6
CONTINUOUS
 10
0.977957
 20
-1.953953
  0
VERTEX
  8
PLAN_1
  6
CONTINUOUS
 10
0.978630
 20
-1.953953
  0
VERTEX
  8
PLAN_1
  6
CONTINUOUS
 10
0.981996
 20
-1.954626
  0
VERTEX
  8
PLAN_1
  6
CONTINUOUS
 10
0.986709
 20
-1.955972
  0
VERTEX
  8
PLAN_1
  6
CONTINUOUS
 10
0.992094
 20
-1.957992
  0
VERTEX
  8
PLAN_1
  6
CONTINUOUS
 10
0.998827
 20
-1.961358
  0
VERTEX
  8
PLAN_1
  6
CONTINUOUS
 10
1.004886
 20
-1.966744
  0
VERTEX
  8
PLAN_1
  6
CONTINUOUS
 10
1.007579
 20
-1.970110
  0
VERTEX
  8
PLAN_1
  6
CONTINUOUS
 10
1.010945
 20
-1.974150
  0
VERTEX
  8
PLAN_1
  6
CONTINUOUS
 10
1.013638
 20
-1.978862
  0
VERTEX
  8
PLAN_1
  6
CONTINUOUS
 10
1.015657
 20
-1.983575
  0
SEQEND
  8
0
  0
POLYLINE
  8
PLAN_1
  6
CONTINUOUS
 66
     1
 40
0.008079
 41
0.008079
  0
VERTEX
  8
PLAN_1
  6
CONTINUOUS
 10
0.832531
 20
-1.295500
  0
VERTEX
  8
PLAN_1
  6
CONTINUOUS
 10
0.832531
 20
-1.296173
  0
VERTEX
  8
PLAN_1
  6
CONTINUOUS
 10
0.833205
 20
-1.298193
  0
VERTEX
  8
PLAN_1
  6
CONTINUOUS
 10
0.834551
 20
-1.302232
  0
VERTEX
  8
PLAN_1
  6
CONTINUOUS
 10
0.836571
 20
-1.306945
  0
VERTEX
  8
PLAN_1
  6
CONTINUOUS
 10
0.840610
 20
-1.313677
  0
VERTEX
  8
PLAN_1
  6
CONTINUOUS
 10
0.846669
 20
-1.321756
  0
VERTEX
  8
PLAN_1
  6
CONTINUOUS
 10
0.855421
 20
-1.331181
  0
VERTEX
  8
PLAN_1
  6
CONTINUOUS
 10
0.866866
 20
-1.342626
  0
VERTEX
  8
PLAN_1
  6
CONTINUOUS
 10
0.883701
 20
-1.357437
  0
VERTEX
  8
PLAN_1
  6
CONTINUOUS
 10
0.903224
 20
-1.374945
  0
VERTEX
  8
PLAN_1
  6
CONTINUOUS
 10
0.924094
 20
-1.393795
  0
VERTEX
  8
PLAN_1
  6
CONTINUOUS
 10
0.944291
 20
-1.411972
  0
VERTEX
  8
PLAN_1
  6
CONTINUOUS
 10
0.962472
 20
-1.428803
  0
VERTEX
  8
PLAN_1
  6
CONTINUOUS
 10
0.978630
 20
-1.442945
  0
VERTEX
  8
PLAN_1
  6
CONTINUOUS
 10
0.990075
 20
-1.453717
  0
VERTEX
  8
PLAN_1
  6
CONTINUOUS
 10
0.996134
 20
-1.459102
  0
VERTEX
  8
PLAN_1
  6
CONTINUOUS
 10
1.000173
 20
-1.465161
  0
VERTEX
  8
PLAN_1
  6
CONTINUOUS
 10
1.003539
 20
-1.471220
  0
VERTEX
  8
PLAN_1
  6
CONTINUOUS
 10
1.006232
 20
-1.477953
  0
VERTEX
  8
PLAN_1
  6
CONTINUOUS
 10
1.008252
 20
-1.484012
  0
VERTEX
  8
PLAN_1
  6
CONTINUOUS
 10
1.009598
 20
-1.490071
  0
VERTEX
  8
PLAN_1
  6
CONTINUOUS
 10
1.010272
 20
-1.494110
  0
VERTEX
  8
PLAN_1
  6
CONTINUOUS
 10
1.010945
 20
-1.497476
  0
VERTEX
  8
PLAN_1
  6
CONTINUOUS
 10
1.010945
 20
-1.498823
  0
SEQEND
  8
0
  0
POLYLINE
  8
PLAN_1
  6
CONTINUOUS
 66
     1
 40
0.008079
 41
0.008079
  0
VERTEX
  8
PLAN_1
  6
CONTINUOUS
 10
0.835898
 20
-4.058575
  0
VERTEX
  8
PLAN_1
  6
CONTINUOUS
 10
0.836571
 20
-4.057902
  0
VERTEX
  8
PLAN_1
  6
CONTINUOUS
 10
0.836571
 20
-4.055209
  0
VERTEX
  8
PLAN_1
  6
CONTINUOUS
 10
0.837917
 20
-4.051843
  0
VERTEX
  8
PLAN_1
  6
CONTINUOUS
 10
0.839937
 20
-4.046457
  0
VERTEX
  8
PLAN_1
  6
CONTINUOUS
 10
0.843976
 20
-4.039724
  0
VERTEX
  8
PLAN_1
  6
CONTINUOUS
 10
0.850035
 20
-4.031646
  0
VERTEX
  8
PLAN_1
  6
CONTINUOUS
 10
0.858787
 20
-4.022220
  0
VERTEX
  8
PLAN_1
  6
CONTINUOUS
 10
0.870232
 20
-4.011449
  0
VERTEX
  8
PLAN_1
  6
CONTINUOUS
 10
0.887067
 20
-3.995965
  0
VERTEX
  8
PLAN_1
  6
CONTINUOUS
 10
0.906591
 20
-3.978457
  0
VERTEX
  8
PLAN_1
  6
CONTINUOUS
 10
0.927461
 20
-3.960280
  0
VERTEX
  8
PLAN_1
  6
CONTINUOUS
 10
0.947661
 20
-3.942102
  0
VERTEX
  8
PLAN_1
  6
CONTINUOUS
 10
0.965839
 20
-3.925272
  0
VERTEX
  8
PLAN_1
  6
CONTINUOUS
 10
0.981996
 20
-3.910457
  0
VERTEX
  8
PLAN_1
  6
CONTINUOUS
 10
0.993441
 20
-3.900358
  0
VERTEX
  8
PLAN_1
  6
CONTINUOUS
 10
0.999500
 20
-3.894299
  0
VERTEX
  8
PLAN_1
  6
CONTINUOUS
 10
1.003539
 20
-3.888913
  0
VERTEX
  8
PLAN_1
  6
CONTINUOUS
 10
1.006906
 20
-3.882181
  0
VERTEX
  8
PLAN_1
  6
CONTINUOUS
 10
1.009598
 20
-3.876122
  0
VERTEX
  8
PLAN_1
  6
CONTINUOUS
 10
1.011618
 20
-3.869390
  0
VERTEX
  8
PLAN_1
  6
CONTINUOUS
 10
1.012965
 20
-3.864004
  0
VERTEX
  8
PLAN_1
  6
CONTINUOUS
 10
1.013638
 20
-3.859291
  0
VERTEX
  8
PLAN_1
  6
CONTINUOUS
 10
1.014311
 20
-3.855925
  0
VERTEX
  8
PLAN_1
  6
CONTINUOUS
 10
1.014311
 20
-3.855252
  0
SEQEND
  8
0
  0
POLYLINE
  8
PLAN_1
  6
CONTINUOUS
 66
     1
 40
0.008079
 41
0.008079
  0
VERTEX
  8
PLAN_1
  6
CONTINUOUS
 10
0.822433
 20
-3.468795
  0
VERTEX
  8
PLAN_1
  6
CONTINUOUS
 10
0.973917
 20
-3.459370
  0
SEQEND
  8
0
  0
POLYLINE
  8
PLAN_1
  6
CONTINUOUS
 66
     1
 40
0.008079
 41
0.008079
  0
VERTEX
  8
PLAN_1
  6
CONTINUOUS
 10
0.973917
 20
-3.459370
  0
VERTEX
  8
PLAN_1
  6
CONTINUOUS
 10
0.975264
 20
-3.458697
  0
VERTEX
  8
PLAN_1
  6
CONTINUOUS
 10
0.978630
 20
-3.458697
  0
VERTEX
  8
PLAN_1
  6
CONTINUOUS
 10
0.983343
 20
-3.457350
  0
VERTEX
  8
PLAN_1
  6
CONTINUOUS
 10
0.988728
 20
-3.455331
  0
VERTEX
  8
PLAN_1
  6
CONTINUOUS
 10
0.994787
 20
-3.451291
  0
VERTEX
  8
PLAN_1
  6
CONTINUOUS
 10
1.001520
 20
-3.445906
  0
VERTEX
  8
PLAN_1
  6
CONTINUOUS
 10
1.004213
 20
-3.442539
  0
VERTEX
  8
PLAN_1
  6
CONTINUOUS
 10
1.006906
 20
-3.439173
  0
VERTEX
  8
PLAN_1
  6
CONTINUOUS
 10
1.009598
 20
-3.434461
  0
VERTEX
  8
PLAN_1
  6
CONTINUOUS
 10
1.012291
 20
-3.429075
  0
SEQEND
  8
0
  0
POLYLINE
  8
PLAN_1
  6
CONTINUOUS
 66
     1
 40
0.008079
 41
0.008079
  0
VERTEX
  8
PLAN_1
  6
CONTINUOUS
 10
-0.929402
 20
-1.492091
  0
VERTEX
  8
PLAN_1
  6
CONTINUOUS
 10
-0.932768
 20
-1.492764
  0
VERTEX
  8
PLAN_1
  6
CONTINUOUS
 10
-0.936134
 20
-1.493437
  0
VERTEX
  8
PLAN_1
  6
CONTINUOUS
 10
-0.939500
 20
-1.495457
  0
VERTEX
  8
PLAN_1
  6
CONTINUOUS
 10
-0.942866
 20
-1.497476
  0
VERTEX
  8
PLAN_1
  6
CONTINUOUS
 10
-0.946906
 20
-1.500169
  0
VERTEX
  8
PLAN_1
  6
CONTINUOUS
 10
-0.950272
 20
-1.503535
  0
VERTEX
  8
PLAN_1
  6
CONTINUOUS
 10
-0.954315
 20
-1.506906
  0
VERTEX
  8
PLAN_1
  6
CONTINUOUS
 10
-0.957681
 20
-1.510945
  0
VERTEX
  8
PLAN_1
  6
CONTINUOUS
 10
-0.965087
 20
-1.521043
  0
VERTEX
  8
PLAN_1
  6
CONTINUOUS
 10
-0.971819
 20
-1.531815
  0
VERTEX
  8
PLAN_1
  6
CONTINUOUS
 10
-0.978551
 20
-1.543933
  0
VERTEX
  8
PLAN_1
  6
CONTINUOUS
 10
-0.985283
 20
-1.556724
  0
VERTEX
  8
PLAN_1
  6
CONTINUOUS
 10
-0.991343
 20
-1.570862
  0
VERTEX
  8
PLAN_1
  6
CONTINUOUS
 10
-0.997402
 20
-1.585004
  0
VERTEX
  8
PLAN_1
  6
CONTINUOUS
 10
-1.002787
 20
-1.599142
  0
VERTEX
  8
PLAN_1
  6
CONTINUOUS
 10
-1.006827
 20
-1.613280
  0
VERTEX
  8
PLAN_1
  6
CONTINUOUS
 10
-1.010866
 20
-1.626744
  0
VERTEX
  8
PLAN_1
  6
CONTINUOUS
 10
-1.014232
 20
-1.639535
  0
VERTEX
  8
PLAN_1
  6
CONTINUOUS
 10
-1.016252
 20
-1.652331
  0
VERTEX
  8
PLAN_1
  6
CONTINUOUS
 10
-1.017598
 20
-1.663102
  0
SEQEND
  8
0
  0
POLYLINE
  8
PLAN_1
  6
CONTINUOUS
 66
     1
 40
0.008079
 41
0.008079
  0
VERTEX
  8
PLAN_1
  6
CONTINUOUS
 10
-1.017598
 20
-1.663102
  0
VERTEX
  8
PLAN_1
  6
CONTINUOUS
 10
-0.937480
 20
-1.663102
  0
VERTEX
  8
PLAN_1
  6
CONTINUOUS
 10
-0.937480
 20
-1.721000
  0
VERTEX
  8
PLAN_1
  6
CONTINUOUS
 10
-1.017598
 20
-1.720327
  0
SEQEND
  8
0
  0
POLYLINE
  8
PLAN_1
  6
CONTINUOUS
 66
     1
 40
0.008079
 41
0.008079
  0
VERTEX
  8
PLAN_1
  6
CONTINUOUS
 10
-1.017598
 20
-1.720327
  0
VERTEX
  8
PLAN_1
  6
CONTINUOUS
 10
-1.016252
 20
-1.731102
  0
VERTEX
  8
PLAN_1
  6
CONTINUOUS
 10
-1.014232
 20
-1.742547
  0
VERTEX
  8
PLAN_1
  6
CONTINUOUS
 10
-1.010866
 20
-1.755339
  0
VERTEX
  8
PLAN_1
  6
CONTINUOUS
 10
-1.006827
 20
-1.768803
  0
VERTEX
  8
PLAN_1
  6
CONTINUOUS
 10
-1.002114
 20
-1.782268
  0
VERTEX
  8
PLAN_1
  6
CONTINUOUS
 10
-0.996728
 20
-1.796406
  0
VERTEX
  8
PLAN_1
  6
CONTINUOUS
 10
-0.990669
 20
-1.810547
  0
VERTEX
  8
PLAN_1
  6
CONTINUOUS
 10
-0.983937
 20
-1.824012
  0
VERTEX
  8
PLAN_1
  6
CONTINUOUS
 10
-0.977205
 20
-1.836803
  0
VERTEX
  8
PLAN_1
  6
CONTINUOUS
 10
-0.970472
 20
-1.848921
  0
VERTEX
  8
PLAN_1
  6
CONTINUOUS
 10
-0.963067
 20
-1.859693
  0
VERTEX
  8
PLAN_1
  6
CONTINUOUS
 10
-0.956335
 20
-1.869118
  0
VERTEX
  8
PLAN_1
  6
CONTINUOUS
 10
-0.948925
 20
-1.877201
  0
VERTEX
  8
PLAN_1
  6
CONTINUOUS
 10
-0.942193
 20
-1.883260
  0
VERTEX
  8
PLAN_1
  6
CONTINUOUS
 10
-0.938827
 20
-1.885280
  0
VERTEX
  8
PLAN_1
  6
CONTINUOUS
 10
-0.935461
 20
-1.886626
  0
VERTEX
  8
PLAN_1
  6
CONTINUOUS
 10
-0.932094
 20
-1.887972
  0
VERTEX
  8
PLAN_1
  6
CONTINUOUS
 10
-0.929402
 20
-1.887972
  0
SEQEND
  8
0
  0
POLYLINE
  8
PLAN_1
  6
CONTINUOUS
 66
     1
 40
0.008079
 41
0.008079
  0
VERTEX
  8
PLAN_1
  6
CONTINUOUS
 10
-0.929402
 20
-1.887972
  0
VERTEX
  8
PLAN_1
  6
CONTINUOUS
 10
-0.852650
 20
-1.887972
  0
VERTEX
  8
PLAN_1
  6
CONTINUOUS
 10
-0.852650
 20
-1.492091
  0
VERTEX
  8
PLAN_1
  6
CONTINUOUS
 10
-0.929402
 20
-1.492091
  0
SEQEND
  8
0
  0
POLYLINE
  8
PLAN_1
  6
CONTINUOUS
 66
     1
 40
0.008079
 41
0.008079
  0
VERTEX
  8
PLAN_1
  6
CONTINUOUS
 10
-0.929402
 20
-3.517272
  0
VERTEX
  8
PLAN_1
  6
CONTINUOUS
 10
-0.932768
 20
-3.517945
  0
VERTEX
  8
PLAN_1
  6
CONTINUOUS
 10
-0.936134
 20
-3.518618
  0
VERTEX
  8
PLAN_1
  6
CONTINUOUS
 10
-0.939500
 20
-3.519965
  0
VERTEX
  8
PLAN_1
  6
CONTINUOUS
 10
-0.942866
 20
-3.522657
  0
VERTEX
  8
PLAN_1
  6
CONTINUOUS
 10
-0.946906
 20
-3.525350
  0
VERTEX
  8
PLAN_1
  6
CONTINUOUS
 10
-0.950272
 20
-3.528717
  0
VERTEX
  8
PLAN_1
  6
CONTINUOUS
 10
-0.954315
 20
-3.532083
  0
VERTEX
  8
PLAN_1
  6
CONTINUOUS
 10
-0.957681
 20
-3.536122
  0
VERTEX
  8
PLAN_1
  6
CONTINUOUS
 10
-0.965087
 20
-3.545547
  0
VERTEX
  8
PLAN_1
  6
CONTINUOUS
 10
-0.971819
 20
-3.556996
  0
VERTEX
  8
PLAN_1
  6
CONTINUOUS
 10
-0.978551
 20
-3.569114
  0
VERTEX
  8
PLAN_1
  6
CONTINUOUS
 10
-0.985283
 20
-3.581906
  0
VERTEX
  8
PLAN_1
  6
CONTINUOUS
 10
-0.991343
 20
-3.596043
  0
VERTEX
  8
PLAN_1
  6
CONTINUOUS
 10
-0.997402
 20
-3.609508
  0
VERTEX
  8
PLAN_1
  6
CONTINUOUS
 10
-1.002787
 20
-3.624323
  0
VERTEX
  8
PLAN_1
  6
CONTINUOUS
 10
-1.006827
 20
-3.638461
  0
VERTEX
  8
PLAN_1
  6
CONTINUOUS
 10
-1.010866
 20
-3.651925
  0
VERTEX
  8
PLAN_1
  6
CONTINUOUS
 10
-1.014232
 20
-3.664717
  0
VERTEX
  8
PLAN_1
  6
CONTINUOUS
 10
-1.016252
 20
-3.676835
  0
VERTEX
  8
PLAN_1
  6
CONTINUOUS
 10
-1.017598
 20
-3.688280
  0
SEQEND
  8
0
  0
POLYLINE
  8
PLAN_1
  6
CONTINUOUS
 66
     1
 40
0.008079
 41
0.008079
  0
VERTEX
  8
PLAN_1
  6
CONTINUOUS
 10
-1.017598
 20
-3.688280
  0
VERTEX
  8
PLAN_1
  6
CONTINUOUS
 10
-0.937480
 20
-3.688280
  0
VERTEX
  8
PLAN_1
  6
CONTINUOUS
 10
-0.937480
 20
-3.745508
  0
VERTEX
  8
PLAN_1
  6
CONTINUOUS
 10
-1.017598
 20
-3.745508
  0
SEQEND
  8
0
  0
POLYLINE
  8
PLAN_1
  6
CONTINUOUS
 66
     1
 40
0.008079
 41
0.008079
  0
VERTEX
  8
PLAN_1
  6
CONTINUOUS
 10
-1.017598
 20
-3.745508
  0
VERTEX
  8
PLAN_1
  6
CONTINUOUS
 10
-1.016252
 20
-3.756280
  0
VERTEX
  8
PLAN_1
  6
CONTINUOUS
 10
-1.014232
 20
-3.767724
  0
VERTEX
  8
PLAN_1
  6
CONTINUOUS
 10
-1.010866
 20
-3.780520
  0
VERTEX
  8
PLAN_1
  6
CONTINUOUS
 10
-1.006827
 20
-3.793984
  0
VERTEX
  8
PLAN_1
  6
CONTINUOUS
 10
-1.002114
 20
-3.807449
  0
VERTEX
  8
PLAN_1
  6
CONTINUOUS
 10
-0.996728
 20
-3.821587
  0
VERTEX
  8
PLAN_1
  6
CONTINUOUS
 10
-0.990669
 20
-3.835724
  0
VERTEX
  8
PLAN_1
  6
CONTINUOUS
 10
-0.983937
 20
-3.849193
  0
VERTEX
  8
PLAN_1
  6
CONTINUOUS
 10
-0.977205
 20
-3.861984
  0
VERTEX
  8
PLAN_1
  6
CONTINUOUS
 10
-0.970472
 20
-3.874102
  0
VERTEX
  8
PLAN_1
  6
CONTINUOUS
 10
-0.963067
 20
-3.884874
  0
VERTEX
  8
PLAN_1
  6
CONTINUOUS
 10
-0.956335
 20
-3.894299
  0
VERTEX
  8
PLAN_1
  6
CONTINUOUS
 10
-0.948925
 20
-3.902378
  0
VERTEX
  8
PLAN_1
  6
CONTINUOUS
 10
-0.942193
 20
-3.908437
  0
VERTEX
  8
PLAN_1
  6
CONTINUOUS
 10
-0.938827
 20
-3.910457
  0
VERTEX
  8
PLAN_1
  6
CONTINUOUS
 10
-0.935461
 20
-3.911803
  0
VERTEX
  8
PLAN_1
  6
CONTINUOUS
 10
-0.932094
 20
-3.913150
  0
VERTEX
  8
PLAN_1
  6
CONTINUOUS
 10
-0.929402
 20
-3.913150
  0
SEQEND
  8
0
  0
POLYLINE
  8
PLAN_1
  6
CONTINUOUS
 66
     1
 40
0.008079
 41
0.008079
  0
VERTEX
  8
PLAN_1
  6
CONTINUOUS
 10
-0.929402
 20
-3.913150
  0
VERTEX
  8
PLAN_1
  6
CONTINUOUS
 10
-0.852650
 20
-3.913150
  0
VERTEX
  8
PLAN_1
  6
CONTINUOUS
 10
-0.852650
 20
-3.517272
  0
VERTEX
  8
PLAN_1
  6
CONTINUOUS
 10
-0.929402
 20
-3.517272
  0
SEQEND
  8
0
  0
POLYLINE
  8
PLAN_1
  6
CONTINUOUS
 66
     1
 40
0.008079
 41
0.008079
  0
VERTEX
  8
PLAN_1
  6
CONTINUOUS
 10
0.892453
 20
-1.492091
  0
VERTEX
  8
PLAN_1
  6
CONTINUOUS
 10
0.895819
 20
-1.492764
  0
VERTEX
  8
PLAN_1
  6
CONTINUOUS
 10
0.899185
 20
-1.493437
  0
VERTEX
  8
PLAN_1
  6
CONTINUOUS
 10
0.902551
 20
-1.495457
  0
VERTEX
  8
PLAN_1
  6
CONTINUOUS
 10
0.906591
 20
-1.497476
  0
VERTEX
  8
PLAN_1
  6
CONTINUOUS
 10
0.909957
 20
-1.500169
  0
VERTEX
  8
PLAN_1
  6
CONTINUOUS
 10
0.913323
 20
-1.503535
  0
VERTEX
  8
PLAN_1
  6
CONTINUOUS
 10
0.917362
 20
-1.506906
  0
VERTEX
  8
PLAN_1
  6
CONTINUOUS
 10
0.920728
 20
-1.510945
  0
VERTEX
  8
PLAN_1
  6
CONTINUOUS
 10
0.928134
 20
-1.521043
  0
VERTEX
  8
PLAN_1
  6
CONTINUOUS
 10
0.934866
 20
-1.531815
  0
VERTEX
  8
PLAN_1
  6
CONTINUOUS
 10
0.942272
 20
-1.543933
  0
VERTEX
  8
PLAN_1
  6
CONTINUOUS
 10
0.948335
 20
-1.556724
  0
VERTEX
  8
PLAN_1
  6
CONTINUOUS
 10
0.955067
 20
-1.570862
  0
VERTEX
  8
PLAN_1
  6
CONTINUOUS
 10
0.960453
 20
-1.585004
  0
VERTEX
  8
PLAN_1
  6
CONTINUOUS
 10
0.965839
 20
-1.599142
  0
VERTEX
  8
PLAN_1
  6
CONTINUOUS
 10
0.970551
 20
-1.613280
  0
VERTEX
  8
PLAN_1
  6
CONTINUOUS
 10
0.973917
 20
-1.626744
  0
VERTEX
  8
PLAN_1
  6
CONTINUOUS
 10
0.977283
 20
-1.639535
  0
VERTEX
  8
PLAN_1
  6
CONTINUOUS
 10
0.979303
 20
-1.652331
  0
VERTEX
  8
PLAN_1
  6
CONTINUOUS
 10
0.980650
 20
-1.663102
  0
SEQEND
  8
0
  0
POLYLINE
  8
PLAN_1
  6
CONTINUOUS
 66
     1
 40
0.008079
 41
0.008079
  0
VERTEX
  8
PLAN_1
  6
CONTINUOUS
 10
0.980650
 20
-1.663102
  0
VERTEX
  8
PLAN_1
  6
CONTINUOUS
 10
0.901205
 20
-1.663102
  0
VERTEX
  8
PLAN_1
  6
CONTINUOUS
 10
0.901205
 20
-1.721000
  0
VERTEX
  8
PLAN_1
  6
CONTINUOUS
 10
0.980650
 20
-1.720327
  0
SEQEND
  8
0
  0
POLYLINE
  8
PLAN_1
  6
CONTINUOUS
 66
     1
 40
0.008079
 41
0.008079
  0
VERTEX
  8
PLAN_1
  6
CONTINUOUS
 10
0.980650
 20
-1.720327
  0
VERTEX
  8
PLAN_1
  6
CONTINUOUS
 10
0.979303
 20
-1.731102
  0
VERTEX
  8
PLAN_1
  6
CONTINUOUS
 10
0.977283
 20
-1.742547
  0
VERTEX
  8
PLAN_1
  6
CONTINUOUS
 10
0.973917
 20
-1.755339
  0
VERTEX
  8
PLAN_1
  6
CONTINUOUS
 10
0.969878
 20
-1.768803
  0
VERTEX
  8
PLAN_1
  6
CONTINUOUS
 10
0.965165
 20
-1.782268
  0
VERTEX
  8
PLAN_1
  6
CONTINUOUS
 10
0.959780
 20
-1.796406
  0
VERTEX
  8
PLAN_1
  6
CONTINUOUS
 10
0.953720
 20
-1.810547
  0
VERTEX
  8
PLAN_1
  6
CONTINUOUS
 10
0.946988
 20
-1.824012
  0
VERTEX
  8
PLAN_1
  6
CONTINUOUS
 10
0.940252
 20
-1.836803
  0
VERTEX
  8
PLAN_1
  6
CONTINUOUS
 10
0.933520
 20
-1.848921
  0
VERTEX
  8
PLAN_1
  6
CONTINUOUS
 10
0.926114
 20
-1.859693
  0
VERTEX
  8
PLAN_1
  6
CONTINUOUS
 10
0.919382
 20
-1.869118
  0
VERTEX
  8
PLAN_1
  6
CONTINUOUS
 10
0.911976
 20
-1.877201
  0
VERTEX
  8
PLAN_1
  6
CONTINUOUS
 10
0.905244
 20
-1.883260
  0
VERTEX
  8
PLAN_1
  6
CONTINUOUS
 10
0.901878
 20
-1.885280
  0
VERTEX
  8
PLAN_1
  6
CONTINUOUS
 10
0.898512
 20
-1.886626
  0
VERTEX
  8
PLAN_1
  6
CONTINUOUS
 10
0.895819
 20
-1.887972
  0
VERTEX
  8
PLAN_1
  6
CONTINUOUS
 10
0.892453
 20
-1.887972
  0
SEQEND
  8
0
  0
POLYLINE
  8
PLAN_1
  6
CONTINUOUS
 66
     1
 40
0.008079
 41
0.008079
  0
VERTEX
  8
PLAN_1
  6
CONTINUOUS
 10
0.892453
 20
-1.887972
  0
VERTEX
  8
PLAN_1
  6
CONTINUOUS
 10
0.815701
 20
-1.887972
  0
VERTEX
  8
PLAN_1
  6
CONTINUOUS
 10
0.815701
 20
-1.492091
  0
VERTEX
  8
PLAN_1
  6
CONTINUOUS
 10
0.892453
 20
-1.492091
  0
SEQEND
  8
0
  0
POLYLINE
  8
PLAN_1
  6
CONTINUOUS
 66
     1
 40
0.008079
 41
0.008079
  0
VERTEX
  8
PLAN_1
  6
CONTINUOUS
 10
0.892453
 20
-3.517272
  0
VERTEX
  8
PLAN_1
  6
CONTINUOUS
 10
0.895819
 20
-3.517945
  0
VERTEX
  8
PLAN_1
  6
CONTINUOUS
 10
0.899185
 20
-3.518618
  0
VERTEX
  8
PLAN_1
  6
CONTINUOUS
 10
0.902551
 20
-3.519965
  0
VERTEX
  8
PLAN_1
  6
CONTINUOUS
 10
0.906591
 20
-3.522657
  0
VERTEX
  8
PLAN_1
  6
CONTINUOUS
 10
0.909957
 20
-3.525350
  0
VERTEX
  8
PLAN_1
  6
CONTINUOUS
 10
0.913323
 20
-3.528717
  0
VERTEX
  8
PLAN_1
  6
CONTINUOUS
 10
0.917362
 20
-3.532083
  0
VERTEX
  8
PLAN_1
  6
CONTINUOUS
 10
0.920728
 20
-3.536122
  0
VERTEX
  8
PLAN_1
  6
CONTINUOUS
 10
0.928134
 20
-3.545547
  0
VERTEX
  8
PLAN_1
  6
CONTINUOUS
 10
0.934866
 20
-3.556996
  0
VERTEX
  8
PLAN_1
  6
CONTINUOUS
 10
0.942272
 20
-3.569114
  0
VERTEX
  8
PLAN_1
  6
CONTINUOUS
 10
0.948335
 20
-3.581906
  0
VERTEX
  8
PLAN_1
  6
CONTINUOUS
 10
0.955067
 20
-3.596043
  0
VERTEX
  8
PLAN_1
  6
CONTINUOUS
 10
0.960453
 20
-3.609508
  0
VERTEX
  8
PLAN_1
  6
CONTINUOUS
 10
0.965839
 20
-3.624323
  0
VERTEX
  8
PLAN_1
  6
CONTINUOUS
 10
0.970551
 20
-3.638461
  0
VERTEX
  8
PLAN_1
  6
CONTINUOUS
 10
0.973917
 20
-3.651925
  0
VERTEX
  8
PLAN_1
  6
CONTINUOUS
 10
0.977283
 20
-3.664717
  0
VERTEX
  8
PLAN_1
  6
CONTINUOUS
 10
0.979303
 20
-3.676835
  0
VERTEX
  8
PLAN_1
  6
CONTINUOUS
 10
0.980650
 20
-3.688280
  0
SEQEND
  8
0
  0
POLYLINE
  8
PLAN_1
  6
CONTINUOUS
 66
     1
 40
0.008079
 41
0.008079
  0
VERTEX
  8
PLAN_1
  6
CONTINUOUS
 10
0.980650
 20
-3.688280
  0
VERTEX
  8
PLAN_1
  6
CONTINUOUS
 10
0.901205
 20
-3.688280
  0
VERTEX
  8
PLAN_1
  6
CONTINUOUS
 10
0.901205
 20
-3.745508
  0
VERTEX
  8
PLAN_1
  6
CONTINUOUS
 10
0.980650
 20
-3.745508
  0
SEQEND
  8
0
  0
POLYLINE
  8
PLAN_1
  6
CONTINUOUS
 66
     1
 40
0.008079
 41
0.008079
  0
VERTEX
  8
PLAN_1
  6
CONTINUOUS
 10
0.980650
 20
-3.745508
  0
VERTEX
  8
PLAN_1
  6
CONTINUOUS
 10
0.979303
 20
-3.756280
  0
VERTEX
  8
PLAN_1
  6
CONTINUOUS
 10
0.977283
 20
-3.767724
  0
VERTEX
  8
PLAN_1
  6
CONTINUOUS
 10
0.973917
 20
-3.780520
  0
VERTEX
  8
PLAN_1
  6
CONTINUOUS
 10
0.969878
 20
-3.793984
  0
VERTEX
  8
PLAN_1
  6
CONTINUOUS
 10
0.965165
 20
-3.807449
  0
VERTEX
  8
PLAN_1
  6
CONTINUOUS
 10
0.959780
 20
-3.821587
  0
VERTEX
  8
PLAN_1
  6
CONTINUOUS
 10
0.953720
 20
-3.835724
  0
VERTEX
  8
PLAN_1
  6
CONTINUOUS
 10
0.946988
 20
-3.849193
  0
VERTEX
  8
PLAN_1
  6
CONTINUOUS
 10
0.940252
 20
-3.861984
  0
VERTEX
  8
PLAN_1
  6
CONTINUOUS
 10
0.933520
 20
-3.874102
  0
VERTEX
  8
PLAN_1
  6
CONTINUOUS
 10
0.926114
 20
-3.884874
  0
VERTEX
  8
PLAN_1
  6
CONTINUOUS
 10
0.919382
 20
-3.894299
  0
VERTEX
  8
PLAN_1
  6
CONTINUOUS
 10
0.911976
 20
-3.902378
  0
VERTEX
  8
PLAN_1
  6
CONTINUOUS
 10
0.905244
 20
-3.908437
  0
VERTEX
  8
PLAN_1
  6
CONTINUOUS
 10
0.901878
 20
-3.910457
  0
VERTEX
  8
PLAN_1
  6
CONTINUOUS
 10
0.898512
 20
-3.911803
  0
VERTEX
  8
PLAN_1
  6
CONTINUOUS
 10
0.895819
 20
-3.913150
  0
VERTEX
  8
PLAN_1
  6
CONTINUOUS
 10
0.892453
 20
-3.913150
  0
SEQEND
  8
0
  0
POLYLINE
  8
PLAN_1
  6
CONTINUOUS
 66
     1
 40
0.008079
 41
0.008079
  0
VERTEX
  8
PLAN_1
  6
CONTINUOUS
 10
0.892453
 20
-3.913150
  0
VERTEX
  8
PLAN_1
  6
CONTINUOUS
 10
0.815701
 20
-3.913150
  0
VERTEX
  8
PLAN_1
  6
CONTINUOUS
 10
0.815701
 20
-3.517272
  0
VERTEX
  8
PLAN_1
  6
CONTINUOUS
 10
0.892453
 20
-3.517272
  0
SEQEND
  8
0
  0
POLYLINE
  8
PLAN_1
  6
CONTINUOUS
 66
     1
 40
0.008079
 41
0.008079
  0
VERTEX
  8
PLAN_1
  6
CONTINUOUS
 10
-0.866114
 20
-1.943850
  0
VERTEX
  8
PLAN_1
  6
CONTINUOUS
 10
-1.017598
 20
-1.953953
  0
SEQEND
  8
0
  0
POLYLINE
  8
PLAN_1
  6
CONTINUOUS
 66
     1
 40
0.008079
 41
0.008079
  0
VERTEX
  8
PLAN_1
  6
CONTINUOUS
 10
-1.017598
 20
-1.953953
  0
VERTEX
  8
PLAN_1
  6
CONTINUOUS
 10
-1.018945
 20
-1.953953
  0
VERTEX
  8
PLAN_1
  6
CONTINUOUS
 10
-1.022984
 20
-1.953953
  0
VERTEX
  8
PLAN_1
  6
CONTINUOUS
 10
-1.028374
 20
-1.955299
  0
VERTEX
  8
PLAN_1
  6
CONTINUOUS
 10
-1.035106
 20
-1.957992
  0
VERTEX
  8
PLAN_1
  6
CONTINUOUS
 10
-1.039146
 20
-1.959339
  0
VERTEX
  8
PLAN_1
  6
CONTINUOUS
 10
-1.042512
 20
-1.961358
  0
VERTEX
  8
PLAN_1
  6
CONTINUOUS
 10
-1.046551
 20
-1.963378
  0
VERTEX
  8
PLAN_1
  6
CONTINUOUS
 10
-1.049917
 20
-1.966744
  0
VERTEX
  8
PLAN_1
  6
CONTINUOUS
 10
-1.053283
 20
-1.970110
  0
VERTEX
  8
PLAN_1
  6
CONTINUOUS
 10
-1.055976
 20
-1.973476
  0
VERTEX
  8
PLAN_1
  6
CONTINUOUS
 10
-1.058669
 20
-1.978189
  0
VERTEX
  8
PLAN_1
  6
CONTINUOUS
 10
-1.061362
 20
-1.983575
  0
SEQEND
  8
0
  0
POLYLINE
  8
PLAN_1
  6
CONTINUOUS
 66
     1
 40
0.008079
 41
0.008079
  0
VERTEX
  8
PLAN_1
  6
CONTINUOUS
 10
-0.872846
 20
-1.294827
  0
VERTEX
  8
PLAN_1
  6
CONTINUOUS
 10
-0.872846
 20
-1.295500
  0
VERTEX
  8
PLAN_1
  6
CONTINUOUS
 10
-0.873520
 20
-1.298193
  0
VERTEX
  8
PLAN_1
  6
CONTINUOUS
 10
-0.874193
 20
-1.301559
  0
VERTEX
  8
PLAN_1
  6
CONTINUOUS
 10
-0.876886
 20
-1.306945
  0
VERTEX
  8
PLAN_1
  6
CONTINUOUS
 10
-0.880929
 20
-1.313677
  0
VERTEX
  8
PLAN_1
  6
CONTINUOUS
 10
-0.886988
 20
-1.321756
  0
VERTEX
  8
PLAN_1
  6
CONTINUOUS
 10
-0.895740
 20
-1.331181
  0
VERTEX
  8
PLAN_1
  6
CONTINUOUS
 10
-0.907185
 20
-1.341953
  0
VERTEX
  8
PLAN_1
  6
CONTINUOUS
 10
-0.925362
 20
-1.357437
  0
VERTEX
  8
PLAN_1
  6
CONTINUOUS
 10
-0.947579
 20
-1.374945
  0
VERTEX
  8
PLAN_1
  6
CONTINUOUS
 10
-0.971819
 20
-1.393122
  0
VERTEX
  8
PLAN_1
  6
CONTINUOUS
 10
-0.996728
 20
-1.411299
  0
VERTEX
  8
PLAN_1
  6
CONTINUOUS
 10
-1.020291
 20
-1.428130
  0
VERTEX
  8
PLAN_1
  6
CONTINUOUS
 10
-1.039819
 20
-1.442272
  0
VERTEX
  8
PLAN_1
  6
CONTINUOUS
 10
-1.053957
 20
-1.453043
  0
VERTEX
  8
PLAN_1
  6
CONTINUOUS
 10
-1.061362
 20
-1.459102
  0
VERTEX
  8
PLAN_1
  6
CONTINUOUS
 10
-1.063382
 20
-1.461795
  0
VERTEX
  8
PLAN_1
  6
CONTINUOUS
 10
-1.064728
 20
-1.464488
  0
VERTEX
  8
PLAN_1
  6
CONTINUOUS
 10
-1.066075
 20
-1.467854
  0
VERTEX
  8
PLAN_1
  6
CONTINUOUS
 10
-1.066748
 20
-1.471220
  0
VERTEX
  8
PLAN_1
  6
CONTINUOUS
 10
-1.066748
 20
-1.477280
  0
VERTEX
  8
PLAN_1
  6
CONTINUOUS
 10
-1.066075
 20
-1.484012
  0
VERTEX
  8
PLAN_1
  6
CONTINUOUS
 10
-1.064728
 20
-1.489398
  0
VERTEX
  8
PLAN_1
  6
CONTINUOUS
 10
-1.063382
 20
-1.494110
  0
VERTEX
  8
PLAN_1
  6
CONTINUOUS
 10
-1.062035
 20
-1.497476
  0
VERTEX
  8
PLAN_1
  6
CONTINUOUS
 10
-1.061362
 20
-1.498150
  0
SEQEND
  8
0
  0
POLYLINE
  8
PLAN_1
  6
CONTINUOUS
 66
     1
 40
0.008079
 41
0.008079
  0
VERTEX
  8
PLAN_1
  6
CONTINUOUS
 10
-0.876213
 20
-4.057902
  0
VERTEX
  8
PLAN_1
  6
CONTINUOUS
 10
-0.876213
 20
-4.057228
  0
VERTEX
  8
PLAN_1
  6
CONTINUOUS
 10
-0.876886
 20
-4.055209
  0
VERTEX
  8
PLAN_1
  6
CONTINUOUS
 10
-0.878232
 20
-4.051169
  0
VERTEX
  8
PLAN_1
  6
CONTINUOUS
 10
-0.880256
 20
-4.046457
  0
VERTEX
  8
PLAN_1
  6
CONTINUOUS
 10
-0.884295
 20
-4.039724
  0
VERTEX
  8
PLAN_1
  6
CONTINUOUS
 10
-0.890354
 20
-4.031646
  0
VERTEX
  8
PLAN_1
  6
CONTINUOUS
 10
-0.899106
 20
-4.022220
  0
VERTEX
  8
PLAN_1
  6
CONTINUOUS
 10
-0.910551
 20
-4.010776
  0
VERTEX
  8
PLAN_1
  6
CONTINUOUS
 10
-0.928728
 20
-3.995965
  0
VERTEX
  8
PLAN_1
  6
CONTINUOUS
 10
-0.950272
 20
-3.978457
  0
VERTEX
  8
PLAN_1
  6
CONTINUOUS
 10
-0.974512
 20
-3.959606
  0
VERTEX
  8
PLAN_1
  6
CONTINUOUS
 10
-0.998748
 20
-3.941429
  0
VERTEX
  8
PLAN_1
  6
CONTINUOUS
 10
-1.020965
 20
-3.924598
  0
VERTEX
  8
PLAN_1
  6
CONTINUOUS
 10
-1.040492
 20
-3.910457
  0
VERTEX
  8
PLAN_1
  6
CONTINUOUS
 10
-1.054630
 20
-3.899685
  0
VERTEX
  8
PLAN_1
  6
CONTINUOUS
 10
-1.061362
 20
-3.894299
  0
VERTEX
  8
PLAN_1
  6
CONTINUOUS
 10
-1.063382
 20
-3.891606
  0
VERTEX
  8
PLAN_1
  6
CONTINUOUS
 10
-1.064728
 20
-3.888240
  0
VERTEX
  8
PLAN_1
  6
CONTINUOUS
 10
-1.066075
 20
-3.885547
  0
VERTEX
  8
PLAN_1
  6
CONTINUOUS
 10
-1.066748
 20
-3.882181
  0
VERTEX
  8
PLAN_1
  6
CONTINUOUS
 10
-1.066748
 20
-3.875449
  0
VERTEX
  8
PLAN_1
  6
CONTINUOUS
 10
-1.066075
 20
-3.869390
  0
VERTEX
  8
PLAN_1
  6
CONTINUOUS
 10
-1.064728
 20
-3.863331
  0
VERTEX
  8
PLAN_1
  6
CONTINUOUS
 10
-1.063382
 20
-3.858618
  0
VERTEX
  8
PLAN_1
  6
CONTINUOUS
 10
-1.062035
 20
-3.855925
  0
VERTEX
  8
PLAN_1
  6
CONTINUOUS
 10
-1.061362
 20
-3.854579
  0
SEQEND
  8
0
  0
POLYLINE
  8
PLAN_1
  6
CONTINUOUS
 66
     1
 40
0.008079
 41
0.008079
  0
VERTEX
  8
PLAN_1
  6
CONTINUOUS
 10
-0.862748
 20
-3.468122
  0
VERTEX
  8
PLAN_1
  6
CONTINUOUS
 10
-1.014232
 20
-3.458697
  0
SEQEND
  8
0
  0
POLYLINE
  8
PLAN_1
  6
CONTINUOUS
 66
     1
 40
0.008079
 41
0.008079
  0
VERTEX
  8
PLAN_1
  6
CONTINUOUS
 10
-1.014232
 20
-3.458697
  0
VERTEX
  8
PLAN_1
  6
CONTINUOUS
 10
-1.016252
 20
-3.458697
  0
VERTEX
  8
PLAN_1
  6
CONTINUOUS
 10
-1.020291
 20
-3.458024
  0
VERTEX
  8
PLAN_1
  6
CONTINUOUS
 10
-1.026354
 20
-3.456677
  0
VERTEX
  8
PLAN_1
  6
CONTINUOUS
 10
-1.033760
 20
-3.454657
  0
VERTEX
  8
PLAN_1
  6
CONTINUOUS
 10
-1.037799
 20
-3.453311
  0
VERTEX
  8
PLAN_1
  6
CONTINUOUS
 10
-1.041839
 20
-3.451291
  0
VERTEX
  8
PLAN_1
  6
CONTINUOUS
 10
-1.045205
 20
-3.448598
  0
VERTEX
  8
PLAN_1
  6
CONTINUOUS
 10
-1.049244
 20
-3.445906
  0
VERTEX
  8
PLAN_1
  6
CONTINUOUS
 10
-1.052610
 20
-3.442539
  0
VERTEX
  8
PLAN_1
  6
CONTINUOUS
 10
-1.055976
 20
-3.438500
  0
VERTEX
  8
PLAN_1
  6
CONTINUOUS
 10
-1.058669
 20
-3.434461
  0
VERTEX
  8
PLAN_1
  6
CONTINUOUS
 10
-1.061362
 20
-3.429075
  0
SEQEND
  8
0
  0
POLYLINE
  8
PLAN_1
  6
CONTINUOUS
 66
     1
 40
0.008079
 41
0.008079
  0
VERTEX
  8
PLAN_1
  6
CONTINUOUS
 10
-1.061362
 20
-2.442740
  0
VERTEX
  8
PLAN_1
  6
CONTINUOUS
 10
-1.061362
 20
-1.017441
  0
VERTEX
  8
PLAN_1
  6
CONTINUOUS
 10
-1.159657
 20
-1.017441
  0
VERTEX
  8
PLAN_1
  6
CONTINUOUS
 10
-1.159657
 20
-2.442740
  0
VERTEX
  8
PLAN_1
  6
CONTINUOUS
 10
-1.061362
 20
-2.442740
  0
SEQEND
  8
0
  0
POLYLINE
  8
PLAN_1
  6
CONTINUOUS
 66
     1
 40
0.008079
 41
0.008079
  0
VERTEX
  8
PLAN_1
  6
CONTINUOUS
 10
-1.828886
 20
-1.909516
  0
VERTEX
  8
PLAN_1
  6
CONTINUOUS
 10
-1.827535
 20
-1.909516
  0
VERTEX
  8
PLAN_1
  6
CONTINUOUS
 10
-1.823496
 20
-1.910189
  0
VERTEX
  8
PLAN_1
  6
CONTINUOUS
 10
-1.818110
 20
-1.911535
  0
VERTEX
  8
PLAN_1
  6
CONTINUOUS
 10
-1.812051
 20
-1.914228
  0
VERTEX
  8
PLAN_1
  6
CONTINUOUS
 10
-1.808685
 20
-1.916248
  0
VERTEX
  8
PLAN_1
  6
CONTINUOUS
 10
-1.805319
 20
-1.918268
  0
VERTEX
  8
PLAN_1
  6
CONTINUOUS
 10
-1.802626
 20
-1.921634
  0
VERTEX
  8
PLAN_1
  6
CONTINUOUS
 10
-1.799933
 20
-1.925000
  0
VERTEX
  8
PLAN_1
  6
CONTINUOUS
 10
-1.797913
 20
-1.929039
  0
VERTEX
  8
PLAN_1
  6
CONTINUOUS
 10
-1.795894
 20
-1.933752
  0
VERTEX
  8
PLAN_1
  6
CONTINUOUS
 10
-1.794547
 20
-1.939811
  0
VERTEX
  8
PLAN_1
  6
CONTINUOUS
 10
-1.793874
 20
-1.945874
  0
SEQEND
  8
0
  0
POLYLINE
  8
PLAN_1
  6
CONTINUOUS
 66
     1
 40
0.005386
 41
0.005386
  0
VERTEX
  8
PLAN_1
  6
CONTINUOUS
 10
-1.733280
 20
-2.562583
  0
VERTEX
  8
PLAN_1
  6
CONTINUOUS
 10
-1.733280
 20
-2.537673
  0
VERTEX
  8
PLAN_1
  6
CONTINUOUS
 10
-1.733280
 20
-2.472366
  0
VERTEX
  8
PLAN_1
  6
CONTINUOUS
 10
-1.733280
 20
-2.378106
  0
VERTEX
  8
PLAN_1
  6
CONTINUOUS
 10
-1.733280
 20
-2.269039
  0
VERTEX
  8
PLAN_1
  6
CONTINUOUS
 10
-1.733280
 20
-2.156602
  0
VERTEX
  8
PLAN_1
  6
CONTINUOUS
 10
-1.733280
 20
-2.053594
  0
VERTEX
  8
PLAN_1
  6
CONTINUOUS
 10
-1.733280
 20
-1.973476
  0
VERTEX
  8
PLAN_1
  6
CONTINUOUS
 10
-1.733280
 20
-1.928366
  0
VERTEX
  8
PLAN_1
  6
CONTINUOUS
 10
-1.733953
 20
-1.922980
  0
VERTEX
  8
PLAN_1
  6
CONTINUOUS
 10
-1.733953
 20
-1.918268
  0
VERTEX
  8
PLAN_1
  6
CONTINUOUS
 10
-1.735299
 20
-1.912882
  0
VERTEX
  8
PLAN_1
  6
CONTINUOUS
 10
-1.735972
 20
-1.908169
  0
VERTEX
  8
PLAN_1
  6
CONTINUOUS
 10
-1.739339
 20
-1.899417
  0
VERTEX
  8
PLAN_1
  6
CONTINUOUS
 10
-1.743378
 20
-1.891339
  0
VERTEX
  8
PLAN_1
  6
CONTINUOUS
 10
-1.747417
 20
-1.883933
  0
VERTEX
  8
PLAN_1
  6
CONTINUOUS
 10
-1.752803
 20
-1.877874
  0
VERTEX
  8
PLAN_1
  6
CONTINUOUS
 10
-1.758193
 20
-1.871815
  0
VERTEX
  8
PLAN_1
  6
CONTINUOUS
 10
-1.764252
 20
-1.867098
  0
VERTEX
  8
PLAN_1
  6
CONTINUOUS
 10
-1.769638
 20
-1.863059
  0
VERTEX
  8
PLAN_1
  6
CONTINUOUS
 10
-1.775024
 20
-1.859020
  0
VERTEX
  8
PLAN_1
  6
CONTINUOUS
 10
-1.780409
 20
-1.856327
  0
VERTEX
  8
PLAN_1
  6
CONTINUOUS
 10
-1.785122
 20
-1.854307
  0
VERTEX
  8
PLAN_1
  6
CONTINUOUS
 10
-1.791854
 20
-1.850941
  0
VERTEX
  8
PLAN_1
  6
CONTINUOUS
 10
-1.794547
 20
-1.850268
  0
VERTEX
  8
PLAN_1
  6
CONTINUOUS
 10
-1.799260
 20
-1.850268
  0
VERTEX
  8
PLAN_1
  6
CONTINUOUS
 10
-1.812724
 20
-1.850268
  0
VERTEX
  8
PLAN_1
  6
CONTINUOUS
 10
-1.832252
 20
-1.850268
  0
VERTEX
  8
PLAN_1
  6
CONTINUOUS
 10
-1.855142
 20
-1.850268
  0
VERTEX
  8
PLAN_1
  6
CONTINUOUS
 10
-1.879378
 20
-1.850268
  0
VERTEX
  8
PLAN_1
  6
CONTINUOUS
 10
-1.902945
 20
-1.850268
  0
VERTEX
  8
PLAN_1
  6
CONTINUOUS
 10
-1.923142
 20
-1.850268
  0
VERTEX
  8
PLAN_1
  6
CONTINUOUS
 10
-1.937953
 20
-1.850268
  0
VERTEX
  8
PLAN_1
  6
CONTINUOUS
 10
-1.942665
 20
-1.849594
  0
VERTEX
  8
PLAN_1
  6
CONTINUOUS
 10
-1.947378
 20
-1.848921
  0
VERTEX
  8
PLAN_1
  6
CONTINUOUS
 10
-1.951417
 20
-1.848248
  0
VERTEX
  8
PLAN_1
  6
CONTINUOUS
 10
-1.954110
 20
-1.846902
  0
VERTEX
  8
PLAN_1
  6
CONTINUOUS
 10
-1.956803
 20
-1.845555
  0
VERTEX
  8
PLAN_1
  6
CONTINUOUS
 10
-1.958823
 20
-1.844209
  0
VERTEX
  8
PLAN_1
  6
CONTINUOUS
 10
-1.960169
 20
-1.842189
  0
VERTEX
  8
PLAN_1
  6
CONTINUOUS
 10
-1.960843
 20
-1.840169
  0
VERTEX
  8
PLAN_1
  6
CONTINUOUS
 10
-1.962189
 20
-1.836803
  0
VERTEX
  8
PLAN_1
  6
CONTINUOUS
 10
-1.962862
 20
-1.834110
  0
VERTEX
  8
PLAN_1
  6
CONTINUOUS
 10
-1.962189
 20
-1.831417
  0
VERTEX
  8
PLAN_1
  6
CONTINUOUS
 10
-1.962189
 20
-1.830744
  0
VERTEX
  8
PLAN_1
  6
CONTINUOUS
 10
-1.962189
 20
-1.824012
  0
VERTEX
  8
PLAN_1
  6
CONTINUOUS
 10
-1.962189
 20
-1.805161
  0
VERTEX
  8
PLAN_1
  6
CONTINUOUS
 10
-1.962189
 20
-1.778228
  0
VERTEX
  8
PLAN_1
  6
CONTINUOUS
 10
-1.962189
 20
-1.746587
  0
VERTEX
  8
PLAN_1
  6
CONTINUOUS
 10
-1.962189
 20
-1.712921
  0
VERTEX
  8
PLAN_1
  6
CONTINUOUS
 10
-1.962189
 20
-1.681280
  0
VERTEX
  8
PLAN_1
  6
CONTINUOUS
 10
-1.962189
 20
-1.655024
  0
VERTEX
  8
PLAN_1
  6
CONTINUOUS
 10
-1.962189
 20
-1.636843
  0
VERTEX
  8
PLAN_1
  6
CONTINUOUS
 10
-1.962189
 20
-1.631457
  0
VERTEX
  8
PLAN_1
  6
CONTINUOUS
 10
-1.960843
 20
-1.626744
  0
VERTEX
  8
PLAN_1
  6
CONTINUOUS
 10
-1.960169
 20
-1.622705
  0
VERTEX
  8
PLAN_1
  6
CONTINUOUS
 10
-1.958150
 20
-1.619339
  0
VERTEX
  8
PLAN_1
  6
CONTINUOUS
 10
-1.956130
 20
-1.616646
  0
VERTEX
  8
PLAN_1
  6
CONTINUOUS
 10
-1.954110
 20
-1.614626
  0
VERTEX
  8
PLAN_1
  6
CONTINUOUS
 10
-1.951417
 20
-1.613280
  0
VERTEX
  8
PLAN_1
  6
CONTINUOUS
 10
-1.949398
 20
-1.612606
  0
VERTEX
  8
PLAN_1
  6
CONTINUOUS
 10
-1.944012
 20
-1.611260
  0
VERTEX
  8
PLAN_1
  6
CONTINUOUS
 10
-1.939972
 20
-1.611933
  0
VERTEX
  8
PLAN_1
  6
CONTINUOUS
 10
-1.937280
 20
-1.612606
  0
VERTEX
  8
PLAN_1
  6
CONTINUOUS
 10
-1.935933
 20
-1.612606
  0
VERTEX
  8
PLAN_1
  6
CONTINUOUS
 10
-1.931894
 20
-1.612606
  0
VERTEX
  8
PLAN_1
  6
CONTINUOUS
 10
-1.919776
 20
-1.612606
  0
VERTEX
  8
PLAN_1
  6
CONTINUOUS
 10
-1.902945
 20
-1.612606
  0
VERTEX
  8
PLAN_1
  6
CONTINUOUS
 10
-1.881398
 20
-1.612606
  0
VERTEX
  8
PLAN_1
  6
CONTINUOUS
 10
-1.858508
 20
-1.612606
  0
VERTEX
  8
PLAN_1
  6
CONTINUOUS
 10
-1.834945
 20
-1.612606
  0
VERTEX
  8
PLAN_1
  6
CONTINUOUS
 10
-1.813398
 20
-1.612606
  0
VERTEX
  8
PLAN_1
  6
CONTINUOUS
 10
-1.794547
 20
-1.612606
  0
VERTEX
  8
PLAN_1
  6
CONTINUOUS
 10
-1.790508
 20
-1.612606
  0
VERTEX
  8
PLAN_1
  6
CONTINUOUS
 10
-1.786469
 20
-1.611933
  0
VERTEX
  8
PLAN_1
  6
CONTINUOUS
 10
-1.783102
 20
-1.611260
  0
VERTEX
  8
PLAN_1
  6
CONTINUOUS
 10
-1.779736
 20
-1.609913
  0
VERTEX
  8
PLAN_1
  6
CONTINUOUS
 10
-1.773004
 20
-1.606547
  0
VERTEX
  8
PLAN_1
  6
CONTINUOUS
 10
-1.766945
 20
-1.602508
  0
VERTEX
  8
PLAN_1
  6
CONTINUOUS
 10
-1.760886
 20
-1.597122
  0
VERTEX
  8
PLAN_1
  6
CONTINUOUS
 10
-1.756173
 20
-1.591736
  0
VERTEX
  8
PLAN_1
  6
CONTINUOUS
 10
-1.751457
 20
-1.585677
  0
VERTEX
  8
PLAN_1
  6
CONTINUOUS
 10
-1.747417
 20
-1.579618
  0
VERTEX
  8
PLAN_1
  6
CONTINUOUS
 10
-1.741358
 20
-1.567496
  0
VERTEX
  8
PLAN_1
  6
CONTINUOUS
 10
-1.736646
 20
-1.557398
  0
VERTEX
  8
PLAN_1
  6
CONTINUOUS
 10
-1.734626
 20
-1.549992
  0
VERTEX
  8
PLAN_1
  6
CONTINUOUS
 10
-1.733280
 20
-1.547299
  0
SEQEND
  8
0
  0
POLYLINE
  8
PLAN_1
  6
CONTINUOUS
 66
     1
 40
0.005386
 41
0.005386
  0
VERTEX
  8
PLAN_1
  6
CONTINUOUS
 10
-1.733280
 20
-1.547299
  0
VERTEX
  8
PLAN_1
  6
CONTINUOUS
 10
-1.733280
 20
-0.900291
  0
VERTEX
  8
PLAN_1
  6
CONTINUOUS
 10
-1.794547
 20
-0.900291
  0
VERTEX
  8
PLAN_1
  6
CONTINUOUS
 10
-1.794547
 20
-1.514984
  0
SEQEND
  8
0
  0
POLYLINE
  8
PLAN_1
  6
CONTINUOUS
 66
     1
 40
0.005386
 41
0.005386
  0
VERTEX
  8
PLAN_1
  6
CONTINUOUS
 10
-1.794547
 20
-1.514984
  0
VERTEX
  8
PLAN_1
  6
CONTINUOUS
 10
-1.795220
 20
-1.516331
  0
VERTEX
  8
PLAN_1
  6
CONTINUOUS
 10
-1.796567
 20
-1.521043
  0
VERTEX
  8
PLAN_1
  6
CONTINUOUS
 10
-1.799933
 20
-1.527102
  0
VERTEX
  8
PLAN_1
  6
CONTINUOUS
 10
-1.803972
 20
-1.533835
  0
VERTEX
  8
PLAN_1
  6
CONTINUOUS
 10
-1.807339
 20
-1.537874
  0
VERTEX
  8
PLAN_1
  6
CONTINUOUS
 10
-1.810031
 20
-1.541240
  0
VERTEX
  8
PLAN_1
  6
CONTINUOUS
 10
-1.814071
 20
-1.544606
  0
VERTEX
  8
PLAN_1
  6
CONTINUOUS
 10
-1.818110
 20
-1.547299
  0
VERTEX
  8
PLAN_1
  6
CONTINUOUS
 10
-1.822823
 20
-1.549992
  0
VERTEX
  8
PLAN_1
  6
CONTINUOUS
 10
-1.828213
 20
-1.551339
  0
VERTEX
  8
PLAN_1
  6
CONTINUOUS
 10
-1.833598
 20
-1.552685
  0
VERTEX
  8
PLAN_1
  6
CONTINUOUS
 10
-1.840331
 20
-1.553358
  0
VERTEX
  8
PLAN_1
  6
CONTINUOUS
 10
-1.855142
 20
-1.553358
  0
VERTEX
  8
PLAN_1
  6
CONTINUOUS
 10
-1.873992
 20
-1.553358
  0
VERTEX
  8
PLAN_1
  6
CONTINUOUS
 10
-1.894189
 20
-1.553358
  0
VERTEX
  8
PLAN_1
  6
CONTINUOUS
 10
-1.914390
 20
-1.553358
  0
VERTEX
  8
PLAN_1
  6
CONTINUOUS
 10
-1.932567
 20
-1.553358
  0
VERTEX
  8
PLAN_1
  6
CONTINUOUS
 10
-1.948051
 20
-1.553358
  0
VERTEX
  8
PLAN_1
  6
CONTINUOUS
 10
-1.958150
 20
-1.553358
  0
VERTEX
  8
PLAN_1
  6
CONTINUOUS
 10
-1.962189
 20
-1.553358
  0
VERTEX
  8
PLAN_1
  6
CONTINUOUS
 10
-1.964882
 20
-1.553358
  0
VERTEX
  8
PLAN_1
  6
CONTINUOUS
 10
-1.971614
 20
-1.555378
  0
VERTEX
  8
PLAN_1
  6
CONTINUOUS
 10
-1.981043
 20
-1.558071
  0
VERTEX
  8
PLAN_1
  6
CONTINUOUS
 10
-1.991815
 20
-1.563457
  0
VERTEX
  8
PLAN_1
  6
CONTINUOUS
 10
-1.997201
 20
-1.566823
  0
VERTEX
  8
PLAN_1
  6
CONTINUOUS
 10
-2.002587
 20
-1.570862
  0
VERTEX
  8
PLAN_1
  6
CONTINUOUS
 10
-2.007972
 20
-1.575575
  0
VERTEX
  8
PLAN_1
  6
CONTINUOUS
 10
-2.012012
 20
-1.580965
  0
VERTEX
  8
PLAN_1
  6
CONTINUOUS
 10
-2.016051
 20
-1.587697
  0
VERTEX
  8
PLAN_1
  6
CONTINUOUS
 10
-2.018744
 20
-1.595102
  0
VERTEX
  8
PLAN_1
  6
CONTINUOUS
 10
-2.020091
 20
-1.599142
  0
VERTEX
  8
PLAN_1
  6
CONTINUOUS
 10
-2.020764
 20
-1.603181
  0
VERTEX
  8
PLAN_1
  6
CONTINUOUS
 10
-2.021437
 20
-1.607894
  0
VERTEX
  8
PLAN_1
  6
CONTINUOUS
 10
-2.021437
 20
-1.612606
  0
VERTEX
  8
PLAN_1
  6
CONTINUOUS
 10
-2.021437
 20
-1.637516
  0
VERTEX
  8
PLAN_1
  6
CONTINUOUS
 10
-2.021437
 20
-1.671854
  0
VERTEX
  8
PLAN_1
  6
CONTINUOUS
 10
-2.021437
 20
-1.710902
  0
VERTEX
  8
PLAN_1
  6
CONTINUOUS
 10
-2.021437
 20
-1.751299
  0
VERTEX
  8
PLAN_1
  6
CONTINUOUS
 10
-2.021437
 20
-1.789000
  0
VERTEX
  8
PLAN_1
  6
CONTINUOUS
 10
-2.021437
 20
-1.820646
  0
VERTEX
  8
PLAN_1
  6
CONTINUOUS
 10
-2.021437
 20
-1.842189
  0
VERTEX
  8
PLAN_1
  6
CONTINUOUS
 10
-2.021437
 20
-1.850268
  0
VERTEX
  8
PLAN_1
  6
CONTINUOUS
 10
-2.020764
 20
-1.852961
  0
VERTEX
  8
PLAN_1
  6
CONTINUOUS
 10
-2.019417
 20
-1.859693
  0
VERTEX
  8
PLAN_1
  6
CONTINUOUS
 10
-2.016051
 20
-1.869118
  0
VERTEX
  8
PLAN_1
  6
CONTINUOUS
 10
-2.009992
 20
-1.879894
  0
VERTEX
  8
PLAN_1
  6
CONTINUOUS
 10
-2.006626
 20
-1.885280
  0
VERTEX
  8
PLAN_1
  6
CONTINUOUS
 10
-2.002587
 20
-1.890665
  0
VERTEX
  8
PLAN_1
  6
CONTINUOUS
 10
-1.997874
 20
-1.895378
  0
VERTEX
  8
PLAN_1
  6
CONTINUOUS
 10
-1.991815
 20
-1.900091
  0
VERTEX
  8
PLAN_1
  6
CONTINUOUS
 10
-1.985756
 20
-1.904130
  0
VERTEX
  8
PLAN_1
  6
CONTINUOUS
 10
-1.979024
 20
-1.906823
  0
VERTEX
  8
PLAN_1
  6
CONTINUOUS
 10
-1.970941
 20
-1.908843
  0
VERTEX
  8
PLAN_1
  6
CONTINUOUS
 10
-1.962189
 20
-1.909516
  0
VERTEX
  8
PLAN_1
  6
CONTINUOUS
 10
-1.942665
 20
-1.909516
  0
VERTEX
  8
PLAN_1
  6
CONTINUOUS
 10
-1.921122
 20
-1.909516
  0
VERTEX
  8
PLAN_1
  6
CONTINUOUS
 10
-1.898902
 20
-1.909516
  0
VERTEX
  8
PLAN_1
  6
CONTINUOUS
 10
-1.877358
 20
-1.909516
  0
VERTEX
  8
PLAN_1
  6
CONTINUOUS
 10
-1.858508
 20
-1.909516
  0
VERTEX
  8
PLAN_1
  6
CONTINUOUS
 10
-1.843697
 20
-1.909516
  0
VERTEX
  8
PLAN_1
  6
CONTINUOUS
 10
-1.832925
 20
-1.909516
  0
VERTEX
  8
PLAN_1
  6
CONTINUOUS
 10
-1.829559
 20
-1.909516
  0
VERTEX
  8
PLAN_1
  6
CONTINUOUS
 10
-1.828213
 20
-1.909516
  0
VERTEX
  8
PLAN_1
  6
CONTINUOUS
 10
-1.824169
 20
-1.910189
  0
VERTEX
  8
PLAN_1
  6
CONTINUOUS
 10
-1.818783
 20
-1.911535
  0
VERTEX
  8
PLAN_1
  6
CONTINUOUS
 10
-1.812724
 20
-1.914228
  0
VERTEX
  8
PLAN_1
  6
CONTINUOUS
 10
-1.809358
 20
-1.916248
  0
VERTEX
  8
PLAN_1
  6
CONTINUOUS
 10
-1.806665
 20
-1.918268
  0
VERTEX
  8
PLAN_1
  6
CONTINUOUS
 10
-1.803299
 20
-1.921634
  0
VERTEX
  8
PLAN_1
  6
CONTINUOUS
 10
-1.800606
 20
-1.925000
  0
VERTEX
  8
PLAN_1
  6
CONTINUOUS
 10
-1.798587
 20
-1.929039
  0
VERTEX
  8
PLAN_1
  6
CONTINUOUS
 10
-1.796567
 20
-1.933752
  0
VERTEX
  8
PLAN_1
  6
CONTINUOUS
 10
-1.795220
 20
-1.939811
  0
VERTEX
  8
PLAN_1
  6
CONTINUOUS
 10
-1.794547
 20
-1.945874
  0
SEQEND
  8
0
  0
POLYLINE
  8
PLAN_1
  6
CONTINUOUS
 66
     1
 40
0.005386
 41
0.005386
  0
VERTEX
  8
PLAN_1
  6
CONTINUOUS
 10
-1.794547
 20
-1.945874
  0
VERTEX
  8
PLAN_1
  6
CONTINUOUS
 10
-1.794547
 20
-2.562583
  0
VERTEX
  8
PLAN_1
  6
CONTINUOUS
 10
-1.733280
 20
-2.562583
  0
SEQEND
  8
0
  0
POLYLINE
  8
PLAN_1
  6
CONTINUOUS
 66
     1
 40
0.008079
 41
0.008079
  0
VERTEX
  8
PLAN_1
  6
CONTINUOUS
 10
-1.732606
 20
-0.900291
  0
VERTEX
  8
PLAN_1
  6
CONTINUOUS
 10
-1.467343
 20
-0.820173
  0
VERTEX
  8
PLAN_1
  6
CONTINUOUS
 10
-1.158311
 20
-0.820173
  0
VERTEX
  8
PLAN_1
  6
CONTINUOUS
 10
-1.158311
 20
-2.641354
  0
VERTEX
  8
PLAN_1
  6
CONTINUOUS
 10
-1.467343
 20
-2.641354
  0
VERTEX
  8
PLAN_1
  6
CONTINUOUS
 10
-1.732606
 20
-2.562583
  0
VERTEX
  8
PLAN_1
  6
CONTINUOUS
 10
-1.732606
 20
-0.900291
  0
SEQEND
  8
0
  0
POLYLINE
  8
PLAN_1
  6
CONTINUOUS
 66
     1
 40
0.008079
 41
0.008079
  0
VERTEX
  8
PLAN_1
  6
CONTINUOUS
 10
-1.468689
 20
-0.872016
  0
VERTEX
  8
PLAN_1
  6
CONTINUOUS
 10
-1.468689
 20
-2.580087
  0
SEQEND
  8
0
  0
POLYLINE
  8
PLAN_1
  6
CONTINUOUS
 66
     1
 40
0.008079
 41
0.008079
  0
VERTEX
  8
PLAN_1
  6
CONTINUOUS
 10
-1.953437
 20
-1.255776
  0
VERTEX
  8
PLAN_1
  6
CONTINUOUS
 10
-1.899575
 20
-1.259815
  0
VERTEX
  8
PLAN_1
  6
CONTINUOUS
 10
-1.899575
 20
-1.180370
  0
VERTEX
  8
PLAN_1
  6
CONTINUOUS
 10
-1.953437
 20
-1.182390
  0
VERTEX
  8
PLAN_1
  6
CONTINUOUS
 10
-1.953437
 20
-1.083421
  0
VERTEX
  8
PLAN_1
  6
CONTINUOUS
 10
-1.834945
 20
-1.063894
  0
VERTEX
  8
PLAN_1
  6
CONTINUOUS
 10
-1.834945
 20
-1.381004
  0
VERTEX
  8
PLAN_1
  6
CONTINUOUS
 10
-1.953437
 20
-1.370232
  0
VERTEX
  8
PLAN_1
  6
CONTINUOUS
 10
-1.953437
 20
-1.255776
  0
SEQEND
  8
0
  0
POLYLINE
  8
PLAN_1
  6
CONTINUOUS
 66
     1
 40
0.005386
 41
0.005386
  0
VERTEX
  8
PLAN_1
  6
CONTINUOUS
 10
-1.795220
 20
-1.464488
  0
VERTEX
  8
PLAN_1
  6
CONTINUOUS
 10
-1.795220
 20
-0.989161
  0
VERTEX
  8
PLAN_1
  6
CONTINUOUS
 10
-1.834945
 20
-0.989161
  0
VERTEX
  8
PLAN_1
  6
CONTINUOUS
 10
-1.834945
 20
-1.464488
  0
VERTEX
  8
PLAN_1
  6
CONTINUOUS
 10
-1.795220
 20
-1.464488
  0
SEQEND
  8
0
  0
POLYLINE
  8
PLAN_1
  6
CONTINUOUS
 66
     1
 40
0.008079
 41
0.008079
  0
VERTEX
  8
PLAN_1
  6
CONTINUOUS
 10
-1.953437
 20
-2.276445
  0
VERTEX
  8
PLAN_1
  6
CONTINUOUS
 10
-1.899575
 20
-2.279811
  0
VERTEX
  8
PLAN_1
  6
CONTINUOUS
 10
-1.899575
 20
-2.197000
  0
VERTEX
  8
PLAN_1
  6
CONTINUOUS
 10
-1.953437
 20
-2.199020
  0
VERTEX
  8
PLAN_1
  6
CONTINUOUS
 10
-1.953437
 20
-2.100051
  0
VERTEX
  8
PLAN_1
  6
CONTINUOUS
 10
-1.834945
 20
-2.080524
  0
VERTEX
  8
PLAN_1
  6
CONTINUOUS
 10
-1.834945
 20
-2.397634
  0
VERTEX
  8
PLAN_1
  6
CONTINUOUS
 10
-1.953437
 20
-2.386862
  0
VERTEX
  8
PLAN_1
  6
CONTINUOUS
 10
-1.953437
 20
-2.276445
  0
SEQEND
  8
0
  0
POLYLINE
  8
PLAN_1
  6
CONTINUOUS
 66
     1
 40
0.005386
 41
0.005386
  0
VERTEX
  8
PLAN_1
  6
CONTINUOUS
 10
-1.795220
 20
-2.481118
  0
VERTEX
  8
PLAN_1
  6
CONTINUOUS
 10
-1.795220
 20
-2.005791
  0
VERTEX
  8
PLAN_1
  6
CONTINUOUS
 10
-1.834945
 20
-2.005791
  0
VERTEX
  8
PLAN_1
  6
CONTINUOUS
 10
-1.834945
 20
-2.481118
  0
VERTEX
  8
PLAN_1
  6
CONTINUOUS
 10
-1.795220
 20
-2.481118
  0
SEQEND
  8
0
  0
POLYLINE
  8
PLAN_1
  6
CONTINUOUS
 66
     1
 40
0.004039
 41
0.004039
  0
VERTEX
  8
PLAN_1
  6
CONTINUOUS
 10
-1.339421
 20
1.260213
  0
VERTEX
  8
PLAN_1
  6
CONTINUOUS
 10
-1.817437
 20
0.984177
  0
SEQEND
  8
0
  0
POLYLINE
  8
PLAN_1
  6
CONTINUOUS
 66
     1
 40
0.004039
 41
0.004039
  0
VERTEX
  8
PLAN_1
  6
CONTINUOUS
 10
-1.826862
 20
0.797008
  0
VERTEX
  8
PLAN_1
  6
CONTINUOUS
 10
-1.340768
 20
1.073047
  0
SEQEND
  8
0
  0
POLYLINE
  8
PLAN_1
  6
CONTINUOUS
 66
     1
 40
0.008079
 41
0.008079
  0
VERTEX
  8
PLAN_1
  6
CONTINUOUS
 10
-1.017598
 20
-1.720327
  0
VERTEX
  8
PLAN_1
  6
CONTINUOUS
 10
-1.016252
 20
-1.731102
  0
VERTEX
  8
PLAN_1
  6
CONTINUOUS
 10
-1.014232
 20
-1.742547
  0
VERTEX
  8
PLAN_1
  6
CONTINUOUS
 10
-1.010866
 20
-1.755339
  0
VERTEX
  8
PLAN_1
  6
CONTINUOUS
 10
-1.006827
 20
-1.768803
  0
VERTEX
  8
PLAN_1
  6
CONTINUOUS
 10
-1.002114
 20
-1.782268
  0
VERTEX
  8
PLAN_1
  6
CONTINUOUS
 10
-0.996728
 20
-1.796406
  0
VERTEX
  8
PLAN_1
  6
CONTINUOUS
 10
-0.990669
 20
-1.810547
  0
VERTEX
  8
PLAN_1
  6
CONTINUOUS
 10
-0.983937
 20
-1.824012
  0
VERTEX
  8
PLAN_1
  6
CONTINUOUS
 10
-0.977205
 20
-1.836803
  0
VERTEX
  8
PLAN_1
  6
CONTINUOUS
 10
-0.970472
 20
-1.848921
  0
VERTEX
  8
PLAN_1
  6
CONTINUOUS
 10
-0.963067
 20
-1.859693
  0
VERTEX
  8
PLAN_1
  6
CONTINUOUS
 10
-0.956335
 20
-1.869118
  0
VERTEX
  8
PLAN_1
  6
CONTINUOUS
 10
-0.948925
 20
-1.877201
  0
VERTEX
  8
PLAN_1
  6
CONTINUOUS
 10
-0.942193
 20
-1.883260
  0
VERTEX
  8
PLAN_1
  6
CONTINUOUS
 10
-0.938827
 20
-1.885280
  0
VERTEX
  8
PLAN_1
  6
CONTINUOUS
 10
-0.935461
 20
-1.886626
  0
VERTEX
  8
PLAN_1
  6
CONTINUOUS
 10
-0.932094
 20
-1.887972
  0
VERTEX
  8
PLAN_1
  6
CONTINUOUS
 10
-0.929402
 20
-1.887972
  0
SEQEND
  8
0
  0
POLYLINE
  8
PLAN_1
  6
CONTINUOUS
 66
     1
 40
0.008079
 41
0.008079
  0
VERTEX
  8
PLAN_1
  6
CONTINUOUS
 10
-1.440409
 20
1.015819
  0
VERTEX
  8
PLAN_1
  6
CONTINUOUS
 10
-1.440409
 20
-0.819500
  0
SEQEND
  8
0
  0
POLYLINE
  8
PLAN_1
  6
CONTINUOUS
 66
     1
 40
0.008079
 41
0.008079
  0
VERTEX
  8
PLAN_1
  6
CONTINUOUS
 10
-1.440409
 20
-2.641354
  0
VERTEX
  8
PLAN_1
  6
CONTINUOUS
 10
-1.440409
 20
-3.133512
  0
VERTEX
  8
PLAN_1
  6
CONTINUOUS
 10
-1.719815
 20
-3.133512
  0
VERTEX
  8
PLAN_1
  6
CONTINUOUS
 10
-1.719815
 20
-2.565276
  0
SEQEND
  8
0
  0
POLYLINE
  8
PLAN_1
  6
CONTINUOUS
 66
     1
 40
0.008079
 41
0.008079
  0
VERTEX
  8
PLAN_1
  6
CONTINUOUS
 10
-1.719142
 20
-0.895579
  0
VERTEX
  8
PLAN_1
  6
CONTINUOUS
 10
-1.719142
 20
0.859622
  0
SEQEND
  8
0
  0
POLYLINE
  8
PLAN_1
 62
     2
  6
CONTINUOUS
 66
     1
 40
0.004039
 41
0.004039
  0
VERTEX
  8
PLAN_1
 62
     2
  6
CONTINUOUS
 10
-1.064055
 20
-4.739248
  0
VERTEX
  8
PLAN_1
 62
     2
  6
CONTINUOUS
 10
1.018354
 20
-4.739248
  0
SEQEND
  8
0
  0
SOLID
  8
PLAN_1
 62
     2
 10
0.559185
 20
-4.739248
 11
0.499937
 21
-4.723091
 12
0.559185
 22
-4.739248
 13
0.499937
 23
-4.754732
  0
POLYLINE
  8
PLAN_1
 62
     2
  6
CONTINUOUS
 66
     1
 40
0.003000
 41
0.003000
  0
VERTEX
  8
PLAN_1
 62
     2
  6
CONTINUOUS
 10
0.559185
 20
-4.739248
  0
VERTEX
  8
PLAN_1
 62
     2
  6
CONTINUOUS
 10
0.499937
 20
-4.723091
  0
VERTEX
  8
PLAN_1
 62
     2
  6
CONTINUOUS
 10
0.499937
 20
-4.754732
  0
VERTEX
  8
PLAN_1
 62
     2
  6
CONTINUOUS
 10
0.559185
 20
-4.739248
  0
SEQEND
  8
0
  0
SOLID
  8
PLAN_1
 62
     2
 10
-1.064055
 20
-4.739248
 11
-1.123303
 21
-4.723091
 12
-1.064055
 22
-4.739248
 13
-1.123303
 23
-4.754732
  0
POLYLINE
  8
PLAN_1
 62
     2
  6
CONTINUOUS
 66
     1
 40
0.003000
 41
0.003000
  0
VERTEX
  8
PLAN_1
 62
     2
  6
CONTINUOUS
 10
-1.064055
 20
-4.739248
  0
VERTEX
  8
PLAN_1
 62
     2
  6
CONTINUOUS
 10
-1.123303
 20
-4.723091
  0
VERTEX
  8
PLAN_1
 62
     2
  6
CONTINUOUS
 10
-1.123303
 20
-4.754732
  0
VERTEX
  8
PLAN_1
 62
     2
  6
CONTINUOUS
 10
-1.064055
 20
-4.739248
  0
SEQEND
  8
0
  0
SOLID
  8
PLAN_1
 62
     2
 10
-0.597484
 20
-4.739248
 11
-0.538236
 21
-4.723091
 12
-0.597484
 22
-4.739248
 13
-0.538236
 23
-4.754732
  0
POLYLINE
  8
PLAN_1
 62
     2
  6
CONTINUOUS
 66
     1
 40
0.003000
 41
0.003000
  0
VERTEX
  8
PLAN_1
 62
     2
  6
CONTINUOUS
 10
-0.597484
 20
-4.739248
  0
VERTEX
  8
PLAN_1
 62
     2
  6
CONTINUOUS
 10
-0.538236
 20
-4.723091
  0
VERTEX
  8
PLAN_1
 62
     2
  6
CONTINUOUS
 10
-0.538236
 20
-4.754732
  0
VERTEX
  8
PLAN_1
 62
     2
  6
CONTINUOUS
 10
-0.597484
 20
-4.739248
  0
SEQEND
  8
0
  0
SOLID
  8
PLAN_1
 62
     2
 10
1.018354
 20
-4.739248
 11
1.077598
 21
-4.723091
 12
1.018354
 22
-4.739248
 13
1.077598
 23
-4.754732
  0
POLYLINE
  8
PLAN_1
 62
     2
  6
CONTINUOUS
 66
     1
 40
0.003000
 41
0.003000
  0
VERTEX
  8
PLAN_1
 62
     2
  6
CONTINUOUS
 10
1.018354
 20
-4.739248
  0
VERTEX
  8
PLAN_1
 62
     2
  6
CONTINUOUS
 10
1.077598
 20
-4.723091
  0
VERTEX
  8
PLAN_1
 62
     2
  6
CONTINUOUS
 10
1.077598
 20
-4.754732
  0
VERTEX
  8
PLAN_1
 62
     2
  6
CONTINUOUS
 10
1.018354
 20
-4.739248
  0
SEQEND
  8
0
  0
POLYLINE
  8
PLAN_1
 62
     2
  6
CONTINUOUS
 66
     1
 40
0.003000
 41
0.003000
  0
VERTEX
  8
PLAN_1
 62
     2
  6
CONTINUOUS
 10
-0.020496
 20
-4.673941
  0
VERTEX
  8
PLAN_1
 62
     2
  6
CONTINUOUS
 10
-0.019823
 20
-4.673941
  0
VERTEX
  8
PLAN_1
 62
     2
  6
CONTINUOUS
 10
-0.019150
 20
-4.673941
  0
VERTEX
  8
PLAN_1
 62
     2
  6
CONTINUOUS
 10
-0.018476
 20
-4.673941
  0
VERTEX
  8
PLAN_1
 62
     2
  6
CONTINUOUS
 10
-0.017803
 20
-4.673941
  0
VERTEX
  8
PLAN_1
 62
     2
  6
CONTINUOUS
 10
-0.017130
 20
-4.673941
  0
VERTEX
  8
PLAN_1
 62
     2
  6
CONTINUOUS
 10
-0.016457
 20
-4.673941
  0
VERTEX
  8
PLAN_1
 62
     2
  6
CONTINUOUS
 10
-0.015783
 20
-4.673941
  0
VERTEX
  8
PLAN_1
 62
     2
  6
CONTINUOUS
 10
-0.013091
 20
-4.673941
  0
VERTEX
  8
PLAN_1
 62
     2
  6
CONTINUOUS
 10
-0.010398
 20
-4.673268
  0
VERTEX
  8
PLAN_1
 62
     2
  6
CONTINUOUS
 10
-0.008378
 20
-4.672594
  0
VERTEX
  8
PLAN_1
 62
     2
  6
CONTINUOUS
 10
-0.006358
 20
-4.671248
  0
VERTEX
  8
PLAN_1
 62
     2
  6
CONTINUOUS
 10
-0.004339
 20
-4.669902
  0
VERTEX
  8
PLAN_1
 62
     2
  6
CONTINUOUS
 10
-0.002988
 20
-4.667882
  0
VERTEX
  8
PLAN_1
 62
     2
  6
CONTINUOUS
 10
-0.002315
 20
-4.665189
  0
VERTEX
  8
PLAN_1
 62
     2
  6
CONTINUOUS
 10
-0.001642
 20
-4.661823
  0
VERTEX
  8
PLAN_1
 62
     2
  6
CONTINUOUS
 10
-0.001642
 20
-4.660476
  0
VERTEX
  8
PLAN_1
 62
     2
  6
CONTINUOUS
 10
-0.002315
 20
-4.658457
  0
VERTEX
  8
PLAN_1
 62
     2
  6
CONTINUOUS
 10
-0.002988
 20
-4.656437
  0
VERTEX
  8
PLAN_1
 62
     2
  6
CONTINUOUS
 10
-0.004339
 20
-4.654417
  0
VERTEX
  8
PLAN_1
 62
     2
  6
CONTINUOUS
 10
-0.006358
 20
-4.653071
  0
VERTEX
  8
PLAN_1
 62
     2
  6
CONTINUOUS
 10
-0.008378
 20
-4.651724
  0
VERTEX
  8
PLAN_1
 62
     2
  6
CONTINUOUS
 10
-0.011744
 20
-4.651051
  0
VERTEX
  8
PLAN_1
 62
     2
  6
CONTINUOUS
 10
-0.015110
 20
-4.650378
  0
VERTEX
  8
PLAN_1
 62
     2
  6
CONTINUOUS
 10
-0.019823
 20
-4.651051
  0
VERTEX
  8
PLAN_1
 62
     2
  6
CONTINUOUS
 10
-0.023189
 20
-4.652398
  0
VERTEX
  8
PLAN_1
 62
     2
  6
CONTINUOUS
 10
-0.025209
 20
-4.653744
  0
VERTEX
  8
PLAN_1
 62
     2
  6
CONTINUOUS
 10
-0.027228
 20
-4.656437
  0
VERTEX
  8
PLAN_1
 62
     2
  6
CONTINUOUS
 10
-0.027902
 20
-4.659130
  0
VERTEX
  8
PLAN_1
 62
     2
  6
CONTINUOUS
 10
-0.029248
 20
-4.661823
  0
VERTEX
  8
PLAN_1
 62
     2
  6
CONTINUOUS
 10
-0.029248
 20
-4.663843
  0
VERTEX
  8
PLAN_1
 62
     2
  6
CONTINUOUS
 10
-0.029248
 20
-4.665862
  0
VERTEX
  8
PLAN_1
 62
     2
  6
CONTINUOUS
 10
-0.038673
 20
-4.665862
  0
VERTEX
  8
PLAN_1
 62
     2
  6
CONTINUOUS
 10
-0.038000
 20
-4.661823
  0
VERTEX
  8
PLAN_1
 62
     2
  6
CONTINUOUS
 10
-0.037327
 20
-4.657783
  0
VERTEX
  8
PLAN_1
 62
     2
  6
CONTINUOUS
 10
-0.035980
 20
-4.653744
  0
VERTEX
  8
PLAN_1
 62
     2
  6
CONTINUOUS
 10
-0.033961
 20
-4.650378
  0
VERTEX
  8
PLAN_1
 62
     2
  6
CONTINUOUS
 10
-0.030594
 20
-4.647012
  0
VERTEX
  8
PLAN_1
 62
     2
  6
CONTINUOUS
 10
-0.026555
 20
-4.644319
  0
VERTEX
  8
PLAN_1
 62
     2
  6
CONTINUOUS
 10
-0.021169
 20
-4.642969
  0
VERTEX
  8
PLAN_1
 62
     2
  6
CONTINUOUS
 10
-0.015110
 20
-4.642295
  0
VERTEX
  8
PLAN_1
 62
     2
  6
CONTINUOUS
 10
-0.009724
 20
-4.642295
  0
VERTEX
  8
PLAN_1
 62
     2
  6
CONTINUOUS
 10
-0.005012
 20
-4.643646
  0
VERTEX
  8
PLAN_1
 62
     2
  6
CONTINUOUS
 10
-0.001642
 20
-4.645665
  0
VERTEX
  8
PLAN_1
 62
     2
  6
CONTINUOUS
 10
0.001724
 20
-4.647685
  0
VERTEX
  8
PLAN_1
 62
     2
  6
CONTINUOUS
 10
0.004417
 20
-4.650378
  0
VERTEX
  8
PLAN_1
 62
     2
  6
CONTINUOUS
 10
0.006437
 20
-4.653744
  0
VERTEX
  8
PLAN_1
 62
     2
  6
CONTINUOUS
 10
0.007110
 20
-4.657110
  0
VERTEX
  8
PLAN_1
 62
     2
  6
CONTINUOUS
 10
0.007783
 20
-4.661150
  0
VERTEX
  8
PLAN_1
 62
     2
  6
CONTINUOUS
 10
0.007783
 20
-4.664516
  0
VERTEX
  8
PLAN_1
 62
     2
  6
CONTINUOUS
 10
0.007110
 20
-4.667882
  0
VERTEX
  8
PLAN_1
 62
     2
  6
CONTINUOUS
 10
0.005764
 20
-4.669902
  0
VERTEX
  8
PLAN_1
 62
     2
  6
CONTINUOUS
 10
0.004417
 20
-4.671921
  0
VERTEX
  8
PLAN_1
 62
     2
  6
CONTINUOUS
 10
0.003071
 20
-4.673941
  0
VERTEX
  8
PLAN_1
 62
     2
  6
CONTINUOUS
 10
0.001724
 20
-4.675287
  0
VERTEX
  8
PLAN_1
 62
     2
  6
CONTINUOUS
 10
-0.000295
 20
-4.675961
  0
VERTEX
  8
PLAN_1
 62
     2
  6
CONTINUOUS
 10
-0.001642
 20
-4.676634
  0
VERTEX
  8
PLAN_1
 62
     2
  6
CONTINUOUS
 10
0.001051
 20
-4.677980
  0
VERTEX
  8
PLAN_1
 62
     2
  6
CONTINUOUS
 10
0.003071
 20
-4.678654
  0
VERTEX
  8
PLAN_1
 62
     2
  6
CONTINUOUS
 10
0.005091
 20
-4.680673
  0
VERTEX
  8
PLAN_1
 62
     2
  6
CONTINUOUS
 10
0.007110
 20
-4.682693
  0
VERTEX
  8
PLAN_1
 62
     2
  6
CONTINUOUS
 10
0.008457
 20
-4.684713
  0
VERTEX
  8
PLAN_1
 62
     2
  6
CONTINUOUS
 10
0.009803
 20
-4.687406
  0
VERTEX
  8
PLAN_1
 62
     2
  6
CONTINUOUS
 10
0.010476
 20
-4.690098
  0
VERTEX
  8
PLAN_1
 62
     2
  6
CONTINUOUS
 10
0.010476
 20
-4.693465
  0
VERTEX
  8
PLAN_1
 62
     2
  6
CONTINUOUS
 10
0.010476
 20
-4.698177
  0
VERTEX
  8
PLAN_1
 62
     2
  6
CONTINUOUS
 10
0.009130
 20
-4.702217
  0
VERTEX
  8
PLAN_1
 62
     2
  6
CONTINUOUS
 10
0.007110
 20
-4.706256
  0
VERTEX
  8
PLAN_1
 62
     2
  6
CONTINUOUS
 10
0.004417
 20
-4.710295
  0
VERTEX
  8
PLAN_1
 62
     2
  6
CONTINUOUS
 10
0.001051
 20
-4.712988
  0
VERTEX
  8
PLAN_1
 62
     2
  6
CONTINUOUS
 10
-0.003661
 20
-4.715008
  0
VERTEX
  8
PLAN_1
 62
     2
  6
CONTINUOUS
 10
-0.009051
 20
-4.717031
  0
VERTEX
  8
PLAN_1
 62
     2
  6
CONTINUOUS
 10
-0.015783
 20
-4.717031
  0
VERTEX
  8
PLAN_1
 62
     2
  6
CONTINUOUS
 10
-0.017803
 20
-4.717031
  0
VERTEX
  8
PLAN_1
 62
     2
  6
CONTINUOUS
 10
-0.019823
 20
-4.717031
  0
VERTEX
  8
PLAN_1
 62
     2
  6
CONTINUOUS
 10
-0.021169
 20
-4.717031
  0
VERTEX
  8
PLAN_1
 62
     2
  6
CONTINUOUS
 10
-0.023189
 20
-4.716354
  0
VERTEX
  8
PLAN_1
 62
     2
  6
CONTINUOUS
 10
-0.025209
 20
-4.715681
  0
VERTEX
  8
PLAN_1
 62
     2
  6
CONTINUOUS
 10
-0.026555
 20
-4.715681
  0
VERTEX
  8
PLAN_1
 62
     2
  6
CONTINUOUS
 10
-0.027902
 20
-4.715008
  0
VERTEX
  8
PLAN_1
 62
     2
  6
CONTINUOUS
 10
-0.029248
 20
-4.714335
  0
VERTEX
  8
PLAN_1
 62
     2
  6
CONTINUOUS
 10
-0.031941
 20
-4.712315
  0
VERTEX
  8
PLAN_1
 62
     2
  6
CONTINUOUS
 10
-0.034634
 20
-4.710295
  0
VERTEX
  8
PLAN_1
 62
     2
  6
CONTINUOUS
 10
-0.035980
 20
-4.707602
  0
VERTEX
  8
PLAN_1
 62
     2
  6
CONTINUOUS
 10
-0.037327
 20
-4.704909
  0
VERTEX
  8
PLAN_1
 62
     2
  6
CONTINUOUS
 10
-0.038673
 20
-4.702217
  0
VERTEX
  8
PLAN_1
 62
     2
  6
CONTINUOUS
 10
-0.039346
 20
-4.699524
  0
VERTEX
  8
PLAN_1
 62
     2
  6
CONTINUOUS
 10
-0.040020
 20
-4.696157
  0
VERTEX
  8
PLAN_1
 62
     2
  6
CONTINUOUS
 10
-0.040020
 20
-4.692791
  0
VERTEX
  8
PLAN_1
 62
     2
  6
CONTINUOUS
 10
-0.030594
 20
-4.692791
  0
VERTEX
  8
PLAN_1
 62
     2
  6
CONTINUOUS
 10
-0.030594
 20
-4.695484
  0
VERTEX
  8
PLAN_1
 62
     2
  6
CONTINUOUS
 10
-0.029921
 20
-4.698177
  0
VERTEX
  8
PLAN_1
 62
     2
  6
CONTINUOUS
 10
-0.029248
 20
-4.700870
  0
VERTEX
  8
PLAN_1
 62
     2
  6
CONTINUOUS
 10
-0.027902
 20
-4.703563
  0
VERTEX
  8
PLAN_1
 62
     2
  6
CONTINUOUS
 10
-0.025882
 20
-4.705583
  0
VERTEX
  8
PLAN_1
 62
     2
  6
CONTINUOUS
 10
-0.023189
 20
-4.707602
  0
VERTEX
  8
PLAN_1
 62
     2
  6
CONTINUOUS
 10
-0.019823
 20
-4.708949
  0
VERTEX
  8
PLAN_1
 62
     2
  6
CONTINUOUS
 10
-0.015110
 20
-4.708949
  0
VERTEX
  8
PLAN_1
 62
     2
  6
CONTINUOUS
 10
-0.011744
 20
-4.708949
  0
VERTEX
  8
PLAN_1
 62
     2
  6
CONTINUOUS
 10
-0.008378
 20
-4.708276
  0
VERTEX
  8
PLAN_1
 62
     2
  6
CONTINUOUS
 10
-0.005685
 20
-4.706929
  0
VERTEX
  8
PLAN_1
 62
     2
  6
CONTINUOUS
 10
-0.003661
 20
-4.704909
  0
VERTEX
  8
PLAN_1
 62
     2
  6
CONTINUOUS
 10
-0.001642
 20
-4.702890
  0
VERTEX
  8
PLAN_1
 62
     2
  6
CONTINUOUS
 10
-0.000295
 20
-4.700870
  0
VERTEX
  8
PLAN_1
 62
     2
  6
CONTINUOUS
 10
0.000378
 20
-4.698177
  0
VERTEX
  8
PLAN_1
 62
     2
  6
CONTINUOUS
 10
0.001051
 20
-4.694811
  0
VERTEX
  8
PLAN_1
 62
     2
  6
CONTINUOUS
 10
0.000378
 20
-4.690772
  0
VERTEX
  8
PLAN_1
 62
     2
  6
CONTINUOUS
 10
-0.000969
 20
-4.687406
  0
VERTEX
  8
PLAN_1
 62
     2
  6
CONTINUOUS
 10
-0.002988
 20
-4.685386
  0
VERTEX
  8
PLAN_1
 62
     2
  6
CONTINUOUS
 10
-0.005685
 20
-4.683366
  0
VERTEX
  8
PLAN_1
 62
     2
  6
CONTINUOUS
 10
-0.008378
 20
-4.682693
  0
VERTEX
  8
PLAN_1
 62
     2
  6
CONTINUOUS
 10
-0.011071
 20
-4.682020
  0
VERTEX
  8
PLAN_1
 62
     2
  6
CONTINUOUS
 10
-0.013764
 20
-4.681346
  0
VERTEX
  8
PLAN_1
 62
     2
  6
CONTINUOUS
 10
-0.016457
 20
-4.681346
  0
VERTEX
  8
PLAN_1
 62
     2
  6
CONTINUOUS
 10
-0.017130
 20
-4.681346
  0
VERTEX
  8
PLAN_1
 62
     2
  6
CONTINUOUS
 10
-0.017803
 20
-4.681346
  0
VERTEX
  8
PLAN_1
 62
     2
  6
CONTINUOUS
 10
-0.018476
 20
-4.681346
  0
VERTEX
  8
PLAN_1
 62
     2
  6
CONTINUOUS
 10
-0.019150
 20
-4.681346
  0
VERTEX
  8
PLAN_1
 62
     2
  6
CONTINUOUS
 10
-0.019823
 20
-4.681346
  0
VERTEX
  8
PLAN_1
 62
     2
  6
CONTINUOUS
 10
-0.020496
 20
-4.681346
  0
VERTEX
  8
PLAN_1
 62
     2
  6
CONTINUOUS
 10
-0.020496
 20
-4.673941
  0
SEQEND
  8
0
  0
POLYLINE
  8
PLAN_1
 62
     2
  6
CONTINUOUS
 66
     1
 40
0.003000
 41
0.003000
  0
VERTEX
  8
PLAN_1
 62
     2
  6
CONTINUOUS
 10
0.018555
 20
-4.668555
  0
VERTEX
  8
PLAN_1
 62
     2
  6
CONTINUOUS
 10
0.019228
 20
-4.664516
  0
VERTEX
  8
PLAN_1
 62
     2
  6
CONTINUOUS
 10
0.019228
 20
-4.660476
  0
VERTEX
  8
PLAN_1
 62
     2
  6
CONTINUOUS
 10
0.020575
 20
-4.657110
  0
VERTEX
  8
PLAN_1
 62
     2
  6
CONTINUOUS
 10
0.021248
 20
-4.654417
  0
VERTEX
  8
PLAN_1
 62
     2
  6
CONTINUOUS
 10
0.023268
 20
-4.651724
  0
VERTEX
  8
PLAN_1
 62
     2
  6
CONTINUOUS
 10
0.024614
 20
-4.649705
  0
VERTEX
  8
PLAN_1
 62
     2
  6
CONTINUOUS
 10
0.026634
 20
-4.647685
  0
VERTEX
  8
PLAN_1
 62
     2
  6
CONTINUOUS
 10
0.028654
 20
-4.646339
  0
VERTEX
  8
PLAN_1
 62
     2
  6
CONTINUOUS
 10
0.032693
 20
-4.644319
  0
VERTEX
  8
PLAN_1
 62
     2
  6
CONTINUOUS
 10
0.036732
 20
-4.642969
  0
VERTEX
  8
PLAN_1
 62
     2
  6
CONTINUOUS
 10
0.040772
 20
-4.642295
  0
VERTEX
  8
PLAN_1
 62
     2
  6
CONTINUOUS
 10
0.044138
 20
-4.642295
  0
VERTEX
  8
PLAN_1
 62
     2
  6
CONTINUOUS
 10
0.048850
 20
-4.642295
  0
VERTEX
  8
PLAN_1
 62
     2
  6
CONTINUOUS
 10
0.052890
 20
-4.643646
  0
VERTEX
  8
PLAN_1
 62
     2
  6
CONTINUOUS
 10
0.056929
 20
-4.645665
  0
VERTEX
  8
PLAN_1
 62
     2
  6
CONTINUOUS
 10
0.060295
 20
-4.647685
  0
VERTEX
  8
PLAN_1
 62
     2
  6
CONTINUOUS
 10
0.062988
 20
-4.651051
  0
VERTEX
  8
PLAN_1
 62
     2
  6
CONTINUOUS
 10
0.065008
 20
-4.655091
  0
VERTEX
  8
PLAN_1
 62
     2
  6
CONTINUOUS
 10
0.066354
 20
-4.659130
  0
VERTEX
  8
PLAN_1
 62
     2
  6
CONTINUOUS
 10
0.067028
 20
-4.663843
  0
VERTEX
  8
PLAN_1
 62
     2
  6
CONTINUOUS
 10
0.066354
 20
-4.668555
  0
VERTEX
  8
PLAN_1
 62
     2
  6
CONTINUOUS
 10
0.065681
 20
-4.672594
  0
VERTEX
  8
PLAN_1
 62
     2
  6
CONTINUOUS
 10
0.063661
 20
-4.675961
  0
VERTEX
  8
PLAN_1
 62
     2
  6
CONTINUOUS
 10
0.060969
 20
-4.678654
  0
VERTEX
  8
PLAN_1
 62
     2
  6
CONTINUOUS
 10
0.058276
 20
-4.681346
  0
VERTEX
  8
PLAN_1
 62
     2
  6
CONTINUOUS
 10
0.054909
 20
-4.684039
  0
VERTEX
  8
PLAN_1
 62
     2
  6
CONTINUOUS
 10
0.051543
 20
-4.686059
  0
VERTEX
  8
PLAN_1
 62
     2
  6
CONTINUOUS
 10
0.047504
 20
-4.688752
  0
VERTEX
  8
PLAN_1
 62
     2
  6
CONTINUOUS
 10
0.039425
 20
-4.692791
  0
VERTEX
  8
PLAN_1
 62
     2
  6
CONTINUOUS
 10
0.036059
 20
-4.694811
  0
VERTEX
  8
PLAN_1
 62
     2
  6
CONTINUOUS
 10
0.033366
 20
-4.696831
  0
VERTEX
  8
PLAN_1
 62
     2
  6
CONTINUOUS
 10
0.031346
 20
-4.698850
  0
VERTEX
  8
PLAN_1
 62
     2
  6
CONTINUOUS
 10
0.030000
 20
-4.700870
  0
VERTEX
  8
PLAN_1
 62
     2
  6
CONTINUOUS
 10
0.028654
 20
-4.702217
  0
VERTEX
  8
PLAN_1
 62
     2
  6
CONTINUOUS
 10
0.027980
 20
-4.704236
  0
VERTEX
  8
PLAN_1
 62
     2
  6
CONTINUOUS
 10
0.027307
 20
-4.705583
  0
VERTEX
  8
PLAN_1
 62
     2
  6
CONTINUOUS
 10
0.027307
 20
-4.706929
  0
VERTEX
  8
PLAN_1
 62
     2
  6
CONTINUOUS
 10
0.067028
 20
-4.706929
  0
VERTEX
  8
PLAN_1
 62
     2
  6
CONTINUOUS
 10
0.067028
 20
-4.715008
  0
VERTEX
  8
PLAN_1
 62
     2
  6
CONTINUOUS
 10
0.016535
 20
-4.715008
  0
VERTEX
  8
PLAN_1
 62
     2
  6
CONTINUOUS
 10
0.017209
 20
-4.709622
  0
VERTEX
  8
PLAN_1
 62
     2
  6
CONTINUOUS
 10
0.018555
 20
-4.704909
  0
VERTEX
  8
PLAN_1
 62
     2
  6
CONTINUOUS
 10
0.019902
 20
-4.700870
  0
VERTEX
  8
PLAN_1
 62
     2
  6
CONTINUOUS
 10
0.021921
 20
-4.697504
  0
VERTEX
  8
PLAN_1
 62
     2
  6
CONTINUOUS
 10
0.024614
 20
-4.694138
  0
VERTEX
  8
PLAN_1
 62
     2
  6
CONTINUOUS
 10
0.027307
 20
-4.690772
  0
VERTEX
  8
PLAN_1
 62
     2
  6
CONTINUOUS
 10
0.030673
 20
-4.688752
  0
VERTEX
  8
PLAN_1
 62
     2
  6
CONTINUOUS
 10
0.034039
 20
-4.686059
  0
VERTEX
  8
PLAN_1
 62
     2
  6
CONTINUOUS
 10
0.043465
 20
-4.680673
  0
VERTEX
  8
PLAN_1
 62
     2
  6
CONTINUOUS
 10
0.046831
 20
-4.679327
  0
VERTEX
  8
PLAN_1
 62
     2
  6
CONTINUOUS
 10
0.048850
 20
-4.677307
  0
VERTEX
  8
PLAN_1
 62
     2
  6
CONTINUOUS
 10
0.051543
 20
-4.675961
  0
VERTEX
  8
PLAN_1
 62
     2
  6
CONTINUOUS
 10
0.053563
 20
-4.673941
  0
VERTEX
  8
PLAN_1
 62
     2
  6
CONTINUOUS
 10
0.054909
 20
-4.671921
  0
VERTEX
  8
PLAN_1
 62
     2
  6
CONTINUOUS
 10
0.056256
 20
-4.669902
  0
VERTEX
  8
PLAN_1
 62
     2
  6
CONTINUOUS
 10
0.056929
 20
-4.667209
  0
VERTEX
  8
PLAN_1
 62
     2
  6
CONTINUOUS
 10
0.056929
 20
-4.663843
  0
VERTEX
  8
PLAN_1
 62
     2
  6
CONTINUOUS
 10
0.056929
 20
-4.661150
  0
VERTEX
  8
PLAN_1
 62
     2
  6
CONTINUOUS
 10
0.056256
 20
-4.659130
  0
VERTEX
  8
PLAN_1
 62
     2
  6
CONTINUOUS
 10
0.055583
 20
-4.657110
  0
VERTEX
  8
PLAN_1
 62
     2
  6
CONTINUOUS
 10
0.053563
 20
-4.655091
  0
VERTEX
  8
PLAN_1
 62
     2
  6
CONTINUOUS
 10
0.052217
 20
-4.653071
  0
VERTEX
  8
PLAN_1
 62
     2
  6
CONTINUOUS
 10
0.049524
 20
-4.651724
  0
VERTEX
  8
PLAN_1
 62
     2
  6
CONTINUOUS
 10
0.046157
 20
-4.651051
  0
VERTEX
  8
PLAN_1
 62
     2
  6
CONTINUOUS
 10
0.042791
 20
-4.650378
  0
VERTEX
  8
PLAN_1
 62
     2
  6
CONTINUOUS
 10
0.038079
 20
-4.651051
  0
VERTEX
  8
PLAN_1
 62
     2
  6
CONTINUOUS
 10
0.034713
 20
-4.652398
  0
VERTEX
  8
PLAN_1
 62
     2
  6
CONTINUOUS
 10
0.032020
 20
-4.655091
  0
VERTEX
  8
PLAN_1
 62
     2
  6
CONTINUOUS
 10
0.030000
 20
-4.657783
  0
VERTEX
  8
PLAN_1
 62
     2
  6
CONTINUOUS
 10
0.029327
 20
-4.660476
  0
VERTEX
  8
PLAN_1
 62
     2
  6
CONTINUOUS
 10
0.028654
 20
-4.663169
  0
VERTEX
  8
PLAN_1
 62
     2
  6
CONTINUOUS
 10
0.027980
 20
-4.665862
  0
VERTEX
  8
PLAN_1
 62
     2
  6
CONTINUOUS
 10
0.027980
 20
-4.668555
  0
VERTEX
  8
PLAN_1
 62
     2
  6
CONTINUOUS
 10
0.018555
 20
-4.668555
  0
SEQEND
  8
0
  0
SOLID
  8
PLAN_1
 62
     2
 10
0.816374
 20
-4.682020
 11
0.763858
 21
-4.682020
 12
0.816374
 22
-4.674614
 13
0.763858
 23
-4.674614
  0
POLYLINE
  8
PLAN_1
 62
     2
  6
CONTINUOUS
 66
     1
 40
0.003000
 41
0.003000
  0
VERTEX
  8
PLAN_1
 62
     2
  6
CONTINUOUS
 10
0.816374
 20
-4.682020
  0
VERTEX
  8
PLAN_1
 62
     2
  6
CONTINUOUS
 10
0.763858
 20
-4.682020
  0
VERTEX
  8
PLAN_1
 62
     2
  6
CONTINUOUS
 10
0.763858
 20
-4.674614
  0
VERTEX
  8
PLAN_1
 62
     2
  6
CONTINUOUS
 10
0.816374
 20
-4.674614
  0
VERTEX
  8
PLAN_1
 62
     2
  6
CONTINUOUS
 10
0.816374
 20
-4.682020
  0
SEQEND
  8
0
  0
SOLID
  8
PLAN_1
 62
     2
 10
0.816374
 20
-4.703563
 11
0.763858
 21
-4.703563
 12
0.816374
 22
-4.695484
 13
0.763858
 23
-4.695484
  0
POLYLINE
  8
PLAN_1
 62
     2
  6
CONTINUOUS
 66
     1
 40
0.003000
 41
0.003000
  0
VERTEX
  8
PLAN_1
 62
     2
  6
CONTINUOUS
 10
0.816374
 20
-4.703563
  0
VERTEX
  8
PLAN_1
 62
     2
  6
CONTINUOUS
 10
0.763858
 20
-4.703563
  0
VERTEX
  8
PLAN_1
 62
     2
  6
CONTINUOUS
 10
0.763858
 20
-4.695484
  0
VERTEX
  8
PLAN_1
 62
     2
  6
CONTINUOUS
 10
0.816374
 20
-4.695484
  0
VERTEX
  8
PLAN_1
 62
     2
  6
CONTINUOUS
 10
0.816374
 20
-4.703563
  0
SEQEND
  8
0
  0
SOLID
  8
PLAN_1
 62
     2
 10
-0.802154
 20
-4.682020
 11
-0.854669
 21
-4.682020
 12
-0.802154
 22
-4.674614
 13
-0.854669
 23
-4.674614
  0
POLYLINE
  8
PLAN_1
 62
     2
  6
CONTINUOUS
 66
     1
 40
0.003000
 41
0.003000
  0
VERTEX
  8
PLAN_1
 62
     2
  6
CONTINUOUS
 10
-0.802154
 20
-4.682020
  0
VERTEX
  8
PLAN_1
 62
     2
  6
CONTINUOUS
 10
-0.854669
 20
-4.682020
  0
VERTEX
  8
PLAN_1
 62
     2
  6
CONTINUOUS
 10
-0.854669
 20
-4.674614
  0
VERTEX
  8
PLAN_1
 62
     2
  6
CONTINUOUS
 10
-0.802154
 20
-4.674614
  0
VERTEX
  8
PLAN_1
 62
     2
  6
CONTINUOUS
 10
-0.802154
 20
-4.682020
  0
SEQEND
  8
0
  0
SOLID
  8
PLAN_1
 62
     2
 10
-0.802154
 20
-4.703563
 11
-0.854669
 21
-4.703563
 12
-0.802154
 22
-4.695484
 13
-0.854669
 23
-4.695484
  0
POLYLINE
  8
PLAN_1
 62
     2
  6
CONTINUOUS
 66
     1
 40
0.003000
 41
0.003000
  0
VERTEX
  8
PLAN_1
 62
     2
  6
CONTINUOUS
 10
-0.802154
 20
-4.703563
  0
VERTEX
  8
PLAN_1
 62
     2
  6
CONTINUOUS
 10
-0.854669
 20
-4.703563
  0
VERTEX
  8
PLAN_1
 62
     2
  6
CONTINUOUS
 10
-0.854669
 20
-4.695484
  0
VERTEX
  8
PLAN_1
 62
     2
  6
CONTINUOUS
 10
-0.802154
 20
-4.695484
  0
VERTEX
  8
PLAN_1
 62
     2
  6
CONTINUOUS
 10
-0.802154
 20
-4.703563
  0
SEQEND
  8
0
  0
POLYLINE
  8
PLAN_1
 62
     2
  6
CONTINUOUS
 66
     1
 40
0.004039
 41
0.004039
  0
VERTEX
  8
PLAN_1
 62
     2
  6
CONTINUOUS
 10
-1.036453
 20
-4.896791
  0
VERTEX
  8
PLAN_1
 62
     2
  6
CONTINUOUS
 10
0.991421
 20
-4.896791
  0
SEQEND
  8
0
  0
SOLID
  8
PLAN_1
 62
     2
 10
1.021047
 20
-4.896791
 11
0.961799
 21
-4.880634
 12
1.021047
 22
-4.896791
 13
0.961799
 23
-4.912276
  0
POLYLINE
  8
PLAN_1
 62
     2
  6
CONTINUOUS
 66
     1
 40
0.003000
 41
0.003000
  0
VERTEX
  8
PLAN_1
 62
     2
  6
CONTINUOUS
 10
1.021047
 20
-4.896791
  0
VERTEX
  8
PLAN_1
 62
     2
  6
CONTINUOUS
 10
0.961799
 20
-4.880634
  0
VERTEX
  8
PLAN_1
 62
     2
  6
CONTINUOUS
 10
0.961799
 20
-4.912276
  0
VERTEX
  8
PLAN_1
 62
     2
  6
CONTINUOUS
 10
1.021047
 20
-4.896791
  0
SEQEND
  8
0
  0
SOLID
  8
PLAN_1
 62
     2
 10
-1.066075
 20
-4.896791
 11
-1.006827
 21
-4.880634
 12
-1.066075
 22
-4.896791
 13
-1.006827
 23
-4.912276
  0
POLYLINE
  8
PLAN_1
 62
     2
  6
CONTINUOUS
 66
     1
 40
0.003000
 41
0.003000
  0
VERTEX
  8
PLAN_1
 62
     2
  6
CONTINUOUS
 10
-1.066075
 20
-4.896791
  0
VERTEX
  8
PLAN_1
 62
     2
  6
CONTINUOUS
 10
-1.006827
 20
-4.880634
  0
VERTEX
  8
PLAN_1
 62
     2
  6
CONTINUOUS
 10
-1.006827
 20
-4.912276
  0
VERTEX
  8
PLAN_1
 62
     2
  6
CONTINUOUS
 10
-1.066075
 20
-4.896791
  0
SEQEND
  8
0
  0
POLYLINE
  8
PLAN_1
 62
     2
  6
CONTINUOUS
 66
     1
 40
0.003000
 41
0.003000
  0
VERTEX
  8
PLAN_1
 62
     2
  6
CONTINUOUS
 10
-0.064929
 20
-4.830138
  0
VERTEX
  8
PLAN_1
 62
     2
  6
CONTINUOUS
 10
-0.063583
 20
-4.829465
  0
VERTEX
  8
PLAN_1
 62
     2
  6
CONTINUOUS
 10
-0.062236
 20
-4.828791
  0
VERTEX
  8
PLAN_1
 62
     2
  6
CONTINUOUS
 10
-0.060890
 20
-4.828118
  0
VERTEX
  8
PLAN_1
 62
     2
  6
CONTINUOUS
 10
-0.059543
 20
-4.827445
  0
VERTEX
  8
PLAN_1
 62
     2
  6
CONTINUOUS
 10
-0.057524
 20
-4.826772
  0
VERTEX
  8
PLAN_1
 62
     2
  6
CONTINUOUS
 10
-0.055504
 20
-4.826098
  0
VERTEX
  8
PLAN_1
 62
     2
  6
CONTINUOUS
 10
-0.053484
 20
-4.826098
  0
VERTEX
  8
PLAN_1
 62
     2
  6
CONTINUOUS
 10
-0.050791
 20
-4.826098
  0
VERTEX
  8
PLAN_1
 62
     2
  6
CONTINUOUS
 10
-0.046752
 20
-4.826098
  0
VERTEX
  8
PLAN_1
 62
     2
  6
CONTINUOUS
 10
-0.042039
 20
-4.827445
  0
VERTEX
  8
PLAN_1
 62
     2
  6
CONTINUOUS
 10
-0.038000
 20
-4.829465
  0
VERTEX
  8
PLAN_1
 62
     2
  6
CONTINUOUS
 10
-0.034634
 20
-4.832157
  0
VERTEX
  8
PLAN_1
 62
     2
  6
CONTINUOUS
 10
-0.031268
 20
-4.835524
  0
VERTEX
  8
PLAN_1
 62
     2
  6
CONTINUOUS
 10
-0.029248
 20
-4.838890
  0
VERTEX
  8
PLAN_1
 62
     2
  6
CONTINUOUS
 10
-0.027228
 20
-4.843602
  0
VERTEX
  8
PLAN_1
 62
     2
  6
CONTINUOUS
 10
-0.027228
 20
-4.848988
  0
VERTEX
  8
PLAN_1
 62
     2
  6
CONTINUOUS
 10
-0.027228
 20
-4.852354
  0
VERTEX
  8
PLAN_1
 62
     2
  6
CONTINUOUS
 10
-0.027902
 20
-4.856394
  0
VERTEX
  8
PLAN_1
 62
     2
  6
CONTINUOUS
 10
-0.029248
 20
-4.861106
  0
VERTEX
  8
PLAN_1
 62
     2
  6
CONTINUOUS
 10
-0.031268
 20
-4.865150
  0
VERTEX
  8
PLAN_1
 62
     2
  6
CONTINUOUS
 10
-0.033287
 20
-4.867169
  0
VERTEX
  8
PLAN_1
 62
     2
  6
CONTINUOUS
 10
-0.035307
 20
-4.869189
  0
VERTEX
  8
PLAN_1
 62
     2
  6
CONTINUOUS
 10
-0.037327
 20
-4.870535
  0
VERTEX
  8
PLAN_1
 62
     2
  6
CONTINUOUS
 10
-0.039346
 20
-4.871882
  0
VERTEX
  8
PLAN_1
 62
     2
  6
CONTINUOUS
 10
-0.042713
 20
-4.873228
  0
VERTEX
  8
PLAN_1
 62
     2
  6
CONTINUOUS
 10
-0.045406
 20
-4.873902
  0
VERTEX
  8
PLAN_1
 62
     2
  6
CONTINUOUS
 10
-0.049445
 20
-4.874575
  0
VERTEX
  8
PLAN_1
 62
     2
  6
CONTINUOUS
 10
-0.053484
 20
-4.875248
  0
VERTEX
  8
PLAN_1
 62
     2
  6
CONTINUOUS
 10
-0.056850
 20
-4.874575
  0
VERTEX
  8
PLAN_1
 62
     2
  6
CONTINUOUS
 10
-0.060890
 20
-4.873902
  0
VERTEX
  8
PLAN_1
 62
     2
  6
CONTINUOUS
 10
-0.064929
 20
-4.872555
  0
VERTEX
  8
PLAN_1
 62
     2
  6
CONTINUOUS
 10
-0.068295
 20
-4.871209
  0
VERTEX
  8
PLAN_1
 62
     2
  6
CONTINUOUS
 10
-0.070988
 20
-4.868516
  0
VERTEX
  8
PLAN_1
 62
     2
  6
CONTINUOUS
 10
-0.073681
 20
-4.864476
  0
VERTEX
  8
PLAN_1
 62
     2
  6
CONTINUOUS
 10
-0.075701
 20
-4.860433
  0
VERTEX
  8
PLAN_1
 62
     2
  6
CONTINUOUS
 10
-0.077051
 20
-4.855047
  0
VERTEX
  8
PLAN_1
 62
     2
  6
CONTINUOUS
 10
-0.067622
 20
-4.855047
  0
VERTEX
  8
PLAN_1
 62
     2
  6
CONTINUOUS
 10
-0.066949
 20
-4.857740
  0
VERTEX
  8
PLAN_1
 62
     2
  6
CONTINUOUS
 10
-0.065602
 20
-4.860433
  0
VERTEX
  8
PLAN_1
 62
     2
  6
CONTINUOUS
 10
-0.064256
 20
-4.862457
  0
VERTEX
  8
PLAN_1
 62
     2
  6
CONTINUOUS
 10
-0.062236
 20
-4.863803
  0
VERTEX
  8
PLAN_1
 62
     2
  6
CONTINUOUS
 10
-0.060217
 20
-4.865150
  0
VERTEX
  8
PLAN_1
 62
     2
  6
CONTINUOUS
 10
-0.057524
 20
-4.866496
  0
VERTEX
  8
PLAN_1
 62
     2
  6
CONTINUOUS
 10
-0.054831
 20
-4.867169
  0
VERTEX
  8
PLAN_1
 62
     2
  6
CONTINUOUS
 10
-0.052138
 20
-4.867169
  0
VERTEX
  8
PLAN_1
 62
     2
  6
CONTINUOUS
 10
-0.048772
 20
-4.866496
  0
VERTEX
  8
PLAN_1
 62
     2
  6
CONTINUOUS
 10
-0.045406
 20
-4.865823
  0
VERTEX
  8
PLAN_1
 62
     2
  6
CONTINUOUS
 10
-0.042713
 20
-4.864476
  0
VERTEX
  8
PLAN_1
 62
     2
  6
CONTINUOUS
 10
-0.040693
 20
-4.861780
  0
VERTEX
  8
PLAN_1
 62
     2
  6
CONTINUOUS
 10
-0.039346
 20
-4.859760
  0
VERTEX
  8
PLAN_1
 62
     2
  6
CONTINUOUS
 10
-0.038000
 20
-4.857067
  0
VERTEX
  8
PLAN_1
 62
     2
  6
CONTINUOUS
 10
-0.036654
 20
-4.853701
  0
VERTEX
  8
PLAN_1
 62
     2
  6
CONTINUOUS
 10
-0.036654
 20
-4.850335
  0
VERTEX
  8
PLAN_1
 62
     2
  6
CONTINUOUS
 10
-0.037327
 20
-4.846295
  0
VERTEX
  8
PLAN_1
 62
     2
  6
CONTINUOUS
 10
-0.038000
 20
-4.843602
  0
VERTEX
  8
PLAN_1
 62
     2
  6
CONTINUOUS
 10
-0.039346
 20
-4.840236
  0
VERTEX
  8
PLAN_1
 62
     2
  6
CONTINUOUS
 10
-0.041366
 20
-4.838217
  0
VERTEX
  8
PLAN_1
 62
     2
  6
CONTINUOUS
 10
-0.044059
 20
-4.836197
  0
VERTEX
  8
PLAN_1
 62
     2
  6
CONTINUOUS
 10
-0.046752
 20
-4.834850
  0
VERTEX
  8
PLAN_1
 62
     2
  6
CONTINUOUS
 10
-0.049445
 20
-4.834177
  0
VERTEX
  8
PLAN_1
 62
     2
  6
CONTINUOUS
 10
-0.052811
 20
-4.834177
  0
VERTEX
  8
PLAN_1
 62
     2
  6
CONTINUOUS
 10
-0.054831
 20
-4.834177
  0
VERTEX
  8
PLAN_1
 62
     2
  6
CONTINUOUS
 10
-0.056850
 20
-4.834850
  0
VERTEX
  8
PLAN_1
 62
     2
  6
CONTINUOUS
 10
-0.058870
 20
-4.834850
  0
VERTEX
  8
PLAN_1
 62
     2
  6
CONTINUOUS
 10
-0.060217
 20
-4.836197
  0
VERTEX
  8
PLAN_1
 62
     2
  6
CONTINUOUS
 10
-0.062236
 20
-4.836870
  0
VERTEX
  8
PLAN_1
 62
     2
  6
CONTINUOUS
 10
-0.063583
 20
-4.838217
  0
VERTEX
  8
PLAN_1
 62
     2
  6
CONTINUOUS
 10
-0.064929
 20
-4.839563
  0
VERTEX
  8
PLAN_1
 62
     2
  6
CONTINUOUS
 10
-0.066276
 20
-4.840909
  0
VERTEX
  8
PLAN_1
 62
     2
  6
CONTINUOUS
 10
-0.074354
 20
-4.840909
  0
VERTEX
  8
PLAN_1
 62
     2
  6
CONTINUOUS
 10
-0.068969
 20
-4.801189
  0
VERTEX
  8
PLAN_1
 62
     2
  6
CONTINUOUS
 10
-0.031268
 20
-4.801189
  0
VERTEX
  8
PLAN_1
 62
     2
  6
CONTINUOUS
 10
-0.031268
 20
-4.810614
  0
VERTEX
  8
PLAN_1
 62
     2
  6
CONTINUOUS
 10
-0.062236
 20
-4.810614
  0
VERTEX
  8
PLAN_1
 62
     2
  6
CONTINUOUS
 10
-0.064929
 20
-4.830138
  0
SEQEND
  8
0
  0
POLYLINE
  8
PLAN_1
 62
     2
  6
CONTINUOUS
 66
     1
 40
0.003000
 41
0.003000
  0
VERTEX
  8
PLAN_1
 62
     2
  6
CONTINUOUS
 10
0.001051
 20
-4.831484
  0
VERTEX
  8
PLAN_1
 62
     2
  6
CONTINUOUS
 10
0.001724
 20
-4.831484
  0
VERTEX
  8
PLAN_1
 62
     2
  6
CONTINUOUS
 10
0.002398
 20
-4.831484
  0
VERTEX
  8
PLAN_1
 62
     2
  6
CONTINUOUS
 10
0.003071
 20
-4.831484
  0
VERTEX
  8
PLAN_1
 62
     2
  6
CONTINUOUS
 10
0.003744
 20
-4.831484
  0
VERTEX
  8
PLAN_1
 62
     2
  6
CONTINUOUS
 10
0.004417
 20
-4.831484
  0
VERTEX
  8
PLAN_1
 62
     2
  6
CONTINUOUS
 10
0.005091
 20
-4.831484
  0
VERTEX
  8
PLAN_1
 62
     2
  6
CONTINUOUS
 10
0.005764
 20
-4.831484
  0
VERTEX
  8
PLAN_1
 62
     2
  6
CONTINUOUS
 10
0.008457
 20
-4.831484
  0
VERTEX
  8
PLAN_1
 62
     2
  6
CONTINUOUS
 10
0.010476
 20
-4.830811
  0
VERTEX
  8
PLAN_1
 62
     2
  6
CONTINUOUS
 10
0.013169
 20
-4.830138
  0
VERTEX
  8
PLAN_1
 62
     2
  6
CONTINUOUS
 10
0.015189
 20
-4.828791
  0
VERTEX
  8
PLAN_1
 62
     2
  6
CONTINUOUS
 10
0.017209
 20
-4.827445
  0
VERTEX
  8
PLAN_1
 62
     2
  6
CONTINUOUS
 10
0.018555
 20
-4.825425
  0
VERTEX
  8
PLAN_1
 62
     2
  6
CONTINUOUS
 10
0.019228
 20
-4.822732
  0
VERTEX
  8
PLAN_1
 62
     2
  6
CONTINUOUS
 10
0.019228
 20
-4.819366
  0
VERTEX
  8
PLAN_1
 62
     2
  6
CONTINUOUS
 10
0.019228
 20
-4.818020
  0
VERTEX
  8
PLAN_1
 62
     2
  6
CONTINUOUS
 10
0.019228
 20
-4.816000
  0
VERTEX
  8
PLAN_1
 62
     2
  6
CONTINUOUS
 10
0.017882
 20
-4.813980
  0
VERTEX
  8
PLAN_1
 62
     2
  6
CONTINUOUS
 10
0.017209
 20
-4.811961
  0
VERTEX
  8
PLAN_1
 62
     2
  6
CONTINUOUS
 10
0.015189
 20
-4.810614
  0
VERTEX
  8
PLAN_1
 62
     2
  6
CONTINUOUS
 10
0.012496
 20
-4.809268
  0
VERTEX
  8
PLAN_1
 62
     2
  6
CONTINUOUS
 10
0.009803
 20
-4.808594
  0
VERTEX
  8
PLAN_1
 62
     2
  6
CONTINUOUS
 10
0.005764
 20
-4.807921
  0
VERTEX
  8
PLAN_1
 62
     2
  6
CONTINUOUS
 10
0.001724
 20
-4.808594
  0
VERTEX
  8
PLAN_1
 62
     2
  6
CONTINUOUS
 10
-0.001642
 20
-4.809941
  0
VERTEX
  8
PLAN_1
 62
     2
  6
CONTINUOUS
 10
-0.004339
 20
-4.811961
  0
VERTEX
  8
PLAN_1
 62
     2
  6
CONTINUOUS
 10
-0.005685
 20
-4.813980
  0
VERTEX
  8
PLAN_1
 62
     2
  6
CONTINUOUS
 10
-0.007031
 20
-4.816673
  0
VERTEX
  8
PLAN_1
 62
     2
  6
CONTINUOUS
 10
-0.007705
 20
-4.819366
  0
VERTEX
  8
PLAN_1
 62
     2
  6
CONTINUOUS
 10
-0.007705
 20
-4.821386
  0
VERTEX
  8
PLAN_1
 62
     2
  6
CONTINUOUS
 10
-0.008378
 20
-4.824079
  0
VERTEX
  8
PLAN_1
 62
     2
  6
CONTINUOUS
 10
-0.017130
 20
-4.824079
  0
VERTEX
  8
PLAN_1
 62
     2
  6
CONTINUOUS
 10
-0.017130
 20
-4.819366
  0
VERTEX
  8
PLAN_1
 62
     2
  6
CONTINUOUS
 10
-0.016457
 20
-4.815327
  0
VERTEX
  8
PLAN_1
 62
     2
  6
CONTINUOUS
 10
-0.014437
 20
-4.811287
  0
VERTEX
  8
PLAN_1
 62
     2
  6
CONTINUOUS
 10
-0.012417
 20
-4.807921
  0
VERTEX
  8
PLAN_1
 62
     2
  6
CONTINUOUS
 10
-0.009724
 20
-4.804555
  0
VERTEX
  8
PLAN_1
 62
     2
  6
CONTINUOUS
 10
-0.005685
 20
-4.801862
  0
VERTEX
  8
PLAN_1
 62
     2
  6
CONTINUOUS
 10
-0.000295
 20
-4.800516
  0
VERTEX
  8
PLAN_1
 62
     2
  6
CONTINUOUS
 10
0.006437
 20
-4.799843
  0
VERTEX
  8
PLAN_1
 62
     2
  6
CONTINUOUS
 10
0.011150
 20
-4.800516
  0
VERTEX
  8
PLAN_1
 62
     2
  6
CONTINUOUS
 10
0.015862
 20
-4.801189
  0
VERTEX
  8
PLAN_1
 62
     2
  6
CONTINUOUS
 10
0.019902
 20
-4.803209
  0
VERTEX
  8
PLAN_1
 62
     2
  6
CONTINUOUS
 10
0.023268
 20
-4.805228
  0
VERTEX
  8
PLAN_1
 62
     2
  6
CONTINUOUS
 10
0.025287
 20
-4.807921
  0
VERTEX
  8
PLAN_1
 62
     2
  6
CONTINUOUS
 10
0.027307
 20
-4.811287
  0
VERTEX
  8
PLAN_1
 62
     2
  6
CONTINUOUS
 10
0.028654
 20
-4.815327
  0
VERTEX
  8
PLAN_1
 62
     2
  6
CONTINUOUS
 10
0.029327
 20
-4.819366
  0
VERTEX
  8
PLAN_1
 62
     2
  6
CONTINUOUS
 10
0.028654
 20
-4.822059
  0
VERTEX
  8
PLAN_1
 62
     2
  6
CONTINUOUS
 10
0.027980
 20
-4.825425
  0
VERTEX
  8
PLAN_1
 62
     2
  6
CONTINUOUS
 10
0.027307
 20
-4.827445
  0
VERTEX
  8
PLAN_1
 62
     2
  6
CONTINUOUS
 10
0.025961
 20
-4.829465
  0
VERTEX
  8
PLAN_1
 62
     2
  6
CONTINUOUS
 10
0.024614
 20
-4.831484
  0
VERTEX
  8
PLAN_1
 62
     2
  6
CONTINUOUS
 10
0.022594
 20
-4.832831
  0
VERTEX
  8
PLAN_1
 62
     2
  6
CONTINUOUS
 10
0.021248
 20
-4.833504
  0
VERTEX
  8
PLAN_1
 62
     2
  6
CONTINUOUS
 10
0.019902
 20
-4.834177
  0
VERTEX
  8
PLAN_1
 62
     2
  6
CONTINUOUS
 10
0.021921
 20
-4.835524
  0
VERTEX
  8
PLAN_1
 62
     2
  6
CONTINUOUS
 10
0.024614
 20
-4.836870
  0
VERTEX
  8
PLAN_1
 62
     2
  6
CONTINUOUS
 10
0.026634
 20
-4.838217
  0
VERTEX
  8
PLAN_1
 62
     2
  6
CONTINUOUS
 10
0.028654
 20
-4.840236
  0
VERTEX
  8
PLAN_1
 62
     2
  6
CONTINUOUS
 10
0.030000
 20
-4.842256
  0
VERTEX
  8
PLAN_1
 62
     2
  6
CONTINUOUS
 10
0.030673
 20
-4.844949
  0
VERTEX
  8
PLAN_1
 62
     2
  6
CONTINUOUS
 10
0.031346
 20
-4.848315
  0
VERTEX
  8
PLAN_1
 62
     2
  6
CONTINUOUS
 10
0.032020
 20
-4.851681
  0
VERTEX
  8
PLAN_1
 62
     2
  6
CONTINUOUS
 10
0.031346
 20
-4.855720
  0
VERTEX
  8
PLAN_1
 62
     2
  6
CONTINUOUS
 10
0.030000
 20
-4.860433
  0
VERTEX
  8
PLAN_1
 62
     2
  6
CONTINUOUS
 10
0.028654
 20
-4.863803
  0
VERTEX
  8
PLAN_1
 62
     2
  6
CONTINUOUS
 10
0.025961
 20
-4.867843
  0
VERTEX
  8
PLAN_1
 62
     2
  6
CONTINUOUS
 10
0.021921
 20
-4.870535
  0
VERTEX
  8
PLAN_1
 62
     2
  6
CONTINUOUS
 10
0.017209
 20
-4.873228
  0
VERTEX
  8
PLAN_1
 62
     2
  6
CONTINUOUS
 10
0.011823
 20
-4.874575
  0
VERTEX
  8
PLAN_1
 62
     2
  6
CONTINUOUS
 10
0.005764
 20
-4.875248
  0
VERTEX
  8
PLAN_1
 62
     2
  6
CONTINUOUS
 10
0.003744
 20
-4.874575
  0
VERTEX
  8
PLAN_1
 62
     2
  6
CONTINUOUS
 10
0.001724
 20
-4.874575
  0
VERTEX
  8
PLAN_1
 62
     2
  6
CONTINUOUS
 10
-0.000295
 20
-4.874575
  0
VERTEX
  8
PLAN_1
 62
     2
  6
CONTINUOUS
 10
-0.001642
 20
-4.873902
  0
VERTEX
  8
PLAN_1
 62
     2
  6
CONTINUOUS
 10
-0.003661
 20
-4.873902
  0
VERTEX
  8
PLAN_1
 62
     2
  6
CONTINUOUS
 10
-0.005012
 20
-4.873228
  0
VERTEX
  8
PLAN_1
 62
     2
  6
CONTINUOUS
 10
-0.006358
 20
-4.872555
  0
VERTEX
  8
PLAN_1
 62
     2
  6
CONTINUOUS
 10
-0.007705
 20
-4.871882
  0
VERTEX
  8
PLAN_1
 62
     2
  6
CONTINUOUS
 10
-0.011071
 20
-4.869862
  0
VERTEX
  8
PLAN_1
 62
     2
  6
CONTINUOUS
 10
-0.013091
 20
-4.867843
  0
VERTEX
  8
PLAN_1
 62
     2
  6
CONTINUOUS
 10
-0.015110
 20
-4.865150
  0
VERTEX
  8
PLAN_1
 62
     2
  6
CONTINUOUS
 10
-0.016457
 20
-4.862457
  0
VERTEX
  8
PLAN_1
 62
     2
  6
CONTINUOUS
 10
-0.017130
 20
-4.859760
  0
VERTEX
  8
PLAN_1
 62
     2
  6
CONTINUOUS
 10
-0.017803
 20
-4.857067
  0
VERTEX
  8
PLAN_1
 62
     2
  6
CONTINUOUS
 10
-0.018476
 20
-4.853701
  0
VERTEX
  8
PLAN_1
 62
     2
  6
CONTINUOUS
 10
-0.019150
 20
-4.850335
  0
VERTEX
  8
PLAN_1
 62
     2
  6
CONTINUOUS
 10
-0.009724
 20
-4.850335
  0
VERTEX
  8
PLAN_1
 62
     2
  6
CONTINUOUS
 10
-0.009051
 20
-4.853028
  0
VERTEX
  8
PLAN_1
 62
     2
  6
CONTINUOUS
 10
-0.009051
 20
-4.855720
  0
VERTEX
  8
PLAN_1
 62
     2
  6
CONTINUOUS
 10
-0.007705
 20
-4.858413
  0
VERTEX
  8
PLAN_1
 62
     2
  6
CONTINUOUS
 10
-0.006358
 20
-4.861106
  0
VERTEX
  8
PLAN_1
 62
     2
  6
CONTINUOUS
 10
-0.005012
 20
-4.863130
  0
VERTEX
  8
PLAN_1
 62
     2
  6
CONTINUOUS
 10
-0.002315
 20
-4.865150
  0
VERTEX
  8
PLAN_1
 62
     2
  6
CONTINUOUS
 10
0.001724
 20
-4.866496
  0
VERTEX
  8
PLAN_1
 62
     2
  6
CONTINUOUS
 10
0.006437
 20
-4.866496
  0
VERTEX
  8
PLAN_1
 62
     2
  6
CONTINUOUS
 10
0.009803
 20
-4.866496
  0
VERTEX
  8
PLAN_1
 62
     2
  6
CONTINUOUS
 10
0.012496
 20
-4.865823
  0
VERTEX
  8
PLAN_1
 62
     2
  6
CONTINUOUS
 10
0.015189
 20
-4.864476
  0
VERTEX
  8
PLAN_1
 62
     2
  6
CONTINUOUS
 10
0.017882
 20
-4.863130
  0
VERTEX
  8
PLAN_1
 62
     2
  6
CONTINUOUS
 10
0.019228
 20
-4.860433
  0
VERTEX
  8
PLAN_1
 62
     2
  6
CONTINUOUS
 10
0.020575
 20
-4.858413
  0
VERTEX
  8
PLAN_1
 62
     2
  6
CONTINUOUS
 10
0.021921
 20
-4.855720
  0
VERTEX
  8
PLAN_1
 62
     2
  6
CONTINUOUS
 10
0.021921
 20
-4.852354
  0
VERTEX
  8
PLAN_1
 62
     2
  6
CONTINUOUS
 10
0.021248
 20
-4.848315
  0
VERTEX
  8
PLAN_1
 62
     2
  6
CONTINUOUS
 10
0.020575
 20
-4.845622
  0
VERTEX
  8
PLAN_1
 62
     2
  6
CONTINUOUS
 10
0.018555
 20
-4.842929
  0
VERTEX
  8
PLAN_1
 62
     2
  6
CONTINUOUS
 10
0.015862
 20
-4.841583
  0
VERTEX
  8
PLAN_1
 62
     2
  6
CONTINUOUS
 10
0.013169
 20
-4.840236
  0
VERTEX
  8
PLAN_1
 62
     2
  6
CONTINUOUS
 10
0.010476
 20
-4.839563
  0
VERTEX
  8
PLAN_1
 62
     2
  6
CONTINUOUS
 10
0.007783
 20
-4.839563
  0
VERTEX
  8
PLAN_1
 62
     2
  6
CONTINUOUS
 10
0.005091
 20
-4.838890
  0
VERTEX
  8
PLAN_1
 62
     2
  6
CONTINUOUS
 10
0.004417
 20
-4.838890
  0
VERTEX
  8
PLAN_1
 62
     2
  6
CONTINUOUS
 10
0.003744
 20
-4.838890
  0
VERTEX
  8
PLAN_1
 62
     2
  6
CONTINUOUS
 10
0.003071
 20
-4.838890
  0
VERTEX
  8
PLAN_1
 62
     2
  6
CONTINUOUS
 10
0.002398
 20
-4.839563
  0
VERTEX
  8
PLAN_1
 62
     2
  6
CONTINUOUS
 10
0.001724
 20
-4.839563
  0
VERTEX
  8
PLAN_1
 62
     2
  6
CONTINUOUS
 10
0.001051
 20
-4.839563
  0
VERTEX
  8
PLAN_1
 62
     2
  6
CONTINUOUS
 10
0.001051
 20
-4.831484
  0
SEQEND
  8
0
  0
POLYLINE
  8
PLAN_1
 62
     2
  6
CONTINUOUS
 66
     1
 40
0.004039
 41
0.004039
  0
VERTEX
  8
PLAN_1
 62
     2
  6
CONTINUOUS
 10
-2.000567
 20
-5.054335
  0
VERTEX
  8
PLAN_1
 62
     2
  6
CONTINUOUS
 10
0.992094
 20
-5.054335
  0
SEQEND
  8
0
  0
SOLID
  8
PLAN_1
 62
     2
 10
1.021720
 20
-5.054335
 11
0.962472
 21
-5.038850
 12
1.021720
 22
-5.054335
 13
0.962472
 23
-5.069819
  0
POLYLINE
  8
PLAN_1
 62
     2
  6
CONTINUOUS
 66
     1
 40
0.003000
 41
0.003000
  0
VERTEX
  8
PLAN_1
 62
     2
  6
CONTINUOUS
 10
1.021720
 20
-5.054335
  0
VERTEX
  8
PLAN_1
 62
     2
  6
CONTINUOUS
 10
0.962472
 20
-5.038850
  0
VERTEX
  8
PLAN_1
 62
     2
  6
CONTINUOUS
 10
0.962472
 20
-5.069819
  0
VERTEX
  8
PLAN_1
 62
     2
  6
CONTINUOUS
 10
1.021720
 20
-5.054335
  0
SEQEND
  8
0
  0
SOLID
  8
PLAN_1
 62
     2
 10
-2.029516
 20
-5.054335
 11
-1.970941
 21
-5.038850
 12
-2.029516
 22
-5.054335
 13
-1.970941
 23
-5.069819
  0
POLYLINE
  8
PLAN_1
 62
     2
  6
CONTINUOUS
 66
     1
 40
0.003000
 41
0.003000
  0
VERTEX
  8
PLAN_1
 62
     2
  6
CONTINUOUS
 10
-2.029516
 20
-5.054335
  0
VERTEX
  8
PLAN_1
 62
     2
  6
CONTINUOUS
 10
-1.970941
 20
-5.038850
  0
VERTEX
  8
PLAN_1
 62
     2
  6
CONTINUOUS
 10
-1.970941
 20
-5.069819
  0
VERTEX
  8
PLAN_1
 62
     2
  6
CONTINUOUS
 10
-2.029516
 20
-5.054335
  0
SEQEND
  8
0
  0
POLYLINE
  8
PLAN_1
 62
     2
  6
CONTINUOUS
 66
     1
 40
0.003000
 41
0.003000
  0
VERTEX
  8
PLAN_1
 62
     2
  6
CONTINUOUS
 10
-0.558433
 20
-4.959406
  0
VERTEX
  8
PLAN_1
 62
     2
  6
CONTINUOUS
 10
-0.507937
 20
-4.959406
  0
VERTEX
  8
PLAN_1
 62
     2
  6
CONTINUOUS
 10
-0.507937
 20
-4.967484
  0
VERTEX
  8
PLAN_1
 62
     2
  6
CONTINUOUS
 10
-0.510630
 20
-4.970850
  0
VERTEX
  8
PLAN_1
 62
     2
  6
CONTINUOUS
 10
-0.514669
 20
-4.975563
  0
VERTEX
  8
PLAN_1
 62
     2
  6
CONTINUOUS
 10
-0.518713
 20
-4.982295
  0
VERTEX
  8
PLAN_1
 62
     2
  6
CONTINUOUS
 10
-0.523425
 20
-4.989701
  0
VERTEX
  8
PLAN_1
 62
     2
  6
CONTINUOUS
 10
-0.528138
 20
-4.998453
  0
VERTEX
  8
PLAN_1
 62
     2
  6
CONTINUOUS
 10
-0.531504
 20
-5.007878
  0
VERTEX
  8
PLAN_1
 62
     2
  6
CONTINUOUS
 10
-0.535543
 20
-5.018654
  0
VERTEX
  8
PLAN_1
 62
     2
  6
CONTINUOUS
 10
-0.537563
 20
-5.030772
  0
VERTEX
  8
PLAN_1
 62
     2
  6
CONTINUOUS
 10
-0.547661
 20
-5.030772
  0
VERTEX
  8
PLAN_1
 62
     2
  6
CONTINUOUS
 10
-0.546315
 20
-5.022693
  0
VERTEX
  8
PLAN_1
 62
     2
  6
CONTINUOUS
 10
-0.544295
 20
-5.014614
  0
VERTEX
  8
PLAN_1
 62
     2
  6
CONTINUOUS
 10
-0.540929
 20
-5.006531
  0
VERTEX
  8
PLAN_1
 62
     2
  6
CONTINUOUS
 10
-0.536890
 20
-4.997780
  0
VERTEX
  8
PLAN_1
 62
     2
  6
CONTINUOUS
 10
-0.532850
 20
-4.989701
  0
VERTEX
  8
PLAN_1
 62
     2
  6
CONTINUOUS
 10
-0.528138
 20
-4.982295
  0
VERTEX
  8
PLAN_1
 62
     2
  6
CONTINUOUS
 10
-0.523425
 20
-4.974890
  0
VERTEX
  8
PLAN_1
 62
     2
  6
CONTINUOUS
 10
-0.518039
 20
-4.968157
  0
VERTEX
  8
PLAN_1
 62
     2
  6
CONTINUOUS
 10
-0.558433
 20
-4.968157
  0
VERTEX
  8
PLAN_1
 62
     2
  6
CONTINUOUS
 10
-0.558433
 20
-4.959406
  0
SEQEND
  8
0
  0
POLYLINE
  8
PLAN_1
 62
     2
  6
CONTINUOUS
 66
     1
 40
0.003000
 41
0.003000
  0
VERTEX
  8
PLAN_1
 62
     2
  6
CONTINUOUS
 10
-0.489087
 20
-4.988354
  0
VERTEX
  8
PLAN_1
 62
     2
  6
CONTINUOUS
 10
-0.487740
 20
-4.987008
  0
VERTEX
  8
PLAN_1
 62
     2
  6
CONTINUOUS
 10
-0.486394
 20
-4.986335
  0
VERTEX
  8
PLAN_1
 62
     2
  6
CONTINUOUS
 10
-0.485047
 20
-4.985661
  0
VERTEX
  8
PLAN_1
 62
     2
  6
CONTINUOUS
 10
-0.483028
 20
-4.984988
  0
VERTEX
  8
PLAN_1
 62
     2
  6
CONTINUOUS
 10
-0.481008
 20
-4.984315
  0
VERTEX
  8
PLAN_1
 62
     2
  6
CONTINUOUS
 10
-0.478988
 20
-4.984315
  0
VERTEX
  8
PLAN_1
 62
     2
  6
CONTINUOUS
 10
-0.476969
 20
-4.983642
  0
VERTEX
  8
PLAN_1
 62
     2
  6
CONTINUOUS
 10
-0.474949
 20
-4.983642
  0
VERTEX
  8
PLAN_1
 62
     2
  6
CONTINUOUS
 10
-0.470236
 20
-4.984315
  0
VERTEX
  8
PLAN_1
 62
     2
  6
CONTINUOUS
 10
-0.466197
 20
-4.984988
  0
VERTEX
  8
PLAN_1
 62
     2
  6
CONTINUOUS
 10
-0.462157
 20
-4.987008
  0
VERTEX
  8
PLAN_1
 62
     2
  6
CONTINUOUS
 10
-0.458118
 20
-4.989701
  0
VERTEX
  8
PLAN_1
 62
     2
  6
CONTINUOUS
 10
-0.455425
 20
-4.993067
  0
VERTEX
  8
PLAN_1
 62
     2
  6
CONTINUOUS
 10
-0.452732
 20
-4.997106
  0
VERTEX
  8
PLAN_1
 62
     2
  6
CONTINUOUS
 10
-0.451386
 20
-5.001819
  0
VERTEX
  8
PLAN_1
 62
     2
  6
CONTINUOUS
 10
-0.450713
 20
-5.007205
  0
VERTEX
  8
PLAN_1
 62
     2
  6
CONTINUOUS
 10
-0.450713
 20
-5.010575
  0
VERTEX
  8
PLAN_1
 62
     2
  6
CONTINUOUS
 10
-0.451386
 20
-5.014614
  0
VERTEX
  8
PLAN_1
 62
     2
  6
CONTINUOUS
 10
-0.453406
 20
-5.018654
  0
VERTEX
  8
PLAN_1
 62
     2
  6
CONTINUOUS
 10
-0.455425
 20
-5.022693
  0
VERTEX
  8
PLAN_1
 62
     2
  6
CONTINUOUS
 10
-0.456772
 20
-5.024713
  0
VERTEX
  8
PLAN_1
 62
     2
  6
CONTINUOUS
 10
-0.458791
 20
-5.026732
  0
VERTEX
  8
PLAN_1
 62
     2
  6
CONTINUOUS
 10
-0.460811
 20
-5.028079
  0
VERTEX
  8
PLAN_1
 62
     2
  6
CONTINUOUS
 10
-0.463504
 20
-5.030098
  0
VERTEX
  8
PLAN_1
 62
     2
  6
CONTINUOUS
 10
-0.466197
 20
-5.030772
  0
VERTEX
  8
PLAN_1
 62
     2
  6
CONTINUOUS
 10
-0.469563
 20
-5.032118
  0
VERTEX
  8
PLAN_1
 62
     2
  6
CONTINUOUS
 10
-0.472929
 20
-5.032791
  0
VERTEX
  8
PLAN_1
 62
     2
  6
CONTINUOUS
 10
-0.476969
 20
-5.032791
  0
VERTEX
  8
PLAN_1
 62
     2
  6
CONTINUOUS
 10
-0.481008
 20
-5.032791
  0
VERTEX
  8
PLAN_1
 62
     2
  6
CONTINUOUS
 10
-0.485047
 20
-5.032118
  0
VERTEX
  8
PLAN_1
 62
     2
  6
CONTINUOUS
 10
-0.488413
 20
-5.030772
  0
VERTEX
  8
PLAN_1
 62
     2
  6
CONTINUOUS
 10
-0.491780
 20
-5.028752
  0
VERTEX
  8
PLAN_1
 62
     2
  6
CONTINUOUS
 10
-0.495146
 20
-5.026059
  0
VERTEX
  8
PLAN_1
 62
     2
  6
CONTINUOUS
 10
-0.497839
 20
-5.022693
  0
VERTEX
  8
PLAN_1
 62
     2
  6
CONTINUOUS
 10
-0.499858
 20
-5.017980
  0
VERTEX
  8
PLAN_1
 62
     2
  6
CONTINUOUS
 10
-0.500531
 20
-5.012594
  0
VERTEX
  8
PLAN_1
 62
     2
  6
CONTINUOUS
 10
-0.491106
 20
-5.012594
  0
VERTEX
  8
PLAN_1
 62
     2
  6
CONTINUOUS
 10
-0.491106
 20
-5.015287
  0
VERTEX
  8
PLAN_1
 62
     2
  6
CONTINUOUS
 10
-0.489760
 20
-5.017980
  0
VERTEX
  8
PLAN_1
 62
     2
  6
CONTINUOUS
 10
-0.488413
 20
-5.020000
  0
VERTEX
  8
PLAN_1
 62
     2
  6
CONTINUOUS
 10
-0.486394
 20
-5.022020
  0
VERTEX
  8
PLAN_1
 62
     2
  6
CONTINUOUS
 10
-0.484374
 20
-5.023366
  0
VERTEX
  8
PLAN_1
 62
     2
  6
CONTINUOUS
 10
-0.481681
 20
-5.024039
  0
VERTEX
  8
PLAN_1
 62
     2
  6
CONTINUOUS
 10
-0.478988
 20
-5.024713
  0
VERTEX
  8
PLAN_1
 62
     2
  6
CONTINUOUS
 10
-0.475622
 20
-5.024713
  0
VERTEX
  8
PLAN_1
 62
     2
  6
CONTINUOUS
 10
-0.472256
 20
-5.024713
  0
VERTEX
  8
PLAN_1
 62
     2
  6
CONTINUOUS
 10
-0.469563
 20
-5.023366
  0
VERTEX
  8
PLAN_1
 62
     2
  6
CONTINUOUS
 10
-0.466870
 20
-5.022020
  0
VERTEX
  8
PLAN_1
 62
     2
  6
CONTINUOUS
 10
-0.464850
 20
-5.020000
  0
VERTEX
  8
PLAN_1
 62
     2
  6
CONTINUOUS
 10
-0.462831
 20
-5.017307
  0
VERTEX
  8
PLAN_1
 62
     2
  6
CONTINUOUS
 10
-0.461484
 20
-5.014614
  0
VERTEX
  8
PLAN_1
 62
     2
  6
CONTINUOUS
 10
-0.460811
 20
-5.011248
  0
VERTEX
  8
PLAN_1
 62
     2
  6
CONTINUOUS
 10
-0.460811
 20
-5.007878
  0
VERTEX
  8
PLAN_1
 62
     2
  6
CONTINUOUS
 10
-0.460811
 20
-5.004512
  0
VERTEX
  8
PLAN_1
 62
     2
  6
CONTINUOUS
 10
-0.461484
 20
-5.001146
  0
VERTEX
  8
PLAN_1
 62
     2
  6
CONTINUOUS
 10
-0.463504
 20
-4.998453
  0
VERTEX
  8
PLAN_1
 62
     2
  6
CONTINUOUS
 10
-0.465524
 20
-4.995760
  0
VERTEX
  8
PLAN_1
 62
     2
  6
CONTINUOUS
 10
-0.467543
 20
-4.994413
  0
VERTEX
  8
PLAN_1
 62
     2
  6
CONTINUOUS
 10
-0.470236
 20
-4.993067
  0
VERTEX
  8
PLAN_1
 62
     2
  6
CONTINUOUS
 10
-0.473602
 20
-4.992394
  0
VERTEX
  8
PLAN_1
 62
     2
  6
CONTINUOUS
 10
-0.476969
 20
-4.991720
  0
VERTEX
  8
PLAN_1
 62
     2
  6
CONTINUOUS
 10
-0.478988
 20
-4.991720
  0
VERTEX
  8
PLAN_1
 62
     2
  6
CONTINUOUS
 10
-0.480335
 20
-4.992394
  0
VERTEX
  8
PLAN_1
 62
     2
  6
CONTINUOUS
 10
-0.482354
 20
-4.993067
  0
VERTEX
  8
PLAN_1
 62
     2
  6
CONTINUOUS
 10
-0.484374
 20
-4.993740
  0
VERTEX
  8
PLAN_1
 62
     2
  6
CONTINUOUS
 10
-0.485720
 20
-4.994413
  0
VERTEX
  8
PLAN_1
 62
     2
  6
CONTINUOUS
 10
-0.487740
 20
-4.995760
  0
VERTEX
  8
PLAN_1
 62
     2
  6
CONTINUOUS
 10
-0.489087
 20
-4.997106
  0
VERTEX
  8
PLAN_1
 62
     2
  6
CONTINUOUS
 10
-0.490433
 20
-4.999126
  0
VERTEX
  8
PLAN_1
 62
     2
  6
CONTINUOUS
 10
-0.497839
 20
-4.998453
  0
VERTEX
  8
PLAN_1
 62
     2
  6
CONTINUOUS
 10
-0.492453
 20
-4.959406
  0
VERTEX
  8
PLAN_1
 62
     2
  6
CONTINUOUS
 10
-0.454752
 20
-4.959406
  0
VERTEX
  8
PLAN_1
 62
     2
  6
CONTINUOUS
 10
-0.454752
 20
-4.968157
  0
VERTEX
  8
PLAN_1
 62
     2
  6
CONTINUOUS
 10
-0.485720
 20
-4.968157
  0
VERTEX
  8
PLAN_1
 62
     2
  6
CONTINUOUS
 10
-0.489087
 20
-4.988354
  0
SEQEND
  8
0
  0
POLYLINE
  8
PLAN_1
 62
     2
  6
CONTINUOUS
 66
     1
 40
0.004039
 41
0.004039
  0
VERTEX
  8
PLAN_1
 62
     2
  6
CONTINUOUS
 10
1.176571
 20
-4.557465
  0
VERTEX
  8
PLAN_1
 62
     2
  6
CONTINUOUS
 10
1.176571
 20
-0.837677
  0
SEQEND
  8
0
  0
SOLID
  8
PLAN_1
 62
     2
 10
1.176571
 20
-0.808055
 11
1.160409
 21
-0.867303
 12
1.176571
 22
-0.808055
 13
1.192055
 23
-0.867303
  0
POLYLINE
  8
PLAN_1
 62
     2
  6
CONTINUOUS
 66
     1
 40
0.003000
 41
0.003000
  0
VERTEX
  8
PLAN_1
 62
     2
  6
CONTINUOUS
 10
1.176571
 20
-0.808055
  0
VERTEX
  8
PLAN_1
 62
     2
  6
CONTINUOUS
 10
1.160409
 20
-0.867303
  0
VERTEX
  8
PLAN_1
 62
     2
  6
CONTINUOUS
 10
1.192055
 20
-0.867303
  0
VERTEX
  8
PLAN_1
 62
     2
  6
CONTINUOUS
 10
1.176571
 20
-0.808055
  0
SEQEND
  8
0
  0
SOLID
  8
PLAN_1
 62
     2
 10
1.176571
 20
-4.587091
 11
1.160409
 21
-4.527843
 12
1.176571
 22
-4.587091
 13
1.192055
 23
-4.527843
  0
POLYLINE
  8
PLAN_1
 62
     2
  6
CONTINUOUS
 66
     1
 40
0.003000
 41
0.003000
  0
VERTEX
  8
PLAN_1
 62
     2
  6
CONTINUOUS
 10
1.176571
 20
-4.587091
  0
VERTEX
  8
PLAN_1
 62
     2
  6
CONTINUOUS
 10
1.160409
 20
-4.527843
  0
VERTEX
  8
PLAN_1
 62
     2
  6
CONTINUOUS
 10
1.192055
 20
-4.527843
  0
VERTEX
  8
PLAN_1
 62
     2
  6
CONTINUOUS
 10
1.176571
 20
-4.587091
  0
SEQEND
  8
0
  0
POLYLINE
  8
PLAN_1
 62
     2
  6
CONTINUOUS
 66
     1
 40
0.003000
 41
0.003000
  0
VERTEX
  8
PLAN_1
 62
     2
  6
CONTINUOUS
 10
1.104531
 20
-2.751098
  0
VERTEX
  8
PLAN_1
 62
     2
  6
CONTINUOUS
 10
1.099819
 20
-2.751098
  0
VERTEX
  8
PLAN_1
 62
     2
  6
CONTINUOUS
 10
1.095106
 20
-2.749752
  0
VERTEX
  8
PLAN_1
 62
     2
  6
CONTINUOUS
 10
1.091067
 20
-2.747732
  0
VERTEX
  8
PLAN_1
 62
     2
  6
CONTINUOUS
 10
1.087024
 20
-2.745035
  0
VERTEX
  8
PLAN_1
 62
     2
  6
CONTINUOUS
 10
1.083657
 20
-2.741669
  0
VERTEX
  8
PLAN_1
 62
     2
  6
CONTINUOUS
 10
1.081638
 20
-2.737630
  0
VERTEX
  8
PLAN_1
 62
     2
  6
CONTINUOUS
 10
1.080291
 20
-2.732917
  0
VERTEX
  8
PLAN_1
 62
     2
  6
CONTINUOUS
 10
1.079618
 20
-2.727531
  0
VERTEX
  8
PLAN_1
 62
     2
  6
CONTINUOUS
 10
1.079618
 20
-2.723492
  0
VERTEX
  8
PLAN_1
 62
     2
  6
CONTINUOUS
 10
1.080291
 20
-2.720126
  0
VERTEX
  8
PLAN_1
 62
     2
  6
CONTINUOUS
 10
1.081638
 20
-2.716760
  0
VERTEX
  8
PLAN_1
 62
     2
  6
CONTINUOUS
 10
1.082984
 20
-2.714067
  0
VERTEX
  8
PLAN_1
 62
     2
  6
CONTINUOUS
 10
1.085004
 20
-2.711374
  0
VERTEX
  8
PLAN_1
 62
     2
  6
CONTINUOUS
 10
1.087024
 20
-2.709354
  0
VERTEX
  8
PLAN_1
 62
     2
  6
CONTINUOUS
 10
1.089717
 20
-2.708008
  0
VERTEX
  8
PLAN_1
 62
     2
  6
CONTINUOUS
 10
1.091740
 20
-2.705988
  0
VERTEX
  8
PLAN_1
 62
     2
  6
CONTINUOUS
 10
1.097126
 20
-2.703969
  0
VERTEX
  8
PLAN_1
 62
     2
  6
CONTINUOUS
 10
1.103185
 20
-2.702622
  0
VERTEX
  8
PLAN_1
 62
     2
  6
CONTINUOUS
 10
1.108571
 20
-2.702622
  0
VERTEX
  8
PLAN_1
 62
     2
  6
CONTINUOUS
 10
1.113283
 20
-2.701949
  0
VERTEX
  8
PLAN_1
 62
     2
  6
CONTINUOUS
 10
1.117323
 20
-2.701949
  0
VERTEX
  8
PLAN_1
 62
     2
  6
CONTINUOUS
 10
1.123382
 20
-2.702622
  0
VERTEX
  8
PLAN_1
 62
     2
  6
CONTINUOUS
 10
1.130114
 20
-2.703969
  0
VERTEX
  8
PLAN_1
 62
     2
  6
CONTINUOUS
 10
1.136846
 20
-2.705988
  0
VERTEX
  8
PLAN_1
 62
     2
  6
CONTINUOUS
 10
1.140213
 20
-2.707335
  0
VERTEX
  8
PLAN_1
 62
     2
  6
CONTINUOUS
 10
1.143579
 20
-2.709354
  0
VERTEX
  8
PLAN_1
 62
     2
  6
CONTINUOUS
 10
1.146272
 20
-2.711374
  0
VERTEX
  8
PLAN_1
 62
     2
  6
CONTINUOUS
 10
1.148965
 20
-2.714067
  0
VERTEX
  8
PLAN_1
 62
     2
  6
CONTINUOUS
 10
1.151657
 20
-2.716760
  0
VERTEX
  8
PLAN_1
 62
     2
  6
CONTINUOUS
 10
1.153004
 20
-2.720126
  0
VERTEX
  8
PLAN_1
 62
     2
  6
CONTINUOUS
 10
1.154350
 20
-2.724165
  0
VERTEX
  8
PLAN_1
 62
     2
  6
CONTINUOUS
 10
1.154350
 20
-2.728878
  0
VERTEX
  8
PLAN_1
 62
     2
  6
CONTINUOUS
 10
1.154350
 20
-2.734264
  0
VERTEX
  8
PLAN_1
 62
     2
  6
CONTINUOUS
 10
1.152331
 20
-2.739650
  0
VERTEX
  8
PLAN_1
 62
     2
  6
CONTINUOUS
 10
1.150311
 20
-2.743016
  0
VERTEX
  8
PLAN_1
 62
     2
  6
CONTINUOUS
 10
1.147618
 20
-2.745709
  0
VERTEX
  8
PLAN_1
 62
     2
  6
CONTINUOUS
 10
1.144252
 20
-2.748406
  0
VERTEX
  8
PLAN_1
 62
     2
  6
CONTINUOUS
 10
1.140886
 20
-2.749752
  0
VERTEX
  8
PLAN_1
 62
     2
  6
CONTINUOUS
 10
1.138193
 20
-2.750425
  0
VERTEX
  8
PLAN_1
 62
     2
  6
CONTINUOUS
 10
1.134827
 20
-2.750425
  0
VERTEX
  8
PLAN_1
 62
     2
  6
CONTINUOUS
 10
1.134827
 20
-2.740996
  0
VERTEX
  8
PLAN_1
 62
     2
  6
CONTINUOUS
 10
1.137520
 20
-2.740996
  0
VERTEX
  8
PLAN_1
 62
     2
  6
CONTINUOUS
 10
1.140213
 20
-2.740323
  0
VERTEX
  8
PLAN_1
 62
     2
  6
CONTINUOUS
 10
1.142232
 20
-2.738976
  0
VERTEX
  8
PLAN_1
 62
     2
  6
CONTINUOUS
 10
1.143579
 20
-2.737630
  0
VERTEX
  8
PLAN_1
 62
     2
  6
CONTINUOUS
 10
1.144925
 20
-2.736283
  0
VERTEX
  8
PLAN_1
 62
     2
  6
CONTINUOUS
 10
1.146272
 20
-2.734264
  0
VERTEX
  8
PLAN_1
 62
     2
  6
CONTINUOUS
 10
1.146945
 20
-2.731571
  0
VERTEX
  8
PLAN_1
 62
     2
  6
CONTINUOUS
 10
1.146945
 20
-2.728878
  0
VERTEX
  8
PLAN_1
 62
     2
  6
CONTINUOUS
 10
1.146272
 20
-2.725512
  0
VERTEX
  8
PLAN_1
 62
     2
  6
CONTINUOUS
 10
1.145598
 20
-2.722146
  0
VERTEX
  8
PLAN_1
 62
     2
  6
CONTINUOUS
 10
1.143579
 20
-2.719453
  0
VERTEX
  8
PLAN_1
 62
     2
  6
CONTINUOUS
 10
1.140213
 20
-2.717433
  0
VERTEX
  8
PLAN_1
 62
     2
  6
CONTINUOUS
 10
1.136846
 20
-2.715413
  0
VERTEX
  8
PLAN_1
 62
     2
  6
CONTINUOUS
 10
1.132134
 20
-2.713394
  0
VERTEX
  8
PLAN_1
 62
     2
  6
CONTINUOUS
 10
1.126075
 20
-2.712047
  0
VERTEX
  8
PLAN_1
 62
     2
  6
CONTINUOUS
 10
1.119343
 20
-2.711374
  0
VERTEX
  8
PLAN_1
 62
     2
  6
CONTINUOUS
 10
1.121362
 20
-2.712720
  0
VERTEX
  8
PLAN_1
 62
     2
  6
CONTINUOUS
 10
1.123382
 20
-2.714067
  0
VERTEX
  8
PLAN_1
 62
     2
  6
CONTINUOUS
 10
1.124728
 20
-2.716087
  0
VERTEX
  8
PLAN_1
 62
     2
  6
CONTINUOUS
 10
1.126075
 20
-2.718106
  0
VERTEX
  8
PLAN_1
 62
     2
  6
CONTINUOUS
 10
1.126748
 20
-2.720799
  0
VERTEX
  8
PLAN_1
 62
     2
  6
CONTINUOUS
 10
1.127421
 20
-2.723492
  0
VERTEX
  8
PLAN_1
 62
     2
  6
CONTINUOUS
 10
1.128094
 20
-2.725512
  0
VERTEX
  8
PLAN_1
 62
     2
  6
CONTINUOUS
 10
1.128094
 20
-2.728205
  0
VERTEX
  8
PLAN_1
 62
     2
  6
CONTINUOUS
 10
1.128094
 20
-2.732917
  0
VERTEX
  8
PLAN_1
 62
     2
  6
CONTINUOUS
 10
1.126748
 20
-2.737630
  0
VERTEX
  8
PLAN_1
 62
     2
  6
CONTINUOUS
 10
1.124728
 20
-2.741669
  0
VERTEX
  8
PLAN_1
 62
     2
  6
CONTINUOUS
 10
1.122035
 20
-2.745035
  0
VERTEX
  8
PLAN_1
 62
     2
  6
CONTINUOUS
 10
1.118669
 20
-2.747732
  0
VERTEX
  8
PLAN_1
 62
     2
  6
CONTINUOUS
 10
1.114630
 20
-2.749752
  0
VERTEX
  8
PLAN_1
 62
     2
  6
CONTINUOUS
 10
1.109917
 20
-2.751098
  0
VERTEX
  8
PLAN_1
 62
     2
  6
CONTINUOUS
 10
1.104531
 20
-2.751098
  0
SEQEND
  8
0
  0
POLYLINE
  8
PLAN_1
 62
     2
  6
CONTINUOUS
 66
     1
 40
0.003000
 41
0.003000
  0
VERTEX
  8
PLAN_1
 62
     2
  6
CONTINUOUS
 10
1.103185
 20
-2.712720
  0
VERTEX
  8
PLAN_1
 62
     2
  6
CONTINUOUS
 10
1.100492
 20
-2.713394
  0
VERTEX
  8
PLAN_1
 62
     2
  6
CONTINUOUS
 10
1.097126
 20
-2.713394
  0
VERTEX
  8
PLAN_1
 62
     2
  6
CONTINUOUS
 10
1.094433
 20
-2.714740
  0
VERTEX
  8
PLAN_1
 62
     2
  6
CONTINUOUS
 10
1.092413
 20
-2.716087
  0
VERTEX
  8
PLAN_1
 62
     2
  6
CONTINUOUS
 10
1.090394
 20
-2.718106
  0
VERTEX
  8
PLAN_1
 62
     2
  6
CONTINUOUS
 10
1.089043
 20
-2.720799
  0
VERTEX
  8
PLAN_1
 62
     2
  6
CONTINUOUS
 10
1.087697
 20
-2.724165
  0
VERTEX
  8
PLAN_1
 62
     2
  6
CONTINUOUS
 10
1.087697
 20
-2.727531
  0
VERTEX
  8
PLAN_1
 62
     2
  6
CONTINUOUS
 10
1.087697
 20
-2.730898
  0
VERTEX
  8
PLAN_1
 62
     2
  6
CONTINUOUS
 10
1.089043
 20
-2.733591
  0
VERTEX
  8
PLAN_1
 62
     2
  6
CONTINUOUS
 10
1.090394
 20
-2.735610
  0
VERTEX
  8
PLAN_1
 62
     2
  6
CONTINUOUS
 10
1.092413
 20
-2.737630
  0
VERTEX
  8
PLAN_1
 62
     2
  6
CONTINUOUS
 10
1.094433
 20
-2.739650
  0
VERTEX
  8
PLAN_1
 62
     2
  6
CONTINUOUS
 10
1.097126
 20
-2.740996
  0
VERTEX
  8
PLAN_1
 62
     2
  6
CONTINUOUS
 10
1.100492
 20
-2.741669
  0
VERTEX
  8
PLAN_1
 62
     2
  6
CONTINUOUS
 10
1.103858
 20
-2.741669
  0
VERTEX
  8
PLAN_1
 62
     2
  6
CONTINUOUS
 10
1.108571
 20
-2.741669
  0
VERTEX
  8
PLAN_1
 62
     2
  6
CONTINUOUS
 10
1.112610
 20
-2.740323
  0
VERTEX
  8
PLAN_1
 62
     2
  6
CONTINUOUS
 10
1.115303
 20
-2.738976
  0
VERTEX
  8
PLAN_1
 62
     2
  6
CONTINUOUS
 10
1.117323
 20
-2.736957
  0
VERTEX
  8
PLAN_1
 62
     2
  6
CONTINUOUS
 10
1.118669
 20
-2.734264
  0
VERTEX
  8
PLAN_1
 62
     2
  6
CONTINUOUS
 10
1.119343
 20
-2.731571
  0
VERTEX
  8
PLAN_1
 62
     2
  6
CONTINUOUS
 10
1.120016
 20
-2.729551
  0
VERTEX
  8
PLAN_1
 62
     2
  6
CONTINUOUS
 10
1.120016
 20
-2.726858
  0
VERTEX
  8
PLAN_1
 62
     2
  6
CONTINUOUS
 10
1.120016
 20
-2.724839
  0
VERTEX
  8
PLAN_1
 62
     2
  6
CONTINUOUS
 10
1.119343
 20
-2.722819
  0
VERTEX
  8
PLAN_1
 62
     2
  6
CONTINUOUS
 10
1.118669
 20
-2.720126
  0
VERTEX
  8
PLAN_1
 62
     2
  6
CONTINUOUS
 10
1.117323
 20
-2.718106
  0
VERTEX
  8
PLAN_1
 62
     2
  6
CONTINUOUS
 10
1.114630
 20
-2.716087
  0
VERTEX
  8
PLAN_1
 62
     2
  6
CONTINUOUS
 10
1.111937
 20
-2.714740
  0
VERTEX
  8
PLAN_1
 62
     2
  6
CONTINUOUS
 10
1.107898
 20
-2.713394
  0
VERTEX
  8
PLAN_1
 62
     2
  6
CONTINUOUS
 10
1.103185
 20
-2.712720
  0
SEQEND
  8
0
  0
POLYLINE
  8
PLAN_1
 62
     2
  6
CONTINUOUS
 66
     1
 40
0.003000
 41
0.003000
  0
VERTEX
  8
PLAN_1
 62
     2
  6
CONTINUOUS
 10
1.109917
 20
-2.682425
  0
VERTEX
  8
PLAN_1
 62
     2
  6
CONTINUOUS
 10
1.109244
 20
-2.681079
  0
VERTEX
  8
PLAN_1
 62
     2
  6
CONTINUOUS
 10
1.108571
 20
-2.679732
  0
VERTEX
  8
PLAN_1
 62
     2
  6
CONTINUOUS
 10
1.107898
 20
-2.678386
  0
VERTEX
  8
PLAN_1
 62
     2
  6
CONTINUOUS
 10
1.107224
 20
-2.676366
  0
VERTEX
  8
PLAN_1
 62
     2
  6
CONTINUOUS
 10
1.106551
 20
-2.675020
  0
VERTEX
  8
PLAN_1
 62
     2
  6
CONTINUOUS
 10
1.105878
 20
-2.672996
  0
VERTEX
  8
PLAN_1
 62
     2
  6
CONTINUOUS
 10
1.105878
 20
-2.670976
  0
VERTEX
  8
PLAN_1
 62
     2
  6
CONTINUOUS
 10
1.105205
 20
-2.668283
  0
VERTEX
  8
PLAN_1
 62
     2
  6
CONTINUOUS
 10
1.105878
 20
-2.663571
  0
VERTEX
  8
PLAN_1
 62
     2
  6
CONTINUOUS
 10
1.107224
 20
-2.659531
  0
VERTEX
  8
PLAN_1
 62
     2
  6
CONTINUOUS
 10
1.109244
 20
-2.655492
  0
VERTEX
  8
PLAN_1
 62
     2
  6
CONTINUOUS
 10
1.111264
 20
-2.652126
  0
VERTEX
  8
PLAN_1
 62
     2
  6
CONTINUOUS
 10
1.114630
 20
-2.648760
  0
VERTEX
  8
PLAN_1
 62
     2
  6
CONTINUOUS
 10
1.118669
 20
-2.646067
  0
VERTEX
  8
PLAN_1
 62
     2
  6
CONTINUOUS
 10
1.123382
 20
-2.644720
  0
VERTEX
  8
PLAN_1
 62
     2
  6
CONTINUOUS
 10
1.128768
 20
-2.644047
  0
VERTEX
  8
PLAN_1
 62
     2
  6
CONTINUOUS
 10
1.132134
 20
-2.644720
  0
VERTEX
  8
PLAN_1
 62
     2
  6
CONTINUOUS
 10
1.136173
 20
-2.645394
  0
VERTEX
  8
PLAN_1
 62
     2
  6
CONTINUOUS
 10
1.140886
 20
-2.646740
  0
VERTEX
  8
PLAN_1
 62
     2
  6
CONTINUOUS
 10
1.144925
 20
-2.648760
  0
VERTEX
  8
PLAN_1
 62
     2
  6
CONTINUOUS
 10
1.148291
 20
-2.652126
  0
VERTEX
  8
PLAN_1
 62
     2
  6
CONTINUOUS
 10
1.151657
 20
-2.656839
  0
VERTEX
  8
PLAN_1
 62
     2
  6
CONTINUOUS
 10
1.153004
 20
-2.660205
  0
VERTEX
  8
PLAN_1
 62
     2
  6
CONTINUOUS
 10
1.153677
 20
-2.662898
  0
VERTEX
  8
PLAN_1
 62
     2
  6
CONTINUOUS
 10
1.154350
 20
-2.666937
  0
VERTEX
  8
PLAN_1
 62
     2
  6
CONTINUOUS
 10
1.154350
 20
-2.670976
  0
VERTEX
  8
PLAN_1
 62
     2
  6
CONTINUOUS
 10
1.154350
 20
-2.674346
  0
VERTEX
  8
PLAN_1
 62
     2
  6
CONTINUOUS
 10
1.153677
 20
-2.678386
  0
VERTEX
  8
PLAN_1
 62
     2
  6
CONTINUOUS
 10
1.152331
 20
-2.681752
  0
VERTEX
  8
PLAN_1
 62
     2
  6
CONTINUOUS
 10
1.150311
 20
-2.685791
  0
VERTEX
  8
PLAN_1
 62
     2
  6
CONTINUOUS
 10
1.148291
 20
-2.688484
  0
VERTEX
  8
PLAN_1
 62
     2
  6
CONTINUOUS
 10
1.144252
 20
-2.691177
  0
VERTEX
  8
PLAN_1
 62
     2
  6
CONTINUOUS
 10
1.140213
 20
-2.693197
  0
VERTEX
  8
PLAN_1
 62
     2
  6
CONTINUOUS
 10
1.134154
 20
-2.694543
  0
VERTEX
  8
PLAN_1
 62
     2
  6
CONTINUOUS
 10
1.134154
 20
-2.685118
  0
VERTEX
  8
PLAN_1
 62
     2
  6
CONTINUOUS
 10
1.137520
 20
-2.684445
  0
VERTEX
  8
PLAN_1
 62
     2
  6
CONTINUOUS
 10
1.140213
 20
-2.683098
  0
VERTEX
  8
PLAN_1
 62
     2
  6
CONTINUOUS
 10
1.142232
 20
-2.681752
  0
VERTEX
  8
PLAN_1
 62
     2
  6
CONTINUOUS
 10
1.143579
 20
-2.679732
  0
VERTEX
  8
PLAN_1
 62
     2
  6
CONTINUOUS
 10
1.144925
 20
-2.677713
  0
VERTEX
  8
PLAN_1
 62
     2
  6
CONTINUOUS
 10
1.146272
 20
-2.675020
  0
VERTEX
  8
PLAN_1
 62
     2
  6
CONTINUOUS
 10
1.146272
 20
-2.672323
  0
VERTEX
  8
PLAN_1
 62
     2
  6
CONTINUOUS
 10
1.146945
 20
-2.669630
  0
VERTEX
  8
PLAN_1
 62
     2
  6
CONTINUOUS
 10
1.146272
 20
-2.666264
  0
VERTEX
  8
PLAN_1
 62
     2
  6
CONTINUOUS
 10
1.145598
 20
-2.662898
  0
VERTEX
  8
PLAN_1
 62
     2
  6
CONTINUOUS
 10
1.143579
 20
-2.660205
  0
VERTEX
  8
PLAN_1
 62
     2
  6
CONTINUOUS
 10
1.141559
 20
-2.658185
  0
VERTEX
  8
PLAN_1
 62
     2
  6
CONTINUOUS
 10
1.139539
 20
-2.656165
  0
VERTEX
  8
PLAN_1
 62
     2
  6
CONTINUOUS
 10
1.136173
 20
-2.654819
  0
VERTEX
  8
PLAN_1
 62
     2
  6
CONTINUOUS
 10
1.133480
 20
-2.654146
  0
VERTEX
  8
PLAN_1
 62
     2
  6
CONTINUOUS
 10
1.130114
 20
-2.654146
  0
VERTEX
  8
PLAN_1
 62
     2
  6
CONTINUOUS
 10
1.126075
 20
-2.654146
  0
VERTEX
  8
PLAN_1
 62
     2
  6
CONTINUOUS
 10
1.122709
 20
-2.655492
  0
VERTEX
  8
PLAN_1
 62
     2
  6
CONTINUOUS
 10
1.120016
 20
-2.656839
  0
VERTEX
  8
PLAN_1
 62
     2
  6
CONTINUOUS
 10
1.117996
 20
-2.658858
  0
VERTEX
  8
PLAN_1
 62
     2
  6
CONTINUOUS
 10
1.115976
 20
-2.660878
  0
VERTEX
  8
PLAN_1
 62
     2
  6
CONTINUOUS
 10
1.114630
 20
-2.664244
  0
VERTEX
  8
PLAN_1
 62
     2
  6
CONTINUOUS
 10
1.113957
 20
-2.666937
  0
VERTEX
  8
PLAN_1
 62
     2
  6
CONTINUOUS
 10
1.113957
 20
-2.670303
  0
VERTEX
  8
PLAN_1
 62
     2
  6
CONTINUOUS
 10
1.113957
 20
-2.672323
  0
VERTEX
  8
PLAN_1
 62
     2
  6
CONTINUOUS
 10
1.113957
 20
-2.674346
  0
VERTEX
  8
PLAN_1
 62
     2
  6
CONTINUOUS
 10
1.114630
 20
-2.675693
  0
VERTEX
  8
PLAN_1
 62
     2
  6
CONTINUOUS
 10
1.115303
 20
-2.677713
  0
VERTEX
  8
PLAN_1
 62
     2
  6
CONTINUOUS
 10
1.116650
 20
-2.679732
  0
VERTEX
  8
PLAN_1
 62
     2
  6
CONTINUOUS
 10
1.117996
 20
-2.681079
  0
VERTEX
  8
PLAN_1
 62
     2
  6
CONTINUOUS
 10
1.119343
 20
-2.682425
  0
VERTEX
  8
PLAN_1
 62
     2
  6
CONTINUOUS
 10
1.120689
 20
-2.683772
  0
VERTEX
  8
PLAN_1
 62
     2
  6
CONTINUOUS
 10
1.120016
 20
-2.691850
  0
VERTEX
  8
PLAN_1
 62
     2
  6
CONTINUOUS
 10
1.080965
 20
-2.686465
  0
VERTEX
  8
PLAN_1
 62
     2
  6
CONTINUOUS
 10
1.080965
 20
-2.648087
  0
VERTEX
  8
PLAN_1
 62
     2
  6
CONTINUOUS
 10
1.089717
 20
-2.648087
  0
VERTEX
  8
PLAN_1
 62
     2
  6
CONTINUOUS
 10
1.089717
 20
-2.679059
  0
VERTEX
  8
PLAN_1
 62
     2
  6
CONTINUOUS
 10
1.109917
 20
-2.682425
  0
SEQEND
  8
0
  0
POLYLINE
  8
PLAN_1
 62
     2
  6
CONTINUOUS
 66
     1
 40
0.004039
 41
0.004039
  0
VERTEX
  8
PLAN_1
 62
     2
  6
CONTINUOUS
 10
1.015657
 20
5.314614
  0
VERTEX
  8
PLAN_1
 62
     2
  6
CONTINUOUS
 10
1.015657
 20
-0.993201
  0
SEQEND
  8
0
  0
POLYLINE
  8
PLAN_1
 62
     2
  6
CONTINUOUS
 66
     1
 40
0.004039
 41
0.004039
  0
VERTEX
  8
PLAN_1
 62
     2
  6
CONTINUOUS
 10
1.200134
 20
-4.587091
  0
VERTEX
  8
PLAN_1
 62
     2
  6
CONTINUOUS
 10
0.841283
 20
-4.587091
  0
SEQEND
  8
0
  0
POLYLINE
  8
PLAN_1
 62
     2
  6
CONTINUOUS
 66
     1
 40
0.004039
 41
0.004039
  0
VERTEX
  8
PLAN_1
 62
     2
  6
CONTINUOUS
 10
1.021720
 20
-4.403287
  0
VERTEX
  8
PLAN_1
 62
     2
  6
CONTINUOUS
 10
1.021720
 20
-5.077898
  0
SEQEND
  8
0
  0
POLYLINE
  8
PLAN_1
 62
     2
  6
CONTINUOUS
 66
     1
 40
0.004039
 41
0.004039
  0
VERTEX
  8
PLAN_1
 62
     2
  6
CONTINUOUS
 10
-1.066075
 20
-4.403287
  0
VERTEX
  8
PLAN_1
 62
     2
  6
CONTINUOUS
 10
-1.066075
 20
-4.920354
  0
SEQEND
  8
0
  0
POLYLINE
  8
PLAN_1
 62
     2
  6
CONTINUOUS
 66
     1
 40
0.004039
 41
0.004039
  0
VERTEX
  8
PLAN_1
 62
     2
  6
CONTINUOUS
 10
-0.597484
 20
-4.605268
  0
VERTEX
  8
PLAN_1
 62
     2
  6
CONTINUOUS
 10
-0.597484
 20
-4.762811
  0
SEQEND
  8
0
  0
POLYLINE
  8
PLAN_1
 62
     2
  6
CONTINUOUS
 66
     1
 40
0.004039
 41
0.004039
  0
VERTEX
  8
PLAN_1
 62
     2
  6
CONTINUOUS
 10
0.559185
 20
-4.605268
  0
VERTEX
  8
PLAN_1
 62
     2
  6
CONTINUOUS
 10
0.559185
 20
-4.762811
  0
SEQEND
  8
0
  0
POLYLINE
  8
PLAN_1
 62
     2
  6
CONTINUOUS
 66
     1
 40
0.004039
 41
0.004039
  0
VERTEX
  8
PLAN_1
 62
     2
  6
CONTINUOUS
 10
-2.029516
 20
-1.869791
  0
VERTEX
  8
PLAN_1
 62
     2
  6
CONTINUOUS
 10
-2.029516
 20
-5.077898
  0
SEQEND
  8
0
  0
POLYLINE
  8
PLAN_1
 62
     2
  6
CONTINUOUS
 66
     1
 40
0.004039
 41
0.004039
  0
VERTEX
  8
PLAN_1
 62
     2
  6
CONTINUOUS
 10
-0.698472
 20
4.100043
  0
VERTEX
  8
PLAN_1
 62
     2
  6
CONTINUOUS
 10
-2.138587
 20
4.100043
  0
SEQEND
  8
0
  0
SOLID
  8
PLAN_1
 62
     2
 10
-2.108961
 20
4.100043
 11
-2.168209
 21
4.115531
 12
-2.108961
 22
4.100043
 13
-2.168209
 23
4.083886
  0
POLYLINE
  8
PLAN_1
 62
     2
  6
CONTINUOUS
 66
     1
 40
0.003000
 41
0.003000
  0
VERTEX
  8
PLAN_1
 62
     2
  6
CONTINUOUS
 10
-2.108961
 20
4.100043
  0
VERTEX
  8
PLAN_1
 62
     2
  6
CONTINUOUS
 10
-2.168209
 20
4.115531
  0
VERTEX
  8
PLAN_1
 62
     2
  6
CONTINUOUS
 10
-2.168209
 20
4.083886
  0
VERTEX
  8
PLAN_1
 62
     2
  6
CONTINUOUS
 10
-2.108961
 20
4.100043
  0
SEQEND
  8
0
  0
SOLID
  8
PLAN_1
 62
     2
 10
-0.999421
 20
4.100043
 11
-0.940173
 21
4.115531
 12
-0.999421
 22
4.100043
 13
-0.940173
 23
4.083886
  0
POLYLINE
  8
PLAN_1
 62
     2
  6
CONTINUOUS
 66
     1
 40
0.003000
 41
0.003000
  0
VERTEX
  8
PLAN_1
 62
     2
  6
CONTINUOUS
 10
-0.999421
 20
4.100043
  0
VERTEX
  8
PLAN_1
 62
     2
  6
CONTINUOUS
 10
-0.940173
 20
4.115531
  0
VERTEX
  8
PLAN_1
 62
     2
  6
CONTINUOUS
 10
-0.940173
 20
4.083886
  0
VERTEX
  8
PLAN_1
 62
     2
  6
CONTINUOUS
 10
-0.999421
 20
4.100043
  0
SEQEND
  8
0
  0
POLYLINE
  8
PLAN_1
 62
     2
  6
CONTINUOUS
 66
     1
 40
0.003000
 41
0.003000
  0
VERTEX
  8
PLAN_1
 62
     2
  6
CONTINUOUS
 10
-0.843898
 20
4.187571
  0
VERTEX
  8
PLAN_1
 62
     2
  6
CONTINUOUS
 10
-0.841878
 20
4.184201
  0
VERTEX
  8
PLAN_1
 62
     2
  6
CONTINUOUS
 10
-0.839858
 20
4.180835
  0
VERTEX
  8
PLAN_1
 62
     2
  6
CONTINUOUS
 10
-0.838512
 20
4.177469
  0
VERTEX
  8
PLAN_1
 62
     2
  6
CONTINUOUS
 10
-0.837165
 20
4.174102
  0
VERTEX
  8
PLAN_1
 62
     2
  6
CONTINUOUS
 10
-0.836492
 20
4.170736
  0
VERTEX
  8
PLAN_1
 62
     2
  6
CONTINUOUS
 10
-0.835819
 20
4.167370
  0
VERTEX
  8
PLAN_1
 62
     2
  6
CONTINUOUS
 10
-0.835819
 20
4.164004
  0
VERTEX
  8
PLAN_1
 62
     2
  6
CONTINUOUS
 10
-0.835819
 20
4.160638
  0
VERTEX
  8
PLAN_1
 62
     2
  6
CONTINUOUS
 10
-0.835819
 20
4.154579
  0
VERTEX
  8
PLAN_1
 62
     2
  6
CONTINUOUS
 10
-0.837165
 20
4.147846
  0
VERTEX
  8
PLAN_1
 62
     2
  6
CONTINUOUS
 10
-0.839858
 20
4.141114
  0
VERTEX
  8
PLAN_1
 62
     2
  6
CONTINUOUS
 10
-0.843224
 20
4.135055
  0
VERTEX
  8
PLAN_1
 62
     2
  6
CONTINUOUS
 10
-0.845244
 20
4.132362
  0
VERTEX
  8
PLAN_1
 62
     2
  6
CONTINUOUS
 10
-0.847937
 20
4.129669
  0
VERTEX
  8
PLAN_1
 62
     2
  6
CONTINUOUS
 10
-0.851303
 20
4.126976
  0
VERTEX
  8
PLAN_1
 62
     2
  6
CONTINUOUS
 10
-0.854669
 20
4.125630
  0
VERTEX
  8
PLAN_1
 62
     2
  6
CONTINUOUS
 10
-0.858035
 20
4.123610
  0
VERTEX
  8
PLAN_1
 62
     2
  6
CONTINUOUS
 10
-0.862075
 20
4.122264
  0
VERTEX
  8
PLAN_1
 62
     2
  6
CONTINUOUS
 10
-0.866787
 20
4.121591
  0
VERTEX
  8
PLAN_1
 62
     2
  6
CONTINUOUS
 10
-0.872173
 20
4.121591
  0
VERTEX
  8
PLAN_1
 62
     2
  6
CONTINUOUS
 10
-0.875539
 20
4.121591
  0
VERTEX
  8
PLAN_1
 62
     2
  6
CONTINUOUS
 10
-0.879583
 20
4.122264
  0
VERTEX
  8
PLAN_1
 62
     2
  6
CONTINUOUS
 10
-0.882949
 20
4.122937
  0
VERTEX
  8
PLAN_1
 62
     2
  6
CONTINUOUS
 10
-0.886315
 20
4.123610
  0
VERTEX
  8
PLAN_1
 62
     2
  6
CONTINUOUS
 10
-0.889008
 20
4.124957
  0
VERTEX
  8
PLAN_1
 62
     2
  6
CONTINUOUS
 10
-0.891701
 20
4.126976
  0
VERTEX
  8
PLAN_1
 62
     2
  6
CONTINUOUS
 10
-0.894394
 20
4.128323
  0
VERTEX
  8
PLAN_1
 62
     2
  6
CONTINUOUS
 10
-0.896413
 20
4.130343
  0
VERTEX
  8
PLAN_1
 62
     2
  6
CONTINUOUS
 10
-0.904492
 20
4.121591
  0
VERTEX
  8
PLAN_1
 62
     2
  6
CONTINUOUS
 10
-0.907858
 20
4.124283
  0
VERTEX
  8
PLAN_1
 62
     2
  6
CONTINUOUS
 10
-0.899780
 20
4.133709
  0
VERTEX
  8
PLAN_1
 62
     2
  6
CONTINUOUS
 10
-0.901799
 20
4.137075
  0
VERTEX
  8
PLAN_1
 62
     2
  6
CONTINUOUS
 10
-0.903819
 20
4.139768
  0
VERTEX
  8
PLAN_1
 62
     2
  6
CONTINUOUS
 10
-0.905165
 20
4.143807
  0
VERTEX
  8
PLAN_1
 62
     2
  6
CONTINUOUS
 10
-0.906512
 20
4.147173
  0
VERTEX
  8
PLAN_1
 62
     2
  6
CONTINUOUS
 10
-0.907185
 20
4.150539
  0
VERTEX
  8
PLAN_1
 62
     2
  6
CONTINUOUS
 10
-0.907858
 20
4.153906
  0
VERTEX
  8
PLAN_1
 62
     2
  6
CONTINUOUS
 10
-0.908531
 20
4.157272
  0
VERTEX
  8
PLAN_1
 62
     2
  6
CONTINUOUS
 10
-0.908531
 20
4.160638
  0
VERTEX
  8
PLAN_1
 62
     2
  6
CONTINUOUS
 10
-0.907858
 20
4.167370
  0
VERTEX
  8
PLAN_1
 62
     2
  6
CONTINUOUS
 10
-0.906512
 20
4.173429
  0
VERTEX
  8
PLAN_1
 62
     2
  6
CONTINUOUS
 10
-0.904492
 20
4.180161
  0
VERTEX
  8
PLAN_1
 62
     2
  6
CONTINUOUS
 10
-0.900453
 20
4.186224
  0
VERTEX
  8
PLAN_1
 62
     2
  6
CONTINUOUS
 10
-0.898433
 20
4.189591
  0
VERTEX
  8
PLAN_1
 62
     2
  6
CONTINUOUS
 10
-0.895740
 20
4.191610
  0
VERTEX
  8
PLAN_1
 62
     2
  6
CONTINUOUS
 10
-0.893047
 20
4.194303
  0
VERTEX
  8
PLAN_1
 62
     2
  6
CONTINUOUS
 10
-0.889681
 20
4.196323
  0
VERTEX
  8
PLAN_1
 62
     2
  6
CONTINUOUS
 10
-0.885642
 20
4.197669
  0
VERTEX
  8
PLAN_1
 62
     2
  6
CONTINUOUS
 10
-0.881602
 20
4.199016
  0
VERTEX
  8
PLAN_1
 62
     2
  6
CONTINUOUS
 10
-0.876886
 20
4.199689
  0
VERTEX
  8
PLAN_1
 62
     2
  6
CONTINUOUS
 10
-0.872173
 20
4.200362
  0
VERTEX
  8
PLAN_1
 62
     2
  6
CONTINUOUS
 10
-0.868134
 20
4.199689
  0
VERTEX
  8
PLAN_1
 62
     2
  6
CONTINUOUS
 10
-0.864094
 20
4.199689
  0
VERTEX
  8
PLAN_1
 62
     2
  6
CONTINUOUS
 10
-0.860728
 20
4.198343
  0
VERTEX
  8
PLAN_1
 62
     2
  6
CONTINUOUS
 10
-0.857362
 20
4.197669
  0
VERTEX
  8
PLAN_1
 62
     2
  6
CONTINUOUS
 10
-0.854669
 20
4.196323
  0
VERTEX
  8
PLAN_1
 62
     2
  6
CONTINUOUS
 10
-0.851976
 20
4.194303
  0
VERTEX
  8
PLAN_1
 62
     2
  6
CONTINUOUS
 10
-0.849283
 20
4.192957
  0
VERTEX
  8
PLAN_1
 62
     2
  6
CONTINUOUS
 10
-0.847264
 20
4.190937
  0
VERTEX
  8
PLAN_1
 62
     2
  6
CONTINUOUS
 10
-0.838512
 20
4.200362
  0
VERTEX
  8
PLAN_1
 62
     2
  6
CONTINUOUS
 10
-0.835146
 20
4.196996
  0
VERTEX
  8
PLAN_1
 62
     2
  6
CONTINUOUS
 10
-0.843898
 20
4.187571
  0
SEQEND
  8
0
  0
POLYLINE
  8
PLAN_1
 62
     2
  6
CONTINUOUS
 66
     1
 40
0.003000
 41
0.003000
  0
VERTEX
  8
PLAN_1
 62
     2
  6
CONTINUOUS
 10
-0.889681
 20
4.137748
  0
VERTEX
  8
PLAN_1
 62
     2
  6
CONTINUOUS
 10
-0.888335
 20
4.136402
  0
VERTEX
  8
PLAN_1
 62
     2
  6
CONTINUOUS
 10
-0.886315
 20
4.134382
  0
VERTEX
  8
PLAN_1
 62
     2
  6
CONTINUOUS
 10
-0.884295
 20
4.133035
  0
VERTEX
  8
PLAN_1
 62
     2
  6
CONTINUOUS
 10
-0.882276
 20
4.132362
  0
VERTEX
  8
PLAN_1
 62
     2
  6
CONTINUOUS
 10
-0.879583
 20
4.131689
  0
VERTEX
  8
PLAN_1
 62
     2
  6
CONTINUOUS
 10
-0.877559
 20
4.131016
  0
VERTEX
  8
PLAN_1
 62
     2
  6
CONTINUOUS
 10
-0.874866
 20
4.130343
  0
VERTEX
  8
PLAN_1
 62
     2
  6
CONTINUOUS
 10
-0.872173
 20
4.130343
  0
VERTEX
  8
PLAN_1
 62
     2
  6
CONTINUOUS
 10
-0.866114
 20
4.131016
  0
VERTEX
  8
PLAN_1
 62
     2
  6
CONTINUOUS
 10
-0.860728
 20
4.132362
  0
VERTEX
  8
PLAN_1
 62
     2
  6
CONTINUOUS
 10
-0.856689
 20
4.135055
  0
VERTEX
  8
PLAN_1
 62
     2
  6
CONTINUOUS
 10
-0.852650
 20
4.139094
  0
VERTEX
  8
PLAN_1
 62
     2
  6
CONTINUOUS
 10
-0.849957
 20
4.143134
  0
VERTEX
  8
PLAN_1
 62
     2
  6
CONTINUOUS
 10
-0.847937
 20
4.148520
  0
VERTEX
  8
PLAN_1
 62
     2
  6
CONTINUOUS
 10
-0.846591
 20
4.154579
  0
VERTEX
  8
PLAN_1
 62
     2
  6
CONTINUOUS
 10
-0.845917
 20
4.160638
  0
VERTEX
  8
PLAN_1
 62
     2
  6
CONTINUOUS
 10
-0.845917
 20
4.163331
  0
VERTEX
  8
PLAN_1
 62
     2
  6
CONTINUOUS
 10
-0.845917
 20
4.166024
  0
VERTEX
  8
PLAN_1
 62
     2
  6
CONTINUOUS
 10
-0.846591
 20
4.168717
  0
VERTEX
  8
PLAN_1
 62
     2
  6
CONTINUOUS
 10
-0.847264
 20
4.171409
  0
VERTEX
  8
PLAN_1
 62
     2
  6
CONTINUOUS
 10
-0.847937
 20
4.173429
  0
VERTEX
  8
PLAN_1
 62
     2
  6
CONTINUOUS
 10
-0.848610
 20
4.176122
  0
VERTEX
  8
PLAN_1
 62
     2
  6
CONTINUOUS
 10
-0.849957
 20
4.178142
  0
VERTEX
  8
PLAN_1
 62
     2
  6
CONTINUOUS
 10
-0.851303
 20
4.180161
  0
VERTEX
  8
PLAN_1
 62
     2
  6
CONTINUOUS
 10
-0.889681
 20
4.137748
  0
SEQEND
  8
0
  0
POLYLINE
  8
PLAN_1
 62
     2
  6
CONTINUOUS
 66
     1
 40
0.003000
 41
0.003000
  0
VERTEX
  8
PLAN_1
 62
     2
  6
CONTINUOUS
 10
-0.853996
 20
4.183528
  0
VERTEX
  8
PLAN_1
 62
     2
  6
CONTINUOUS
 10
-0.855343
 20
4.185551
  0
VERTEX
  8
PLAN_1
 62
     2
  6
CONTINUOUS
 10
-0.857362
 20
4.186898
  0
VERTEX
  8
PLAN_1
 62
     2
  6
CONTINUOUS
 10
-0.859382
 20
4.188244
  0
VERTEX
  8
PLAN_1
 62
     2
  6
CONTINUOUS
 10
-0.861402
 20
4.188917
  0
VERTEX
  8
PLAN_1
 62
     2
  6
CONTINUOUS
 10
-0.864094
 20
4.190264
  0
VERTEX
  8
PLAN_1
 62
     2
  6
CONTINUOUS
 10
-0.866787
 20
4.190937
  0
VERTEX
  8
PLAN_1
 62
     2
  6
CONTINUOUS
 10
-0.868807
 20
4.190937
  0
VERTEX
  8
PLAN_1
 62
     2
  6
CONTINUOUS
 10
-0.872173
 20
4.190937
  0
VERTEX
  8
PLAN_1
 62
     2
  6
CONTINUOUS
 10
-0.877559
 20
4.190264
  0
VERTEX
  8
PLAN_1
 62
     2
  6
CONTINUOUS
 10
-0.882949
 20
4.188917
  0
VERTEX
  8
PLAN_1
 62
     2
  6
CONTINUOUS
 10
-0.886988
 20
4.186224
  0
VERTEX
  8
PLAN_1
 62
     2
  6
CONTINUOUS
 10
-0.891028
 20
4.182854
  0
VERTEX
  8
PLAN_1
 62
     2
  6
CONTINUOUS
 10
-0.893720
 20
4.178142
  0
VERTEX
  8
PLAN_1
 62
     2
  6
CONTINUOUS
 10
-0.896413
 20
4.172756
  0
VERTEX
  8
PLAN_1
 62
     2
  6
CONTINUOUS
 10
-0.897760
 20
4.167370
  0
VERTEX
  8
PLAN_1
 62
     2
  6
CONTINUOUS
 10
-0.897760
 20
4.160638
  0
VERTEX
  8
PLAN_1
 62
     2
  6
CONTINUOUS
 10
-0.897760
 20
4.157945
  0
VERTEX
  8
PLAN_1
 62
     2
  6
CONTINUOUS
 10
-0.897760
 20
4.155252
  0
VERTEX
  8
PLAN_1
 62
     2
  6
CONTINUOUS
 10
-0.897087
 20
4.152559
  0
VERTEX
  8
PLAN_1
 62
     2
  6
CONTINUOUS
 10
-0.896413
 20
4.149866
  0
VERTEX
  8
PLAN_1
 62
     2
  6
CONTINUOUS
 10
-0.895740
 20
4.147846
  0
VERTEX
  8
PLAN_1
 62
     2
  6
CONTINUOUS
 10
-0.895067
 20
4.145154
  0
VERTEX
  8
PLAN_1
 62
     2
  6
CONTINUOUS
 10
-0.893720
 20
4.143134
  0
VERTEX
  8
PLAN_1
 62
     2
  6
CONTINUOUS
 10
-0.892374
 20
4.141114
  0
VERTEX
  8
PLAN_1
 62
     2
  6
CONTINUOUS
 10
-0.853996
 20
4.183528
  0
SEQEND
  8
0
  0
POLYLINE
  8
PLAN_1
 62
     2
  6
CONTINUOUS
 66
     1
 40
0.003000
 41
0.003000
  0
VERTEX
  8
PLAN_1
 62
     2
  6
CONTINUOUS
 10
-0.827067
 20
4.170063
  0
VERTEX
  8
PLAN_1
 62
     2
  6
CONTINUOUS
 10
-0.826394
 20
4.174776
  0
VERTEX
  8
PLAN_1
 62
     2
  6
CONTINUOUS
 10
-0.825720
 20
4.178142
  0
VERTEX
  8
PLAN_1
 62
     2
  6
CONTINUOUS
 10
-0.825047
 20
4.181508
  0
VERTEX
  8
PLAN_1
 62
     2
  6
CONTINUOUS
 10
-0.823701
 20
4.184201
  0
VERTEX
  8
PLAN_1
 62
     2
  6
CONTINUOUS
 10
-0.822354
 20
4.186898
  0
VERTEX
  8
PLAN_1
 62
     2
  6
CONTINUOUS
 10
-0.821008
 20
4.188917
  0
VERTEX
  8
PLAN_1
 62
     2
  6
CONTINUOUS
 10
-0.818988
 20
4.190937
  0
VERTEX
  8
PLAN_1
 62
     2
  6
CONTINUOUS
 10
-0.816969
 20
4.192283
  0
VERTEX
  8
PLAN_1
 62
     2
  6
CONTINUOUS
 10
-0.812929
 20
4.194303
  0
VERTEX
  8
PLAN_1
 62
     2
  6
CONTINUOUS
 10
-0.808890
 20
4.195650
  0
VERTEX
  8
PLAN_1
 62
     2
  6
CONTINUOUS
 10
-0.804846
 20
4.196323
  0
VERTEX
  8
PLAN_1
 62
     2
  6
CONTINUOUS
 10
-0.801480
 20
4.196323
  0
VERTEX
  8
PLAN_1
 62
     2
  6
CONTINUOUS
 10
-0.796768
 20
4.196323
  0
VERTEX
  8
PLAN_1
 62
     2
  6
CONTINUOUS
 10
-0.792728
 20
4.194976
  0
VERTEX
  8
PLAN_1
 62
     2
  6
CONTINUOUS
 10
-0.788689
 20
4.192957
  0
VERTEX
  8
PLAN_1
 62
     2
  6
CONTINUOUS
 10
-0.785323
 20
4.190937
  0
VERTEX
  8
PLAN_1
 62
     2
  6
CONTINUOUS
 10
-0.782630
 20
4.187571
  0
VERTEX
  8
PLAN_1
 62
     2
  6
CONTINUOUS
 10
-0.780610
 20
4.183528
  0
VERTEX
  8
PLAN_1
 62
     2
  6
CONTINUOUS
 10
-0.779264
 20
4.179488
  0
VERTEX
  8
PLAN_1
 62
     2
  6
CONTINUOUS
 10
-0.778591
 20
4.174776
  0
VERTEX
  8
PLAN_1
 62
     2
  6
CONTINUOUS
 10
-0.779264
 20
4.170063
  0
VERTEX
  8
PLAN_1
 62
     2
  6
CONTINUOUS
 10
-0.779937
 20
4.166024
  0
VERTEX
  8
PLAN_1
 62
     2
  6
CONTINUOUS
 10
-0.781957
 20
4.162657
  0
VERTEX
  8
PLAN_1
 62
     2
  6
CONTINUOUS
 10
-0.784650
 20
4.159965
  0
VERTEX
  8
PLAN_1
 62
     2
  6
CONTINUOUS
 10
-0.787343
 20
4.157272
  0
VERTEX
  8
PLAN_1
 62
     2
  6
CONTINUOUS
 10
-0.790709
 20
4.154579
  0
VERTEX
  8
PLAN_1
 62
     2
  6
CONTINUOUS
 10
-0.794075
 20
4.152559
  0
VERTEX
  8
PLAN_1
 62
     2
  6
CONTINUOUS
 10
-0.798114
 20
4.150539
  0
VERTEX
  8
PLAN_1
 62
     2
  6
CONTINUOUS
 10
-0.805520
 20
4.145827
  0
VERTEX
  8
PLAN_1
 62
     2
  6
CONTINUOUS
 10
-0.808890
 20
4.143807
  0
VERTEX
  8
PLAN_1
 62
     2
  6
CONTINUOUS
 10
-0.811583
 20
4.141787
  0
VERTEX
  8
PLAN_1
 62
     2
  6
CONTINUOUS
 10
-0.814276
 20
4.139768
  0
VERTEX
  8
PLAN_1
 62
     2
  6
CONTINUOUS
 10
-0.815622
 20
4.137748
  0
VERTEX
  8
PLAN_1
 62
     2
  6
CONTINUOUS
 10
-0.816969
 20
4.136402
  0
VERTEX
  8
PLAN_1
 62
     2
  6
CONTINUOUS
 10
-0.817642
 20
4.134382
  0
VERTEX
  8
PLAN_1
 62
     2
  6
CONTINUOUS
 10
-0.818315
 20
4.133035
  0
VERTEX
  8
PLAN_1
 62
     2
  6
CONTINUOUS
 10
-0.818315
 20
4.132362
  0
VERTEX
  8
PLAN_1
 62
     2
  6
CONTINUOUS
 10
-0.778591
 20
4.132362
  0
VERTEX
  8
PLAN_1
 62
     2
  6
CONTINUOUS
 10
-0.778591
 20
4.123610
  0
VERTEX
  8
PLAN_1
 62
     2
  6
CONTINUOUS
 10
-0.828413
 20
4.123610
  0
VERTEX
  8
PLAN_1
 62
     2
  6
CONTINUOUS
 10
-0.828413
 20
4.128996
  0
VERTEX
  8
PLAN_1
 62
     2
  6
CONTINUOUS
 10
-0.827067
 20
4.133709
  0
VERTEX
  8
PLAN_1
 62
     2
  6
CONTINUOUS
 10
-0.825720
 20
4.137748
  0
VERTEX
  8
PLAN_1
 62
     2
  6
CONTINUOUS
 10
-0.823701
 20
4.141787
  0
VERTEX
  8
PLAN_1
 62
     2
  6
CONTINUOUS
 10
-0.821008
 20
4.144480
  0
VERTEX
  8
PLAN_1
 62
     2
  6
CONTINUOUS
 10
-0.818315
 20
4.147846
  0
VERTEX
  8
PLAN_1
 62
     2
  6
CONTINUOUS
 10
-0.814949
 20
4.149866
  0
VERTEX
  8
PLAN_1
 62
     2
  6
CONTINUOUS
 10
-0.811583
 20
4.152559
  0
VERTEX
  8
PLAN_1
 62
     2
  6
CONTINUOUS
 10
-0.802154
 20
4.157945
  0
VERTEX
  8
PLAN_1
 62
     2
  6
CONTINUOUS
 10
-0.798787
 20
4.159965
  0
VERTEX
  8
PLAN_1
 62
     2
  6
CONTINUOUS
 10
-0.796768
 20
4.161311
  0
VERTEX
  8
PLAN_1
 62
     2
  6
CONTINUOUS
 10
-0.794075
 20
4.162657
  0
VERTEX
  8
PLAN_1
 62
     2
  6
CONTINUOUS
 10
-0.792055
 20
4.164677
  0
VERTEX
  8
PLAN_1
 62
     2
  6
CONTINUOUS
 10
-0.790709
 20
4.166697
  0
VERTEX
  8
PLAN_1
 62
     2
  6
CONTINUOUS
 10
-0.789362
 20
4.168717
  0
VERTEX
  8
PLAN_1
 62
     2
  6
CONTINUOUS
 10
-0.788689
 20
4.172083
  0
VERTEX
  8
PLAN_1
 62
     2
  6
CONTINUOUS
 10
-0.788689
 20
4.174776
  0
VERTEX
  8
PLAN_1
 62
     2
  6
CONTINUOUS
 10
-0.788689
 20
4.177469
  0
VERTEX
  8
PLAN_1
 62
     2
  6
CONTINUOUS
 10
-0.789362
 20
4.179488
  0
VERTEX
  8
PLAN_1
 62
     2
  6
CONTINUOUS
 10
-0.790035
 20
4.181508
  0
VERTEX
  8
PLAN_1
 62
     2
  6
CONTINUOUS
 10
-0.791382
 20
4.184201
  0
VERTEX
  8
PLAN_1
 62
     2
  6
CONTINUOUS
 10
-0.793402
 20
4.185551
  0
VERTEX
  8
PLAN_1
 62
     2
  6
CONTINUOUS
 10
-0.796094
 20
4.186898
  0
VERTEX
  8
PLAN_1
 62
     2
  6
CONTINUOUS
 10
-0.799461
 20
4.188244
  0
VERTEX
  8
PLAN_1
 62
     2
  6
CONTINUOUS
 10
-0.802827
 20
4.188244
  0
VERTEX
  8
PLAN_1
 62
     2
  6
CONTINUOUS
 10
-0.807543
 20
4.187571
  0
VERTEX
  8
PLAN_1
 62
     2
  6
CONTINUOUS
 10
-0.810909
 20
4.186224
  0
VERTEX
  8
PLAN_1
 62
     2
  6
CONTINUOUS
 10
-0.813602
 20
4.184201
  0
VERTEX
  8
PLAN_1
 62
     2
  6
CONTINUOUS
 10
-0.815622
 20
4.181508
  0
VERTEX
  8
PLAN_1
 62
     2
  6
CONTINUOUS
 10
-0.816295
 20
4.178142
  0
VERTEX
  8
PLAN_1
 62
     2
  6
CONTINUOUS
 10
-0.816969
 20
4.175449
  0
VERTEX
  8
PLAN_1
 62
     2
  6
CONTINUOUS
 10
-0.817642
 20
4.172756
  0
VERTEX
  8
PLAN_1
 62
     2
  6
CONTINUOUS
 10
-0.817642
 20
4.170063
  0
VERTEX
  8
PLAN_1
 62
     2
  6
CONTINUOUS
 10
-0.827067
 20
4.170063
  0
SEQEND
  8
0
  0
POLYLINE
  8
PLAN_1
 62
     2
  6
CONTINUOUS
 66
     1
 40
0.003000
 41
0.003000
  0
VERTEX
  8
PLAN_1
 62
     2
  6
CONTINUOUS
 10
-0.731461
 20
4.161984
  0
VERTEX
  8
PLAN_1
 62
     2
  6
CONTINUOUS
 10
-0.728094
 20
4.160638
  0
VERTEX
  8
PLAN_1
 62
     2
  6
CONTINUOUS
 10
-0.725402
 20
4.158618
  0
VERTEX
  8
PLAN_1
 62
     2
  6
CONTINUOUS
 10
-0.723382
 20
4.156598
  0
VERTEX
  8
PLAN_1
 62
     2
  6
CONTINUOUS
 10
-0.722035
 20
4.153906
  0
VERTEX
  8
PLAN_1
 62
     2
  6
CONTINUOUS
 10
-0.720689
 20
4.151213
  0
VERTEX
  8
PLAN_1
 62
     2
  6
CONTINUOUS
 10
-0.720016
 20
4.149193
  0
VERTEX
  8
PLAN_1
 62
     2
  6
CONTINUOUS
 10
-0.720016
 20
4.146500
  0
VERTEX
  8
PLAN_1
 62
     2
  6
CONTINUOUS
 10
-0.720016
 20
4.144480
  0
VERTEX
  8
PLAN_1
 62
     2
  6
CONTINUOUS
 10
-0.720016
 20
4.140441
  0
VERTEX
  8
PLAN_1
 62
     2
  6
CONTINUOUS
 10
-0.721362
 20
4.135728
  0
VERTEX
  8
PLAN_1
 62
     2
  6
CONTINUOUS
 10
-0.722709
 20
4.132362
  0
VERTEX
  8
PLAN_1
 62
     2
  6
CONTINUOUS
 10
-0.725402
 20
4.128323
  0
VERTEX
  8
PLAN_1
 62
     2
  6
CONTINUOUS
 10
-0.728768
 20
4.125630
  0
VERTEX
  8
PLAN_1
 62
     2
  6
CONTINUOUS
 10
-0.733480
 20
4.123610
  0
VERTEX
  8
PLAN_1
 62
     2
  6
CONTINUOUS
 10
-0.738197
 20
4.122264
  0
VERTEX
  8
PLAN_1
 62
     2
  6
CONTINUOUS
 10
-0.744256
 20
4.121591
  0
VERTEX
  8
PLAN_1
 62
     2
  6
CONTINUOUS
 10
-0.746276
 20
4.121591
  0
VERTEX
  8
PLAN_1
 62
     2
  6
CONTINUOUS
 10
-0.748295
 20
4.121591
  0
VERTEX
  8
PLAN_1
 62
     2
  6
CONTINUOUS
 10
-0.750315
 20
4.122264
  0
VERTEX
  8
PLAN_1
 62
     2
  6
CONTINUOUS
 10
-0.752335
 20
4.122264
  0
VERTEX
  8
PLAN_1
 62
     2
  6
CONTINUOUS
 10
-0.755028
 20
4.122937
  0
VERTEX
  8
PLAN_1
 62
     2
  6
CONTINUOUS
 10
-0.757720
 20
4.124283
  0
VERTEX
  8
PLAN_1
 62
     2
  6
CONTINUOUS
 10
-0.759740
 20
4.125630
  0
VERTEX
  8
PLAN_1
 62
     2
  6
CONTINUOUS
 10
-0.761760
 20
4.126976
  0
VERTEX
  8
PLAN_1
 62
     2
  6
CONTINUOUS
 10
-0.764453
 20
4.129669
  0
VERTEX
  8
PLAN_1
 62
     2
  6
CONTINUOUS
 10
-0.766472
 20
4.131689
  0
VERTEX
  8
PLAN_1
 62
     2
  6
CONTINUOUS
 10
-0.767819
 20
4.134382
  0
VERTEX
  8
PLAN_1
 62
     2
  6
CONTINUOUS
 10
-0.768492
 20
4.136402
  0
VERTEX
  8
PLAN_1
 62
     2
  6
CONTINUOUS
 10
-0.769165
 20
4.139094
  0
VERTEX
  8
PLAN_1
 62
     2
  6
CONTINUOUS
 10
-0.769165
 20
4.141114
  0
VERTEX
  8
PLAN_1
 62
     2
  6
CONTINUOUS
 10
-0.769839
 20
4.143134
  0
VERTEX
  8
PLAN_1
 62
     2
  6
CONTINUOUS
 10
-0.769839
 20
4.144480
  0
VERTEX
  8
PLAN_1
 62
     2
  6
CONTINUOUS
 10
-0.769165
 20
4.147846
  0
VERTEX
  8
PLAN_1
 62
     2
  6
CONTINUOUS
 10
-0.768492
 20
4.150539
  0
VERTEX
  8
PLAN_1
 62
     2
  6
CONTINUOUS
 10
-0.767819
 20
4.153232
  0
VERTEX
  8
PLAN_1
 62
     2
  6
CONTINUOUS
 10
-0.766472
 20
4.155252
  0
VERTEX
  8
PLAN_1
 62
     2
  6
CONTINUOUS
 10
-0.764453
 20
4.157272
  0
VERTEX
  8
PLAN_1
 62
     2
  6
CONTINUOUS
 10
-0.762433
 20
4.159291
  0
VERTEX
  8
PLAN_1
 62
     2
  6
CONTINUOUS
 10
-0.759740
 20
4.160638
  0
VERTEX
  8
PLAN_1
 62
     2
  6
CONTINUOUS
 10
-0.757047
 20
4.161984
  0
VERTEX
  8
PLAN_1
 62
     2
  6
CONTINUOUS
 10
-0.759067
 20
4.163331
  0
VERTEX
  8
PLAN_1
 62
     2
  6
CONTINUOUS
 10
-0.761087
 20
4.164677
  0
VERTEX
  8
PLAN_1
 62
     2
  6
CONTINUOUS
 10
-0.763106
 20
4.166024
  0
VERTEX
  8
PLAN_1
 62
     2
  6
CONTINUOUS
 10
-0.764453
 20
4.167370
  0
VERTEX
  8
PLAN_1
 62
     2
  6
CONTINUOUS
 10
-0.765799
 20
4.169390
  0
VERTEX
  8
PLAN_1
 62
     2
  6
CONTINUOUS
 10
-0.766472
 20
4.171409
  0
VERTEX
  8
PLAN_1
 62
     2
  6
CONTINUOUS
 10
-0.767146
 20
4.174102
  0
VERTEX
  8
PLAN_1
 62
     2
  6
CONTINUOUS
 10
-0.767146
 20
4.176122
  0
VERTEX
  8
PLAN_1
 62
     2
  6
CONTINUOUS
 10
-0.766472
 20
4.179488
  0
VERTEX
  8
PLAN_1
 62
     2
  6
CONTINUOUS
 10
-0.765799
 20
4.182854
  0
VERTEX
  8
PLAN_1
 62
     2
  6
CONTINUOUS
 10
-0.764453
 20
4.186224
  0
VERTEX
  8
PLAN_1
 62
     2
  6
CONTINUOUS
 10
-0.762433
 20
4.189591
  0
VERTEX
  8
PLAN_1
 62
     2
  6
CONTINUOUS
 10
-0.759740
 20
4.192283
  0
VERTEX
  8
PLAN_1
 62
     2
  6
CONTINUOUS
 10
-0.755701
 20
4.194303
  0
VERTEX
  8
PLAN_1
 62
     2
  6
CONTINUOUS
 10
-0.750988
 20
4.195650
  0
VERTEX
  8
PLAN_1
 62
     2
  6
CONTINUOUS
 10
-0.744929
 20
4.196323
  0
VERTEX
  8
PLAN_1
 62
     2
  6
CONTINUOUS
 10
-0.739543
 20
4.196323
  0
VERTEX
  8
PLAN_1
 62
     2
  6
CONTINUOUS
 10
-0.734831
 20
4.194976
  0
VERTEX
  8
PLAN_1
 62
     2
  6
CONTINUOUS
 10
-0.730787
 20
4.192957
  0
VERTEX
  8
PLAN_1
 62
     2
  6
CONTINUOUS
 10
-0.727421
 20
4.190264
  0
VERTEX
  8
PLAN_1
 62
     2
  6
CONTINUOUS
 10
-0.725402
 20
4.187571
  0
VERTEX
  8
PLAN_1
 62
     2
  6
CONTINUOUS
 10
-0.723382
 20
4.184201
  0
VERTEX
  8
PLAN_1
 62
     2
  6
CONTINUOUS
 10
-0.722709
 20
4.180835
  0
VERTEX
  8
PLAN_1
 62
     2
  6
CONTINUOUS
 10
-0.722035
 20
4.177469
  0
VERTEX
  8
PLAN_1
 62
     2
  6
CONTINUOUS
 10
-0.722709
 20
4.174102
  0
VERTEX
  8
PLAN_1
 62
     2
  6
CONTINUOUS
 10
-0.723382
 20
4.171409
  0
VERTEX
  8
PLAN_1
 62
     2
  6
CONTINUOUS
 10
-0.724728
 20
4.168717
  0
VERTEX
  8
PLAN_1
 62
     2
  6
CONTINUOUS
 10
-0.726075
 20
4.166697
  0
VERTEX
  8
PLAN_1
 62
     2
  6
CONTINUOUS
 10
-0.727421
 20
4.165350
  0
VERTEX
  8
PLAN_1
 62
     2
  6
CONTINUOUS
 10
-0.728768
 20
4.164004
  0
VERTEX
  8
PLAN_1
 62
     2
  6
CONTINUOUS
 10
-0.730114
 20
4.163331
  0
VERTEX
  8
PLAN_1
 62
     2
  6
CONTINUOUS
 10
-0.731461
 20
4.161984
  0
SEQEND
  8
0
  0
POLYLINE
  8
PLAN_1
 62
     2
  6
CONTINUOUS
 66
     1
 40
0.003000
 41
0.003000
  0
VERTEX
  8
PLAN_1
 62
     2
  6
CONTINUOUS
 10
-0.759740
 20
4.144480
  0
VERTEX
  8
PLAN_1
 62
     2
  6
CONTINUOUS
 10
-0.759740
 20
4.141787
  0
VERTEX
  8
PLAN_1
 62
     2
  6
CONTINUOUS
 10
-0.759067
 20
4.139768
  0
VERTEX
  8
PLAN_1
 62
     2
  6
CONTINUOUS
 10
-0.758394
 20
4.137075
  0
VERTEX
  8
PLAN_1
 62
     2
  6
CONTINUOUS
 10
-0.757047
 20
4.135055
  0
VERTEX
  8
PLAN_1
 62
     2
  6
CONTINUOUS
 10
-0.754354
 20
4.133035
  0
VERTEX
  8
PLAN_1
 62
     2
  6
CONTINUOUS
 10
-0.751661
 20
4.131016
  0
VERTEX
  8
PLAN_1
 62
     2
  6
CONTINUOUS
 10
-0.748295
 20
4.130343
  0
VERTEX
  8
PLAN_1
 62
     2
  6
CONTINUOUS
 10
-0.744256
 20
4.129669
  0
VERTEX
  8
PLAN_1
 62
     2
  6
CONTINUOUS
 10
-0.741563
 20
4.129669
  0
VERTEX
  8
PLAN_1
 62
     2
  6
CONTINUOUS
 10
-0.738870
 20
4.130343
  0
VERTEX
  8
PLAN_1
 62
     2
  6
CONTINUOUS
 10
-0.736850
 20
4.131016
  0
VERTEX
  8
PLAN_1
 62
     2
  6
CONTINUOUS
 10
-0.734157
 20
4.132362
  0
VERTEX
  8
PLAN_1
 62
     2
  6
CONTINUOUS
 10
-0.732134
 20
4.134382
  0
VERTEX
  8
PLAN_1
 62
     2
  6
CONTINUOUS
 10
-0.730787
 20
4.136402
  0
VERTEX
  8
PLAN_1
 62
     2
  6
CONTINUOUS
 10
-0.730114
 20
4.139768
  0
VERTEX
  8
PLAN_1
 62
     2
  6
CONTINUOUS
 10
-0.729441
 20
4.143807
  0
VERTEX
  8
PLAN_1
 62
     2
  6
CONTINUOUS
 10
-0.730114
 20
4.147173
  0
VERTEX
  8
PLAN_1
 62
     2
  6
CONTINUOUS
 10
-0.730787
 20
4.149866
  0
VERTEX
  8
PLAN_1
 62
     2
  6
CONTINUOUS
 10
-0.732134
 20
4.152559
  0
VERTEX
  8
PLAN_1
 62
     2
  6
CONTINUOUS
 10
-0.734157
 20
4.154579
  0
VERTEX
  8
PLAN_1
 62
     2
  6
CONTINUOUS
 10
-0.736177
 20
4.155925
  0
VERTEX
  8
PLAN_1
 62
     2
  6
CONTINUOUS
 10
-0.738870
 20
4.156598
  0
VERTEX
  8
PLAN_1
 62
     2
  6
CONTINUOUS
 10
-0.741563
 20
4.157272
  0
VERTEX
  8
PLAN_1
 62
     2
  6
CONTINUOUS
 10
-0.744929
 20
4.157945
  0
VERTEX
  8
PLAN_1
 62
     2
  6
CONTINUOUS
 10
-0.748295
 20
4.157272
  0
VERTEX
  8
PLAN_1
 62
     2
  6
CONTINUOUS
 10
-0.751661
 20
4.156598
  0
VERTEX
  8
PLAN_1
 62
     2
  6
CONTINUOUS
 10
-0.753681
 20
4.155252
  0
VERTEX
  8
PLAN_1
 62
     2
  6
CONTINUOUS
 10
-0.756374
 20
4.153232
  0
VERTEX
  8
PLAN_1
 62
     2
  6
CONTINUOUS
 10
-0.757720
 20
4.151213
  0
VERTEX
  8
PLAN_1
 62
     2
  6
CONTINUOUS
 10
-0.759067
 20
4.149193
  0
VERTEX
  8
PLAN_1
 62
     2
  6
CONTINUOUS
 10
-0.759740
 20
4.146500
  0
VERTEX
  8
PLAN_1
 62
     2
  6
CONTINUOUS
 10
-0.759740
 20
4.144480
  0
SEQEND
  8
0
  0
POLYLINE
  8
PLAN_1
 62
     2
  6
CONTINUOUS
 66
     1
 40
0.003000
 41
0.003000
  0
VERTEX
  8
PLAN_1
 62
     2
  6
CONTINUOUS
 10
-0.731461
 20
4.177469
  0
VERTEX
  8
PLAN_1
 62
     2
  6
CONTINUOUS
 10
-0.732134
 20
4.178815
  0
VERTEX
  8
PLAN_1
 62
     2
  6
CONTINUOUS
 10
-0.732134
 20
4.180835
  0
VERTEX
  8
PLAN_1
 62
     2
  6
CONTINUOUS
 10
-0.733480
 20
4.182854
  0
VERTEX
  8
PLAN_1
 62
     2
  6
CONTINUOUS
 10
-0.734831
 20
4.184201
  0
VERTEX
  8
PLAN_1
 62
     2
  6
CONTINUOUS
 10
-0.736177
 20
4.186224
  0
VERTEX
  8
PLAN_1
 62
     2
  6
CONTINUOUS
 10
-0.738870
 20
4.186898
  0
VERTEX
  8
PLAN_1
 62
     2
  6
CONTINUOUS
 10
-0.741563
 20
4.188244
  0
VERTEX
  8
PLAN_1
 62
     2
  6
CONTINUOUS
 10
-0.745602
 20
4.188244
  0
VERTEX
  8
PLAN_1
 62
     2
  6
CONTINUOUS
 10
-0.748969
 20
4.188244
  0
VERTEX
  8
PLAN_1
 62
     2
  6
CONTINUOUS
 10
-0.751661
 20
4.186898
  0
VERTEX
  8
PLAN_1
 62
     2
  6
CONTINUOUS
 10
-0.753681
 20
4.186224
  0
VERTEX
  8
PLAN_1
 62
     2
  6
CONTINUOUS
 10
-0.755028
 20
4.184201
  0
VERTEX
  8
PLAN_1
 62
     2
  6
CONTINUOUS
 10
-0.756374
 20
4.182854
  0
VERTEX
  8
PLAN_1
 62
     2
  6
CONTINUOUS
 10
-0.757047
 20
4.180835
  0
VERTEX
  8
PLAN_1
 62
     2
  6
CONTINUOUS
 10
-0.757720
 20
4.178815
  0
VERTEX
  8
PLAN_1
 62
     2
  6
CONTINUOUS
 10
-0.757720
 20
4.176795
  0
VERTEX
  8
PLAN_1
 62
     2
  6
CONTINUOUS
 10
-0.757047
 20
4.174102
  0
VERTEX
  8
PLAN_1
 62
     2
  6
CONTINUOUS
 10
-0.756374
 20
4.172083
  0
VERTEX
  8
PLAN_1
 62
     2
  6
CONTINUOUS
 10
-0.755028
 20
4.170063
  0
VERTEX
  8
PLAN_1
 62
     2
  6
CONTINUOUS
 10
-0.753681
 20
4.168717
  0
VERTEX
  8
PLAN_1
 62
     2
  6
CONTINUOUS
 10
-0.751661
 20
4.167370
  0
VERTEX
  8
PLAN_1
 62
     2
  6
CONTINUOUS
 10
-0.749642
 20
4.166697
  0
VERTEX
  8
PLAN_1
 62
     2
  6
CONTINUOUS
 10
-0.746949
 20
4.166024
  0
VERTEX
  8
PLAN_1
 62
     2
  6
CONTINUOUS
 10
-0.744929
 20
4.165350
  0
VERTEX
  8
PLAN_1
 62
     2
  6
CONTINUOUS
 10
-0.742236
 20
4.166024
  0
VERTEX
  8
PLAN_1
 62
     2
  6
CONTINUOUS
 10
-0.739543
 20
4.166697
  0
VERTEX
  8
PLAN_1
 62
     2
  6
CONTINUOUS
 10
-0.737524
 20
4.167370
  0
VERTEX
  8
PLAN_1
 62
     2
  6
CONTINUOUS
 10
-0.735504
 20
4.168717
  0
VERTEX
  8
PLAN_1
 62
     2
  6
CONTINUOUS
 10
-0.733480
 20
4.170736
  0
VERTEX
  8
PLAN_1
 62
     2
  6
CONTINUOUS
 10
-0.732807
 20
4.172756
  0
VERTEX
  8
PLAN_1
 62
     2
  6
CONTINUOUS
 10
-0.732134
 20
4.174776
  0
VERTEX
  8
PLAN_1
 62
     2
  6
CONTINUOUS
 10
-0.731461
 20
4.177469
  0
SEQEND
  8
0
  0
POLYLINE
  8
PLAN_1
 62
     2
  6
CONTINUOUS
 66
     1
 40
0.004039
 41
0.004039
  0
VERTEX
  8
PLAN_1
 62
     2
  6
CONTINUOUS
 10
-1.538035
 20
5.291051
  0
VERTEX
  8
PLAN_1
 62
     2
  6
CONTINUOUS
 10
0.985362
 20
5.291051
  0
SEQEND
  8
0
  0
SOLID
  8
PLAN_1
 62
     2
 10
1.014984
 20
5.291051
 11
0.956413
 21
5.307209
 12
1.014984
 22
5.291051
 13
0.956413
 23
5.275563
  0
POLYLINE
  8
PLAN_1
 62
     2
  6
CONTINUOUS
 66
     1
 40
0.003000
 41
0.003000
  0
VERTEX
  8
PLAN_1
 62
     2
  6
CONTINUOUS
 10
1.014984
 20
5.291051
  0
VERTEX
  8
PLAN_1
 62
     2
  6
CONTINUOUS
 10
0.956413
 20
5.307209
  0
VERTEX
  8
PLAN_1
 62
     2
  6
CONTINUOUS
 10
0.956413
 20
5.275563
  0
VERTEX
  8
PLAN_1
 62
     2
  6
CONTINUOUS
 10
1.014984
 20
5.291051
  0
SEQEND
  8
0
  0
SOLID
  8
PLAN_1
 62
     2
 10
-1.567657
 20
5.291051
 11
-1.508409
 21
5.307209
 12
-1.567657
 22
5.291051
 13
-1.508409
 23
5.275563
  0
POLYLINE
  8
PLAN_1
 62
     2
  6
CONTINUOUS
 66
     1
 40
0.003000
 41
0.003000
  0
VERTEX
  8
PLAN_1
 62
     2
  6
CONTINUOUS
 10
-1.567657
 20
5.291051
  0
VERTEX
  8
PLAN_1
 62
     2
  6
CONTINUOUS
 10
-1.508409
 20
5.307209
  0
VERTEX
  8
PLAN_1
 62
     2
  6
CONTINUOUS
 10
-1.508409
 20
5.275563
  0
VERTEX
  8
PLAN_1
 62
     2
  6
CONTINUOUS
 10
-1.567657
 20
5.291051
  0
SEQEND
  8
0
  0
POLYLINE
  8
PLAN_1
 62
     2
  6
CONTINUOUS
 66
     1
 40
0.003000
 41
0.003000
  0
VERTEX
  8
PLAN_1
 62
     2
  6
CONTINUOUS
 10
-0.290472
 20
5.368476
  0
VERTEX
  8
PLAN_1
 62
     2
  6
CONTINUOUS
 10
-0.291146
 20
5.371169
  0
VERTEX
  8
PLAN_1
 62
     2
  6
CONTINUOUS
 10
-0.291819
 20
5.373189
  0
VERTEX
  8
PLAN_1
 62
     2
  6
CONTINUOUS
 10
-0.293165
 20
5.375209
  0
VERTEX
  8
PLAN_1
 62
     2
  6
CONTINUOUS
 10
-0.294512
 20
5.376555
  0
VERTEX
  8
PLAN_1
 62
     2
  6
CONTINUOUS
 10
-0.295862
 20
5.377902
  0
VERTEX
  8
PLAN_1
 62
     2
  6
CONTINUOUS
 10
-0.297882
 20
5.379248
  0
VERTEX
  8
PLAN_1
 62
     2
  6
CONTINUOUS
 10
-0.300575
 20
5.379248
  0
VERTEX
  8
PLAN_1
 62
     2
  6
CONTINUOUS
 10
-0.303268
 20
5.379921
  0
VERTEX
  8
PLAN_1
 62
     2
  6
CONTINUOUS
 10
-0.305961
 20
5.379248
  0
VERTEX
  8
PLAN_1
 62
     2
  6
CONTINUOUS
 10
-0.307980
 20
5.379248
  0
VERTEX
  8
PLAN_1
 62
     2
  6
CONTINUOUS
 10
-0.310000
 20
5.377902
  0
VERTEX
  8
PLAN_1
 62
     2
  6
CONTINUOUS
 10
-0.312020
 20
5.376555
  0
VERTEX
  8
PLAN_1
 62
     2
  6
CONTINUOUS
 10
-0.315386
 20
5.373189
  0
VERTEX
  8
PLAN_1
 62
     2
  6
CONTINUOUS
 10
-0.317406
 20
5.369150
  0
VERTEX
  8
PLAN_1
 62
     2
  6
CONTINUOUS
 10
-0.318752
 20
5.364437
  0
VERTEX
  8
PLAN_1
 62
     2
  6
CONTINUOUS
 10
-0.320098
 20
5.360398
  0
VERTEX
  8
PLAN_1
 62
     2
  6
CONTINUOUS
 10
-0.320772
 20
5.356358
  0
VERTEX
  8
PLAN_1
 62
     2
  6
CONTINUOUS
 10
-0.320772
 20
5.352992
  0
VERTEX
  8
PLAN_1
 62
     2
  6
CONTINUOUS
 10
-0.320772
 20
5.352319
  0
VERTEX
  8
PLAN_1
 62
     2
  6
CONTINUOUS
 10
-0.319425
 20
5.354339
  0
VERTEX
  8
PLAN_1
 62
     2
  6
CONTINUOUS
 10
-0.318079
 20
5.355685
  0
VERTEX
  8
PLAN_1
 62
     2
  6
CONTINUOUS
 10
-0.316732
 20
5.357031
  0
VERTEX
  8
PLAN_1
 62
     2
  6
CONTINUOUS
 10
-0.314713
 20
5.358378
  0
VERTEX
  8
PLAN_1
 62
     2
  6
CONTINUOUS
 10
-0.312693
 20
5.359724
  0
VERTEX
  8
PLAN_1
 62
     2
  6
CONTINUOUS
 10
-0.310000
 20
5.360398
  0
VERTEX
  8
PLAN_1
 62
     2
  6
CONTINUOUS
 10
-0.306634
 20
5.361071
  0
VERTEX
  8
PLAN_1
 62
     2
  6
CONTINUOUS
 10
-0.303268
 20
5.361744
  0
VERTEX
  8
PLAN_1
 62
     2
  6
CONTINUOUS
 10
-0.299228
 20
5.361071
  0
VERTEX
  8
PLAN_1
 62
     2
  6
CONTINUOUS
 10
-0.295862
 20
5.360398
  0
VERTEX
  8
PLAN_1
 62
     2
  6
CONTINUOUS
 10
-0.291819
 20
5.359051
  0
VERTEX
  8
PLAN_1
 62
     2
  6
CONTINUOUS
 10
-0.288453
 20
5.356358
  0
VERTEX
  8
PLAN_1
 62
     2
  6
CONTINUOUS
 10
-0.285087
 20
5.352992
  0
VERTEX
  8
PLAN_1
 62
     2
  6
CONTINUOUS
 10
-0.282394
 20
5.348949
  0
VERTEX
  8
PLAN_1
 62
     2
  6
CONTINUOUS
 10
-0.281047
 20
5.344236
  0
VERTEX
  8
PLAN_1
 62
     2
  6
CONTINUOUS
 10
-0.280374
 20
5.338177
  0
VERTEX
  8
PLAN_1
 62
     2
  6
CONTINUOUS
 10
-0.280374
 20
5.335484
  0
VERTEX
  8
PLAN_1
 62
     2
  6
CONTINUOUS
 10
-0.280374
 20
5.332791
  0
VERTEX
  8
PLAN_1
 62
     2
  6
CONTINUOUS
 10
-0.281047
 20
5.330772
  0
VERTEX
  8
PLAN_1
 62
     2
  6
CONTINUOUS
 10
-0.281720
 20
5.328079
  0
VERTEX
  8
PLAN_1
 62
     2
  6
CONTINUOUS
 10
-0.283067
 20
5.326059
  0
VERTEX
  8
PLAN_1
 62
     2
  6
CONTINUOUS
 10
-0.283740
 20
5.324039
  0
VERTEX
  8
PLAN_1
 62
     2
  6
CONTINUOUS
 10
-0.285760
 20
5.322020
  0
VERTEX
  8
PLAN_1
 62
     2
  6
CONTINUOUS
 10
-0.287106
 20
5.320000
  0
VERTEX
  8
PLAN_1
 62
     2
  6
CONTINUOUS
 10
-0.288453
 20
5.318654
  0
VERTEX
  8
PLAN_1
 62
     2
  6
CONTINUOUS
 10
-0.290472
 20
5.317307
  0
VERTEX
  8
PLAN_1
 62
     2
  6
CONTINUOUS
 10
-0.291819
 20
5.315961
  0
VERTEX
  8
PLAN_1
 62
     2
  6
CONTINUOUS
 10
-0.293839
 20
5.314614
  0
VERTEX
  8
PLAN_1
 62
     2
  6
CONTINUOUS
 10
-0.296535
 20
5.313941
  0
VERTEX
  8
PLAN_1
 62
     2
  6
CONTINUOUS
 10
-0.299228
 20
5.313268
  0
VERTEX
  8
PLAN_1
 62
     2
  6
CONTINUOUS
 10
-0.301921
 20
5.313268
  0
VERTEX
  8
PLAN_1
 62
     2
  6
CONTINUOUS
 10
-0.305961
 20
5.312594
  0
VERTEX
  8
PLAN_1
 62
     2
  6
CONTINUOUS
 10
-0.307980
 20
5.313268
  0
VERTEX
  8
PLAN_1
 62
     2
  6
CONTINUOUS
 10
-0.310000
 20
5.313268
  0
VERTEX
  8
PLAN_1
 62
     2
  6
CONTINUOUS
 10
-0.312693
 20
5.313941
  0
VERTEX
  8
PLAN_1
 62
     2
  6
CONTINUOUS
 10
-0.315386
 20
5.315287
  0
VERTEX
  8
PLAN_1
 62
     2
  6
CONTINUOUS
 10
-0.318079
 20
5.316634
  0
VERTEX
  8
PLAN_1
 62
     2
  6
CONTINUOUS
 10
-0.320098
 20
5.318654
  0
VERTEX
  8
PLAN_1
 62
     2
  6
CONTINUOUS
 10
-0.322118
 20
5.320673
  0
VERTEX
  8
PLAN_1
 62
     2
  6
CONTINUOUS
 10
-0.324811
 20
5.323366
  0
VERTEX
  8
PLAN_1
 62
     2
  6
CONTINUOUS
 10
-0.326157
 20
5.326059
  0
VERTEX
  8
PLAN_1
 62
     2
  6
CONTINUOUS
 10
-0.327504
 20
5.328752
  0
VERTEX
  8
PLAN_1
 62
     2
  6
CONTINUOUS
 10
-0.328177
 20
5.332118
  0
VERTEX
  8
PLAN_1
 62
     2
  6
CONTINUOUS
 10
-0.328850
 20
5.335484
  0
VERTEX
  8
PLAN_1
 62
     2
  6
CONTINUOUS
 10
-0.329524
 20
5.338177
  0
VERTEX
  8
PLAN_1
 62
     2
  6
CONTINUOUS
 10
-0.330197
 20
5.341543
  0
VERTEX
  8
PLAN_1
 62
     2
  6
CONTINUOUS
 10
-0.330197
 20
5.345583
  0
VERTEX
  8
PLAN_1
 62
     2
  6
CONTINUOUS
 10
-0.330197
 20
5.348949
  0
VERTEX
  8
PLAN_1
 62
     2
  6
CONTINUOUS
 10
-0.330197
 20
5.355012
  0
VERTEX
  8
PLAN_1
 62
     2
  6
CONTINUOUS
 10
-0.328850
 20
5.361744
  0
VERTEX
  8
PLAN_1
 62
     2
  6
CONTINUOUS
 10
-0.327504
 20
5.368476
  0
VERTEX
  8
PLAN_1
 62
     2
  6
CONTINUOUS
 10
-0.324811
 20
5.374535
  0
VERTEX
  8
PLAN_1
 62
     2
  6
CONTINUOUS
 10
-0.323465
 20
5.377228
  0
VERTEX
  8
PLAN_1
 62
     2
  6
CONTINUOUS
 10
-0.321445
 20
5.379921
  0
VERTEX
  8
PLAN_1
 62
     2
  6
CONTINUOUS
 10
-0.318752
 20
5.381941
  0
VERTEX
  8
PLAN_1
 62
     2
  6
CONTINUOUS
 10
-0.316732
 20
5.383961
  0
VERTEX
  8
PLAN_1
 62
     2
  6
CONTINUOUS
 10
-0.314039
 20
5.385980
  0
VERTEX
  8
PLAN_1
 62
     2
  6
CONTINUOUS
 10
-0.310673
 20
5.386654
  0
VERTEX
  8
PLAN_1
 62
     2
  6
CONTINUOUS
 10
-0.307307
 20
5.388000
  0
VERTEX
  8
PLAN_1
 62
     2
  6
CONTINUOUS
 10
-0.303268
 20
5.388000
  0
VERTEX
  8
PLAN_1
 62
     2
  6
CONTINUOUS
 10
-0.299902
 20
5.388000
  0
VERTEX
  8
PLAN_1
 62
     2
  6
CONTINUOUS
 10
-0.296535
 20
5.387327
  0
VERTEX
  8
PLAN_1
 62
     2
  6
CONTINUOUS
 10
-0.293165
 20
5.385980
  0
VERTEX
  8
PLAN_1
 62
     2
  6
CONTINUOUS
 10
-0.289799
 20
5.383961
  0
VERTEX
  8
PLAN_1
 62
     2
  6
CONTINUOUS
 10
-0.286433
 20
5.381268
  0
VERTEX
  8
PLAN_1
 62
     2
  6
CONTINUOUS
 10
-0.284413
 20
5.377902
  0
VERTEX
  8
PLAN_1
 62
     2
  6
CONTINUOUS
 10
-0.282394
 20
5.373862
  0
VERTEX
  8
PLAN_1
 62
     2
  6
CONTINUOUS
 10
-0.281720
 20
5.368476
  0
VERTEX
  8
PLAN_1
 62
     2
  6
CONTINUOUS
 10
-0.290472
 20
5.368476
  0
SEQEND
  8
0
  0
POLYLINE
  8
PLAN_1
 62
     2
  6
CONTINUOUS
 66
     1
 40
0.003000
 41
0.003000
  0
VERTEX
  8
PLAN_1
 62
     2
  6
CONTINUOUS
 10
-0.303941
 20
5.321346
  0
VERTEX
  8
PLAN_1
 62
     2
  6
CONTINUOUS
 10
-0.300575
 20
5.321346
  0
VERTEX
  8
PLAN_1
 62
     2
  6
CONTINUOUS
 10
-0.297882
 20
5.322020
  0
VERTEX
  8
PLAN_1
 62
     2
  6
CONTINUOUS
 10
-0.295862
 20
5.324039
  0
VERTEX
  8
PLAN_1
 62
     2
  6
CONTINUOUS
 10
-0.293839
 20
5.326059
  0
VERTEX
  8
PLAN_1
 62
     2
  6
CONTINUOUS
 10
-0.291819
 20
5.328079
  0
VERTEX
  8
PLAN_1
 62
     2
  6
CONTINUOUS
 10
-0.290472
 20
5.330772
  0
VERTEX
  8
PLAN_1
 62
     2
  6
CONTINUOUS
 10
-0.289799
 20
5.334138
  0
VERTEX
  8
PLAN_1
 62
     2
  6
CONTINUOUS
 10
-0.289799
 20
5.338177
  0
VERTEX
  8
PLAN_1
 62
     2
  6
CONTINUOUS
 10
-0.289799
 20
5.340197
  0
VERTEX
  8
PLAN_1
 62
     2
  6
CONTINUOUS
 10
-0.290472
 20
5.342890
  0
VERTEX
  8
PLAN_1
 62
     2
  6
CONTINUOUS
 10
-0.291146
 20
5.345583
  0
VERTEX
  8
PLAN_1
 62
     2
  6
CONTINUOUS
 10
-0.292492
 20
5.348276
  0
VERTEX
  8
PLAN_1
 62
     2
  6
CONTINUOUS
 10
-0.294512
 20
5.350295
  0
VERTEX
  8
PLAN_1
 62
     2
  6
CONTINUOUS
 10
-0.297209
 20
5.351646
  0
VERTEX
  8
PLAN_1
 62
     2
  6
CONTINUOUS
 10
-0.300575
 20
5.352992
  0
VERTEX
  8
PLAN_1
 62
     2
  6
CONTINUOUS
 10
-0.304614
 20
5.352992
  0
VERTEX
  8
PLAN_1
 62
     2
  6
CONTINUOUS
 10
-0.307980
 20
5.352992
  0
VERTEX
  8
PLAN_1
 62
     2
  6
CONTINUOUS
 10
-0.311346
 20
5.352319
  0
VERTEX
  8
PLAN_1
 62
     2
  6
CONTINUOUS
 10
-0.313366
 20
5.350295
  0
VERTEX
  8
PLAN_1
 62
     2
  6
CONTINUOUS
 10
-0.315386
 20
5.348276
  0
VERTEX
  8
PLAN_1
 62
     2
  6
CONTINUOUS
 10
-0.317406
 20
5.346256
  0
VERTEX
  8
PLAN_1
 62
     2
  6
CONTINUOUS
 10
-0.318752
 20
5.343563
  0
VERTEX
  8
PLAN_1
 62
     2
  6
CONTINUOUS
 10
-0.319425
 20
5.340197
  0
VERTEX
  8
PLAN_1
 62
     2
  6
CONTINUOUS
 10
-0.319425
 20
5.337504
  0
VERTEX
  8
PLAN_1
 62
     2
  6
CONTINUOUS
 10
-0.319425
 20
5.334138
  0
VERTEX
  8
PLAN_1
 62
     2
  6
CONTINUOUS
 10
-0.318752
 20
5.331445
  0
VERTEX
  8
PLAN_1
 62
     2
  6
CONTINUOUS
 10
-0.317406
 20
5.328752
  0
VERTEX
  8
PLAN_1
 62
     2
  6
CONTINUOUS
 10
-0.316059
 20
5.326059
  0
VERTEX
  8
PLAN_1
 62
     2
  6
CONTINUOUS
 10
-0.313366
 20
5.324039
  0
VERTEX
  8
PLAN_1
 62
     2
  6
CONTINUOUS
 10
-0.310673
 20
5.322693
  0
VERTEX
  8
PLAN_1
 62
     2
  6
CONTINUOUS
 10
-0.307980
 20
5.321346
  0
VERTEX
  8
PLAN_1
 62
     2
  6
CONTINUOUS
 10
-0.303941
 20
5.321346
  0
SEQEND
  8
0
  0
POLYLINE
  8
PLAN_1
 62
     2
  6
CONTINUOUS
 66
     1
 40
0.003000
 41
0.003000
  0
VERTEX
  8
PLAN_1
 62
     2
  6
CONTINUOUS
 10
-0.232575
 20
5.368476
  0
VERTEX
  8
PLAN_1
 62
     2
  6
CONTINUOUS
 10
-0.233248
 20
5.371169
  0
VERTEX
  8
PLAN_1
 62
     2
  6
CONTINUOUS
 10
-0.233921
 20
5.373189
  0
VERTEX
  8
PLAN_1
 62
     2
  6
CONTINUOUS
 10
-0.235268
 20
5.375209
  0
VERTEX
  8
PLAN_1
 62
     2
  6
CONTINUOUS
 10
-0.236614
 20
5.376555
  0
VERTEX
  8
PLAN_1
 62
     2
  6
CONTINUOUS
 10
-0.237961
 20
5.377902
  0
VERTEX
  8
PLAN_1
 62
     2
  6
CONTINUOUS
 10
-0.239980
 20
5.379248
  0
VERTEX
  8
PLAN_1
 62
     2
  6
CONTINUOUS
 10
-0.242673
 20
5.379248
  0
VERTEX
  8
PLAN_1
 62
     2
  6
CONTINUOUS
 10
-0.245366
 20
5.379921
  0
VERTEX
  8
PLAN_1
 62
     2
  6
CONTINUOUS
 10
-0.248059
 20
5.379248
  0
VERTEX
  8
PLAN_1
 62
     2
  6
CONTINUOUS
 10
-0.250079
 20
5.379248
  0
VERTEX
  8
PLAN_1
 62
     2
  6
CONTINUOUS
 10
-0.252098
 20
5.377902
  0
VERTEX
  8
PLAN_1
 62
     2
  6
CONTINUOUS
 10
-0.254118
 20
5.376555
  0
VERTEX
  8
PLAN_1
 62
     2
  6
CONTINUOUS
 10
-0.257484
 20
5.373189
  0
VERTEX
  8
PLAN_1
 62
     2
  6
CONTINUOUS
 10
-0.259504
 20
5.369150
  0
VERTEX
  8
PLAN_1
 62
     2
  6
CONTINUOUS
 10
-0.260850
 20
5.364437
  0
VERTEX
  8
PLAN_1
 62
     2
  6
CONTINUOUS
 10
-0.262197
 20
5.360398
  0
VERTEX
  8
PLAN_1
 62
     2
  6
CONTINUOUS
 10
-0.262870
 20
5.356358
  0
VERTEX
  8
PLAN_1
 62
     2
  6
CONTINUOUS
 10
-0.262870
 20
5.352992
  0
VERTEX
  8
PLAN_1
 62
     2
  6
CONTINUOUS
 10
-0.262870
 20
5.352319
  0
VERTEX
  8
PLAN_1
 62
     2
  6
CONTINUOUS
 10
-0.261524
 20
5.354339
  0
VERTEX
  8
PLAN_1
 62
     2
  6
CONTINUOUS
 10
-0.260177
 20
5.355685
  0
VERTEX
  8
PLAN_1
 62
     2
  6
CONTINUOUS
 10
-0.258831
 20
5.357031
  0
VERTEX
  8
PLAN_1
 62
     2
  6
CONTINUOUS
 10
-0.256811
 20
5.358378
  0
VERTEX
  8
PLAN_1
 62
     2
  6
CONTINUOUS
 10
-0.254791
 20
5.359724
  0
VERTEX
  8
PLAN_1
 62
     2
  6
CONTINUOUS
 10
-0.252098
 20
5.360398
  0
VERTEX
  8
PLAN_1
 62
     2
  6
CONTINUOUS
 10
-0.248732
 20
5.361071
  0
VERTEX
  8
PLAN_1
 62
     2
  6
CONTINUOUS
 10
-0.245366
 20
5.361744
  0
VERTEX
  8
PLAN_1
 62
     2
  6
CONTINUOUS
 10
-0.241327
 20
5.361071
  0
VERTEX
  8
PLAN_1
 62
     2
  6
CONTINUOUS
 10
-0.237961
 20
5.360398
  0
VERTEX
  8
PLAN_1
 62
     2
  6
CONTINUOUS
 10
-0.233921
 20
5.359051
  0
VERTEX
  8
PLAN_1
 62
     2
  6
CONTINUOUS
 10
-0.230555
 20
5.356358
  0
VERTEX
  8
PLAN_1
 62
     2
  6
CONTINUOUS
 10
-0.227189
 20
5.352992
  0
VERTEX
  8
PLAN_1
 62
     2
  6
CONTINUOUS
 10
-0.224496
 20
5.348949
  0
VERTEX
  8
PLAN_1
 62
     2
  6
CONTINUOUS
 10
-0.223150
 20
5.344236
  0
VERTEX
  8
PLAN_1
 62
     2
  6
CONTINUOUS
 10
-0.222472
 20
5.338177
  0
VERTEX
  8
PLAN_1
 62
     2
  6
CONTINUOUS
 10
-0.222472
 20
5.335484
  0
VERTEX
  8
PLAN_1
 62
     2
  6
CONTINUOUS
 10
-0.222472
 20
5.332791
  0
VERTEX
  8
PLAN_1
 62
     2
  6
CONTINUOUS
 10
-0.223150
 20
5.330772
  0
VERTEX
  8
PLAN_1
 62
     2
  6
CONTINUOUS
 10
-0.223823
 20
5.328079
  0
VERTEX
  8
PLAN_1
 62
     2
  6
CONTINUOUS
 10
-0.225169
 20
5.326059
  0
VERTEX
  8
PLAN_1
 62
     2
  6
CONTINUOUS
 10
-0.225843
 20
5.324039
  0
VERTEX
  8
PLAN_1
 62
     2
  6
CONTINUOUS
 10
-0.227862
 20
5.322020
  0
VERTEX
  8
PLAN_1
 62
     2
  6
CONTINUOUS
 10
-0.229209
 20
5.320000
  0
VERTEX
  8
PLAN_1
 62
     2
  6
CONTINUOUS
 10
-0.230555
 20
5.318654
  0
VERTEX
  8
PLAN_1
 62
     2
  6
CONTINUOUS
 10
-0.232575
 20
5.317307
  0
VERTEX
  8
PLAN_1
 62
     2
  6
CONTINUOUS
 10
-0.233921
 20
5.315961
  0
VERTEX
  8
PLAN_1
 62
     2
  6
CONTINUOUS
 10
-0.235941
 20
5.314614
  0
VERTEX
  8
PLAN_1
 62
     2
  6
CONTINUOUS
 10
-0.238634
 20
5.313941
  0
VERTEX
  8
PLAN_1
 62
     2
  6
CONTINUOUS
 10
-0.241327
 20
5.313268
  0
VERTEX
  8
PLAN_1
 62
     2
  6
CONTINUOUS
 10
-0.244020
 20
5.313268
  0
VERTEX
  8
PLAN_1
 62
     2
  6
CONTINUOUS
 10
-0.248059
 20
5.312594
  0
VERTEX
  8
PLAN_1
 62
     2
  6
CONTINUOUS
 10
-0.250079
 20
5.313268
  0
VERTEX
  8
PLAN_1
 62
     2
  6
CONTINUOUS
 10
-0.252098
 20
5.313268
  0
VERTEX
  8
PLAN_1
 62
     2
  6
CONTINUOUS
 10
-0.254791
 20
5.313941
  0
VERTEX
  8
PLAN_1
 62
     2
  6
CONTINUOUS
 10
-0.257484
 20
5.315287
  0
VERTEX
  8
PLAN_1
 62
     2
  6
CONTINUOUS
 10
-0.260177
 20
5.316634
  0
VERTEX
  8
PLAN_1
 62
     2
  6
CONTINUOUS
 10
-0.262197
 20
5.318654
  0
VERTEX
  8
PLAN_1
 62
     2
  6
CONTINUOUS
 10
-0.264890
 20
5.320673
  0
VERTEX
  8
PLAN_1
 62
     2
  6
CONTINUOUS
 10
-0.266909
 20
5.323366
  0
VERTEX
  8
PLAN_1
 62
     2
  6
CONTINUOUS
 10
-0.268256
 20
5.326059
  0
VERTEX
  8
PLAN_1
 62
     2
  6
CONTINUOUS
 10
-0.269602
 20
5.328752
  0
VERTEX
  8
PLAN_1
 62
     2
  6
CONTINUOUS
 10
-0.270276
 20
5.332118
  0
VERTEX
  8
PLAN_1
 62
     2
  6
CONTINUOUS
 10
-0.270949
 20
5.335484
  0
VERTEX
  8
PLAN_1
 62
     2
  6
CONTINUOUS
 10
-0.271622
 20
5.338177
  0
VERTEX
  8
PLAN_1
 62
     2
  6
CONTINUOUS
 10
-0.272295
 20
5.341543
  0
VERTEX
  8
PLAN_1
 62
     2
  6
CONTINUOUS
 10
-0.272295
 20
5.345583
  0
VERTEX
  8
PLAN_1
 62
     2
  6
CONTINUOUS
 10
-0.272295
 20
5.348949
  0
VERTEX
  8
PLAN_1
 62
     2
  6
CONTINUOUS
 10
-0.272295
 20
5.355012
  0
VERTEX
  8
PLAN_1
 62
     2
  6
CONTINUOUS
 10
-0.270949
 20
5.361744
  0
VERTEX
  8
PLAN_1
 62
     2
  6
CONTINUOUS
 10
-0.269602
 20
5.368476
  0
VERTEX
  8
PLAN_1
 62
     2
  6
CONTINUOUS
 10
-0.266909
 20
5.374535
  0
VERTEX
  8
PLAN_1
 62
     2
  6
CONTINUOUS
 10
-0.265563
 20
5.377228
  0
VERTEX
  8
PLAN_1
 62
     2
  6
CONTINUOUS
 10
-0.263543
 20
5.379921
  0
VERTEX
  8
PLAN_1
 62
     2
  6
CONTINUOUS
 10
-0.260850
 20
5.381941
  0
VERTEX
  8
PLAN_1
 62
     2
  6
CONTINUOUS
 10
-0.258831
 20
5.383961
  0
VERTEX
  8
PLAN_1
 62
     2
  6
CONTINUOUS
 10
-0.256138
 20
5.385980
  0
VERTEX
  8
PLAN_1
 62
     2
  6
CONTINUOUS
 10
-0.252772
 20
5.386654
  0
VERTEX
  8
PLAN_1
 62
     2
  6
CONTINUOUS
 10
-0.249406
 20
5.388000
  0
VERTEX
  8
PLAN_1
 62
     2
  6
CONTINUOUS
 10
-0.245366
 20
5.388000
  0
VERTEX
  8
PLAN_1
 62
     2
  6
CONTINUOUS
 10
-0.242000
 20
5.388000
  0
VERTEX
  8
PLAN_1
 62
     2
  6
CONTINUOUS
 10
-0.238634
 20
5.387327
  0
VERTEX
  8
PLAN_1
 62
     2
  6
CONTINUOUS
 10
-0.235268
 20
5.385980
  0
VERTEX
  8
PLAN_1
 62
     2
  6
CONTINUOUS
 10
-0.231902
 20
5.383961
  0
VERTEX
  8
PLAN_1
 62
     2
  6
CONTINUOUS
 10
-0.228535
 20
5.381268
  0
VERTEX
  8
PLAN_1
 62
     2
  6
CONTINUOUS
 10
-0.226516
 20
5.377902
  0
VERTEX
  8
PLAN_1
 62
     2
  6
CONTINUOUS
 10
-0.224496
 20
5.373862
  0
VERTEX
  8
PLAN_1
 62
     2
  6
CONTINUOUS
 10
-0.223823
 20
5.368476
  0
VERTEX
  8
PLAN_1
 62
     2
  6
CONTINUOUS
 10
-0.232575
 20
5.368476
  0
SEQEND
  8
0
  0
POLYLINE
  8
PLAN_1
 62
     2
  6
CONTINUOUS
 66
     1
 40
0.003000
 41
0.003000
  0
VERTEX
  8
PLAN_1
 62
     2
  6
CONTINUOUS
 10
-0.246039
 20
5.321346
  0
VERTEX
  8
PLAN_1
 62
     2
  6
CONTINUOUS
 10
-0.243346
 20
5.321346
  0
VERTEX
  8
PLAN_1
 62
     2
  6
CONTINUOUS
 10
-0.239980
 20
5.322020
  0
VERTEX
  8
PLAN_1
 62
     2
  6
CONTINUOUS
 10
-0.237961
 20
5.324039
  0
VERTEX
  8
PLAN_1
 62
     2
  6
CONTINUOUS
 10
-0.235941
 20
5.326059
  0
VERTEX
  8
PLAN_1
 62
     2
  6
CONTINUOUS
 10
-0.233921
 20
5.328079
  0
VERTEX
  8
PLAN_1
 62
     2
  6
CONTINUOUS
 10
-0.232575
 20
5.330772
  0
VERTEX
  8
PLAN_1
 62
     2
  6
CONTINUOUS
 10
-0.231902
 20
5.334138
  0
VERTEX
  8
PLAN_1
 62
     2
  6
CONTINUOUS
 10
-0.231902
 20
5.338177
  0
VERTEX
  8
PLAN_1
 62
     2
  6
CONTINUOUS
 10
-0.231902
 20
5.340197
  0
VERTEX
  8
PLAN_1
 62
     2
  6
CONTINUOUS
 10
-0.232575
 20
5.342890
  0
VERTEX
  8
PLAN_1
 62
     2
  6
CONTINUOUS
 10
-0.233248
 20
5.345583
  0
VERTEX
  8
PLAN_1
 62
     2
  6
CONTINUOUS
 10
-0.234594
 20
5.348276
  0
VERTEX
  8
PLAN_1
 62
     2
  6
CONTINUOUS
 10
-0.236614
 20
5.350295
  0
VERTEX
  8
PLAN_1
 62
     2
  6
CONTINUOUS
 10
-0.239307
 20
5.351646
  0
VERTEX
  8
PLAN_1
 62
     2
  6
CONTINUOUS
 10
-0.242673
 20
5.352992
  0
VERTEX
  8
PLAN_1
 62
     2
  6
CONTINUOUS
 10
-0.246713
 20
5.352992
  0
VERTEX
  8
PLAN_1
 62
     2
  6
CONTINUOUS
 10
-0.250079
 20
5.352992
  0
VERTEX
  8
PLAN_1
 62
     2
  6
CONTINUOUS
 10
-0.253445
 20
5.352319
  0
VERTEX
  8
PLAN_1
 62
     2
  6
CONTINUOUS
 10
-0.255465
 20
5.350295
  0
VERTEX
  8
PLAN_1
 62
     2
  6
CONTINUOUS
 10
-0.258157
 20
5.348276
  0
VERTEX
  8
PLAN_1
 62
     2
  6
CONTINUOUS
 10
-0.259504
 20
5.346256
  0
VERTEX
  8
PLAN_1
 62
     2
  6
CONTINUOUS
 10
-0.260850
 20
5.343563
  0
VERTEX
  8
PLAN_1
 62
     2
  6
CONTINUOUS
 10
-0.261524
 20
5.340197
  0
VERTEX
  8
PLAN_1
 62
     2
  6
CONTINUOUS
 10
-0.261524
 20
5.337504
  0
VERTEX
  8
PLAN_1
 62
     2
  6
CONTINUOUS
 10
-0.261524
 20
5.334138
  0
VERTEX
  8
PLAN_1
 62
     2
  6
CONTINUOUS
 10
-0.260850
 20
5.331445
  0
VERTEX
  8
PLAN_1
 62
     2
  6
CONTINUOUS
 10
-0.259504
 20
5.328752
  0
VERTEX
  8
PLAN_1
 62
     2
  6
CONTINUOUS
 10
-0.258157
 20
5.326059
  0
VERTEX
  8
PLAN_1
 62
     2
  6
CONTINUOUS
 10
-0.255465
 20
5.324039
  0
VERTEX
  8
PLAN_1
 62
     2
  6
CONTINUOUS
 10
-0.252772
 20
5.322693
  0
VERTEX
  8
PLAN_1
 62
     2
  6
CONTINUOUS
 10
-0.250079
 20
5.321346
  0
VERTEX
  8
PLAN_1
 62
     2
  6
CONTINUOUS
 10
-0.246039
 20
5.321346
  0
SEQEND
  8
0
  0
POLYLINE
  8
PLAN_1
 62
     7
  6
CONTINUOUS
 66
     1
 40
0.004039
 41
0.004039
  0
VERTEX
  8
PLAN_1
 62
     7
  6
CONTINUOUS
 10
-1.567657
 20
5.314614
  0
VERTEX
  8
PLAN_1
 62
     7
  6
CONTINUOUS
 10
-1.567657
 20
5.157744
  0
SEQEND
  8
0
  0
POLYLINE
  8
PLAN_1
 62
     2
  6
CONTINUOUS
 66
     1
 40
0.004039
 41
0.004039
  0
VERTEX
  8
PLAN_1
 62
     2
  6
CONTINUOUS
 10
1.200134
 20
-0.808055
  0
VERTEX
  8
PLAN_1
 62
     2
  6
CONTINUOUS
 10
1.039224
 20
-0.808055
  0
SEQEND
  8
0
  0
POLYLINE
  8
PLAN_1
 62
     2
  6
CONTINUOUS
 66
     1
 40
0.004039
 41
0.004039
  0
VERTEX
  8
PLAN_1
 62
     2
  6
CONTINUOUS
 10
0.992094
 20
-0.808055
  0
VERTEX
  8
PLAN_1
 62
     2
  6
CONTINUOUS
 10
0.841283
 20
-0.808055
  0
SEQEND
  8
0
  0
POLYLINE
  8
PLAN_1
 62
     2
  6
CONTINUOUS
 66
     1
 40
0.004039
 41
0.004039
  0
VERTEX
  8
PLAN_1
 62
     2
  6
CONTINUOUS
 10
-2.266508
 20
2.000134
  0
VERTEX
  8
PLAN_1
 62
     2
  6
CONTINUOUS
 10
-2.266508
 20
5.108594
  0
SEQEND
  8
0
  0
SOLID
  8
PLAN_1
 62
     2
 10
-2.266508
 20
5.138220
 11
-2.282665
 21
5.078972
 12
-2.266508
 22
5.138220
 13
-2.251020
 23
5.078972
  0
POLYLINE
  8
PLAN_1
 62
     2
  6
CONTINUOUS
 66
     1
 40
0.003000
 41
0.003000
  0
VERTEX
  8
PLAN_1
 62
     2
  6
CONTINUOUS
 10
-2.266508
 20
5.138220
  0
VERTEX
  8
PLAN_1
 62
     2
  6
CONTINUOUS
 10
-2.282665
 20
5.078972
  0
VERTEX
  8
PLAN_1
 62
     2
  6
CONTINUOUS
 10
-2.251020
 20
5.078972
  0
VERTEX
  8
PLAN_1
 62
     2
  6
CONTINUOUS
 10
-2.266508
 20
5.138220
  0
SEQEND
  8
0
  0
SOLID
  8
PLAN_1
 62
     2
 10
-2.266508
 20
1.970508
 11
-2.282665
 21
2.029756
 12
-2.266508
 22
1.970508
 13
-2.251020
 23
2.029756
  0
POLYLINE
  8
PLAN_1
 62
     2
  6
CONTINUOUS
 66
     1
 40
0.003000
 41
0.003000
  0
VERTEX
  8
PLAN_1
 62
     2
  6
CONTINUOUS
 10
-2.266508
 20
1.970508
  0
VERTEX
  8
PLAN_1
 62
     2
  6
CONTINUOUS
 10
-2.282665
 20
2.029756
  0
VERTEX
  8
PLAN_1
 62
     2
  6
CONTINUOUS
 10
-2.251020
 20
2.029756
  0
VERTEX
  8
PLAN_1
 62
     2
  6
CONTINUOUS
 10
-2.266508
 20
1.970508
  0
SEQEND
  8
0
  0
POLYLINE
  8
PLAN_1
 62
     2
  6
CONTINUOUS
 66
     1
 40
0.003000
 41
0.003000
  0
VERTEX
  8
PLAN_1
 62
     2
  6
CONTINUOUS
 10
-2.329118
 20
3.538543
  0
VERTEX
  8
PLAN_1
 62
     2
  6
CONTINUOUS
 10
-2.327772
 20
3.541909
  0
VERTEX
  8
PLAN_1
 62
     2
  6
CONTINUOUS
 10
-2.325752
 20
3.544602
  0
VERTEX
  8
PLAN_1
 62
     2
  6
CONTINUOUS
 10
-2.323059
 20
3.546622
  0
VERTEX
  8
PLAN_1
 62
     2
  6
CONTINUOUS
 10
-2.321039
 20
3.547969
  0
VERTEX
  8
PLAN_1
 62
     2
  6
CONTINUOUS
 10
-2.318346
 20
3.549315
  0
VERTEX
  8
PLAN_1
 62
     2
  6
CONTINUOUS
 10
-2.316327
 20
3.549988
  0
VERTEX
  8
PLAN_1
 62
     2
  6
CONTINUOUS
 10
-2.313634
 20
3.549988
  0
VERTEX
  8
PLAN_1
 62
     2
  6
CONTINUOUS
 10
-2.311614
 20
3.549988
  0
VERTEX
  8
PLAN_1
 62
     2
  6
CONTINUOUS
 10
-2.306902
 20
3.549988
  0
VERTEX
  8
PLAN_1
 62
     2
  6
CONTINUOUS
 10
-2.302862
 20
3.548642
  0
VERTEX
  8
PLAN_1
 62
     2
  6
CONTINUOUS
 10
-2.298823
 20
3.547295
  0
VERTEX
  8
PLAN_1
 62
     2
  6
CONTINUOUS
 10
-2.295457
 20
3.544602
  0
VERTEX
  8
PLAN_1
 62
     2
  6
CONTINUOUS
 10
-2.292764
 20
3.541236
  0
VERTEX
  8
PLAN_1
 62
     2
  6
CONTINUOUS
 10
-2.290744
 20
3.536524
  0
VERTEX
  8
PLAN_1
 62
     2
  6
CONTINUOUS
 10
-2.288724
 20
3.531811
  0
VERTEX
  8
PLAN_1
 62
     2
  6
CONTINUOUS
 10
-2.288724
 20
3.525748
  0
VERTEX
  8
PLAN_1
 62
     2
  6
CONTINUOUS
 10
-2.288724
 20
3.523728
  0
VERTEX
  8
PLAN_1
 62
     2
  6
CONTINUOUS
 10
-2.288724
 20
3.521709
  0
VERTEX
  8
PLAN_1
 62
     2
  6
CONTINUOUS
 10
-2.288724
 20
3.519689
  0
VERTEX
  8
PLAN_1
 62
     2
  6
CONTINUOUS
 10
-2.289398
 20
3.517669
  0
VERTEX
  8
PLAN_1
 62
     2
  6
CONTINUOUS
 10
-2.290071
 20
3.514976
  0
VERTEX
  8
PLAN_1
 62
     2
  6
CONTINUOUS
 10
-2.291417
 20
3.512283
  0
VERTEX
  8
PLAN_1
 62
     2
  6
CONTINUOUS
 10
-2.292764
 20
3.510264
  0
VERTEX
  8
PLAN_1
 62
     2
  6
CONTINUOUS
 10
-2.294110
 20
3.508244
  0
VERTEX
  8
PLAN_1
 62
     2
  6
CONTINUOUS
 10
-2.296130
 20
3.505551
  0
VERTEX
  8
PLAN_1
 62
     2
  6
CONTINUOUS
 10
-2.298823
 20
3.503531
  0
VERTEX
  8
PLAN_1
 62
     2
  6
CONTINUOUS
 10
-2.301516
 20
3.502185
  0
VERTEX
  8
PLAN_1
 62
     2
  6
CONTINUOUS
 10
-2.303535
 20
3.501512
  0
VERTEX
  8
PLAN_1
 62
     2
  6
CONTINUOUS
 10
-2.306228
 20
3.500839
  0
VERTEX
  8
PLAN_1
 62
     2
  6
CONTINUOUS
 10
-2.308248
 20
3.500839
  0
VERTEX
  8
PLAN_1
 62
     2
  6
CONTINUOUS
 10
-2.310268
 20
3.500165
  0
VERTEX
  8
PLAN_1
 62
     2
  6
CONTINUOUS
 10
-2.311614
 20
3.500165
  0
VERTEX
  8
PLAN_1
 62
     2
  6
CONTINUOUS
 10
-2.314980
 20
3.500839
  0
VERTEX
  8
PLAN_1
 62
     2
  6
CONTINUOUS
 10
-2.317673
 20
3.501512
  0
VERTEX
  8
PLAN_1
 62
     2
  6
CONTINUOUS
 10
-2.320366
 20
3.502185
  0
VERTEX
  8
PLAN_1
 62
     2
  6
CONTINUOUS
 10
-2.322386
 20
3.503531
  0
VERTEX
  8
PLAN_1
 62
     2
  6
CONTINUOUS
 10
-2.324406
 20
3.505551
  0
VERTEX
  8
PLAN_1
 62
     2
  6
CONTINUOUS
 10
-2.326425
 20
3.507571
  0
VERTEX
  8
PLAN_1
 62
     2
  6
CONTINUOUS
 10
-2.327772
 20
3.510264
  0
VERTEX
  8
PLAN_1
 62
     2
  6
CONTINUOUS
 10
-2.329118
 20
3.512957
  0
VERTEX
  8
PLAN_1
 62
     2
  6
CONTINUOUS
 10
-2.330465
 20
3.510937
  0
VERTEX
  8
PLAN_1
 62
     2
  6
CONTINUOUS
 10
-2.331811
 20
3.508917
  0
VERTEX
  8
PLAN_1
 62
     2
  6
CONTINUOUS
 10
-2.333157
 20
3.506898
  0
VERTEX
  8
PLAN_1
 62
     2
  6
CONTINUOUS
 10
-2.334504
 20
3.505551
  0
VERTEX
  8
PLAN_1
 62
     2
  6
CONTINUOUS
 10
-2.336524
 20
3.504205
  0
VERTEX
  8
PLAN_1
 62
     2
  6
CONTINUOUS
 10
-2.338543
 20
3.503531
  0
VERTEX
  8
PLAN_1
 62
     2
  6
CONTINUOUS
 10
-2.341240
 20
3.502858
  0
VERTEX
  8
PLAN_1
 62
     2
  6
CONTINUOUS
 10
-2.343260
 20
3.502858
  0
VERTEX
  8
PLAN_1
 62
     2
  6
CONTINUOUS
 10
-2.346626
 20
3.502858
  0
VERTEX
  8
PLAN_1
 62
     2
  6
CONTINUOUS
 10
-2.349992
 20
3.504205
  0
VERTEX
  8
PLAN_1
 62
     2
  6
CONTINUOUS
 10
-2.353358
 20
3.505551
  0
VERTEX
  8
PLAN_1
 62
     2
  6
CONTINUOUS
 10
-2.356051
 20
3.507571
  0
VERTEX
  8
PLAN_1
 62
     2
  6
CONTINUOUS
 10
-2.359417
 20
3.510264
  0
VERTEX
  8
PLAN_1
 62
     2
  6
CONTINUOUS
 10
-2.361437
 20
3.514303
  0
VERTEX
  8
PLAN_1
 62
     2
  6
CONTINUOUS
 10
-2.362783
 20
3.519016
  0
VERTEX
  8
PLAN_1
 62
     2
  6
CONTINUOUS
 10
-2.363457
 20
3.525075
  0
VERTEX
  8
PLAN_1
 62
     2
  6
CONTINUOUS
 10
-2.362783
 20
3.530465
  0
VERTEX
  8
PLAN_1
 62
     2
  6
CONTINUOUS
 10
-2.362110
 20
3.535177
  0
VERTEX
  8
PLAN_1
 62
     2
  6
CONTINUOUS
 10
-2.360091
 20
3.539217
  0
VERTEX
  8
PLAN_1
 62
     2
  6
CONTINUOUS
 10
-2.357398
 20
3.542583
  0
VERTEX
  8
PLAN_1
 62
     2
  6
CONTINUOUS
 10
-2.354705
 20
3.544602
  0
VERTEX
  8
PLAN_1
 62
     2
  6
CONTINUOUS
 10
-2.351339
 20
3.546622
  0
VERTEX
  8
PLAN_1
 62
     2
  6
CONTINUOUS
 10
-2.347972
 20
3.547295
  0
VERTEX
  8
PLAN_1
 62
     2
  6
CONTINUOUS
 10
-2.344606
 20
3.547969
  0
VERTEX
  8
PLAN_1
 62
     2
  6
CONTINUOUS
 10
-2.341240
 20
3.547295
  0
VERTEX
  8
PLAN_1
 62
     2
  6
CONTINUOUS
 10
-2.337870
 20
3.546622
  0
VERTEX
  8
PLAN_1
 62
     2
  6
CONTINUOUS
 10
-2.335850
 20
3.545276
  0
VERTEX
  8
PLAN_1
 62
     2
  6
CONTINUOUS
 10
-2.333831
 20
3.543929
  0
VERTEX
  8
PLAN_1
 62
     2
  6
CONTINUOUS
 10
-2.332484
 20
3.542583
  0
VERTEX
  8
PLAN_1
 62
     2
  6
CONTINUOUS
 10
-2.331138
 20
3.541236
  0
VERTEX
  8
PLAN_1
 62
     2
  6
CONTINUOUS
 10
-2.329791
 20
3.539890
  0
VERTEX
  8
PLAN_1
 62
     2
  6
CONTINUOUS
 10
-2.329118
 20
3.538543
  0
SEQEND
  8
0
  0
POLYLINE
  8
PLAN_1
 62
     2
  6
CONTINUOUS
 66
     1
 40
0.003000
 41
0.003000
  0
VERTEX
  8
PLAN_1
 62
     2
  6
CONTINUOUS
 10
-2.310941
 20
3.510264
  0
VERTEX
  8
PLAN_1
 62
     2
  6
CONTINUOUS
 10
-2.308921
 20
3.510264
  0
VERTEX
  8
PLAN_1
 62
     2
  6
CONTINUOUS
 10
-2.306228
 20
3.510937
  0
VERTEX
  8
PLAN_1
 62
     2
  6
CONTINUOUS
 10
-2.304209
 20
3.511610
  0
VERTEX
  8
PLAN_1
 62
     2
  6
CONTINUOUS
 10
-2.301516
 20
3.512957
  0
VERTEX
  8
PLAN_1
 62
     2
  6
CONTINUOUS
 10
-2.299496
 20
3.515650
  0
VERTEX
  8
PLAN_1
 62
     2
  6
CONTINUOUS
 10
-2.298150
 20
3.518343
  0
VERTEX
  8
PLAN_1
 62
     2
  6
CONTINUOUS
 10
-2.296803
 20
3.521709
  0
VERTEX
  8
PLAN_1
 62
     2
  6
CONTINUOUS
 10
-2.296803
 20
3.525748
  0
VERTEX
  8
PLAN_1
 62
     2
  6
CONTINUOUS
 10
-2.296803
 20
3.528445
  0
VERTEX
  8
PLAN_1
 62
     2
  6
CONTINUOUS
 10
-2.297476
 20
3.531138
  0
VERTEX
  8
PLAN_1
 62
     2
  6
CONTINUOUS
 10
-2.298150
 20
3.533157
  0
VERTEX
  8
PLAN_1
 62
     2
  6
CONTINUOUS
 10
-2.299496
 20
3.535850
  0
VERTEX
  8
PLAN_1
 62
     2
  6
CONTINUOUS
 10
-2.300843
 20
3.537870
  0
VERTEX
  8
PLAN_1
 62
     2
  6
CONTINUOUS
 10
-2.303535
 20
3.539217
  0
VERTEX
  8
PLAN_1
 62
     2
  6
CONTINUOUS
 10
-2.306902
 20
3.539890
  0
VERTEX
  8
PLAN_1
 62
     2
  6
CONTINUOUS
 10
-2.310268
 20
3.540563
  0
VERTEX
  8
PLAN_1
 62
     2
  6
CONTINUOUS
 10
-2.314307
 20
3.539890
  0
VERTEX
  8
PLAN_1
 62
     2
  6
CONTINUOUS
 10
-2.317000
 20
3.539217
  0
VERTEX
  8
PLAN_1
 62
     2
  6
CONTINUOUS
 10
-2.319693
 20
3.537870
  0
VERTEX
  8
PLAN_1
 62
     2
  6
CONTINUOUS
 10
-2.321039
 20
3.535850
  0
VERTEX
  8
PLAN_1
 62
     2
  6
CONTINUOUS
 10
-2.323059
 20
3.533831
  0
VERTEX
  8
PLAN_1
 62
     2
  6
CONTINUOUS
 10
-2.323732
 20
3.531138
  0
VERTEX
  8
PLAN_1
 62
     2
  6
CONTINUOUS
 10
-2.324406
 20
3.528445
  0
VERTEX
  8
PLAN_1
 62
     2
  6
CONTINUOUS
 10
-2.325079
 20
3.525075
  0
VERTEX
  8
PLAN_1
 62
     2
  6
CONTINUOUS
 10
-2.324406
 20
3.521709
  0
VERTEX
  8
PLAN_1
 62
     2
  6
CONTINUOUS
 10
-2.323732
 20
3.518343
  0
VERTEX
  8
PLAN_1
 62
     2
  6
CONTINUOUS
 10
-2.322386
 20
3.516323
  0
VERTEX
  8
PLAN_1
 62
     2
  6
CONTINUOUS
 10
-2.320366
 20
3.513630
  0
VERTEX
  8
PLAN_1
 62
     2
  6
CONTINUOUS
 10
-2.318346
 20
3.512283
  0
VERTEX
  8
PLAN_1
 62
     2
  6
CONTINUOUS
 10
-2.316327
 20
3.510937
  0
VERTEX
  8
PLAN_1
 62
     2
  6
CONTINUOUS
 10
-2.313634
 20
3.510264
  0
VERTEX
  8
PLAN_1
 62
     2
  6
CONTINUOUS
 10
-2.310941
 20
3.510264
  0
SEQEND
  8
0
  0
POLYLINE
  8
PLAN_1
 62
     2
  6
CONTINUOUS
 66
     1
 40
0.003000
 41
0.003000
  0
VERTEX
  8
PLAN_1
 62
     2
  6
CONTINUOUS
 10
-2.344606
 20
3.538543
  0
VERTEX
  8
PLAN_1
 62
     2
  6
CONTINUOUS
 10
-2.345953
 20
3.537870
  0
VERTEX
  8
PLAN_1
 62
     2
  6
CONTINUOUS
 10
-2.347972
 20
3.537870
  0
VERTEX
  8
PLAN_1
 62
     2
  6
CONTINUOUS
 10
-2.349992
 20
3.536524
  0
VERTEX
  8
PLAN_1
 62
     2
  6
CONTINUOUS
 10
-2.351339
 20
3.535177
  0
VERTEX
  8
PLAN_1
 62
     2
  6
CONTINUOUS
 10
-2.353358
 20
3.533831
  0
VERTEX
  8
PLAN_1
 62
     2
  6
CONTINUOUS
 10
-2.354031
 20
3.531138
  0
VERTEX
  8
PLAN_1
 62
     2
  6
CONTINUOUS
 10
-2.355378
 20
3.528445
  0
VERTEX
  8
PLAN_1
 62
     2
  6
CONTINUOUS
 10
-2.355378
 20
3.524402
  0
VERTEX
  8
PLAN_1
 62
     2
  6
CONTINUOUS
 10
-2.355378
 20
3.521035
  0
VERTEX
  8
PLAN_1
 62
     2
  6
CONTINUOUS
 10
-2.354031
 20
3.518343
  0
VERTEX
  8
PLAN_1
 62
     2
  6
CONTINUOUS
 10
-2.352685
 20
3.516323
  0
VERTEX
  8
PLAN_1
 62
     2
  6
CONTINUOUS
 10
-2.351339
 20
3.514976
  0
VERTEX
  8
PLAN_1
 62
     2
  6
CONTINUOUS
 10
-2.349319
 20
3.513630
  0
VERTEX
  8
PLAN_1
 62
     2
  6
CONTINUOUS
 10
-2.347972
 20
3.512957
  0
VERTEX
  8
PLAN_1
 62
     2
  6
CONTINUOUS
 10
-2.345953
 20
3.512283
  0
VERTEX
  8
PLAN_1
 62
     2
  6
CONTINUOUS
 10
-2.343933
 20
3.512283
  0
VERTEX
  8
PLAN_1
 62
     2
  6
CONTINUOUS
 10
-2.341240
 20
3.512957
  0
VERTEX
  8
PLAN_1
 62
     2
  6
CONTINUOUS
 10
-2.339220
 20
3.513630
  0
VERTEX
  8
PLAN_1
 62
     2
  6
CONTINUOUS
 10
-2.337197
 20
3.514976
  0
VERTEX
  8
PLAN_1
 62
     2
  6
CONTINUOUS
 10
-2.335850
 20
3.516323
  0
VERTEX
  8
PLAN_1
 62
     2
  6
CONTINUOUS
 10
-2.334504
 20
3.518343
  0
VERTEX
  8
PLAN_1
 62
     2
  6
CONTINUOUS
 10
-2.333157
 20
3.520362
  0
VERTEX
  8
PLAN_1
 62
     2
  6
CONTINUOUS
 10
-2.333157
 20
3.523055
  0
VERTEX
  8
PLAN_1
 62
     2
  6
CONTINUOUS
 10
-2.332484
 20
3.525075
  0
VERTEX
  8
PLAN_1
 62
     2
  6
CONTINUOUS
 10
-2.333157
 20
3.527772
  0
VERTEX
  8
PLAN_1
 62
     2
  6
CONTINUOUS
 10
-2.333831
 20
3.530465
  0
VERTEX
  8
PLAN_1
 62
     2
  6
CONTINUOUS
 10
-2.334504
 20
3.532484
  0
VERTEX
  8
PLAN_1
 62
     2
  6
CONTINUOUS
 10
-2.335850
 20
3.534504
  0
VERTEX
  8
PLAN_1
 62
     2
  6
CONTINUOUS
 10
-2.337870
 20
3.536524
  0
VERTEX
  8
PLAN_1
 62
     2
  6
CONTINUOUS
 10
-2.339894
 20
3.537197
  0
VERTEX
  8
PLAN_1
 62
     2
  6
CONTINUOUS
 10
-2.341913
 20
3.537870
  0
VERTEX
  8
PLAN_1
 62
     2
  6
CONTINUOUS
 10
-2.344606
 20
3.538543
  0
SEQEND
  8
0
  0
POLYLINE
  8
PLAN_1
 62
     2
  6
CONTINUOUS
 66
     1
 40
0.003000
 41
0.003000
  0
VERTEX
  8
PLAN_1
 62
     2
  6
CONTINUOUS
 10
-2.288724
 20
3.583650
  0
VERTEX
  8
PLAN_1
 62
     2
  6
CONTINUOUS
 10
-2.288724
 20
3.579610
  0
VERTEX
  8
PLAN_1
 62
     2
  6
CONTINUOUS
 10
-2.289398
 20
3.576244
  0
VERTEX
  8
PLAN_1
 62
     2
  6
CONTINUOUS
 10
-2.290744
 20
3.572878
  0
VERTEX
  8
PLAN_1
 62
     2
  6
CONTINUOUS
 10
-2.292091
 20
3.570858
  0
VERTEX
  8
PLAN_1
 62
     2
  6
CONTINUOUS
 10
-2.294110
 20
3.568165
  0
VERTEX
  8
PLAN_1
 62
     2
  6
CONTINUOUS
 10
-2.296130
 20
3.566146
  0
VERTEX
  8
PLAN_1
 62
     2
  6
CONTINUOUS
 10
-2.298823
 20
3.564126
  0
VERTEX
  8
PLAN_1
 62
     2
  6
CONTINUOUS
 10
-2.301516
 20
3.562780
  0
VERTEX
  8
PLAN_1
 62
     2
  6
CONTINUOUS
 10
-2.307575
 20
3.560760
  0
VERTEX
  8
PLAN_1
 62
     2
  6
CONTINUOUS
 10
-2.313634
 20
3.559413
  0
VERTEX
  8
PLAN_1
 62
     2
  6
CONTINUOUS
 10
-2.320366
 20
3.558740
  0
VERTEX
  8
PLAN_1
 62
     2
  6
CONTINUOUS
 10
-2.325752
 20
3.558067
  0
VERTEX
  8
PLAN_1
 62
     2
  6
CONTINUOUS
 10
-2.331811
 20
3.558740
  0
VERTEX
  8
PLAN_1
 62
     2
  6
CONTINUOUS
 10
-2.338543
 20
3.559413
  0
VERTEX
  8
PLAN_1
 62
     2
  6
CONTINUOUS
 10
-2.344606
 20
3.560760
  0
VERTEX
  8
PLAN_1
 62
     2
  6
CONTINUOUS
 10
-2.350665
 20
3.562780
  0
VERTEX
  8
PLAN_1
 62
     2
  6
CONTINUOUS
 10
-2.353358
 20
3.564126
  0
VERTEX
  8
PLAN_1
 62
     2
  6
CONTINUOUS
 10
-2.355378
 20
3.566146
  0
VERTEX
  8
PLAN_1
 62
     2
  6
CONTINUOUS
 10
-2.358071
 20
3.568165
  0
VERTEX
  8
PLAN_1
 62
     2
  6
CONTINUOUS
 10
-2.360091
 20
3.570858
  0
VERTEX
  8
PLAN_1
 62
     2
  6
CONTINUOUS
 10
-2.361437
 20
3.572878
  0
VERTEX
  8
PLAN_1
 62
     2
  6
CONTINUOUS
 10
-2.362783
 20
3.576244
  0
VERTEX
  8
PLAN_1
 62
     2
  6
CONTINUOUS
 10
-2.363457
 20
3.579610
  0
VERTEX
  8
PLAN_1
 62
     2
  6
CONTINUOUS
 10
-2.363457
 20
3.583650
  0
VERTEX
  8
PLAN_1
 62
     2
  6
CONTINUOUS
 10
-2.363457
 20
3.587016
  0
VERTEX
  8
PLAN_1
 62
     2
  6
CONTINUOUS
 10
-2.362783
 20
3.590382
  0
VERTEX
  8
PLAN_1
 62
     2
  6
CONTINUOUS
 10
-2.361437
 20
3.593748
  0
VERTEX
  8
PLAN_1
 62
     2
  6
CONTINUOUS
 10
-2.360091
 20
3.595768
  0
VERTEX
  8
PLAN_1
 62
     2
  6
CONTINUOUS
 10
-2.358071
 20
3.598461
  0
VERTEX
  8
PLAN_1
 62
     2
  6
CONTINUOUS
 10
-2.355378
 20
3.600480
  0
VERTEX
  8
PLAN_1
 62
     2
  6
CONTINUOUS
 10
-2.353358
 20
3.602504
  0
VERTEX
  8
PLAN_1
 62
     2
  6
CONTINUOUS
 10
-2.350665
 20
3.603850
  0
VERTEX
  8
PLAN_1
 62
     2
  6
CONTINUOUS
 10
-2.344606
 20
3.605870
  0
VERTEX
  8
PLAN_1
 62
     2
  6
CONTINUOUS
 10
-2.338543
 20
3.607217
  0
VERTEX
  8
PLAN_1
 62
     2
  6
CONTINUOUS
 10
-2.331811
 20
3.607890
  0
VERTEX
  8
PLAN_1
 62
     2
  6
CONTINUOUS
 10
-2.325752
 20
3.608563
  0
VERTEX
  8
PLAN_1
 62
     2
  6
CONTINUOUS
 10
-2.320366
 20
3.607890
  0
VERTEX
  8
PLAN_1
 62
     2
  6
CONTINUOUS
 10
-2.313634
 20
3.607217
  0
VERTEX
  8
PLAN_1
 62
     2
  6
CONTINUOUS
 10
-2.307575
 20
3.605870
  0
VERTEX
  8
PLAN_1
 62
     2
  6
CONTINUOUS
 10
-2.301516
 20
3.603850
  0
VERTEX
  8
PLAN_1
 62
     2
  6
CONTINUOUS
 10
-2.298823
 20
3.602504
  0
VERTEX
  8
PLAN_1
 62
     2
  6
CONTINUOUS
 10
-2.296130
 20
3.600480
  0
VERTEX
  8
PLAN_1
 62
     2
  6
CONTINUOUS
 10
-2.294110
 20
3.598461
  0
VERTEX
  8
PLAN_1
 62
     2
  6
CONTINUOUS
 10
-2.292091
 20
3.595768
  0
VERTEX
  8
PLAN_1
 62
     2
  6
CONTINUOUS
 10
-2.290744
 20
3.593748
  0
VERTEX
  8
PLAN_1
 62
     2
  6
CONTINUOUS
 10
-2.289398
 20
3.590382
  0
VERTEX
  8
PLAN_1
 62
     2
  6
CONTINUOUS
 10
-2.288724
 20
3.587016
  0
VERTEX
  8
PLAN_1
 62
     2
  6
CONTINUOUS
 10
-2.288724
 20
3.583650
  0
SEQEND
  8
0
  0
POLYLINE
  8
PLAN_1
 62
     2
  6
CONTINUOUS
 66
     1
 40
0.003000
 41
0.003000
  0
VERTEX
  8
PLAN_1
 62
     2
  6
CONTINUOUS
 10
-2.355378
 20
3.583650
  0
VERTEX
  8
PLAN_1
 62
     2
  6
CONTINUOUS
 10
-2.354705
 20
3.579610
  0
VERTEX
  8
PLAN_1
 62
     2
  6
CONTINUOUS
 10
-2.353358
 20
3.576244
  0
VERTEX
  8
PLAN_1
 62
     2
  6
CONTINUOUS
 10
-2.350665
 20
3.573551
  0
VERTEX
  8
PLAN_1
 62
     2
  6
CONTINUOUS
 10
-2.347299
 20
3.571531
  0
VERTEX
  8
PLAN_1
 62
     2
  6
CONTINUOUS
 10
-2.343260
 20
3.570185
  0
VERTEX
  8
PLAN_1
 62
     2
  6
CONTINUOUS
 10
-2.338543
 20
3.568839
  0
VERTEX
  8
PLAN_1
 62
     2
  6
CONTINUOUS
 10
-2.332484
 20
3.568165
  0
VERTEX
  8
PLAN_1
 62
     2
  6
CONTINUOUS
 10
-2.325752
 20
3.568165
  0
VERTEX
  8
PLAN_1
 62
     2
  6
CONTINUOUS
 10
-2.319693
 20
3.568165
  0
VERTEX
  8
PLAN_1
 62
     2
  6
CONTINUOUS
 10
-2.313634
 20
3.568839
  0
VERTEX
  8
PLAN_1
 62
     2
  6
CONTINUOUS
 10
-2.308921
 20
3.570185
  0
VERTEX
  8
PLAN_1
 62
     2
  6
CONTINUOUS
 10
-2.304209
 20
3.571531
  0
VERTEX
  8
PLAN_1
 62
     2
  6
CONTINUOUS
 10
-2.300843
 20
3.573551
  0
VERTEX
  8
PLAN_1
 62
     2
  6
CONTINUOUS
 10
-2.298823
 20
3.576244
  0
VERTEX
  8
PLAN_1
 62
     2
  6
CONTINUOUS
 10
-2.297476
 20
3.579610
  0
VERTEX
  8
PLAN_1
 62
     2
  6
CONTINUOUS
 10
-2.296803
 20
3.583650
  0
VERTEX
  8
PLAN_1
 62
     2
  6
CONTINUOUS
 10
-2.297476
 20
3.587016
  0
VERTEX
  8
PLAN_1
 62
     2
  6
CONTINUOUS
 10
-2.298823
 20
3.590382
  0
VERTEX
  8
PLAN_1
 62
     2
  6
CONTINUOUS
 10
-2.300843
 20
3.593075
  0
VERTEX
  8
PLAN_1
 62
     2
  6
CONTINUOUS
 10
-2.304209
 20
3.595094
  0
VERTEX
  8
PLAN_1
 62
     2
  6
CONTINUOUS
 10
-2.308921
 20
3.596441
  0
VERTEX
  8
PLAN_1
 62
     2
  6
CONTINUOUS
 10
-2.313634
 20
3.597787
  0
VERTEX
  8
PLAN_1
 62
     2
  6
CONTINUOUS
 10
-2.319693
 20
3.598461
  0
VERTEX
  8
PLAN_1
 62
     2
  6
CONTINUOUS
 10
-2.325752
 20
3.598461
  0
VERTEX
  8
PLAN_1
 62
     2
  6
CONTINUOUS
 10
-2.332484
 20
3.598461
  0
VERTEX
  8
PLAN_1
 62
     2
  6
CONTINUOUS
 10
-2.338543
 20
3.597787
  0
VERTEX
  8
PLAN_1
 62
     2
  6
CONTINUOUS
 10
-2.343260
 20
3.596441
  0
VERTEX
  8
PLAN_1
 62
     2
  6
CONTINUOUS
 10
-2.347299
 20
3.595094
  0
VERTEX
  8
PLAN_1
 62
     2
  6
CONTINUOUS
 10
-2.350665
 20
3.593075
  0
VERTEX
  8
PLAN_1
 62
     2
  6
CONTINUOUS
 10
-2.353358
 20
3.590382
  0
VERTEX
  8
PLAN_1
 62
     2
  6
CONTINUOUS
 10
-2.354705
 20
3.587016
  0
VERTEX
  8
PLAN_1
 62
     2
  6
CONTINUOUS
 10
-2.355378
 20
3.583650
  0
SEQEND
  8
0
  0
POLYLINE
  8
PLAN_1
 62
     2
  6
CONTINUOUS
 66
     1
 40
0.004039
 41
0.004039
  0
VERTEX
  8
PLAN_1
 62
     2
  6
CONTINUOUS
 10
-2.131854
 20
1.970508
  0
VERTEX
  8
PLAN_1
 62
     2
  6
CONTINUOUS
 10
-2.290744
 20
1.970508
  0
SEQEND
  8
0
  0
POLYLINE
  8
PLAN_1
 62
     2
  6
CONTINUOUS
 66
     1
 40
0.004039
 41
0.004039
  0
VERTEX
  8
PLAN_1
 62
     2
  6
CONTINUOUS
 10
-2.131854
 20
5.138220
  0
VERTEX
  8
PLAN_1
 62
     2
  6
CONTINUOUS
 10
-2.447614
 20
5.138220
  0
SEQEND
  8
0
  0
POLYLINE
  8
PLAN_1
 62
     2
  6
CONTINUOUS
 66
     1
 40
0.004039
 41
0.004039
  0
VERTEX
  8
PLAN_1
 62
     2
  6
CONTINUOUS
 10
-2.424051
 20
-1.675220
  0
VERTEX
  8
PLAN_1
 62
     2
  6
CONTINUOUS
 10
-2.424051
 20
5.109268
  0
SEQEND
  8
0
  0
SOLID
  8
PLAN_1
 62
     2
 10
-2.424051
 20
5.138220
 11
-2.440209
 21
5.079646
 12
-2.424051
 22
5.138220
 13
-2.408563
 23
5.079646
  0
POLYLINE
  8
PLAN_1
 62
     2
  6
CONTINUOUS
 66
     1
 40
0.003000
 41
0.003000
  0
VERTEX
  8
PLAN_1
 62
     2
  6
CONTINUOUS
 10
-2.424051
 20
5.138220
  0
VERTEX
  8
PLAN_1
 62
     2
  6
CONTINUOUS
 10
-2.440209
 20
5.079646
  0
VERTEX
  8
PLAN_1
 62
     2
  6
CONTINUOUS
 10
-2.408563
 20
5.079646
  0
VERTEX
  8
PLAN_1
 62
     2
  6
CONTINUOUS
 10
-2.424051
 20
5.138220
  0
SEQEND
  8
0
  0
SOLID
  8
PLAN_1
 62
     2
 10
-2.424051
 20
-1.704843
 11
-2.440209
 21
-1.645594
 12
-2.424051
 22
-1.704843
 13
-2.408563
 23
-1.645594
  0
POLYLINE
  8
PLAN_1
 62
     2
  6
CONTINUOUS
 66
     1
 40
0.003000
 41
0.003000
  0
VERTEX
  8
PLAN_1
 62
     2
  6
CONTINUOUS
 10
-2.424051
 20
-1.704843
  0
VERTEX
  8
PLAN_1
 62
     2
  6
CONTINUOUS
 10
-2.440209
 20
-1.645594
  0
VERTEX
  8
PLAN_1
 62
     2
  6
CONTINUOUS
 10
-2.408563
 20
-1.645594
  0
VERTEX
  8
PLAN_1
 62
     2
  6
CONTINUOUS
 10
-2.424051
 20
-1.704843
  0
SEQEND
  8
0
  0
POLYLINE
  8
PLAN_1
 62
     2
  6
CONTINUOUS
 66
     1
 40
0.003000
 41
0.003000
  0
VERTEX
  8
PLAN_1
 62
     2
  6
CONTINUOUS
 10
-2.486665
 20
1.570591
  0
VERTEX
  8
PLAN_1
 62
     2
  6
CONTINUOUS
 10
-2.485319
 20
1.573957
  0
VERTEX
  8
PLAN_1
 62
     2
  6
CONTINUOUS
 10
-2.483295
 20
1.576650
  0
VERTEX
  8
PLAN_1
 62
     2
  6
CONTINUOUS
 10
-2.480602
 20
1.578669
  0
VERTEX
  8
PLAN_1
 62
     2
  6
CONTINUOUS
 10
-2.478583
 20
1.580016
  0
VERTEX
  8
PLAN_1
 62
     2
  6
CONTINUOUS
 10
-2.475890
 20
1.581362
  0
VERTEX
  8
PLAN_1
 62
     2
  6
CONTINUOUS
 10
-2.473197
 20
1.582035
  0
VERTEX
  8
PLAN_1
 62
     2
  6
CONTINUOUS
 10
-2.471177
 20
1.582035
  0
VERTEX
  8
PLAN_1
 62
     2
  6
CONTINUOUS
 10
-2.469157
 20
1.582709
  0
VERTEX
  8
PLAN_1
 62
     2
  6
CONTINUOUS
 10
-2.464445
 20
1.582035
  0
VERTEX
  8
PLAN_1
 62
     2
  6
CONTINUOUS
 10
-2.460406
 20
1.580689
  0
VERTEX
  8
PLAN_1
 62
     2
  6
CONTINUOUS
 10
-2.456366
 20
1.579343
  0
VERTEX
  8
PLAN_1
 62
     2
  6
CONTINUOUS
 10
-2.453000
 20
1.576650
  0
VERTEX
  8
PLAN_1
 62
     2
  6
CONTINUOUS
 10
-2.450307
 20
1.573283
  0
VERTEX
  8
PLAN_1
 62
     2
  6
CONTINUOUS
 10
-2.447614
 20
1.568571
  0
VERTEX
  8
PLAN_1
 62
     2
  6
CONTINUOUS
 10
-2.446268
 20
1.563858
  0
VERTEX
  8
PLAN_1
 62
     2
  6
CONTINUOUS
 10
-2.445594
 20
1.557799
  0
VERTEX
  8
PLAN_1
 62
     2
  6
CONTINUOUS
 10
-2.446268
 20
1.555776
  0
VERTEX
  8
PLAN_1
 62
     2
  6
CONTINUOUS
 10
-2.446268
 20
1.553756
  0
VERTEX
  8
PLAN_1
 62
     2
  6
CONTINUOUS
 10
-2.446268
 20
1.551736
  0
VERTEX
  8
PLAN_1
 62
     2
  6
CONTINUOUS
 10
-2.446941
 20
1.549717
  0
VERTEX
  8
PLAN_1
 62
     2
  6
CONTINUOUS
 10
-2.447614
 20
1.547024
  0
VERTEX
  8
PLAN_1
 62
     2
  6
CONTINUOUS
 10
-2.448961
 20
1.545004
  0
VERTEX
  8
PLAN_1
 62
     2
  6
CONTINUOUS
 10
-2.449634
 20
1.542311
  0
VERTEX
  8
PLAN_1
 62
     2
  6
CONTINUOUS
 10
-2.451654
 20
1.540291
  0
VERTEX
  8
PLAN_1
 62
     2
  6
CONTINUOUS
 10
-2.453673
 20
1.537598
  0
VERTEX
  8
PLAN_1
 62
     2
  6
CONTINUOUS
 10
-2.456366
 20
1.535579
  0
VERTEX
  8
PLAN_1
 62
     2
  6
CONTINUOUS
 10
-2.458386
 20
1.534232
  0
VERTEX
  8
PLAN_1
 62
     2
  6
CONTINUOUS
 10
-2.461079
 20
1.533559
  0
VERTEX
  8
PLAN_1
 62
     2
  6
CONTINUOUS
 10
-2.463098
 20
1.532886
  0
VERTEX
  8
PLAN_1
 62
     2
  6
CONTINUOUS
 10
-2.465791
 20
1.532886
  0
VERTEX
  8
PLAN_1
 62
     2
  6
CONTINUOUS
 10
-2.467138
 20
1.532886
  0
VERTEX
  8
PLAN_1
 62
     2
  6
CONTINUOUS
 10
-2.469157
 20
1.532886
  0
VERTEX
  8
PLAN_1
 62
     2
  6
CONTINUOUS
 10
-2.471850
 20
1.532886
  0
VERTEX
  8
PLAN_1
 62
     2
  6
CONTINUOUS
 10
-2.475217
 20
1.533559
  0
VERTEX
  8
PLAN_1
 62
     2
  6
CONTINUOUS
 10
-2.477909
 20
1.534232
  0
VERTEX
  8
PLAN_1
 62
     2
  6
CONTINUOUS
 10
-2.479929
 20
1.536252
  0
VERTEX
  8
PLAN_1
 62
     2
  6
CONTINUOUS
 10
-2.481949
 20
1.537598
  0
VERTEX
  8
PLAN_1
 62
     2
  6
CONTINUOUS
 10
-2.483969
 20
1.539618
  0
VERTEX
  8
PLAN_1
 62
     2
  6
CONTINUOUS
 10
-2.485319
 20
1.542311
  0
VERTEX
  8
PLAN_1
 62
     2
  6
CONTINUOUS
 10
-2.486665
 20
1.545004
  0
VERTEX
  8
PLAN_1
 62
     2
  6
CONTINUOUS
 10
-2.488012
 20
1.542984
  0
VERTEX
  8
PLAN_1
 62
     2
  6
CONTINUOUS
 10
-2.488685
 20
1.540965
  0
VERTEX
  8
PLAN_1
 62
     2
  6
CONTINUOUS
 10
-2.490705
 20
1.538945
  0
VERTEX
  8
PLAN_1
 62
     2
  6
CONTINUOUS
 10
-2.492051
 20
1.537598
  0
VERTEX
  8
PLAN_1
 62
     2
  6
CONTINUOUS
 10
-2.494071
 20
1.536925
  0
VERTEX
  8
PLAN_1
 62
     2
  6
CONTINUOUS
 10
-2.496091
 20
1.535579
  0
VERTEX
  8
PLAN_1
 62
     2
  6
CONTINUOUS
 10
-2.498110
 20
1.535579
  0
VERTEX
  8
PLAN_1
 62
     2
  6
CONTINUOUS
 10
-2.500803
 20
1.534906
  0
VERTEX
  8
PLAN_1
 62
     2
  6
CONTINUOUS
 10
-2.504169
 20
1.535579
  0
VERTEX
  8
PLAN_1
 62
     2
  6
CONTINUOUS
 10
-2.507535
 20
1.536252
  0
VERTEX
  8
PLAN_1
 62
     2
  6
CONTINUOUS
 10
-2.510902
 20
1.537598
  0
VERTEX
  8
PLAN_1
 62
     2
  6
CONTINUOUS
 10
-2.513594
 20
1.539618
  0
VERTEX
  8
PLAN_1
 62
     2
  6
CONTINUOUS
 10
-2.516961
 20
1.542311
  0
VERTEX
  8
PLAN_1
 62
     2
  6
CONTINUOUS
 10
-2.518980
 20
1.546350
  0
VERTEX
  8
PLAN_1
 62
     2
  6
CONTINUOUS
 10
-2.520327
 20
1.551063
  0
VERTEX
  8
PLAN_1
 62
     2
  6
CONTINUOUS
 10
-2.521000
 20
1.557122
  0
VERTEX
  8
PLAN_1
 62
     2
  6
CONTINUOUS
 10
-2.520327
 20
1.563185
  0
VERTEX
  8
PLAN_1
 62
     2
  6
CONTINUOUS
 10
-2.518980
 20
1.567898
  0
VERTEX
  8
PLAN_1
 62
     2
  6
CONTINUOUS
 10
-2.517634
 20
1.571264
  0
VERTEX
  8
PLAN_1
 62
     2
  6
CONTINUOUS
 10
-2.514941
 20
1.574630
  0
VERTEX
  8
PLAN_1
 62
     2
  6
CONTINUOUS
 10
-2.511575
 20
1.576650
  0
VERTEX
  8
PLAN_1
 62
     2
  6
CONTINUOUS
 10
-2.508882
 20
1.578669
  0
VERTEX
  8
PLAN_1
 62
     2
  6
CONTINUOUS
 10
-2.505516
 20
1.579343
  0
VERTEX
  8
PLAN_1
 62
     2
  6
CONTINUOUS
 10
-2.502150
 20
1.580016
  0
VERTEX
  8
PLAN_1
 62
     2
  6
CONTINUOUS
 10
-2.498783
 20
1.579343
  0
VERTEX
  8
PLAN_1
 62
     2
  6
CONTINUOUS
 10
-2.495417
 20
1.578669
  0
VERTEX
  8
PLAN_1
 62
     2
  6
CONTINUOUS
 10
-2.493398
 20
1.577996
  0
VERTEX
  8
PLAN_1
 62
     2
  6
CONTINUOUS
 10
-2.491378
 20
1.576650
  0
VERTEX
  8
PLAN_1
 62
     2
  6
CONTINUOUS
 10
-2.489358
 20
1.574630
  0
VERTEX
  8
PLAN_1
 62
     2
  6
CONTINUOUS
 10
-2.488685
 20
1.573283
  0
VERTEX
  8
PLAN_1
 62
     2
  6
CONTINUOUS
 10
-2.487339
 20
1.571937
  0
VERTEX
  8
PLAN_1
 62
     2
  6
CONTINUOUS
 10
-2.486665
 20
1.570591
  0
SEQEND
  8
0
  0
POLYLINE
  8
PLAN_1
 62
     2
  6
CONTINUOUS
 66
     1
 40
0.003000
 41
0.003000
  0
VERTEX
  8
PLAN_1
 62
     2
  6
CONTINUOUS
 10
-2.468484
 20
1.542311
  0
VERTEX
  8
PLAN_1
 62
     2
  6
CONTINUOUS
 10
-2.466465
 20
1.542311
  0
VERTEX
  8
PLAN_1
 62
     2
  6
CONTINUOUS
 10
-2.463772
 20
1.542984
  0
VERTEX
  8
PLAN_1
 62
     2
  6
CONTINUOUS
 10
-2.461752
 20
1.543657
  0
VERTEX
  8
PLAN_1
 62
     2
  6
CONTINUOUS
 10
-2.459059
 20
1.545677
  0
VERTEX
  8
PLAN_1
 62
     2
  6
CONTINUOUS
 10
-2.457039
 20
1.547697
  0
VERTEX
  8
PLAN_1
 62
     2
  6
CONTINUOUS
 10
-2.455693
 20
1.550390
  0
VERTEX
  8
PLAN_1
 62
     2
  6
CONTINUOUS
 10
-2.454346
 20
1.553756
  0
VERTEX
  8
PLAN_1
 62
     2
  6
CONTINUOUS
 10
-2.454346
 20
1.557799
  0
VERTEX
  8
PLAN_1
 62
     2
  6
CONTINUOUS
 10
-2.454346
 20
1.560492
  0
VERTEX
  8
PLAN_1
 62
     2
  6
CONTINUOUS
 10
-2.454346
 20
1.563185
  0
VERTEX
  8
PLAN_1
 62
     2
  6
CONTINUOUS
 10
-2.455693
 20
1.565878
  0
VERTEX
  8
PLAN_1
 62
     2
  6
CONTINUOUS
 10
-2.457039
 20
1.567898
  0
VERTEX
  8
PLAN_1
 62
     2
  6
CONTINUOUS
 10
-2.458386
 20
1.569917
  0
VERTEX
  8
PLAN_1
 62
     2
  6
CONTINUOUS
 10
-2.461079
 20
1.571264
  0
VERTEX
  8
PLAN_1
 62
     2
  6
CONTINUOUS
 10
-2.463772
 20
1.572610
  0
VERTEX
  8
PLAN_1
 62
     2
  6
CONTINUOUS
 10
-2.467811
 20
1.572610
  0
VERTEX
  8
PLAN_1
 62
     2
  6
CONTINUOUS
 10
-2.471177
 20
1.572610
  0
VERTEX
  8
PLAN_1
 62
     2
  6
CONTINUOUS
 10
-2.474543
 20
1.571264
  0
VERTEX
  8
PLAN_1
 62
     2
  6
CONTINUOUS
 10
-2.476563
 20
1.569917
  0
VERTEX
  8
PLAN_1
 62
     2
  6
CONTINUOUS
 10
-2.478583
 20
1.567898
  0
VERTEX
  8
PLAN_1
 62
     2
  6
CONTINUOUS
 10
-2.480602
 20
1.565878
  0
VERTEX
  8
PLAN_1
 62
     2
  6
CONTINUOUS
 10
-2.481276
 20
1.563185
  0
VERTEX
  8
PLAN_1
 62
     2
  6
CONTINUOUS
 10
-2.481949
 20
1.560492
  0
VERTEX
  8
PLAN_1
 62
     2
  6
CONTINUOUS
 10
-2.481949
 20
1.557799
  0
VERTEX
  8
PLAN_1
 62
     2
  6
CONTINUOUS
 10
-2.481949
 20
1.553756
  0
VERTEX
  8
PLAN_1
 62
     2
  6
CONTINUOUS
 10
-2.481276
 20
1.551063
  0
VERTEX
  8
PLAN_1
 62
     2
  6
CONTINUOUS
 10
-2.479929
 20
1.548370
  0
VERTEX
  8
PLAN_1
 62
     2
  6
CONTINUOUS
 10
-2.477909
 20
1.546350
  0
VERTEX
  8
PLAN_1
 62
     2
  6
CONTINUOUS
 10
-2.475890
 20
1.544331
  0
VERTEX
  8
PLAN_1
 62
     2
  6
CONTINUOUS
 10
-2.473870
 20
1.542984
  0
VERTEX
  8
PLAN_1
 62
     2
  6
CONTINUOUS
 10
-2.471177
 20
1.542311
  0
VERTEX
  8
PLAN_1
 62
     2
  6
CONTINUOUS
 10
-2.468484
 20
1.542311
  0
SEQEND
  8
0
  0
POLYLINE
  8
PLAN_1
 62
     2
  6
CONTINUOUS
 66
     1
 40
0.003000
 41
0.003000
  0
VERTEX
  8
PLAN_1
 62
     2
  6
CONTINUOUS
 10
-2.502150
 20
1.570591
  0
VERTEX
  8
PLAN_1
 62
     2
  6
CONTINUOUS
 10
-2.503496
 20
1.569917
  0
VERTEX
  8
PLAN_1
 62
     2
  6
CONTINUOUS
 10
-2.505516
 20
1.569917
  0
VERTEX
  8
PLAN_1
 62
     2
  6
CONTINUOUS
 10
-2.507535
 20
1.568571
  0
VERTEX
  8
PLAN_1
 62
     2
  6
CONTINUOUS
 10
-2.508882
 20
1.567898
  0
VERTEX
  8
PLAN_1
 62
     2
  6
CONTINUOUS
 10
-2.510228
 20
1.565878
  0
VERTEX
  8
PLAN_1
 62
     2
  6
CONTINUOUS
 10
-2.511575
 20
1.563185
  0
VERTEX
  8
PLAN_1
 62
     2
  6
CONTINUOUS
 10
-2.512248
 20
1.560492
  0
VERTEX
  8
PLAN_1
 62
     2
  6
CONTINUOUS
 10
-2.512921
 20
1.556449
  0
VERTEX
  8
PLAN_1
 62
     2
  6
CONTINUOUS
 10
-2.512248
 20
1.553083
  0
VERTEX
  8
PLAN_1
 62
     2
  6
CONTINUOUS
 10
-2.511575
 20
1.550390
  0
VERTEX
  8
PLAN_1
 62
     2
  6
CONTINUOUS
 10
-2.510228
 20
1.548370
  0
VERTEX
  8
PLAN_1
 62
     2
  6
CONTINUOUS
 10
-2.508882
 20
1.547024
  0
VERTEX
  8
PLAN_1
 62
     2
  6
CONTINUOUS
 10
-2.506862
 20
1.545677
  0
VERTEX
  8
PLAN_1
 62
     2
  6
CONTINUOUS
 10
-2.504843
 20
1.545004
  0
VERTEX
  8
PLAN_1
 62
     2
  6
CONTINUOUS
 10
-2.503496
 20
1.545004
  0
VERTEX
  8
PLAN_1
 62
     2
  6
CONTINUOUS
 10
-2.501476
 20
1.544331
  0
VERTEX
  8
PLAN_1
 62
     2
  6
CONTINUOUS
 10
-2.498783
 20
1.545004
  0
VERTEX
  8
PLAN_1
 62
     2
  6
CONTINUOUS
 10
-2.496764
 20
1.545677
  0
VERTEX
  8
PLAN_1
 62
     2
  6
CONTINUOUS
 10
-2.494744
 20
1.547024
  0
VERTEX
  8
PLAN_1
 62
     2
  6
CONTINUOUS
 10
-2.493398
 20
1.548370
  0
VERTEX
  8
PLAN_1
 62
     2
  6
CONTINUOUS
 10
-2.492051
 20
1.550390
  0
VERTEX
  8
PLAN_1
 62
     2
  6
CONTINUOUS
 10
-2.490705
 20
1.552409
  0
VERTEX
  8
PLAN_1
 62
     2
  6
CONTINUOUS
 10
-2.490031
 20
1.555102
  0
VERTEX
  8
PLAN_1
 62
     2
  6
CONTINUOUS
 10
-2.490031
 20
1.557122
  0
VERTEX
  8
PLAN_1
 62
     2
  6
CONTINUOUS
 10
-2.490031
 20
1.560492
  0
VERTEX
  8
PLAN_1
 62
     2
  6
CONTINUOUS
 10
-2.490705
 20
1.562512
  0
VERTEX
  8
PLAN_1
 62
     2
  6
CONTINUOUS
 10
-2.492051
 20
1.565205
  0
VERTEX
  8
PLAN_1
 62
     2
  6
CONTINUOUS
 10
-2.493398
 20
1.566551
  0
VERTEX
  8
PLAN_1
 62
     2
  6
CONTINUOUS
 10
-2.495417
 20
1.568571
  0
VERTEX
  8
PLAN_1
 62
     2
  6
CONTINUOUS
 10
-2.497437
 20
1.569244
  0
VERTEX
  8
PLAN_1
 62
     2
  6
CONTINUOUS
 10
-2.499457
 20
1.569917
  0
VERTEX
  8
PLAN_1
 62
     2
  6
CONTINUOUS
 10
-2.502150
 20
1.570591
  0
SEQEND
  8
0
  0
POLYLINE
  8
PLAN_1
 62
     2
  6
CONTINUOUS
 66
     1
 40
0.003000
 41
0.003000
  0
VERTEX
  8
PLAN_1
 62
     2
  6
CONTINUOUS
 10
-2.489358
 20
1.609638
  0
VERTEX
  8
PLAN_1
 62
     2
  6
CONTINUOUS
 10
-2.489358
 20
1.610311
  0
VERTEX
  8
PLAN_1
 62
     2
  6
CONTINUOUS
 10
-2.489358
 20
1.610984
  0
VERTEX
  8
PLAN_1
 62
     2
  6
CONTINUOUS
 10
-2.489358
 20
1.611657
  0
VERTEX
  8
PLAN_1
 62
     2
  6
CONTINUOUS
 10
-2.489358
 20
1.612331
  0
VERTEX
  8
PLAN_1
 62
     2
  6
CONTINUOUS
 10
-2.489358
 20
1.613004
  0
VERTEX
  8
PLAN_1
 62
     2
  6
CONTINUOUS
 10
-2.489358
 20
1.613677
  0
VERTEX
  8
PLAN_1
 62
     2
  6
CONTINUOUS
 10
-2.489358
 20
1.614350
  0
VERTEX
  8
PLAN_1
 62
     2
  6
CONTINUOUS
 10
-2.489358
 20
1.617043
  0
VERTEX
  8
PLAN_1
 62
     2
  6
CONTINUOUS
 10
-2.490031
 20
1.619736
  0
VERTEX
  8
PLAN_1
 62
     2
  6
CONTINUOUS
 10
-2.490705
 20
1.622429
  0
VERTEX
  8
PLAN_1
 62
     2
  6
CONTINUOUS
 10
-2.492051
 20
1.624449
  0
VERTEX
  8
PLAN_1
 62
     2
  6
CONTINUOUS
 10
-2.493398
 20
1.625795
  0
VERTEX
  8
PLAN_1
 62
     2
  6
CONTINUOUS
 10
-2.495417
 20
1.627142
  0
VERTEX
  8
PLAN_1
 62
     2
  6
CONTINUOUS
 10
-2.498110
 20
1.628488
  0
VERTEX
  8
PLAN_1
 62
     2
  6
CONTINUOUS
 10
-2.501476
 20
1.628488
  0
VERTEX
  8
PLAN_1
 62
     2
  6
CONTINUOUS
 10
-2.502823
 20
1.628488
  0
VERTEX
  8
PLAN_1
 62
     2
  6
CONTINUOUS
 10
-2.504843
 20
1.627815
  0
VERTEX
  8
PLAN_1
 62
     2
  6
CONTINUOUS
 10
-2.506862
 20
1.627142
  0
VERTEX
  8
PLAN_1
 62
     2
  6
CONTINUOUS
 10
-2.508882
 20
1.625795
  0
VERTEX
  8
PLAN_1
 62
     2
  6
CONTINUOUS
 10
-2.510228
 20
1.624449
  0
VERTEX
  8
PLAN_1
 62
     2
  6
CONTINUOUS
 10
-2.511575
 20
1.621756
  0
VERTEX
  8
PLAN_1
 62
     2
  6
CONTINUOUS
 10
-2.512248
 20
1.619063
  0
VERTEX
  8
PLAN_1
 62
     2
  6
CONTINUOUS
 10
-2.512921
 20
1.615024
  0
VERTEX
  8
PLAN_1
 62
     2
  6
CONTINUOUS
 10
-2.512248
 20
1.610984
  0
VERTEX
  8
PLAN_1
 62
     2
  6
CONTINUOUS
 10
-2.510902
 20
1.607618
  0
VERTEX
  8
PLAN_1
 62
     2
  6
CONTINUOUS
 10
-2.508882
 20
1.604925
  0
VERTEX
  8
PLAN_1
 62
     2
  6
CONTINUOUS
 10
-2.506862
 20
1.602906
  0
VERTEX
  8
PLAN_1
 62
     2
  6
CONTINUOUS
 10
-2.504169
 20
1.602232
  0
VERTEX
  8
PLAN_1
 62
     2
  6
CONTINUOUS
 10
-2.501476
 20
1.601559
  0
VERTEX
  8
PLAN_1
 62
     2
  6
CONTINUOUS
 10
-2.499457
 20
1.600886
  0
VERTEX
  8
PLAN_1
 62
     2
  6
CONTINUOUS
 10
-2.496764
 20
1.600886
  0
VERTEX
  8
PLAN_1
 62
     2
  6
CONTINUOUS
 10
-2.496764
 20
1.592134
  0
VERTEX
  8
PLAN_1
 62
     2
  6
CONTINUOUS
 10
-2.501476
 20
1.592134
  0
VERTEX
  8
PLAN_1
 62
     2
  6
CONTINUOUS
 10
-2.505516
 20
1.592807
  0
VERTEX
  8
PLAN_1
 62
     2
  6
CONTINUOUS
 10
-2.509555
 20
1.594154
  0
VERTEX
  8
PLAN_1
 62
     2
  6
CONTINUOUS
 10
-2.512921
 20
1.596173
  0
VERTEX
  8
PLAN_1
 62
     2
  6
CONTINUOUS
 10
-2.516287
 20
1.599539
  0
VERTEX
  8
PLAN_1
 62
     2
  6
CONTINUOUS
 10
-2.518980
 20
1.603579
  0
VERTEX
  8
PLAN_1
 62
     2
  6
CONTINUOUS
 10
-2.520327
 20
1.608965
  0
VERTEX
  8
PLAN_1
 62
     2
  6
CONTINUOUS
 10
-2.521000
 20
1.615697
  0
VERTEX
  8
PLAN_1
 62
     2
  6
CONTINUOUS
 10
-2.520327
 20
1.620409
  0
VERTEX
  8
PLAN_1
 62
     2
  6
CONTINUOUS
 10
-2.519654
 20
1.625122
  0
VERTEX
  8
PLAN_1
 62
     2
  6
CONTINUOUS
 10
-2.517634
 20
1.629161
  0
VERTEX
  8
PLAN_1
 62
     2
  6
CONTINUOUS
 10
-2.515614
 20
1.631858
  0
VERTEX
  8
PLAN_1
 62
     2
  6
CONTINUOUS
 10
-2.512921
 20
1.634551
  0
VERTEX
  8
PLAN_1
 62
     2
  6
CONTINUOUS
 10
-2.509555
 20
1.636571
  0
VERTEX
  8
PLAN_1
 62
     2
  6
CONTINUOUS
 10
-2.505516
 20
1.637917
  0
VERTEX
  8
PLAN_1
 62
     2
  6
CONTINUOUS
 10
-2.501476
 20
1.637917
  0
VERTEX
  8
PLAN_1
 62
     2
  6
CONTINUOUS
 10
-2.498783
 20
1.637917
  0
VERTEX
  8
PLAN_1
 62
     2
  6
CONTINUOUS
 10
-2.495417
 20
1.637244
  0
VERTEX
  8
PLAN_1
 62
     2
  6
CONTINUOUS
 10
-2.493398
 20
1.635898
  0
VERTEX
  8
PLAN_1
 62
     2
  6
CONTINUOUS
 10
-2.491378
 20
1.634551
  0
VERTEX
  8
PLAN_1
 62
     2
  6
CONTINUOUS
 10
-2.489358
 20
1.633205
  0
VERTEX
  8
PLAN_1
 62
     2
  6
CONTINUOUS
 10
-2.488012
 20
1.631858
  0
VERTEX
  8
PLAN_1
 62
     2
  6
CONTINUOUS
 10
-2.487339
 20
1.630508
  0
VERTEX
  8
PLAN_1
 62
     2
  6
CONTINUOUS
 10
-2.486665
 20
1.628488
  0
VERTEX
  8
PLAN_1
 62
     2
  6
CONTINUOUS
 10
-2.485319
 20
1.631185
  0
VERTEX
  8
PLAN_1
 62
     2
  6
CONTINUOUS
 10
-2.483969
 20
1.633878
  0
VERTEX
  8
PLAN_1
 62
     2
  6
CONTINUOUS
 10
-2.482622
 20
1.635898
  0
VERTEX
  8
PLAN_1
 62
     2
  6
CONTINUOUS
 10
-2.480602
 20
1.637244
  0
VERTEX
  8
PLAN_1
 62
     2
  6
CONTINUOUS
 10
-2.478583
 20
1.638591
  0
VERTEX
  8
PLAN_1
 62
     2
  6
CONTINUOUS
 10
-2.475890
 20
1.639937
  0
VERTEX
  8
PLAN_1
 62
     2
  6
CONTINUOUS
 10
-2.472524
 20
1.640610
  0
VERTEX
  8
PLAN_1
 62
     2
  6
CONTINUOUS
 10
-2.469157
 20
1.640610
  0
VERTEX
  8
PLAN_1
 62
     2
  6
CONTINUOUS
 10
-2.465118
 20
1.640610
  0
VERTEX
  8
PLAN_1
 62
     2
  6
CONTINUOUS
 10
-2.460406
 20
1.639264
  0
VERTEX
  8
PLAN_1
 62
     2
  6
CONTINUOUS
 10
-2.457039
 20
1.637244
  0
VERTEX
  8
PLAN_1
 62
     2
  6
CONTINUOUS
 10
-2.453000
 20
1.634551
  0
VERTEX
  8
PLAN_1
 62
     2
  6
CONTINUOUS
 10
-2.450307
 20
1.631185
  0
VERTEX
  8
PLAN_1
 62
     2
  6
CONTINUOUS
 10
-2.447614
 20
1.626469
  0
VERTEX
  8
PLAN_1
 62
     2
  6
CONTINUOUS
 10
-2.446268
 20
1.621083
  0
VERTEX
  8
PLAN_1
 62
     2
  6
CONTINUOUS
 10
-2.445594
 20
1.614350
  0
VERTEX
  8
PLAN_1
 62
     2
  6
CONTINUOUS
 10
-2.446268
 20
1.612331
  0
VERTEX
  8
PLAN_1
 62
     2
  6
CONTINUOUS
 10
-2.446268
 20
1.610311
  0
VERTEX
  8
PLAN_1
 62
     2
  6
CONTINUOUS
 10
-2.446268
 20
1.608965
  0
VERTEX
  8
PLAN_1
 62
     2
  6
CONTINUOUS
 10
-2.446941
 20
1.606945
  0
VERTEX
  8
PLAN_1
 62
     2
  6
CONTINUOUS
 10
-2.447614
 20
1.605598
  0
VERTEX
  8
PLAN_1
 62
     2
  6
CONTINUOUS
 10
-2.447614
 20
1.603579
  0
VERTEX
  8
PLAN_1
 62
     2
  6
CONTINUOUS
 10
-2.448287
 20
1.602232
  0
VERTEX
  8
PLAN_1
 62
     2
  6
CONTINUOUS
 10
-2.448961
 20
1.600886
  0
VERTEX
  8
PLAN_1
 62
     2
  6
CONTINUOUS
 10
-2.450980
 20
1.598193
  0
VERTEX
  8
PLAN_1
 62
     2
  6
CONTINUOUS
 10
-2.453000
 20
1.596173
  0
VERTEX
  8
PLAN_1
 62
     2
  6
CONTINUOUS
 10
-2.455693
 20
1.594154
  0
VERTEX
  8
PLAN_1
 62
     2
  6
CONTINUOUS
 10
-2.458386
 20
1.592807
  0
VERTEX
  8
PLAN_1
 62
     2
  6
CONTINUOUS
 10
-2.461079
 20
1.591461
  0
VERTEX
  8
PLAN_1
 62
     2
  6
CONTINUOUS
 10
-2.463772
 20
1.590787
  0
VERTEX
  8
PLAN_1
 62
     2
  6
CONTINUOUS
 10
-2.467138
 20
1.590114
  0
VERTEX
  8
PLAN_1
 62
     2
  6
CONTINUOUS
 10
-2.470504
 20
1.590114
  0
VERTEX
  8
PLAN_1
 62
     2
  6
CONTINUOUS
 10
-2.470504
 20
1.599539
  0
VERTEX
  8
PLAN_1
 62
     2
  6
CONTINUOUS
 10
-2.467811
 20
1.599539
  0
VERTEX
  8
PLAN_1
 62
     2
  6
CONTINUOUS
 10
-2.465118
 20
1.600213
  0
VERTEX
  8
PLAN_1
 62
     2
  6
CONTINUOUS
 10
-2.462425
 20
1.600886
  0
VERTEX
  8
PLAN_1
 62
     2
  6
CONTINUOUS
 10
-2.459732
 20
1.602232
  0
VERTEX
  8
PLAN_1
 62
     2
  6
CONTINUOUS
 10
-2.457713
 20
1.604252
  0
VERTEX
  8
PLAN_1
 62
     2
  6
CONTINUOUS
 10
-2.455693
 20
1.606945
  0
VERTEX
  8
PLAN_1
 62
     2
  6
CONTINUOUS
 10
-2.454346
 20
1.610311
  0
VERTEX
  8
PLAN_1
 62
     2
  6
CONTINUOUS
 10
-2.454346
 20
1.615024
  0
VERTEX
  8
PLAN_1
 62
     2
  6
CONTINUOUS
 10
-2.454346
 20
1.618390
  0
VERTEX
  8
PLAN_1
 62
     2
  6
CONTINUOUS
 10
-2.455020
 20
1.621756
  0
VERTEX
  8
PLAN_1
 62
     2
  6
CONTINUOUS
 10
-2.456366
 20
1.624449
  0
VERTEX
  8
PLAN_1
 62
     2
  6
CONTINUOUS
 10
-2.457713
 20
1.626469
  0
VERTEX
  8
PLAN_1
 62
     2
  6
CONTINUOUS
 10
-2.460406
 20
1.628488
  0
VERTEX
  8
PLAN_1
 62
     2
  6
CONTINUOUS
 10
-2.462425
 20
1.629835
  0
VERTEX
  8
PLAN_1
 62
     2
  6
CONTINUOUS
 10
-2.465118
 20
1.630508
  0
VERTEX
  8
PLAN_1
 62
     2
  6
CONTINUOUS
 10
-2.468484
 20
1.631185
  0
VERTEX
  8
PLAN_1
 62
     2
  6
CONTINUOUS
 10
-2.472524
 20
1.630508
  0
VERTEX
  8
PLAN_1
 62
     2
  6
CONTINUOUS
 10
-2.475217
 20
1.629161
  0
VERTEX
  8
PLAN_1
 62
     2
  6
CONTINUOUS
 10
-2.477909
 20
1.627142
  0
VERTEX
  8
PLAN_1
 62
     2
  6
CONTINUOUS
 10
-2.479256
 20
1.625122
  0
VERTEX
  8
PLAN_1
 62
     2
  6
CONTINUOUS
 10
-2.480602
 20
1.622429
  0
VERTEX
  8
PLAN_1
 62
     2
  6
CONTINUOUS
 10
-2.481276
 20
1.619063
  0
VERTEX
  8
PLAN_1
 62
     2
  6
CONTINUOUS
 10
-2.481276
 20
1.616370
  0
VERTEX
  8
PLAN_1
 62
     2
  6
CONTINUOUS
 10
-2.481949
 20
1.614350
  0
VERTEX
  8
PLAN_1
 62
     2
  6
CONTINUOUS
 10
-2.481949
 20
1.613677
  0
VERTEX
  8
PLAN_1
 62
     2
  6
CONTINUOUS
 10
-2.481949
 20
1.613004
  0
VERTEX
  8
PLAN_1
 62
     2
  6
CONTINUOUS
 10
-2.481949
 20
1.612331
  0
VERTEX
  8
PLAN_1
 62
     2
  6
CONTINUOUS
 10
-2.481949
 20
1.611657
  0
VERTEX
  8
PLAN_1
 62
     2
  6
CONTINUOUS
 10
-2.481276
 20
1.610984
  0
VERTEX
  8
PLAN_1
 62
     2
  6
CONTINUOUS
 10
-2.481276
 20
1.610311
  0
VERTEX
  8
PLAN_1
 62
     2
  6
CONTINUOUS
 10
-2.481276
 20
1.609638
  0
VERTEX
  8
PLAN_1
 62
     2
  6
CONTINUOUS
 10
-2.489358
 20
1.609638
  0
SEQEND
  8
0
  0
SOLID
  8
PLAN_1
 62
     2
 10
-2.447614
 20
1.664173
 11
-2.447614
 21
1.653402
 12
-2.459059
 22
1.664173
 13
-2.459059
 23
1.653402
  0
POLYLINE
  8
PLAN_1
 62
     2
  6
CONTINUOUS
 66
     1
 40
0.003000
 41
0.003000
  0
VERTEX
  8
PLAN_1
 62
     2
  6
CONTINUOUS
 10
-2.447614
 20
1.664173
  0
VERTEX
  8
PLAN_1
 62
     2
  6
CONTINUOUS
 10
-2.447614
 20
1.653402
  0
VERTEX
  8
PLAN_1
 62
     2
  6
CONTINUOUS
 10
-2.459059
 20
1.653402
  0
VERTEX
  8
PLAN_1
 62
     2
  6
CONTINUOUS
 10
-2.459059
 20
1.664173
  0
VERTEX
  8
PLAN_1
 62
     2
  6
CONTINUOUS
 10
-2.447614
 20
1.664173
  0
SEQEND
  8
0
  0
SOLID
  8
PLAN_1
 62
     2
 10
-2.459059
 20
1.693122
 11
-2.459059
 21
1.682350
 12
-2.447614
 22
1.693122
 13
-2.447614
 23
1.682350
  0
POLYLINE
  8
PLAN_1
 62
     2
  6
CONTINUOUS
 66
     1
 40
0.003000
 41
0.003000
  0
VERTEX
  8
PLAN_1
 62
     2
  6
CONTINUOUS
 10
-2.459059
 20
1.693122
  0
VERTEX
  8
PLAN_1
 62
     2
  6
CONTINUOUS
 10
-2.459059
 20
1.682350
  0
VERTEX
  8
PLAN_1
 62
     2
  6
CONTINUOUS
 10
-2.447614
 20
1.682350
  0
VERTEX
  8
PLAN_1
 62
     2
  6
CONTINUOUS
 10
-2.447614
 20
1.693122
  0
VERTEX
  8
PLAN_1
 62
     2
  6
CONTINUOUS
 10
-2.459059
 20
1.693122
  0
SEQEND
  8
0
  0
SOLID
  8
PLAN_1
 62
     2
 10
-2.447614
 20
1.722075
 11
-2.447614
 21
1.711303
 12
-2.459059
 22
1.722075
 13
-2.459059
 23
1.711303
  0
POLYLINE
  8
PLAN_1
 62
     2
  6
CONTINUOUS
 66
     1
 40
0.003000
 41
0.003000
  0
VERTEX
  8
PLAN_1
 62
     2
  6
CONTINUOUS
 10
-2.447614
 20
1.722075
  0
VERTEX
  8
PLAN_1
 62
     2
  6
CONTINUOUS
 10
-2.447614
 20
1.711303
  0
VERTEX
  8
PLAN_1
 62
     2
  6
CONTINUOUS
 10
-2.459059
 20
1.711303
  0
VERTEX
  8
PLAN_1
 62
     2
  6
CONTINUOUS
 10
-2.459059
 20
1.722075
  0
VERTEX
  8
PLAN_1
 62
     2
  6
CONTINUOUS
 10
-2.447614
 20
1.722075
  0
SEQEND
  8
0
  0
POLYLINE
  8
PLAN_1
 62
     2
  6
CONTINUOUS
 66
     1
 40
0.003000
 41
0.003000
  0
VERTEX
  8
PLAN_1
 62
     2
  6
CONTINUOUS
 10
-2.494744
 20
1.735539
  0
VERTEX
  8
PLAN_1
 62
     2
  6
CONTINUOUS
 10
-2.498783
 20
1.736213
  0
VERTEX
  8
PLAN_1
 62
     2
  6
CONTINUOUS
 10
-2.502823
 20
1.736886
  0
VERTEX
  8
PLAN_1
 62
     2
  6
CONTINUOUS
 10
-2.506189
 20
1.737559
  0
VERTEX
  8
PLAN_1
 62
     2
  6
CONTINUOUS
 10
-2.508882
 20
1.738906
  0
VERTEX
  8
PLAN_1
 62
     2
  6
CONTINUOUS
 10
-2.511575
 20
1.740252
  0
VERTEX
  8
PLAN_1
 62
     2
  6
CONTINUOUS
 10
-2.513594
 20
1.741598
  0
VERTEX
  8
PLAN_1
 62
     2
  6
CONTINUOUS
 10
-2.515614
 20
1.743618
  0
VERTEX
  8
PLAN_1
 62
     2
  6
CONTINUOUS
 10
-2.516961
 20
1.745638
  0
VERTEX
  8
PLAN_1
 62
     2
  6
CONTINUOUS
 10
-2.518980
 20
1.749677
  0
VERTEX
  8
PLAN_1
 62
     2
  6
CONTINUOUS
 10
-2.520327
 20
1.753717
  0
VERTEX
  8
PLAN_1
 62
     2
  6
CONTINUOUS
 10
-2.521000
 20
1.757756
  0
VERTEX
  8
PLAN_1
 62
     2
  6
CONTINUOUS
 10
-2.521000
 20
1.761122
  0
VERTEX
  8
PLAN_1
 62
     2
  6
CONTINUOUS
 10
-2.520327
 20
1.765835
  0
VERTEX
  8
PLAN_1
 62
     2
  6
CONTINUOUS
 10
-2.519654
 20
1.769874
  0
VERTEX
  8
PLAN_1
 62
     2
  6
CONTINUOUS
 10
-2.517634
 20
1.773913
  0
VERTEX
  8
PLAN_1
 62
     2
  6
CONTINUOUS
 10
-2.514941
 20
1.777283
  0
VERTEX
  8
PLAN_1
 62
     2
  6
CONTINUOUS
 10
-2.512248
 20
1.779976
  0
VERTEX
  8
PLAN_1
 62
     2
  6
CONTINUOUS
 10
-2.508209
 20
1.781996
  0
VERTEX
  8
PLAN_1
 62
     2
  6
CONTINUOUS
 10
-2.504169
 20
1.783343
  0
VERTEX
  8
PLAN_1
 62
     2
  6
CONTINUOUS
 10
-2.499457
 20
1.784016
  0
VERTEX
  8
PLAN_1
 62
     2
  6
CONTINUOUS
 10
-2.494744
 20
1.783343
  0
VERTEX
  8
PLAN_1
 62
     2
  6
CONTINUOUS
 10
-2.490705
 20
1.782669
  0
VERTEX
  8
PLAN_1
 62
     2
  6
CONTINUOUS
 10
-2.487339
 20
1.780650
  0
VERTEX
  8
PLAN_1
 62
     2
  6
CONTINUOUS
 10
-2.483969
 20
1.778630
  0
VERTEX
  8
PLAN_1
 62
     2
  6
CONTINUOUS
 10
-2.481276
 20
1.775260
  0
VERTEX
  8
PLAN_1
 62
     2
  6
CONTINUOUS
 10
-2.479256
 20
1.771894
  0
VERTEX
  8
PLAN_1
 62
     2
  6
CONTINUOUS
 10
-2.476563
 20
1.768528
  0
VERTEX
  8
PLAN_1
 62
     2
  6
CONTINUOUS
 10
-2.474543
 20
1.764488
  0
VERTEX
  8
PLAN_1
 62
     2
  6
CONTINUOUS
 10
-2.470504
 20
1.757083
  0
VERTEX
  8
PLAN_1
 62
     2
  6
CONTINUOUS
 10
-2.468484
 20
1.753717
  0
VERTEX
  8
PLAN_1
 62
     2
  6
CONTINUOUS
 10
-2.466465
 20
1.751024
  0
VERTEX
  8
PLAN_1
 62
     2
  6
CONTINUOUS
 10
-2.464445
 20
1.748331
  0
VERTEX
  8
PLAN_1
 62
     2
  6
CONTINUOUS
 10
-2.462425
 20
1.746984
  0
VERTEX
  8
PLAN_1
 62
     2
  6
CONTINUOUS
 10
-2.460406
 20
1.745638
  0
VERTEX
  8
PLAN_1
 62
     2
  6
CONTINUOUS
 10
-2.459059
 20
1.744965
  0
VERTEX
  8
PLAN_1
 62
     2
  6
CONTINUOUS
 10
-2.457713
 20
1.744291
  0
VERTEX
  8
PLAN_1
 62
     2
  6
CONTINUOUS
 10
-2.456366
 20
1.744291
  0
VERTEX
  8
PLAN_1
 62
     2
  6
CONTINUOUS
 10
-2.456366
 20
1.784016
  0
VERTEX
  8
PLAN_1
 62
     2
  6
CONTINUOUS
 10
-2.447614
 20
1.784016
  0
VERTEX
  8
PLAN_1
 62
     2
  6
CONTINUOUS
 10
-2.447614
 20
1.734193
  0
VERTEX
  8
PLAN_1
 62
     2
  6
CONTINUOUS
 10
-2.453000
 20
1.734193
  0
VERTEX
  8
PLAN_1
 62
     2
  6
CONTINUOUS
 10
-2.457713
 20
1.735539
  0
VERTEX
  8
PLAN_1
 62
     2
  6
CONTINUOUS
 10
-2.462425
 20
1.736886
  0
VERTEX
  8
PLAN_1
 62
     2
  6
CONTINUOUS
 10
-2.465791
 20
1.738906
  0
VERTEX
  8
PLAN_1
 62
     2
  6
CONTINUOUS
 10
-2.469157
 20
1.741598
  0
VERTEX
  8
PLAN_1
 62
     2
  6
CONTINUOUS
 10
-2.471850
 20
1.744291
  0
VERTEX
  8
PLAN_1
 62
     2
  6
CONTINUOUS
 10
-2.474543
 20
1.747657
  0
VERTEX
  8
PLAN_1
 62
     2
  6
CONTINUOUS
 10
-2.476563
 20
1.751024
  0
VERTEX
  8
PLAN_1
 62
     2
  6
CONTINUOUS
 10
-2.482622
 20
1.760449
  0
VERTEX
  8
PLAN_1
 62
     2
  6
CONTINUOUS
 10
-2.483969
 20
1.763815
  0
VERTEX
  8
PLAN_1
 62
     2
  6
CONTINUOUS
 10
-2.485992
 20
1.765835
  0
VERTEX
  8
PLAN_1
 62
     2
  6
CONTINUOUS
 10
-2.487339
 20
1.768528
  0
VERTEX
  8
PLAN_1
 62
     2
  6
CONTINUOUS
 10
-2.489358
 20
1.770547
  0
VERTEX
  8
PLAN_1
 62
     2
  6
CONTINUOUS
 10
-2.491378
 20
1.771894
  0
VERTEX
  8
PLAN_1
 62
     2
  6
CONTINUOUS
 10
-2.493398
 20
1.773240
  0
VERTEX
  8
PLAN_1
 62
     2
  6
CONTINUOUS
 10
-2.496091
 20
1.773913
  0
VERTEX
  8
PLAN_1
 62
     2
  6
CONTINUOUS
 10
-2.499457
 20
1.773913
  0
VERTEX
  8
PLAN_1
 62
     2
  6
CONTINUOUS
 10
-2.502150
 20
1.773913
  0
VERTEX
  8
PLAN_1
 62
     2
  6
CONTINUOUS
 10
-2.504169
 20
1.773240
  0
VERTEX
  8
PLAN_1
 62
     2
  6
CONTINUOUS
 10
-2.506189
 20
1.772567
  0
VERTEX
  8
PLAN_1
 62
     2
  6
CONTINUOUS
 10
-2.508209
 20
1.771220
  0
VERTEX
  8
PLAN_1
 62
     2
  6
CONTINUOUS
 10
-2.510228
 20
1.769201
  0
VERTEX
  8
PLAN_1
 62
     2
  6
CONTINUOUS
 10
-2.511575
 20
1.766508
  0
VERTEX
  8
PLAN_1
 62
     2
  6
CONTINUOUS
 10
-2.512248
 20
1.763142
  0
VERTEX
  8
PLAN_1
 62
     2
  6
CONTINUOUS
 10
-2.512921
 20
1.759776
  0
VERTEX
  8
PLAN_1
 62
     2
  6
CONTINUOUS
 10
-2.512248
 20
1.755063
  0
VERTEX
  8
PLAN_1
 62
     2
  6
CONTINUOUS
 10
-2.510902
 20
1.751697
  0
VERTEX
  8
PLAN_1
 62
     2
  6
CONTINUOUS
 10
-2.508209
 20
1.749004
  0
VERTEX
  8
PLAN_1
 62
     2
  6
CONTINUOUS
 10
-2.505516
 20
1.746984
  0
VERTEX
  8
PLAN_1
 62
     2
  6
CONTINUOUS
 10
-2.502823
 20
1.746311
  0
VERTEX
  8
PLAN_1
 62
     2
  6
CONTINUOUS
 10
-2.499457
 20
1.745638
  0
VERTEX
  8
PLAN_1
 62
     2
  6
CONTINUOUS
 10
-2.496764
 20
1.744965
  0
VERTEX
  8
PLAN_1
 62
     2
  6
CONTINUOUS
 10
-2.494744
 20
1.744965
  0
VERTEX
  8
PLAN_1
 62
     2
  6
CONTINUOUS
 10
-2.494744
 20
1.735539
  0
SEQEND
  8
0
  0
POLYLINE
  8
PLAN_1
 62
     2
  6
CONTINUOUS
 66
     1
 40
0.003000
 41
0.003000
  0
VERTEX
  8
PLAN_1
 62
     2
  6
CONTINUOUS
 10
-2.445594
 20
1.818350
  0
VERTEX
  8
PLAN_1
 62
     2
  6
CONTINUOUS
 10
-2.446268
 20
1.814311
  0
VERTEX
  8
PLAN_1
 62
     2
  6
CONTINUOUS
 10
-2.446941
 20
1.810945
  0
VERTEX
  8
PLAN_1
 62
     2
  6
CONTINUOUS
 10
-2.448287
 20
1.808252
  0
VERTEX
  8
PLAN_1
 62
     2
  6
CONTINUOUS
 10
-2.449634
 20
1.805559
  0
VERTEX
  8
PLAN_1
 62
     2
  6
CONTINUOUS
 10
-2.451654
 20
1.802866
  0
VERTEX
  8
PLAN_1
 62
     2
  6
CONTINUOUS
 10
-2.453673
 20
1.800846
  0
VERTEX
  8
PLAN_1
 62
     2
  6
CONTINUOUS
 10
-2.456366
 20
1.798827
  0
VERTEX
  8
PLAN_1
 62
     2
  6
CONTINUOUS
 10
-2.459059
 20
1.797480
  0
VERTEX
  8
PLAN_1
 62
     2
  6
CONTINUOUS
 10
-2.465118
 20
1.795461
  0
VERTEX
  8
PLAN_1
 62
     2
  6
CONTINUOUS
 10
-2.471177
 20
1.794114
  0
VERTEX
  8
PLAN_1
 62
     2
  6
CONTINUOUS
 10
-2.477236
 20
1.793441
  0
VERTEX
  8
PLAN_1
 62
     2
  6
CONTINUOUS
 10
-2.483295
 20
1.792768
  0
VERTEX
  8
PLAN_1
 62
     2
  6
CONTINUOUS
 10
-2.489358
 20
1.793441
  0
VERTEX
  8
PLAN_1
 62
     2
  6
CONTINUOUS
 10
-2.495417
 20
1.794114
  0
VERTEX
  8
PLAN_1
 62
     2
  6
CONTINUOUS
 10
-2.502150
 20
1.795461
  0
VERTEX
  8
PLAN_1
 62
     2
  6
CONTINUOUS
 10
-2.508209
 20
1.797480
  0
VERTEX
  8
PLAN_1
 62
     2
  6
CONTINUOUS
 10
-2.510902
 20
1.798827
  0
VERTEX
  8
PLAN_1
 62
     2
  6
CONTINUOUS
 10
-2.512921
 20
1.800846
  0
VERTEX
  8
PLAN_1
 62
     2
  6
CONTINUOUS
 10
-2.515614
 20
1.802866
  0
VERTEX
  8
PLAN_1
 62
     2
  6
CONTINUOUS
 10
-2.516961
 20
1.805559
  0
VERTEX
  8
PLAN_1
 62
     2
  6
CONTINUOUS
 10
-2.518980
 20
1.808252
  0
VERTEX
  8
PLAN_1
 62
     2
  6
CONTINUOUS
 10
-2.520327
 20
1.810945
  0
VERTEX
  8
PLAN_1
 62
     2
  6
CONTINUOUS
 10
-2.521000
 20
1.814311
  0
VERTEX
  8
PLAN_1
 62
     2
  6
CONTINUOUS
 10
-2.521000
 20
1.818350
  0
VERTEX
  8
PLAN_1
 62
     2
  6
CONTINUOUS
 10
-2.521000
 20
1.821717
  0
VERTEX
  8
PLAN_1
 62
     2
  6
CONTINUOUS
 10
-2.520327
 20
1.825083
  0
VERTEX
  8
PLAN_1
 62
     2
  6
CONTINUOUS
 10
-2.518980
 20
1.828449
  0
VERTEX
  8
PLAN_1
 62
     2
  6
CONTINUOUS
 10
-2.516961
 20
1.831142
  0
VERTEX
  8
PLAN_1
 62
     2
  6
CONTINUOUS
 10
-2.515614
 20
1.833161
  0
VERTEX
  8
PLAN_1
 62
     2
  6
CONTINUOUS
 10
-2.512921
 20
1.835181
  0
VERTEX
  8
PLAN_1
 62
     2
  6
CONTINUOUS
 10
-2.510902
 20
1.837201
  0
VERTEX
  8
PLAN_1
 62
     2
  6
CONTINUOUS
 10
-2.508209
 20
1.838547
  0
VERTEX
  8
PLAN_1
 62
     2
  6
CONTINUOUS
 10
-2.502150
 20
1.840567
  0
VERTEX
  8
PLAN_1
 62
     2
  6
CONTINUOUS
 10
-2.495417
 20
1.841913
  0
VERTEX
  8
PLAN_1
 62
     2
  6
CONTINUOUS
 10
-2.489358
 20
1.842587
  0
VERTEX
  8
PLAN_1
 62
     2
  6
CONTINUOUS
 10
-2.483295
 20
1.843260
  0
VERTEX
  8
PLAN_1
 62
     2
  6
CONTINUOUS
 10
-2.477236
 20
1.842587
  0
VERTEX
  8
PLAN_1
 62
     2
  6
CONTINUOUS
 10
-2.471177
 20
1.841913
  0
VERTEX
  8
PLAN_1
 62
     2
  6
CONTINUOUS
 10
-2.465118
 20
1.840567
  0
VERTEX
  8
PLAN_1
 62
     2
  6
CONTINUOUS
 10
-2.459059
 20
1.838547
  0
VERTEX
  8
PLAN_1
 62
     2
  6
CONTINUOUS
 10
-2.456366
 20
1.837201
  0
VERTEX
  8
PLAN_1
 62
     2
  6
CONTINUOUS
 10
-2.453673
 20
1.835181
  0
VERTEX
  8
PLAN_1
 62
     2
  6
CONTINUOUS
 10
-2.451654
 20
1.833161
  0
VERTEX
  8
PLAN_1
 62
     2
  6
CONTINUOUS
 10
-2.449634
 20
1.831142
  0
VERTEX
  8
PLAN_1
 62
     2
  6
CONTINUOUS
 10
-2.448287
 20
1.828449
  0
VERTEX
  8
PLAN_1
 62
     2
  6
CONTINUOUS
 10
-2.446941
 20
1.825083
  0
VERTEX
  8
PLAN_1
 62
     2
  6
CONTINUOUS
 10
-2.446268
 20
1.821717
  0
VERTEX
  8
PLAN_1
 62
     2
  6
CONTINUOUS
 10
-2.445594
 20
1.818350
  0
SEQEND
  8
0
  0
POLYLINE
  8
PLAN_1
 62
     2
  6
CONTINUOUS
 66
     1
 40
0.003000
 41
0.003000
  0
VERTEX
  8
PLAN_1
 62
     2
  6
CONTINUOUS
 10
-2.512921
 20
1.818350
  0
VERTEX
  8
PLAN_1
 62
     2
  6
CONTINUOUS
 10
-2.512248
 20
1.814311
  0
VERTEX
  8
PLAN_1
 62
     2
  6
CONTINUOUS
 10
-2.510902
 20
1.810945
  0
VERTEX
  8
PLAN_1
 62
     2
  6
CONTINUOUS
 10
-2.508209
 20
1.808925
  0
VERTEX
  8
PLAN_1
 62
     2
  6
CONTINUOUS
 10
-2.504843
 20
1.806232
  0
VERTEX
  8
PLAN_1
 62
     2
  6
CONTINUOUS
 10
-2.500803
 20
1.804886
  0
VERTEX
  8
PLAN_1
 62
     2
  6
CONTINUOUS
 10
-2.496091
 20
1.803539
  0
VERTEX
  8
PLAN_1
 62
     2
  6
CONTINUOUS
 10
-2.490031
 20
1.802866
  0
VERTEX
  8
PLAN_1
 62
     2
  6
CONTINUOUS
 10
-2.483295
 20
1.802866
  0
VERTEX
  8
PLAN_1
 62
     2
  6
CONTINUOUS
 10
-2.477236
 20
1.802866
  0
VERTEX
  8
PLAN_1
 62
     2
  6
CONTINUOUS
 10
-2.471177
 20
1.803539
  0
VERTEX
  8
PLAN_1
 62
     2
  6
CONTINUOUS
 10
-2.465791
 20
1.804886
  0
VERTEX
  8
PLAN_1
 62
     2
  6
CONTINUOUS
 10
-2.461752
 20
1.806232
  0
VERTEX
  8
PLAN_1
 62
     2
  6
CONTINUOUS
 10
-2.458386
 20
1.808925
  0
VERTEX
  8
PLAN_1
 62
     2
  6
CONTINUOUS
 10
-2.456366
 20
1.810945
  0
VERTEX
  8
PLAN_1
 62
     2
  6
CONTINUOUS
 10
-2.454346
 20
1.814311
  0
VERTEX
  8
PLAN_1
 62
     2
  6
CONTINUOUS
 10
-2.454346
 20
1.818350
  0
VERTEX
  8
PLAN_1
 62
     2
  6
CONTINUOUS
 10
-2.454346
 20
1.821717
  0
VERTEX
  8
PLAN_1
 62
     2
  6
CONTINUOUS
 10
-2.456366
 20
1.825083
  0
VERTEX
  8
PLAN_1
 62
     2
  6
CONTINUOUS
 10
-2.458386
 20
1.827776
  0
VERTEX
  8
PLAN_1
 62
     2
  6
CONTINUOUS
 10
-2.461752
 20
1.829795
  0
VERTEX
  8
PLAN_1
 62
     2
  6
CONTINUOUS
 10
-2.465791
 20
1.831142
  0
VERTEX
  8
PLAN_1
 62
     2
  6
CONTINUOUS
 10
-2.471177
 20
1.832488
  0
VERTEX
  8
PLAN_1
 62
     2
  6
CONTINUOUS
 10
-2.477236
 20
1.833161
  0
VERTEX
  8
PLAN_1
 62
     2
  6
CONTINUOUS
 10
-2.483295
 20
1.833161
  0
VERTEX
  8
PLAN_1
 62
     2
  6
CONTINUOUS
 10
-2.490031
 20
1.833161
  0
VERTEX
  8
PLAN_1
 62
     2
  6
CONTINUOUS
 10
-2.496091
 20
1.832488
  0
VERTEX
  8
PLAN_1
 62
     2
  6
CONTINUOUS
 10
-2.500803
 20
1.831142
  0
VERTEX
  8
PLAN_1
 62
     2
  6
CONTINUOUS
 10
-2.504843
 20
1.829795
  0
VERTEX
  8
PLAN_1
 62
     2
  6
CONTINUOUS
 10
-2.508209
 20
1.827776
  0
VERTEX
  8
PLAN_1
 62
     2
  6
CONTINUOUS
 10
-2.510902
 20
1.825083
  0
VERTEX
  8
PLAN_1
 62
     2
  6
CONTINUOUS
 10
-2.512248
 20
1.821717
  0
VERTEX
  8
PLAN_1
 62
     2
  6
CONTINUOUS
 10
-2.512921
 20
1.818350
  0
SEQEND
  8
0
  0
POLYLINE
  8
PLAN_1
 62
     2
  6
CONTINUOUS
 66
     1
 40
0.003000
 41
0.003000
  0
VERTEX
  8
PLAN_1
 62
     2
  6
CONTINUOUS
 10
-2.445594
 20
1.876252
  0
VERTEX
  8
PLAN_1
 62
     2
  6
CONTINUOUS
 10
-2.446268
 20
1.872213
  0
VERTEX
  8
PLAN_1
 62
     2
  6
CONTINUOUS
 10
-2.446941
 20
1.868846
  0
VERTEX
  8
PLAN_1
 62
     2
  6
CONTINUOUS
 10
-2.448287
 20
1.866154
  0
VERTEX
  8
PLAN_1
 62
     2
  6
CONTINUOUS
 10
-2.449634
 20
1.863461
  0
VERTEX
  8
PLAN_1
 62
     2
  6
CONTINUOUS
 10
-2.451654
 20
1.860768
  0
VERTEX
  8
PLAN_1
 62
     2
  6
CONTINUOUS
 10
-2.453673
 20
1.858748
  0
VERTEX
  8
PLAN_1
 62
     2
  6
CONTINUOUS
 10
-2.456366
 20
1.856728
  0
VERTEX
  8
PLAN_1
 62
     2
  6
CONTINUOUS
 10
-2.459059
 20
1.855382
  0
VERTEX
  8
PLAN_1
 62
     2
  6
CONTINUOUS
 10
-2.465118
 20
1.853362
  0
VERTEX
  8
PLAN_1
 62
     2
  6
CONTINUOUS
 10
-2.471177
 20
1.852016
  0
VERTEX
  8
PLAN_1
 62
     2
  6
CONTINUOUS
 10
-2.477236
 20
1.851343
  0
VERTEX
  8
PLAN_1
 62
     2
  6
CONTINUOUS
 10
-2.483295
 20
1.850669
  0
VERTEX
  8
PLAN_1
 62
     2
  6
CONTINUOUS
 10
-2.489358
 20
1.851343
  0
VERTEX
  8
PLAN_1
 62
     2
  6
CONTINUOUS
 10
-2.495417
 20
1.852016
  0
VERTEX
  8
PLAN_1
 62
     2
  6
CONTINUOUS
 10
-2.502150
 20
1.853362
  0
VERTEX
  8
PLAN_1
 62
     2
  6
CONTINUOUS
 10
-2.508209
 20
1.855382
  0
VERTEX
  8
PLAN_1
 62
     2
  6
CONTINUOUS
 10
-2.510902
 20
1.856728
  0
VERTEX
  8
PLAN_1
 62
     2
  6
CONTINUOUS
 10
-2.512921
 20
1.858748
  0
VERTEX
  8
PLAN_1
 62
     2
  6
CONTINUOUS
 10
-2.515614
 20
1.860768
  0
VERTEX
  8
PLAN_1
 62
     2
  6
CONTINUOUS
 10
-2.516961
 20
1.863461
  0
VERTEX
  8
PLAN_1
 62
     2
  6
CONTINUOUS
 10
-2.518980
 20
1.866154
  0
VERTEX
  8
PLAN_1
 62
     2
  6
CONTINUOUS
 10
-2.520327
 20
1.868846
  0
VERTEX
  8
PLAN_1
 62
     2
  6
CONTINUOUS
 10
-2.521000
 20
1.872213
  0
VERTEX
  8
PLAN_1
 62
     2
  6
CONTINUOUS
 10
-2.521000
 20
1.876252
  0
VERTEX
  8
PLAN_1
 62
     2
  6
CONTINUOUS
 10
-2.521000
 20
1.879618
  0
VERTEX
  8
PLAN_1
 62
     2
  6
CONTINUOUS
 10
-2.520327
 20
1.882984
  0
VERTEX
  8
PLAN_1
 62
     2
  6
CONTINUOUS
 10
-2.518980
 20
1.886350
  0
VERTEX
  8
PLAN_1
 62
     2
  6
CONTINUOUS
 10
-2.516961
 20
1.889043
  0
VERTEX
  8
PLAN_1
 62
     2
  6
CONTINUOUS
 10
-2.515614
 20
1.891063
  0
VERTEX
  8
PLAN_1
 62
     2
  6
CONTINUOUS
 10
-2.512921
 20
1.893083
  0
VERTEX
  8
PLAN_1
 62
     2
  6
CONTINUOUS
 10
-2.510902
 20
1.895102
  0
VERTEX
  8
PLAN_1
 62
     2
  6
CONTINUOUS
 10
-2.508209
 20
1.896449
  0
VERTEX
  8
PLAN_1
 62
     2
  6
CONTINUOUS
 10
-2.502150
 20
1.898469
  0
VERTEX
  8
PLAN_1
 62
     2
  6
CONTINUOUS
 10
-2.495417
 20
1.899815
  0
VERTEX
  8
PLAN_1
 62
     2
  6
CONTINUOUS
 10
-2.489358
 20
1.900488
  0
VERTEX
  8
PLAN_1
 62
     2
  6
CONTINUOUS
 10
-2.483295
 20
1.901161
  0
VERTEX
  8
PLAN_1
 62
     2
  6
CONTINUOUS
 10
-2.477236
 20
1.900488
  0
VERTEX
  8
PLAN_1
 62
     2
  6
CONTINUOUS
 10
-2.471177
 20
1.899815
  0
VERTEX
  8
PLAN_1
 62
     2
  6
CONTINUOUS
 10
-2.465118
 20
1.898469
  0
VERTEX
  8
PLAN_1
 62
     2
  6
CONTINUOUS
 10
-2.459059
 20
1.896449
  0
VERTEX
  8
PLAN_1
 62
     2
  6
CONTINUOUS
 10
-2.456366
 20
1.895102
  0
VERTEX
  8
PLAN_1
 62
     2
  6
CONTINUOUS
 10
-2.453673
 20
1.893083
  0
VERTEX
  8
PLAN_1
 62
     2
  6
CONTINUOUS
 10
-2.451654
 20
1.891063
  0
VERTEX
  8
PLAN_1
 62
     2
  6
CONTINUOUS
 10
-2.449634
 20
1.889043
  0
VERTEX
  8
PLAN_1
 62
     2
  6
CONTINUOUS
 10
-2.448287
 20
1.886350
  0
VERTEX
  8
PLAN_1
 62
     2
  6
CONTINUOUS
 10
-2.446941
 20
1.882984
  0
VERTEX
  8
PLAN_1
 62
     2
  6
CONTINUOUS
 10
-2.446268
 20
1.879618
  0
VERTEX
  8
PLAN_1
 62
     2
  6
CONTINUOUS
 10
-2.445594
 20
1.876252
  0
SEQEND
  8
0
  0
POLYLINE
  8
PLAN_1
 62
     2
  6
CONTINUOUS
 66
     1
 40
0.003000
 41
0.003000
  0
VERTEX
  8
PLAN_1
 62
     2
  6
CONTINUOUS
 10
-2.512921
 20
1.876252
  0
VERTEX
  8
PLAN_1
 62
     2
  6
CONTINUOUS
 10
-2.512248
 20
1.872213
  0
VERTEX
  8
PLAN_1
 62
     2
  6
CONTINUOUS
 10
-2.510902
 20
1.868846
  0
VERTEX
  8
PLAN_1
 62
     2
  6
CONTINUOUS
 10
-2.508209
 20
1.866154
  0
VERTEX
  8
PLAN_1
 62
     2
  6
CONTINUOUS
 10
-2.504843
 20
1.864134
  0
VERTEX
  8
PLAN_1
 62
     2
  6
CONTINUOUS
 10
-2.500803
 20
1.862787
  0
VERTEX
  8
PLAN_1
 62
     2
  6
CONTINUOUS
 10
-2.496091
 20
1.861441
  0
VERTEX
  8
PLAN_1
 62
     2
  6
CONTINUOUS
 10
-2.490031
 20
1.860768
  0
VERTEX
  8
PLAN_1
 62
     2
  6
CONTINUOUS
 10
-2.483295
 20
1.860768
  0
VERTEX
  8
PLAN_1
 62
     2
  6
CONTINUOUS
 10
-2.477236
 20
1.860768
  0
VERTEX
  8
PLAN_1
 62
     2
  6
CONTINUOUS
 10
-2.471177
 20
1.861441
  0
VERTEX
  8
PLAN_1
 62
     2
  6
CONTINUOUS
 10
-2.465791
 20
1.862787
  0
VERTEX
  8
PLAN_1
 62
     2
  6
CONTINUOUS
 10
-2.461752
 20
1.864134
  0
VERTEX
  8
PLAN_1
 62
     2
  6
CONTINUOUS
 10
-2.458386
 20
1.866154
  0
VERTEX
  8
PLAN_1
 62
     2
  6
CONTINUOUS
 10
-2.456366
 20
1.868846
  0
VERTEX
  8
PLAN_1
 62
     2
  6
CONTINUOUS
 10
-2.454346
 20
1.872213
  0
VERTEX
  8
PLAN_1
 62
     2
  6
CONTINUOUS
 10
-2.454346
 20
1.876252
  0
VERTEX
  8
PLAN_1
 62
     2
  6
CONTINUOUS
 10
-2.454346
 20
1.879618
  0
VERTEX
  8
PLAN_1
 62
     2
  6
CONTINUOUS
 10
-2.456366
 20
1.882984
  0
VERTEX
  8
PLAN_1
 62
     2
  6
CONTINUOUS
 10
-2.458386
 20
1.885677
  0
VERTEX
  8
PLAN_1
 62
     2
  6
CONTINUOUS
 10
-2.461752
 20
1.887697
  0
VERTEX
  8
PLAN_1
 62
     2
  6
CONTINUOUS
 10
-2.465791
 20
1.889043
  0
VERTEX
  8
PLAN_1
 62
     2
  6
CONTINUOUS
 10
-2.471177
 20
1.890390
  0
VERTEX
  8
PLAN_1
 62
     2
  6
CONTINUOUS
 10
-2.477236
 20
1.891063
  0
VERTEX
  8
PLAN_1
 62
     2
  6
CONTINUOUS
 10
-2.483295
 20
1.891063
  0
VERTEX
  8
PLAN_1
 62
     2
  6
CONTINUOUS
 10
-2.490031
 20
1.891063
  0
VERTEX
  8
PLAN_1
 62
     2
  6
CONTINUOUS
 10
-2.496091
 20
1.890390
  0
VERTEX
  8
PLAN_1
 62
     2
  6
CONTINUOUS
 10
-2.500803
 20
1.889043
  0
VERTEX
  8
PLAN_1
 62
     2
  6
CONTINUOUS
 10
-2.504843
 20
1.887697
  0
VERTEX
  8
PLAN_1
 62
     2
  6
CONTINUOUS
 10
-2.508209
 20
1.885677
  0
VERTEX
  8
PLAN_1
 62
     2
  6
CONTINUOUS
 10
-2.510902
 20
1.882984
  0
VERTEX
  8
PLAN_1
 62
     2
  6
CONTINUOUS
 10
-2.512248
 20
1.879618
  0
VERTEX
  8
PLAN_1
 62
     2
  6
CONTINUOUS
 10
-2.512921
 20
1.876252
  0
SEQEND
  8
0
  0
POLYLINE
  8
PLAN_1
 62
     2
  6
CONTINUOUS
 66
     1
 40
0.004039
 41
0.004039
  0
VERTEX
  8
PLAN_1
 62
     2
  6
CONTINUOUS
 10
-2.045673
 20
-1.704843
  0
VERTEX
  8
PLAN_1
 62
     2
  6
CONTINUOUS
 10
-2.448287
 20
-1.704843
  0
SEQEND
  8
0
  0
ENDSEC
  0
EOF
