999
DXF file: C:\Users\sesa63760\Dev\_Creo\CAD\MCADID0003572_3D-CAD\drw0001_1.dxf
999
Pro/ENGINEER 2019471 by Parametric Technology Corporation
  0
SECTION
  2
HEADER
  9
$ACADVER
  1
AC1024
  9
$DWGCODEPAGE
  3
ANSI_1252
  9
$EXTMAX
 10
68.0395612661
 20
96.227379505
 30
0.0
  9
$EXTMIN
 10
0.0
 20
0.0
 30
0.0
  9
$LIMMIN
 10
0.0
 20
0.0
  9
$LIMMAX
 10
68.0395612661
 20
96.227379505
  9
$VIEWCTR
 10
34.0197806331
 20
48.1136897525
  9
$VIEWSIZE
 40
96.227379505
  9
$CLAYER
  8
0
  9
$LTSCALE
 40
6.2725995529
  9
$CELTYPE
  6
BYLAYER
  9
$DIMSCALE
 40
1.0
  9
$DIMASZ
 40
0.809994777
  9
$DIMEXO
 40
1.0
  9
$DIMDLI
 40
4.3337960547
  9
$DIMEXE
 40
1.0
  9
$DIMCEN
 40
1.0264253814
  9
$DIMLFAC
 40
1.0
  9
$DIMBLK
  1
_FILLED
  9
$DIMALT
 70
0
  9
$DIMALTF
 40
0.0393700787
  9
$DIMTXT
 40
1.1339926878
  9
$DIMTOL
 70
1
  9
$DIMLIM
 70
0
  9
$DIMTFAC
 40
1.0
  9
$DIMTP
 40
0.01
  9
$DIMTM
 40
0.01
  9
$DIMGAP
 40
0.625
  9
$DIMDSEP
 70
46
  9
$AUNITS
 70
0
  9
$PDMODE
 70
3
  9
$PDSIZE
 40
0.3125
  9
$HANDSEED
  5
2E8
  9
$TILEMODE
 70
1
  9
$MEASUREMENT
 70
1
  9
$INSUNITS
 70
4
  0
ENDSEC
  0
SECTION
  2
CLASSES
  0
CLASS
  1
ACDBDICTIONARYWDFLT
  2
AcDbDictionaryWithDefault
  3
AutoCAD 2000
 90
0
 91
1
280
0
281
0
  0
CLASS
  1
ACDBPLACEHOLDER
  2
AcDbPlaceHolder
  3
AutoCAD 2000
 90
0
 91
1
280
0
281
0
  0
CLASS
  1
LAYOUT
  2
AcDbLayout
  3
AutoCAD 2000
 90
0
 91
0
280
0
281
0
  0
ENDSEC
  0
SECTION
  2
TABLES
  0
TABLE
  2
VPORT
  5
8
100
AcDbSymbolTable
 70
2
  0
VPORT
  5
1F4
100
AcDbSymbolTableRecord
100
AcDbViewportTableRecord
  2
*ACTIVE
 70
0
 10
0.0
 20
0.0
 11
1.0
 21
1.0
 12
34.0197806331
 22
48.1136897525
 13
0.0
 23
0.0
 14
1.0
 24
1.0
 15
0.0
 25
0.0
 16
0.0
 26
0.0
 36
1.0
 17
0.0
 27
0.0
 37
0.0
 40
96.227379505
 41
0.7070707071
 42
50.0
 43
0.0
 44
0.0
 50
0.0
 51
0.0
 71
0
 72
100
 73
1
 74
1
 75
0
 76
0
 77
0
 78
0
  0
ENDTAB
  0
TABLE
  2
LTYPE
  5
5
100
AcDbSymbolTable
 70
6
  0
LTYPE
  5
14
100
AcDbSymbolTableRecord
100
AcDbLinetypeTableRecord
  2
BYBLOCK
 70
0
  3

 72
65
 73
0
 40
0.0
  0
LTYPE
  5
15
100
AcDbSymbolTableRecord
100
AcDbLinetypeTableRecord
  2
BYLAYER
 70
0
  3

 72
65
 73
0
 40
0.0
  0
LTYPE
  5
16
100
AcDbSymbolTableRecord
100
AcDbLinetypeTableRecord
  2
CONTINUOUS
 70
64
  3
Solid line
 72
65
 73
0
 40
0.0
  0
LTYPE
  5
1F5
100
AcDbSymbolTableRecord
100
AcDbLinetypeTableRecord
  2
CENTER
 70
64
  3
____ _ ____ _ ____ _ ____ _ ____ _ ____ _ ____
 72
65
 73
4
 40
0.6
 49
0.375
 74
0
 49
-0.075
 74
0
 49
0.075
 74
0
 49
-0.075
 74
0
  0
LTYPE
  5
1F6
100
AcDbSymbolTableRecord
100
AcDbLinetypeTableRecord
  2
HIDDEN
 70
64
  3
- - - - - - - - - - - - - - - - - - - -
 72
65
 73
2
 40
0.2
 49
0.1
 74
0
 49
-0.1
 74
0
  0
LTYPE
  5
1F7
100
AcDbSymbolTableRecord
100
AcDbLinetypeTableRecord
  2
PHANTOM
 70
64
  3
_____ _ _ _____ _ _ _____ _ _ _____
 72
65
 73
6
 40
0.8
 49
0.45
 74
0
 49
-0.05
 74
0
 49
0.1
 74
0
 49
-0.05
 74
0
 49
0.1
 74
0
 49
-0.05
 74
0
  0
LTYPE
  5
1F8
100
AcDbSymbolTableRecord
100
AcDbLinetypeTableRecord
  2
DOT
 70
64
  3
. . . . . . . . . . . . . . . . . . . .
 72
65
 73
2
 40
0.2
 49
0.1
 74
0
 49
-0.1
 74
0
  0
LTYPE
  5
1F9
100
AcDbSymbolTableRecord
100
AcDbLinetypeTableRecord
  2
DASHED
 70
64
  3
- - - - - - - - - - - - - - - - - - - -
 72
65
 73
2
 40
0.2
 49
0.1
 74
0
 49
-0.1
 74
0
  0
ENDTAB
  0
TABLE
  2
LAYER
  5
2
100
AcDbSymbolTable
 70
36
  0
LAYER
  5
10
100
AcDbSymbolTableRecord
100
AcDbLayerTableRecord
  2
0
 70
0
 62
7
  6
CONTINUOUS
370
-3
390
F
  0
LAYER
  5
1FA
100
AcDbSymbolTableRecord
100
AcDbLayerTableRecord
  2
DEFAULT_1
 70
0
 62
7
  6
CENTER
370
-3
390
F
  0
LAYER
  5
1FB
100
AcDbSymbolTableRecord
100
AcDbLayerTableRecord
  2
DEFAULT_2
 70
0
 62
7
  6
HIDDEN
370
-3
390
F
  0
LAYER
  5
1FC
100
AcDbSymbolTableRecord
100
AcDbLayerTableRecord
  2
DEFAULT_3
 70
0
 62
7
  6
PHANTOM
370
-3
390
F
  0
LAYER
  5
1FD
100
AcDbSymbolTableRecord
100
AcDbLayerTableRecord
  2
00_COMPONENTS
 70
0
 62
7
  6
CONTINUOUS
370
-3
390
F
  0
LAYER
  5
1FE
100
AcDbSymbolTableRecord
100
AcDbLayerTableRecord
  2
01_1_DEFAULT_DATUMS
 70
0
 62
7
  6
CONTINUOUS
370
-3
390
F
  0
LAYER
  5
1FF
100
AcDbSymbolTableRecord
100
AcDbLayerTableRecord
  2
01_PLANES
 70
0
 62
7
  6
CONTINUOUS
370
-3
390
F
  0
LAYER
  5
200
100
AcDbSymbolTableRecord
100
AcDbLayerTableRecord
  2
02_COORD_SYS
 70
0
 62
7
  6
CONTINUOUS
370
-3
390
F
  0
LAYER
  5
201
100
AcDbSymbolTableRecord
100
AcDbLayerTableRecord
  2
03_AXES
 70
0
 62
7
  6
CONTINUOUS
370
-3
390
F
  0
LAYER
  5
202
100
AcDbSymbolTableRecord
100
AcDbLayerTableRecord
  2
04_POINTS
 70
0
 62
7
  6
CONTINUOUS
370
-3
390
F
  0
LAYER
  5
203
100
AcDbSymbolTableRecord
100
AcDbLayerTableRecord
  2
05_CURVES
 70
0
 62
7
  6
CONTINUOUS
370
-3
390
F
  0
LAYER
  5
204
100
AcDbSymbolTableRecord
100
AcDbLayerTableRecord
  2
06_SURFS
 70
0
 62
7
  6
CONTINUOUS
370
-3
390
F
  0
LAYER
  5
205
100
AcDbSymbolTableRecord
100
AcDbLayerTableRecord
  2
07_COSMETICS
 70
0
 62
7
  6
CONTINUOUS
370
-3
390
F
  0
LAYER
  5
206
100
AcDbSymbolTableRecord
100
AcDbLayerTableRecord
  2
10_NOTES
 70
0
 62
7
  6
CONTINUOUS
370
-3
390
F
  0
LAYER
  5
207
100
AcDbSymbolTableRecord
100
AcDbLayerTableRecord
  2
11_NOTES_PUB
 70
0
 62
7
  6
CONTINUOUS
370
-3
390
F
  0
LAYER
  5
208
100
AcDbSymbolTableRecord
100
AcDbLayerTableRecord
  2
13_REF_GTOL
 70
0
 62
7
  6
CONTINUOUS
370
-3
390
F
  0
LAYER
  5
209
100
AcDbSymbolTableRecord
100
AcDbLayerTableRecord
  2
16_MISC
 70
0
 62
7
  6
CONTINUOUS
370
-3
390
F
  0
LAYER
  5
20A
100
AcDbSymbolTableRecord
100
AcDbLayerTableRecord
  2
17_NO_PRINT
 70
0
 62
7
  6
CONTINUOUS
370
-3
390
F
  0
LAYER
  5
20B
100
AcDbSymbolTableRecord
100
AcDbLayerTableRecord
  2
18_DATUM_CAMS_JOINTS
 70
0
 62
7
  6
CONTINUOUS
370
-3
390
F
  0
LAYER
  5
20C
100
AcDbSymbolTableRecord
100
AcDbLayerTableRecord
  2
19_DATUM_FUNCTIONAL
 70
0
 62
7
  6
CONTINUOUS
370
-3
390
F
  0
LAYER
  5
20D
100
AcDbSymbolTableRecord
100
AcDbLayerTableRecord
  2
20_DATUM_KINEMATIC_SCHEME
 70
0
 62
7
  6
CONTINUOUS
370
-3
390
F
  0
ENDTAB
  0
TABLE
  2
STYLE
  5
3
100
AcDbSymbolTable
 70
1
  0
STYLE
  5
11
100
AcDbSymbolTableRecord
100
AcDbTextStyleTableRecord
  2
STANDARD
 70
0
 40
0.0
 41
1.0
 50
0.0
 71
0
 42
0.2
  3
ARIAL.TTF
  4

  0
STYLE
  5
20E
100
AcDbSymbolTableRecord
100
AcDbTextStyleTableRecord
  2
TEXTSTYLE_1
 70
0
 40
0.0
 41
0.8
 50
0.0
 71
0
 42
0.2
  3
gdt
  4

  0
ENDTAB
  0
TABLE
  2
VIEW
  5
6
100
AcDbSymbolTable
 70
0
  0
ENDTAB
  0
TABLE
  2
UCS
  5
7
100
AcDbSymbolTable
 70
0
  0
ENDTAB
  0
TABLE
  2
APPID
  5
9
100
AcDbSymbolTable
 70
1
  0
APPID
  5
20F
100
AcDbSymbolTableRecord
100
AcDbRegAppTableRecord
  2
ACAD
 70
0
  0
ENDTAB
  0
TABLE
  2
BLOCK_RECORD
  5
1
100
AcDbSymbolTable
 70
0
  0
BLOCK_RECORD
  5
210
100
AcDbSymbolTableRecord
100
AcDbBlockTableRecord
  2
*Model_Space
  0
BLOCK_RECORD
  5
211
100
AcDbSymbolTableRecord
100
AcDbBlockTableRecord
  2
*Paper_Space
  0
BLOCK_RECORD
  5
212
100
AcDbSymbolTableRecord
100
AcDbBlockTableRecord
  2
_FILLED
  0
ENDTAB
  0
TABLE
  2
DIMSTYLE
  5
A
100
AcDbSymbolTable
 70
1
100
AcDbDimStyleTable
 71
0
  0
DIMSTYLE
105
213
100
AcDbSymbolTableRecord
100
AcDbDimStyleTableRecord
  2
STANDARD
 70
0
  3

  4

 40
1.0
 41
0.809994777
 42
1.0
 43
0.38
 44
1.0
 45
0.0
 46
0.0
 47
0.01
 48
0.01
140
1.1339926878
141
0.09
142
0.0
143
25.4
144
1.0
145
0.0
146
1.0
147
0.625
 71
1
 72
0
 73
0
 74
0
 75
0
 76
0
 77
1
 78
8
 79
2
170
0
171
1
172
0
173
0
174
0
175
0
176
0
177
0
178
0
270
2
179
2
271
2
272
2
273
2
274
2
275
0
280
0
281
0
282
0
283
1
284
8
285
0
286
0
287
3
288
0
340
11
278
46
341
212
342
212
343
212
344
212
  0
ENDTAB
  0
ENDSEC
  0
SECTION
  2
BLOCKS
  0
BLOCK
  5
20
100
AcDbEntity
  8
0
100
AcDbBlockBegin
  2
*Model_Space
 70
0
 10
0.0
 20
0.0
 30
0.0
  3
*Model_Space
  1

  0
ENDBLK
  5
21
100
AcDbEntity
  8
0
100
AcDbBlockEnd
  0
BLOCK
  5
1C
100
AcDbEntity
  8
0
100
AcDbBlockBegin
  2
*Paper_Space
 70
0
 10
0.0
 20
0.0
 30
0.0
  3
*Paper_Space
  1

  0
ENDBLK
  5
1D
100
AcDbEntity
  8
0
100
AcDbBlockEnd
  0
BLOCK
  5
214
100
AcDbEntity
  8
0
100
AcDbBlockBegin
  2
_FILLED
 70
64
 10
0.0
 20
0.0
  3
_FILLED
  1

  0
SOLID
  5
215
100
AcDbEntity
  8
0
  6
BYBLOCK
 62
0
100
AcDbTrace
 10
0.0
 20
0.0
 11
-1.0
 21
0.25
 12
-1.0
 22
-0.25
 13
-1.0
 23
-0.25
  0
ENDBLK
  5
216
100
AcDbEntity
  8
0
  6
BYBLOCK
 62
0
100
AcDbBlockEnd
  0
ENDSEC
  0
SECTION
  2
ENTITIES
  0
LINE
  5
217
100
AcDbEntity
  8
0
100
AcDbLine
 62
7
  6
BYLAYER
 10
14.722626036
 20
86.5132978621
 11
18.4488922772
 21
88.6646458377
  0
LINE
  5
218
100
AcDbEntity
  8
0
100
AcDbLine
 62
7
  6
BYLAYER
 10
48.1548094837
 20
9.492397557
 11
47.4345895403
 21
9.3814575829
  0
LINE
  5
219
100
AcDbEntity
  8
0
100
AcDbLine
 62
7
  6
BYLAYER
 10
47.4345895403
 20
9.3814575829
 11
46.7807375779
 21
9.3809304762
  0
LINE
  5
21A
100
AcDbEntity
  8
0
100
AcDbLine
 62
7
  6
BYLAYER
 10
13.1250595691
 20
71.4549626844
 11
13.5602521927
 21
71.8877961938
  0
LINE
  5
21B
100
AcDbEntity
  8
0
100
AcDbLine
 62
7
  6
BYLAYER
 10
13.5602521927
 20
71.8877961938
 11
16.5606021517
 21
74.7279206119
  0
LINE
  5
21C
100
AcDbEntity
  8
0
100
AcDbLine
 62
7
  6
BYLAYER
 10
33.4090427258
 20
9.6800564358
 11
15.7312995971
 21
19.8860752988
  0
LINE
  5
21D
100
AcDbEntity
  8
0
100
AcDbLine
 62
7
  6
BYLAYER
 10
12.3774036715
 20
70.0979716256
 11
12.3179650161
 21
69.6073549356
  0
LINE
  5
21E
100
AcDbEntity
  8
0
100
AcDbLine
 62
7
  6
BYLAYER
 10
22.722590221
 20
72.6568707238
 11
26.4488564621
 21
74.8082186994
  0
LINE
  5
21F
100
AcDbEntity
  8
0
100
AcDbLine
 62
7
  6
BYLAYER
 10
27.7719331499
 20
75.0676447067
 11
28.371267097
 21
75.4136689583
  0
LINE
  5
220
100
AcDbEntity
  8
0
100
AcDbLine
 62
7
  6
BYLAYER
 10
26.5220758519
 20
72.4352890188
 11
27.9362835264
 21
73.2517773265
  0
LINE
  5
221
100
AcDbEntity
  8
0
100
AcDbLine
 62
7
  6
BYLAYER
 10
47.7414169194
 20
9.7310644659
 11
51.6647690679
 21
7.4659672902
  0
LINE
  5
222
100
AcDbEntity
  8
0
100
AcDbLine
 62
7
  6
BYLAYER
 10
12.3179650161
 20
69.6073549356
 11
11.4520904324
 21
61.0403202532
  0
LINE
  5
223
100
AcDbEntity
  8
0
100
AcDbLine
 62
7
  6
BYLAYER
 10
13.4619942779
 20
62.4959658227
 11
13.8148852102
 21
62.6997062813
  0
LINE
  5
224
100
AcDbEntity
  8
0
100
AcDbLine
 62
7
  6
BYLAYER
 10
22.0859332412
 20
65.9631241174
 11
25.0875362133
 21
67.6960900569
  0
LINE
  5
225
100
AcDbEntity
  8
0
100
AcDbLine
 62
7
  6
BYLAYER
 10
15.7312995971
 20
19.8860752988
 11
15.7312995971
 21
51.6005597496
  0
LINE
  5
226
100
AcDbEntity
  8
0
100
AcDbLine
 62
7
  6
BYLAYER
 10
26.5636959548
 20
72.2270740299
 11
22.2298027335
 21
66.1984556855
  0
LINE
  5
227
100
AcDbEntity
  8
0
100
AcDbLine
 62
7
  6
BYLAYER
 10
25.0875362133
 20
67.6960900569
 11
27.6655412688
 21
71.2821979225
  0
LINE
  5
228
100
AcDbEntity
  8
0
100
AcDbLine
 62
7
  6
BYLAYER
 10
23.2039057982
 20
65.3273299318
 11
25.0875362133
 21
67.6960900569
  0
LINE
  5
229
100
AcDbEntity
  8
0
100
AcDbLine
 62
7
  6
BYLAYER
 10
13.4095532811
 20
59.4422784774
 11
14.6222606385
 21
60.2761081962
  0
LINE
  5
22A
100
AcDbEntity
  8
0
100
AcDbLine
 62
7
  6
BYLAYER
 10
21.8318053975
 20
64.1146608917
 11
23.2460130719
 21
64.9311491995
  0
LINE
  5
22B
100
AcDbEntity
  8
0
100
AcDbLine
 62
7
  6
BYLAYER
 10
51.4913532931
 20
16.2262917285
 11
57.5798056856
 21
12.7112016227
  0
LINE
  5
22C
100
AcDbEntity
  8
0
100
AcDbLine
 62
7
  6
BYLAYER
 10
39.1253250756
 20
69.206826553
 11
23.867876205
 21
60.3979514753
  0
LINE
  5
22D
100
AcDbEntity
  8
0
100
AcDbLine
 62
7
  6
BYLAYER
 10
37.6532074007
 20
67.0542047052
 11
24.1475241099
 21
59.2567413662
  0
LINE
  5
22E
100
AcDbEntity
  8
0
100
AcDbLine
 62
7
  6
BYLAYER
 10
21.8318053975
 20
64.1146608917
 11
21.772366742
 21
64.6739098765
  0
LINE
  5
22F
100
AcDbEntity
  8
0
100
AcDbLine
 62
7
  6
BYLAYER
 10
23.2039057982
 20
65.3273299318
 11
23.2460130719
 21
64.9311491995
  0
LINE
  5
230
100
AcDbEntity
  8
0
100
AcDbLine
 62
7
  6
BYLAYER
 10
22.6976799812
 20
54.5478229799
 11
21.8318053975
 21
64.1146608917
  0
LINE
  5
231
100
AcDbEntity
  8
0
100
AcDbLine
 62
7
  6
BYLAYER
 10
23.2460130719
 20
64.9311491995
 11
24.1118876556
 21
55.3643112877
  0
LINE
  5
232
100
AcDbEntity
  8
0
100
AcDbLine
 62
7
  6
BYLAYER
 10
24.1475241099
 20
59.2567413662
 11
24.1475241099
 21
52.0318374567
  0
LINE
  5
233
100
AcDbEntity
  8
0
100
AcDbLine
 62
7
  6
BYLAYER
 10
24.1118876556
 20
55.3643112877
 11
22.6976799812
 21
54.5478229799
  0
LINE
  5
234
100
AcDbEntity
  8
0
100
AcDbLine
 62
7
  6
BYLAYER
 10
19.9604078406
 20
51.2403161767
 11
20.3132987729
 21
51.4440566353
  0
LINE
  5
235
100
AcDbEntity
  8
0
100
AcDbLine
 62
7
  6
BYLAYER
 10
17.2896241842
 20
52.7217584205
 11
18.6180988557
 21
53.3550720725
  0
LINE
  5
236
100
AcDbEntity
  8
0
100
AcDbLine
 62
7
  6
BYLAYER
 10
37.6532074007
 20
59.8293007956
 11
24.1475241099
 21
52.0318374567
  0
LINE
  5
237
100
AcDbEntity
  8
0
100
AcDbLine
 62
7
  6
BYLAYER
 10
21.0748672992
 20
50.1498993177
 11
22.4890749737
 21
50.9663876255
  0
LINE
  5
238
100
AcDbEntity
  8
0
100
AcDbLine
 62
7
  6
BYLAYER
 10
32.5300443681
 20
55.9512437183
 11
22.7477656632
 21
50.3034761874
  0
LINE
  5
239
100
AcDbEntity
  8
0
100
AcDbLine
 62
7
  6
BYLAYER
 10
24.1475241099
 20
59.2567413662
 11
23.867876205
 21
60.3979514753
  0
LINE
  5
23A
100
AcDbEntity
  8
0
100
AcDbLine
 62
7
  6
BYLAYER
 10
26.5220758519
 20
72.4352890188
 11
26.3143362094
 21
74.7305538588
  0
LINE
  5
23B
100
AcDbEntity
  8
0
100
AcDbLine
 62
7
  6
BYLAYER
 10
27.6638432608
 20
76.261903632
 11
27.9362835264
 21
73.2517773265
  0
LINE
  5
23C
100
AcDbEntity
  8
0
100
AcDbLine
 62
7
  6
BYLAYER
 10
26.5636959548
 20
72.2270740299
 11
26.5220758519
 21
72.4352890188
  0
LINE
  5
23D
100
AcDbEntity
  8
0
100
AcDbLine
 62
7
  6
BYLAYER
 10
37.6516539732
 20
59.8252782748
 11
37.6531770784
 21
59.8292221674
  0
LWPOLYLINE
  5
23E
100
AcDbEntity
  8
0
100
AcDbPolyline
 62
7
  6
BYLAYER
 90
3
 70
0
 10
36.9445913515
 20
46.8309686855
 10
29.9106333561
 20
52.3426323093
 10
28.0951559379
 20
53.3907749732
  0
LINE
  5
23F
100
AcDbEntity
  8
0
100
AcDbLine
 62
7
  6
BYLAYER
 10
27.9362835264
 20
73.2517773265
 11
28.012490727
 21
72.8705317183
  0
LINE
  5
240
100
AcDbEntity
  8
0
100
AcDbLine
 62
7
  6
BYLAYER
 10
36.9445913515
 20
46.8309686855
 11
36.9445913515
 21
11.7213647489
  0
LINE
  5
241
100
AcDbEntity
  8
0
100
AcDbLine
 62
7
  6
BYLAYER
 10
37.6532074007
 20
67.0542047052
 11
37.6532074007
 21
59.8293007956
  0
LINE
  5
242
100
AcDbEntity
  8
0
100
AcDbLine
 62
7
  6
BYLAYER
 10
36.9445913515
 20
46.8309686855
 11
48.2582527469
 21
53.3628751474
  0
LINE
  5
243
100
AcDbEntity
  8
0
100
AcDbLine
 62
7
  6
BYLAYER
 10
39.994776172
 20
57.8536413291
 11
39.994776172
 21
71.8725134874
  0
LINE
  5
244
100
AcDbEntity
  8
0
100
AcDbLine
 62
7
  6
BYLAYER
 10
51.9047458574
 20
15.9876248196
 11
51.6406994148
 21
16.666818401
  0
LINE
  5
245
100
AcDbEntity
  8
0
100
AcDbLine
 62
7
  6
BYLAYER
 10
12.3774036715
 20
70.0979716256
 11
21.772366742
 21
64.6739098765
  0
LINE
  5
246
100
AcDbEntity
  8
0
100
AcDbLine
 62
7
  6
BYLAYER
 10
22.2298027336
 20
66.1984556856
 11
13.1250595691
 21
71.4549626844
  0
LINE
  5
247
100
AcDbEntity
  8
0
100
AcDbLine
 62
7
  6
BYLAYER
 10
37.6516539732
 20
67.0605440595
 11
37.6531566653
 21
67.0544117505
  0
LWPOLYLINE
  5
248
100
AcDbEntity
  8
0
100
AcDbPolyline
 62
7
  6
BYLAYER
 90
3
 70
0
 10
39.994776172
 20
59.5843855951
 10
41.2242947515
 20
58.8745387712
 10
48.2582527469
 20
53.3628751474
  0
LINE
  5
249
100
AcDbEntity
  8
0
100
AcDbLine
 62
7
  6
BYLAYER
 10
48.2582527469
 20
20.3630881398
 11
48.2582527469
 21
53.3628751474
  0
LINE
  5
24A
100
AcDbEntity
  8
0
100
AcDbLine
 62
7
  6
BYLAYER
 10
24.2709069193
 20
73.5507864504
 11
26.5636959548
 21
72.2270740299
  0
LINE
  5
24B
100
AcDbEntity
  8
0
100
AcDbLine
 62
7
  6
BYLAYER
 10
39.3364778258
 20
73.8193379097
 11
39.311096706
 21
73.8313740293
  0
LINE
  5
24C
100
AcDbEntity
  8
0
100
AcDbLine
 62
7
  6
BYLAYER
 10
39.3364092294
 20
73.8191292801
 11
39.311096706
 21
73.8313740293
  0
LINE
  5
24D
100
AcDbEntity
  8
0
100
AcDbLine
 62
7
  6
BYLAYER
 10
34.4509944423
 20
76.6660623188
 11
35.112518249
 21
76.3258692543
  0
LINE
  5
24E
100
AcDbEntity
  8
0
100
AcDbLine
 62
7
  6
BYLAYER
 10
36.2483880827
 20
74.9938054671
 11
36.2373991953
 21
75.0001497607
  0
LINE
  5
24F
100
AcDbEntity
  8
0
100
AcDbLine
 62
7
  6
BYLAYER
 10
35.1125550659
 20
76.3259473114
 11
39.3622093907
 21
73.8724637482
  0
LINE
  5
250
100
AcDbEntity
  8
0
100
AcDbLine
 62
7
  6
BYLAYER
 10
39.6101936876
 20
73.686654289
 11
39.3621494818
 21
73.8724983346
  0
LINE
  5
251
100
AcDbEntity
  8
0
100
AcDbLine
 62
7
  6
BYLAYER
 10
38.6204669242
 20
12.6889261863
 11
36.9445913515
 21
11.7213647489
  0
LINE
  5
252
100
AcDbEntity
  8
0
100
AcDbLine
 62
7
  6
BYLAYER
 10
39.6850849686
 20
11.6125274946
 11
35.9090315336
 21
9.4324350408
  0
ARC
  5
253
100
AcDbEntity
  8
0
100
AcDbCircle
 62
7
  6
BYLAYER
 10
2.7242331618
 20
40.4934429219
 40
29.038648417
100
AcDbArc
 50
43.2709179452
 51
43.9231197393
  0
ARC
  5
254
100
AcDbEntity
  8
0
100
AcDbCircle
 62
7
  6
BYLAYER
 10
51.6059219999
 20
37.1009468097
 40
28.141710952
100
AcDbArc
 50
244.1297046509
 51
253.829105529
  0
ARC
  5
255
100
AcDbEntity
  8
0
100
AcDbCircle
 62
7
  6
BYLAYER
 10
29.7349872865
 20
-0.7894603079
 40
28.1201602199
100
AcDbArc
 50
46.1695806499
 51
55.0825207956
  0
ARC
  5
256
100
AcDbEntity
  8
0
100
AcDbCircle
 62
7
  6
BYLAYER
 10
51.4286380528
 20
36.5072311254
 40
27.5220574605
100
AcDbArc
 50
255.2846226202
 51
257.2463819421
  0
ARC
  5
257
100
AcDbEntity
  8
0
100
AcDbCircle
 62
7
  6
BYLAYER
 10
30.174597047
 20
-0.3285038158
 40
27.4831048269
100
AcDbArc
 50
42.7533502179
 51
44.7178902726
  0
ARC
  5
258
100
AcDbEntity
  8
0
100
AcDbCircle
 62
7
  6
BYLAYER
 10
51.3376984144
 20
36.0863439602
 40
27.0914193319
100
AcDbArc
 50
258.6930624082
 51
260.3164252917
  0
ARC
  5
259
100
AcDbEntity
  8
0
100
AcDbCircle
 62
7
  6
BYLAYER
 10
30.4959014995
 20
-0.0402448865
 40
27.0514076401
100
AcDbArc
 50
39.6834965974
 51
41.3092607552
  0
ARC
  5
25A
100
AcDbEntity
  8
0
100
AcDbCircle
 62
7
  6
BYLAYER
 10
30.6375901372
 20
55.5209137599
 40
20.260872967
100
AcDbArc
 50
63.7138641545
 51
64.5740532726
  0
ARC
  5
25B
100
AcDbEntity
  8
0
100
AcDbCircle
 62
7
  6
BYLAYER
 10
26.2583796718
 20
83.9354130663
 40
13.4279934651
100
AcDbArc
 50
209.5863813262
 51
213.6702992028
  0
ARC
  5
25C
100
AcDbEntity
  8
0
100
AcDbCircle
 62
7
  6
BYLAYER
 10
26.0493849056
 20
83.8280986539
 40
13.1932678317
100
AcDbArc
 50
202.5056028039
 51
209.6292280224
  0
ARC
  5
25D
100
AcDbEntity
  8
0
100
AcDbCircle
 62
7
  6
BYLAYER
 10
25.2482434444
 20
83.5001523925
 40
12.3276109393
100
AcDbArc
 50
198.2756031202
 51
202.5227315474
  0
ARC
  5
25E
100
AcDbEntity
  8
0
100
AcDbCircle
 62
7
  6
BYLAYER
 10
24.8973812849
 20
82.8560673139
 40
11.6890121092
100
AcDbArc
 50
221.0448009621
 51
225.2338855961
  0
ARC
  5
25F
100
AcDbEntity
  8
0
100
AcDbCircle
 62
7
  6
BYLAYER
 10
23.1805856521
 20
82.1596469496
 40
8.8018024294
100
AcDbArc
 50
207.6198453847
 51
209.5553684497
  0
ARC
  5
260
100
AcDbEntity
  8
0
100
AcDbCircle
 62
7
  6
BYLAYER
 10
23.107777533
 20
82.1130682256
 40
8.7154937336
100
AcDbArc
 50
209.5251002399
 51
216.3203947193
  0
ARC
  5
261
100
AcDbEntity
  8
0
100
AcDbCircle
 62
7
  6
BYLAYER
 10
23.0820450701
 20
82.1087447548
 40
8.6908928424
100
AcDbArc
 50
203.1502214456
 51
207.6236834066
  0
ARC
  5
262
100
AcDbEntity
  8
0
100
AcDbCircle
 62
7
  6
BYLAYER
 10
20.6395995228
 20
82.6431407544
 40
7.6209435316
100
AcDbArc
 50
180.0135460556
 51
183.1551347142
  0
ARC
  5
263
100
AcDbEntity
  8
0
100
AcDbCircle
 62
7
  6
BYLAYER
 10
20.580391956
 20
82.7286823263
 40
7.6025287125
100
AcDbArc
 50
180.0010869283
 51
180.6404299382
  0
ARC
  5
264
100
AcDbEntity
  8
0
100
AcDbCircle
 62
7
  6
BYLAYER
 10
20.248806014
 20
82.6414757542
 40
7.2301498111
100
AcDbArc
 50
179.3109793078
 51
180.0010838275
  0
ARC
  5
265
100
AcDbEntity
  8
0
100
AcDbCircle
 62
7
  6
BYLAYER
 10
21.8930089913
 20
81.0617739549
 40
7.1067750495
100
AcDbArc
 50
223.1538612646
 51
228.33254744
  0
ARC
  5
266
100
AcDbEntity
  8
0
100
AcDbCircle
 62
7
  6
BYLAYER
 10
18.7082494435
 20
82.7557654492
 40
5.6842982751
100
AcDbArc
 50
169.6045870456
 51
174.1032251678
  0
ARC
  5
267
100
AcDbEntity
  8
0
100
AcDbCircle
 62
7
  6
BYLAYER
 10
20.5824039327
 20
79.3496322424
 40
4.9465133437
100
AcDbArc
 50
238.5616270194
 51
239.4964977335
  0
ARC
  5
268
100
AcDbEntity
  8
0
100
AcDbCircle
 62
7
  6
BYLAYER
 10
19.3436060282
 20
81.3126018579
 40
4.8415186963
100
AcDbArc
 50
180.0015558149
 51
180.7477437735
  0
ARC
  5
269
100
AcDbEntity
  8
0
100
AcDbCircle
 62
7
  6
BYLAYER
 10
20.4535118045
 20
79.1276166228
 40
4.6898008985
100
AcDbArc
 50
239.4764626653
 51
241.8499036381
  0
ARC
  5
26A
100
AcDbEntity
  8
0
100
AcDbCircle
 62
7
  6
BYLAYER
 10
19.1684217441
 20
81.246641891
 40
4.6391397925
100
AcDbArc
 50
179.1936593966
 51
180.0014771693
  0
ARC
  5
26B
100
AcDbEntity
  8
0
100
AcDbCircle
 62
7
  6
BYLAYER
 10
35.4752233874
 20
71.8719162801
 40
4.5195347839
100
AcDbArc
 50
323.8647979131
 51
0.0075369826
  0
ARC
  5
26C
100
AcDbEntity
  8
0
100
AcDbCircle
 62
7
  6
BYLAYER
 10
35.5428405736
 20
71.8765790506
 40
4.4519569585
100
AcDbArc
 50
359.9476425378
 51
23.9905621869
  0
ARC
  5
26D
100
AcDbEntity
  8
0
100
AcDbCircle
 62
7
  6
BYLAYER
 10
14.5580251987
 20
60.5946120189
 40
2.1946249364
100
AcDbArc
 50
109.8082347808
 51
119.9611986973
  0
ARC
  5
26E
100
AcDbEntity
  8
0
100
AcDbCircle
 62
7
  6
BYLAYER
 10
18.871113644
 20
53.126810481
 40
2.1783873698
100
AcDbArc
 50
300.0028761839
 51
310.0288780783
  0
ARC
  5
26F
100
AcDbEntity
  8
0
100
AcDbCircle
 62
7
  6
BYLAYER
 10
44.3308301835
 20
12.0242539724
 40
2.031022674
100
AcDbArc
 50
253.9226662559
 51
261.7669462135
  0
ARC
  5
270
100
AcDbEntity
  8
0
100
AcDbCircle
 62
7
  6
BYLAYER
 10
47.8261220923
 20
18.0574127914
 40
1.9955722701
100
AcDbArc
 50
38.823037152
 51
46.1367346405
  0
ARC
  5
271
100
AcDbEntity
  8
0
100
AcDbCircle
 62
7
  6
BYLAYER
 10
19.8012730316
 20
76.3002924332
 40
1.7158159812
100
AcDbArc
 50
298.2469568435
 51
299.9452820606
  0
ARC
  5
272
100
AcDbEntity
  8
0
100
AcDbCircle
 62
7
  6
BYLAYER
 10
16.4145477585
 20
82.1621076556
 40
1.7140674122
100
AcDbArc
 50
119.9452729537
 51
121.6448480452
  0
SPLINE
  5
273
100
AcDbEntity
  8
0
100
AcDbSpline
 62
7
  6
BYLAYER
 70
0
 71
3
 72
15
 73
11
 74
0
 42
0.0000001
 43
0.0000001
 44
0.0000000001
 40
0.0
 40
0.0
 40
0.0
 40
0.0
 40
0.1112310287
 40
0.2297352082
 40
0.3541407751
 40
0.4827525731
 40
0.61366346
 40
0.7448507035
 40
0.8742794648
 40
1.0
 40
1.0
 40
1.0
 40
1.0
 10
37.6516539732
 20
54.5877152929
 30
0.0
 10
37.3527596305
 20
54.4151495938
 30
0.0
 10
36.7106687181
 20
54.1006172214
 30
0.0
 10
35.6734041482
 20
53.7320747662
 30
0.0
 10
34.5516710558
 20
53.4583243309
 30
0.0
 10
33.3713105182
 20
53.2856690521
 30
0.0
 10
32.1593093968
 20
53.2180231444
 30
0.0
 10
30.9434899669
 20
53.2569556783
 30
0.0
 10
29.7519553801
 20
53.4015268046
 30
0.0
 10
28.9767908157
 20
53.5694568125
 30
0.0
 10
28.6002340453
 20
53.6713219891
 30
0.0
  0
SPLINE
  5
274
100
AcDbEntity
  8
0
100
AcDbSpline
 62
7
  6
BYLAYER
 70
0
 71
3
 72
15
 73
11
 74
0
 42
0.0000001
 43
0.0000001
 44
0.0000000001
 40
0.0
 40
0.0
 40
0.0
 40
0.0
 40
0.1077351262
 40
0.2181053547
 40
0.3326495359
 40
0.4526012725
 40
0.5788649213
 40
0.7120557145
 40
0.8524882822
 40
1.0
 40
1.0
 40
1.0
 40
1.0
 10
13.4095563128
 20
59.4422735311
 30
0.0
 10
13.3521313446
 20
59.4027960125
 30
0.0
 10
13.2421597732
 20
59.3133210175
 30
0.0
 10
13.0977406604
 20
59.1527821532
 30
0.0
 10
12.9737895118
 20
58.9664371286
 30
0.0
 10
12.8712590792
 20
58.7561272133
 30
0.0
 10
12.7909023899
 20
58.5236806227
 30
0.0
 10
12.733245368
 20
58.2710611623
 30
0.0
 10
12.6987725597
 20
58.0004743366
 30
0.0
 10
12.6914791283
 20
57.8141141159
 30
0.0
 10
12.6914791283
 20
57.7186999033
 30
0.0
  0
SPLINE
  5
275
100
AcDbEntity
  8
0
100
AcDbSpline
 62
7
  6
BYLAYER
 70
0
 71
3
 72
15
 73
11
 74
0
 42
0.0000001
 43
0.0000001
 44
0.0000000001
 40
0.0
 40
0.0
 40
0.0
 40
0.0
 40
0.1080137296
 40
0.2180613705
 40
0.3319975905
 40
0.4513595554
 40
0.5772701226
 40
0.710489639
 40
0.8514356061
 40
1.0
 40
1.0
 40
1.0
 40
1.0
 10
13.8148909768
 20
62.699696186
 30
0.0
 10
13.9214386628
 20
62.7612020011
 30
0.0
 10
14.1476385479
 20
62.8671504813
 30
0.0
 10
14.5136602379
 20
62.968342965
 30
0.0
 10
14.9038417406
 20
63.0118914138
 30
0.0
 10
15.3140300001
 20
62.997590088
 30
0.0
 10
15.7402813376
 20
62.9261178287
 30
0.0
 10
16.1786572876
 20
62.7983281655
 30
0.0
 10
16.6249482931
 20
62.6156279385
 30
0.0
 10
16.9175488661
 20
62.462480393
 30
0.0
 10
17.0640919915
 20
62.3778755941
 30
0.0
  0
SPLINE
  5
276
100
AcDbEntity
  8
0
100
AcDbSpline
 62
7
  6
BYLAYER
 70
0
 71
3
 72
25
 73
21
 74
0
 42
0.0000001
 43
0.0000001
 44
0.0000000001
 40
0.0
 40
0.0
 40
0.0
 40
0.0
 40
0.021332546
 40
0.042893592
 40
0.0648992016
 40
0.087544621
 40
0.1353203427
 40
0.1872215292
 40
0.2436591468
 40
0.3046067914
 40
0.3696942286
 40
0.4382911807
 40
0.5095773189
 40
0.5826012517
 40
0.6563328558
 40
0.7297088048
 40
0.8016849158
 40
0.8712755209
 40
0.937618729
 40
1.0
 40
1.0
 40
1.0
 40
1.0
 10
13.4620000889
 20
62.4959556413
 30
0.0
 10
13.3821568824
 20
62.4498653669
 30
0.0
 10
13.2273851729
 20
62.3467672501
 30
0.0
 10
13.0149781402
 20
62.162554176
 30
0.0
 10
12.8228716765
 20
61.9495301716
 30
0.0
 10
12.5912840206
 20
61.6231317955
 30
0.0
 10
12.3594123634
 20
61.1435475818
 30
0.0
 10
12.1826801025
 20
60.4892213401
 30
0.0
 10
12.1039163965
 20
59.7593108446
 30
0.0
 10
12.1240412985
 20
58.9690052162
 30
0.0
 10
12.2421567646
 20
58.1345535377
 30
0.0
 10
12.4556344219
 20
57.273409684
 30
0.0
 10
12.7598949015
 20
56.4037384437
 30
0.0
 10
13.1484563225
 20
55.5440036519
 30
0.0
 10
13.6130384246
 20
54.7125313611
 30
0.0
 10
14.1437205395
 20
53.9270432847
 30
0.0
 10
14.7291980126
 20
53.2043237944
 30
0.0
 10
15.3570575994
 20
52.5596583279
 30
0.0
 10
16.0139031945
 20
52.0069097384
 30
0.0
 10
16.4777289839
 20
51.6969389801
 30
0.0
 10
16.7112010593
 20
51.562146864
 30
0.0
  0
SPLINE
  5
277
100
AcDbEntity
  8
0
100
AcDbSpline
 62
7
  6
BYLAYER
 70
0
 71
3
 72
15
 73
11
 74
0
 42
0.0000001
 43
0.0000001
 44
0.0000000001
 40
0.0
 40
0.0
 40
0.0
 40
0.0
 40
0.1209585228
 40
0.244451073
 40
0.3698373827
 40
0.496539565
 40
0.6238218545
 40
0.7508303155
 40
0.8766305401
 40
1.0
 40
1.0
 40
1.0
 40
1.0
 10
34.4509757346
 20
76.6660438878
 30
0.0
 10
34.1990641312
 20
76.6765066552
 30
0.0
 10
33.6889525498
 20
76.6772305418
 30
0.0
 10
32.9193681149
 20
76.6238374243
 30
0.0
 10
32.1429249635
 20
76.5200096648
 30
0.0
 10
31.3660035443
 20
76.3706350346
 30
0.0
 10
30.5945599166
 20
76.1807561266
 30
0.0
 10
29.8346954028
 20
75.9555382524
 30
0.0
 10
29.0930040502
 20
75.7004529765
 30
0.0
 10
28.6089422827
 20
75.5117690052
 30
0.0
 10
28.3712489484
 20
75.4136356156
 30
0.0
  0
SPLINE
  5
278
100
AcDbEntity
  8
0
100
AcDbSpline
 62
7
  6
BYLAYER
 70
0
 71
3
 72
11
 73
7
 74
0
 42
0.0000001
 43
0.0000001
 44
0.0000000001
 40
0.0
 40
0.0
 40
0.0
 40
0.0
 40
0.2668876612
 40
0.5198144001
 40
0.7625874099
 40
1.0
 40
1.0
 40
1.0
 40
1.0
 10
20.5808829958
 20
49.950883625
 30
0.0
 10
20.7775588117
 20
49.9214072054
 30
0.0
 10
21.1652071297
 20
49.8895772009
 30
0.0
 10
21.7343983432
 20
49.9316269802
 30
0.0
 10
22.2670076678
 20
50.0650229069
 30
0.0
 10
22.5945595766
 20
50.2150189836
 30
0.0
 10
22.7477617616
 20
50.3034829018
 30
0.0
  0
SPLINE
  5
279
100
AcDbEntity
  8
0
100
AcDbSpline
 62
7
  6
BYLAYER
 70
0
 71
3
 72
25
 73
21
 74
0
 42
0.0000001
 43
0.0000001
 44
0.0000000001
 40
0.0
 40
0.0
 40
0.0
 40
0.0
 40
0.0623805337
 40
0.1287229126
 40
0.1983135291
 40
0.2702899568
 40
0.3436666791
 40
0.4173993482
 40
0.4904244382
 40
0.5617115835
 40
0.6303091786
 40
0.6953967968
 40
0.756344239
 40
0.8127813663
 40
0.8646818598
 40
0.9124567988
 40
0.9351018171
 40
0.9571070645
 40
0.9786677625
 40
1.0
 40
1.0
 40
1.0
 40
1.0
 10
17.0640919915
 20
62.3778755941
 30
0.0
 10
17.2975613108
 20
62.2430850691
 30
0.0
 10
17.7613822256
 20
61.9331192473
 30
0.0
 10
18.4182229653
 20
61.3803753316
 30
0.0
 10
19.0460830338
 20
60.7357133726
 30
0.0
 10
19.6315642474
 20
60.0129906951
 30
0.0
 10
20.1622522523
 20
59.2274953264
 30
0.0
 10
20.6268405658
 20
58.3960116048
 30
0.0
 10
21.0154067322
 20
57.5362635745
 30
0.0
 10
21.3196689522
 20
56.666580007
 30
0.0
 10
21.5331446235
 20
55.8054274205
 30
0.0
 10
21.651255118
 20
54.9709722626
 30
0.0
 10
21.6713742996
 20
54.1806686953
 30
0.0
 10
21.5926057173
 20
53.4507646988
 30
0.0
 10
21.4158704316
 20
52.7964482424
 30
0.0
 10
21.1839996706
 20
52.3168725072
 30
0.0
 10
20.9524125037
 20
51.9904820721
 30
0.0
 10
20.7603093008
 20
51.77746164
 30
0.0
 10
20.5479043745
 20
51.5932528133
 30
0.0
 10
20.3931350209
 20
51.4901564053
 30
0.0
 10
20.3132930063
 20
51.4440667307
 30
0.0
  0
SPLINE
  5
27A
100
AcDbEntity
  8
0
100
AcDbSpline
 62
7
  6
BYLAYER
 70
0
 71
3
 72
15
 73
11
 74
0
 42
0.0000001
 43
0.0000001
 44
0.0000000001
 40
0.0
 40
0.0
 40
0.0
 40
0.0
 40
0.1485634072
 40
0.2895068983
 40
0.4227255835
 40
0.5486364992
 40
0.6679990145
 40
0.7819360319
 40
0.8919848283
 40
1.0
 40
1.0
 40
1.0
 40
1.0
 10
16.7112010593
 20
51.562146864
 30
0.0
 10
16.8577432184
 20
51.4775426229
 30
0.0
 10
17.1503396749
 20
51.3243956178
 30
0.0
 10
17.5966265631
 20
51.1416982773
 30
0.0
 10
18.03499857
 20
51.013907234
 30
0.0
 10
18.4612498131
 20
50.9424338706
 30
0.0
 10
18.8714399315
 20
50.928129759
 30
0.0
 10
19.2616244538
 20
50.9716776477
 30
0.0
 10
19.6276501621
 20
51.0728702396
 30
0.0
 10
19.8538528649
 20
51.1788198074
 30
0.0
 10
19.9604020296
 20
51.2403263582
 30
0.0
  0
SPLINE
  5
27B
100
AcDbEntity
  8
0
100
AcDbSpline
 62
7
  6
BYLAYER
 70
0
 71
3
 72
15
 73
11
 74
0
 42
0.0000001
 43
0.0000001
 44
0.0000000001
 40
0.0
 40
0.0
 40
0.0
 40
0.0
 40
0.1141580177
 40
0.2373256771
 40
0.3669778465
 40
0.5000023947
 40
0.6330266001
 40
0.7626777666
 40
0.8858438443
 40
1.0
 40
1.0
 40
1.0
 40
1.0
 10
12.6914791283
 20
57.7186999033
 30
0.0
 10
12.6914791283
 20
57.5015885762
 30
0.0
 10
12.7312395151
 20
57.0498084294
 30
0.0
 10
12.8897797329
 20
56.3682468811
 30
0.0
 10
13.1437209436
 20
55.6778764047
 30
0.0
 10
13.4836154609
 20
55.0046579601
 30
0.0
 10
13.8966958438
 20
54.3736959321
 30
0.0
 10
14.3676041726
 20
53.8085988771
 30
0.0
 10
14.8785811896
 20
53.3305279662
 30
0.0
 10
15.2499510565
 20
53.0702114716
 30
0.0
 10
15.4379729779
 20
52.9616594205
 30
0.0
  0
SPLINE
  5
27C
100
AcDbEntity
  8
0
100
AcDbSpline
 62
7
  6
BYLAYER
 70
0
 71
3
 72
15
 73
11
 74
0
 42
0.0000001
 43
0.0000001
 44
0.0000000001
 40
0.0
 40
0.0
 40
0.0
 40
0.0
 40
0.1475109671
 40
0.2879441106
 40
0.4211352871
 40
0.5473987527
 40
0.6673502245
 40
0.781894561
 40
0.8922648248
 40
1.0
 40
1.0
 40
1.0
 40
1.0
 10
15.4379729779
 20
52.9616594205
 30
0.0
 10
15.5206018259
 20
52.9139547121
 30
0.0
 10
15.6856374897
 20
52.8270953723
 30
0.0
 10
15.9372027537
 20
52.7216610304
 30
0.0
 10
16.1848003537
 20
52.6452881803
 30
0.0
 10
16.4262768027
 20
52.5986584941
 30
0.0
 10
16.6596690951
 20
52.582300737
 30
0.0
 10
16.8830178745
 20
52.5964722673
 30
0.0
 10
17.0942519868
 20
52.6412737501
 30
0.0
 10
17.2267221499
 20
52.6917716523
 30
0.0
 10
17.2896215527
 20
52.7217632681
 30
0.0
  0
SPLINE
  5
27D
100
AcDbEntity
  8
0
100
AcDbSpline
 62
7
  6
BYLAYER
 70
0
 71
3
 72
15
 73
11
 74
0
 42
0.0000001
 43
0.0000001
 44
0.0000000001
 40
0.0
 40
0.0
 40
0.0
 40
0.0
 40
0.1080131363
 40
0.2180602459
 40
0.3319955359
 40
0.4513562805
 40
0.5772700532
 40
0.7104872842
 40
0.8514257012
 40
1.0
 40
1.0
 40
1.0
 40
1.0
 10
39.9947726596
 20
57.8536413293
 30
0.0
 10
39.9947725726
 20
57.7021906893
 30
0.0
 10
39.9684496349
 20
57.3958246887
 30
0.0
 10
39.851076816
 20
56.9433091215
 30
0.0
 10
39.6573131208
 20
56.5005341572
 30
0.0
 10
39.3895868517
 20
56.0720242725
 30
0.0
 10
39.0510097307
 20
55.661587818
 30
0.0
 10
38.6449365244
 20
55.2728992378
 30
0.0
 10
38.1754565868
 20
54.9095476384
 30
0.0
 10
37.8320676699
 20
54.6918765675
 30
0.0
 10
37.6516539732
 20
54.5877152929
 30
0.0
  0
SPLINE
  5
27E
100
AcDbEntity
  8
0
100
AcDbSpline
 62
7
  6
BYLAYER
 70
0
 71
3
 72
15
 73
11
 74
0
 42
0.0000001
 43
0.0000001
 44
0.0000000001
 40
0.0
 40
0.0
 40
0.0
 40
0.0
 40
0.1085840965
 40
0.2184698682
 40
0.3318461891
 40
0.4505714043
 40
0.5760309248
 40
0.7091719926
 40
0.850524361
 40
1.0
 40
1.0
 40
1.0
 40
1.0
 10
17.2896215527
 20
52.7217632681
 30
0.0
 10
17.3596747507
 20
52.7551659478
 30
0.0
 10
17.4948961079
 20
52.8352424698
 30
0.0
 10
17.6748520098
 20
52.9915547291
 30
0.0
 10
17.8299760896
 20
53.1819205695
 30
0.0
 10
17.9585408018
 20
53.4039033834
 30
0.0
 10
18.0595162118
 20
53.6548487101
 30
0.0
 10
18.1320048814
 20
53.9320729403
 30
0.0
 10
18.1753662888
 20
54.2325303503
 30
0.0
 10
18.1844668275
 20
54.4405577597
 30
0.0
 10
18.1844668275
 20
54.547393721
 30
0.0
  0
SPLINE
  5
27F
100
AcDbEntity
  8
0
100
AcDbSpline
 62
7
  6
BYLAYER
 70
0
 71
3
 72
24
 73
20
 74
0
 42
0.0000001
 43
0.0000001
 44
0.0000000001
 40
0.0
 40
0.0
 40
0.0
 40
0.0
 40
0.021390597
 40
0.0432646599
 40
0.0890489223
 40
0.1384409799
 40
0.1920005607
 40
0.2498752617
 40
0.3118768341
 40
0.3775559148
 40
0.4462660275
 40
0.5172171491
 40
0.5895218746
 40
0.6622371146
 40
0.7344012838
 40
0.8050799857
 40
0.8733929327
 40
0.93857987
 40
1.0
 40
1.0
 40
1.0
 40
1.0
 10
20.2721949515
 20
51.4587748991
 30
0.0
 10
20.3409479712
 20
51.5164305271
 30
0.0
 10
20.4730932737
 20
51.6415682483
 30
0.0
 10
20.713305153
 20
51.9285116538
 30
0.0
 10
20.9634027885
 20
52.3555517032
 30
0.0
 10
21.1717127672
 20
52.9469030467
 30
0.0
 10
21.2910457414
 20
53.6134499561
 30
0.0
 10
21.319939653
 20
54.3423480243
 30
0.0
 10
21.2584166748
 20
55.119873384
 30
0.0
 10
21.1078646578
 20
55.9311764972
 30
0.0
 10
20.8712880666
 20
56.7606257882
 30
0.0
 10
20.5533131628
 20
57.5921148699
 30
0.0
 10
20.160149932
 20
58.4094245751
 30
0.0
 10
19.6994887627
 20
59.1965629134
 30
0.0
 10
19.1803545769
 20
59.9381472278
 30
0.0
 10
18.6128860194
 20
60.6196372336
 30
0.0
 10
18.0081176044
 20
61.227841831
 30
0.0
 10
17.3778742302
 20
61.7507268499
 30
0.0
 10
16.9343268895
 20
62.0453162917
 30
0.0
 10
16.7112010593
 20
62.1741351355
 30
0.0
  0
SPLINE
  5
280
100
AcDbEntity
  8
0
100
AcDbSpline
 62
7
  6
BYLAYER
 70
0
 71
3
 72
11
 73
7
 74
0
 42
0.0000001
 43
0.0000001
 44
0.0000000001
 40
0.0
 40
0.0
 40
0.0
 40
0.0
 40
0.237144413
 40
0.4797563479
 40
0.7328077108
 40
1.0
 40
1.0
 40
1.0
 40
1.0
 10
22.7477617616
 20
50.3034829018
 30
0.0
 10
22.9028487581
 20
50.3930351714
 30
0.0
 10
23.2000272196
 20
50.6046733374
 30
0.0
 10
23.5855472318
 20
51.0057033206
 30
0.0
 10
23.9085061671
 20
51.4858607981
 30
0.0
 10
24.0749205343
 20
51.8435754069
 30
0.0
 10
24.1475241099
 20
52.0318374567
 30
0.0
  0
SPLINE
  5
281
100
AcDbEntity
  8
0
100
AcDbSpline
 62
7
  6
BYLAYER
 70
0
 71
3
 72
17
 73
13
 74
0
 42
0.0000001
 43
0.0000001
 44
0.0000000001
 40
0.0
 40
0.0
 40
0.0
 40
0.0
 40
0.2504269183
 40
0.3776162367
 40
0.5057186094
 40
0.6342526551
 40
0.6983874839
 40
0.7621225192
 40
0.8250240109
 40
0.8863828528
 40
0.9451399666
 40
1.0
 40
1.0
 40
1.0
 40
1.0
 10
32.530044404
 20
55.9512436424
 30
0.0
 10
32.9949416708
 20
56.219650865
 30
0.0
 10
33.6713869438
 20
56.6677812663
 30
0.0
 10
34.5339176267
 20
57.324553943
 30
0.0
 10
35.1709478971
 20
57.845525843
 30
0.0
 10
35.6931516809
 20
58.2928709147
 30
0.0
 10
36.1094580271
 20
58.6517296025
 30
0.0
 10
36.4205482288
 20
58.9171685588
 30
0.0
 10
36.7307843682
 20
59.1744059593
 30
0.0
 10
37.0393269912
 20
59.4168399401
 30
0.0
 10
37.3437994049
 20
59.6361232823
 30
0.0
 10
37.5498107449
 20
59.7664794105
 30
0.0
 10
37.6516539732
 20
59.8252782748
 30
0.0
  0
SPLINE
  5
282
100
AcDbEntity
  8
0
100
AcDbSpline
 62
7
  6
BYLAYER
 70
0
 71
3
 72
14
 73
10
 74
0
 42
0.0000001
 43
0.0000001
 44
0.0000000001
 40
0.0
 40
0.0
 40
0.0
 40
0.0
 40
0.1460897259
 40
0.2857350445
 40
0.5450900603
 40
0.6657698393
 40
0.7811612288
 40
0.8921784337
 40
1.0
 40
1.0
 40
1.0
 40
1.0
 10
16.7112010593
 20
62.1741351355
 30
0.0
 10
16.5834993858
 20
62.2478620631
 30
0.0
 10
16.3283326659
 20
62.3831241195
 30
0.0
 10
15.822881129
 20
62.6011642526
 30
0.0
 10
15.3145991441
 20
62.7463275512
 30
0.0
 10
14.8168124235
 20
62.803005115
 30
0.0
 10
14.4655500052
 20
62.8012659553
 30
0.0
 10
14.1302859014
 20
62.7560049122
 30
0.0
 10
13.9167057515
 20
62.696295563
 30
0.0
 10
13.8143257468
 20
62.6593855505
 30
0.0
  0
SPLINE
  5
283
100
AcDbEntity
  8
0
100
AcDbSpline
 62
7
  6
BYLAYER
 70
0
 71
3
 72
25
 73
21
 74
0
 42
0.0000001
 43
0.0000001
 44
0.0000000001
 40
0.0
 40
0.0
 40
0.0
 40
0.0
 40
0.0627968566
 40
0.1296538024
 40
0.1998013191
 40
0.2723429728
 40
0.3462375617
 40
0.4203925889
 40
0.4936974378
 40
0.5650820487
 40
0.6335687798
 40
0.6983284848
 40
0.7587462249
 40
0.8145003039
 40
0.8656569738
 40
0.9127707307
 40
0.9351771221
 40
0.9570361094
 40
0.9785655013
 40
1.0
 40
1.0
 40
1.0
 40
1.0
 10
16.7112010593
 20
60.1341511468
 30
0.0
 10
16.8577678111
 20
60.0495327076
 30
0.0
 10
17.1488780443
 20
59.8544318423
 30
0.0
 10
17.5605127851
 20
59.5058539452
 30
0.0
 10
17.9532638521
 20
59.0988135088
 30
0.0
 10
18.318446871
 20
58.6424556711
 30
0.0
 10
18.6480130995
 20
58.1467636361
 30
0.0
 10
18.9346663614
 20
57.6227456658
 30
0.0
 10
19.1720541043
 20
57.081998104
 30
0.0
 10
19.3549260971
 20
56.5364892133
 30
0.0
 10
19.4792412684
 20
55.9982360823
 30
0.0
 10
19.5422205297
 20
55.4790047225
 30
0.0
 10
19.5423660877
 20
54.9900376408
 30
0.0
 10
19.4792902422
 20
54.5417395384
 30
0.0
 10
19.3537792264
 20
54.1437988665
 30
0.0
 10
19.1953392301
 20
53.8565542776
 30
0.0
 10
19.040058481
 20
53.6647248741
 30
0.0
 10
18.9121464026
 20
53.5412279625
 30
0.0
 10
18.7716443831
 20
53.4366298447
 30
0.0
 10
18.6702414432
 20
53.3799342077
 30
0.0
 10
18.6180972746
 20
53.3550749835
 30
0.0
  0
SPLINE
  5
284
100
AcDbEntity
  8
0
100
AcDbSpline
 62
7
  6
BYLAYER
 70
0
 71
3
 72
15
 73
11
 74
0
 42
0.0000001
 43
0.0000001
 44
0.0000000001
 40
0.0
 40
0.0
 40
0.0
 40
0.0
 40
0.1141580177
 40
0.2373256771
 40
0.3669778465
 40
0.5000023947
 40
0.6330266001
 40
0.7626777666
 40
0.8858438443
 40
1.0
 40
1.0
 40
1.0
 40
1.0
 10
18.1844668275
 20
54.547393721
 30
0.0
 10
18.1844668275
 20
54.7645050481
 30
0.0
 10
18.1447064407
 20
55.2162851949
 30
0.0
 10
17.9861662228
 20
55.8978467432
 30
0.0
 10
17.7322250121
 20
56.5882172196
 30
0.0
 10
17.3923304949
 20
57.2614356642
 30
0.0
 10
16.979250112
 20
57.8923976921
 30
0.0
 10
16.5083417831
 20
58.4574947472
 30
0.0
 10
15.9973647661
 20
58.9355656581
 30
0.0
 10
15.6259948993
 20
59.1958821526
 30
0.0
 10
15.4379729779
 20
59.3044342038
 30
0.0
  0
SPLINE
  5
285
100
AcDbEntity
  8
0
100
AcDbSpline
 62
7
  6
BYLAYER
 70
0
 71
3
 72
15
 73
11
 74
0
 42
0.0000001
 43
0.0000001
 44
0.0000000001
 40
0.0
 40
0.0
 40
0.0
 40
0.0
 40
0.1494750188
 40
0.2908281082
 40
0.4239693189
 40
0.5494285327
 40
0.6681536942
 40
0.7815300793
 40
0.8914159234
 40
1.0
 40
1.0
 40
1.0
 40
1.0
 10
15.4379729779
 20
59.3044342038
 30
0.0
 10
15.3454525432
 20
59.3578496932
 30
0.0
 10
15.1607487457
 20
59.4539774095
 30
0.0
 10
14.8788705285
 20
59.5666492333
 30
0.0
 10
14.6025487899
 20
59.6424794661
 30
0.0
 10
14.3347427558
 20
59.680501623
 30
0.0
 10
14.0782243976
 20
59.6801505403
 30
0.0
 10
13.8358071634
 20
59.640991719
 30
0.0
 10
13.6104643171
 20
59.5633039156
 30
0.0
 10
13.4735090283
 20
59.486238632
 30
0.0
 10
13.4095563128
 20
59.4422735311
 30
0.0
  0
SPLINE
  5
286
100
AcDbEntity
  8
0
100
AcDbSpline
 62
7
  6
BYLAYER
 70
0
 71
3
 72
14
 73
10
 74
0
 42
0.0000001
 43
0.0000001
 44
0.0000000001
 40
0.0
 40
0.0
 40
0.0
 40
0.0
 40
0.2645922096
 40
0.3949478818
 40
0.5232392322
 40
0.6487079851
 40
0.7704888952
 40
0.88775531
 40
1.0
 40
1.0
 40
1.0
 40
1.0
 10
39.1253250756
 20
69.206826553
 30
0.0
 10
39.0472607708
 20
68.9861201401
 30
0.0
 10
38.9174875746
 20
68.6608817505
 30
0.0
 10
38.7100198314
 20
68.2467426446
 30
0.0
 10
38.5375355285
 20
67.9535414035
 30
0.0
 10
38.3461472744
 20
67.6813993491
 30
0.0
 10
38.13526026
 20
67.4365437144
 30
0.0
 10
37.9055916131
 20
67.2259471121
 30
0.0
 10
37.7376605247
 20
67.1101996688
 30
0.0
 10
37.6516539732
 20
67.0605440595
 30
0.0
  0
SPLINE
  5
287
100
AcDbEntity
  8
0
100
AcDbSpline
 62
7
  6
BYLAYER
 70
0
 71
3
 72
15
 73
11
 74
0
 42
0.0000001
 43
0.0000001
 44
0.0000000001
 40
0.0
 40
0.0
 40
0.0
 40
0.0
 40
0.1085832374
 40
0.21846797
 40
0.3318449229
 40
0.4505686606
 40
0.576025201
 40
0.7091725414
 40
0.8505371945
 40
1.0
 40
1.0
 40
1.0
 40
1.0
 10
14.6222695503
 20
60.276093639
 30
0.0
 10
14.6881260863
 20
60.3213754706
 30
0.0
 10
14.8291636024
 20
60.4007452355
 30
0.0
 10
15.0612302106
 20
60.4807486914
 30
0.0
 10
15.310879605
 20
60.5210627712
 30
0.0
 10
15.5750483276
 20
60.5214441809
 30
0.0
 10
15.8508453412
 20
60.4822795987
 30
0.0
 10
16.1354237821
 20
60.4041916283
 30
0.0
 10
16.4257106115
 20
60.2881437516
 30
0.0
 10
16.6159280623
 20
60.1891557929
 30
0.0
 10
16.7112010593
 20
60.1341511468
 30
0.0
  0
SPLINE
  5
288
100
AcDbEntity
  8
0
100
AcDbSpline
 62
7
  6
BYLAYER
 70
0
 71
3
 72
28
 73
24
 74
0
 42
0.0000001
 43
0.0000001
 44
0.0000000001
 40
0.0
 40
0.0
 40
0.0
 40
0.0
 40
0.0080811208
 40
0.0164677129
 40
0.024884871
 40
0.0332446895
 40
0.0499940678
 40
0.0666923678
 40
0.0833528423
 40
0.0999725585
 40
0.1330910985
 40
0.1660489072
 40
0.198846396
 40
0.231484559
 40
0.2639647213
 40
0.3284548179
 40
0.3923273682
 40
0.455592938
 40
0.5182646471
 40
0.6418690988
 40
0.7632638237
 40
0.8825874087
 40
1.0
 40
1.0
 40
1.0
 40
1.0
 10
36.2373991953
 20
75.0001497607
 30
0.0
 10
36.2337335767
 20
75.0056296719
 30
0.0
 10
36.2257383288
 20
75.0164677548
 30
0.0
 10
36.2119478531
 20
75.0313860464
 30
0.0
 10
36.1981222369
 20
75.0465578804
 30
0.0
 10
36.1800523205
 20
75.0670939571
 30
0.0
 10
36.1570151923
 20
75.0922478115
 30
0.0
 10
36.1295985281
 20
75.1225712122
 30
0.0
 10
36.1020943059
 20
75.152672382
 30
0.0
 10
36.0654911583
 20
75.1926056516
 30
0.0
 10
36.0197124578
 20
75.2421647276
 30
0.0
 10
35.9646907449
 20
75.3011521461
 30
0.0
 10
35.9096409976
 20
75.359576137
 30
0.0
 10
35.8545599894
 20
75.417433855
 30
0.0
 10
35.7812447347
 20
75.4936296946
 30
0.0
 10
35.6894963961
 20
75.587449555
 30
0.0
 10
35.5789142443
 20
75.6979670689
 30
0.0
 10
35.468077691
 20
75.8061168955
 30
0.0
 10
35.3205694199
 20
75.9464385799
 30
0.0
 10
35.1353207537
 20
76.1158676182
 30
0.0
 10
34.9101980901
 20
76.3100095223
 30
0.0
 10
34.6829845285
 20
76.4937837669
 30
0.0
 10
34.5285283804
 20
76.6098188483
 30
0.0
 10
34.4509757346
 20
76.6660438878
 30
0.0
  0
SPLINE
  5
289
100
AcDbEntity
  8
0
100
AcDbSpline
 62
7
  6
BYLAYER
 70
0
 71
3
 72
26
 73
22
 74
0
 42
0.0000001
 43
0.0000001
 44
0.0000000001
 40
0.0
 40
0.0
 40
0.0
 40
0.0
 40
0.1264525948
 40
0.2525515431
 40
0.3782648274
 40
0.5035588439
 40
0.5660381735
 40
0.6283989109
 40
0.690636798
 40
0.7527466313
 40
0.8147235018
 40
0.845660459
 40
0.8765623391
 40
0.9074287402
 40
0.9382596454
 40
0.9536582175
 40
0.9613568929
 40
0.9690606418
 40
0.9767489547
 40
0.9844245149
 40
1.0
 40
1.0
 40
1.0
 40
1.0
 10
39.311096706
 20
73.8313740293
 30
0.0
 10
39.1861654034
 20
73.8905044656
 30
0.0
 10
38.9353492496
 20
74.0058662447
 30
0.0
 10
38.5561943398
 20
74.1708293808
 30
0.0
 10
38.174965243
 20
74.3276406347
 30
0.0
 10
37.8555738244
 20
74.4518042117
 30
0.0
 10
37.5993636695
 20
74.5472485915
 30
0.0
 10
37.4070865307
 20
74.6168512994
 30
0.0
 10
37.2145588914
 20
74.6845493501
 30
0.0
 10
37.0218249379
 20
74.7503704046
 30
0.0
 10
36.8609855054
 20
74.8036990245
 30
0.0
 10
36.7322483096
 20
74.8454437915
 30
0.0
 10
36.6357211503
 20
74.8762739814
 30
0.0
 10
36.5391734634
 20
74.9066559499
 30
0.0
 10
36.4586710861
 20
74.9315696627
 30
0.0
 10
36.4023193249
 20
74.9488635581
 30
0.0
 10
36.3701146412
 20
74.9586778292
 30
0.0
 10
36.3459335243
 20
74.9659088485
 30
0.0
 10
36.3217993942
 20
74.9732096067
 30
0.0
 10
36.2895154481
 20
74.9832782752
 30
0.0
 10
36.2649553954
 20
74.9898858314
 30
0.0
 10
36.2483880827
 20
74.9938054671
 30
0.0
  0
SPLINE
  5
28A
100
AcDbEntity
  8
0
100
AcDbSpline
 62
7
  6
BYLAYER
 70
0
 71
3
 72
25
 73
21
 74
0
 42
0.0000001
 43
0.0000001
 44
0.0000000001
 40
0.0
 40
0.0
 40
0.0
 40
0.0
 40
0.0226050873
 40
0.0453646019
 40
0.0684649326
 40
0.0920705715
 40
0.1412591803
 40
0.1938923297
 40
0.250472457
 40
0.311105039
 40
0.3755524623
 40
0.4432999469
 40
0.5136234999
 40
0.5856518146
 40
0.6584231783
 40
0.7309372421
 40
0.8022091567
 40
0.8713120572
 40
0.9374522906
 40
1.0
 40
1.0
 40
1.0
 40
1.0
 10
22.722590221
 20
72.6568707238
 30
0.0
 10
22.6188004146
 20
72.5969480088
 30
0.0
 10
22.4026840962
 20
72.4897214545
 30
0.0
 10
22.0592302928
 20
72.3696225522
 30
0.0
 10
21.6985825759
 20
72.2907367537
 30
0.0
 10
21.1917967499
 20
72.2395877964
 30
0.0
 10
20.5231451536
 20
72.2825122085
 30
0.0
 10
19.7057450338
 20
72.4914333426
 30
0.0
 10
18.8758905835
 20
72.8490747943
 30
0.0
 10
18.0479806966
 20
73.3459351691
 30
0.0
 10
17.2364601393
 20
73.970993369
 30
0.0
 10
16.4564216436
 20
74.711302253
 30
0.0
 10
15.7229877205
 20
75.5516784652
 30
0.0
 10
15.0508190633
 20
76.4748392986
 30
0.0
 10
14.4536180512
 20
77.4617238623
 30
0.0
 10
13.9436712789
 20
78.4919439876
 30
0.0
 10
13.5316109437
 20
79.544278893
 30
0.0
 10
13.2259925174
 20
80.5973678653
 30
0.0
 10
13.0334809486
 20
81.6299228211
 30
0.0
 10
12.9820384422
 20
82.3121158495
 30
0.0
 10
12.9783381647
 20
82.6437059869
 30
0.0
  0
SPLINE
  5
28B
100
AcDbEntity
  8
0
100
AcDbSpline
 62
7
  6
BYLAYER
 70
0
 71
3
 72
15
 73
11
 74
0
 42
0.0000001
 43
0.0000001
 44
0.0000000001
 40
0.0
 40
0.0
 40
0.0
 40
0.0
 40
0.1485639948
 40
0.2895080513
 40
0.4227270144
 40
0.5486378796
 40
0.668000073
 40
0.7819366216
 40
0.8919850312
 40
1.0
 40
1.0
 40
1.0
 40
1.0
 10
24.1459706824
 20
54.6286751585
 30
0.0
 10
24.1459706824
 20
54.4203587162
 30
0.0
 10
24.1291465097
 20
54.0141324606
 30
0.0
 10
24.0492252855
 20
53.4258567576
 30
0.0
 10
23.9156360222
 20
52.8798176658
 30
0.0
 10
23.7294635579
 20
52.3813684118
 30
0.0
 10
23.4922250572
 20
51.9352343957
 30
0.0
 10
23.2056211355
 20
51.5460405471
 30
0.0
 10
22.8724278467
 20
51.2180880022
 30
0.0
 10
22.6202297672
 20
51.0421378491
 30
0.0
 10
22.4890675687
 20
50.9664002502
 30
0.0
  0
SPLINE
  5
28C
100
AcDbEntity
  8
0
100
AcDbSpline
 62
7
  6
BYLAYER
 70
0
 71
3
 72
9
 73
5
 74
0
 42
0.0000001
 43
0.0000001
 44
0.0000000001
 40
0.0
 40
0.0
 40
0.0
 40
0.0
 40
0.2548486782
 40
1.0
 40
1.0
 40
1.0
 40
1.0
 10
24.1118876556
 20
55.3643112877
 30
0.0
 10
24.1175277526
 20
55.3019952266
 30
0.0
 10
24.1370520476
 20
55.0572482399
 30
0.0
 10
24.1459706824
 20
54.8116256751
 30
0.0
 10
24.1459706824
 20
54.6286751585
 30
0.0
  0
SPLINE
  5
28D
100
AcDbEntity
  8
0
100
AcDbSpline
 62
7
  6
BYLAYER
 70
0
 71
3
 72
15
 73
11
 74
0
 42
0.0000001
 43
0.0000001
 44
0.0000000001
 40
0.0
 40
0.0
 40
0.0
 40
0.0
 40
0.1084840591
 40
0.2189325244
 40
0.333139076
 40
0.4525998379
 40
0.5784246263
 40
0.7113857765
 40
0.851928852
 40
1.0
 40
1.0
 40
1.0
 40
1.0
 10
15.5648484541
 20
83.5354404199
 30
0.0
 10
15.4845583781
 20
83.4890850301
 30
0.0
 10
15.3300762729
 20
83.3817262759
 30
0.0
 10
15.1253155232
 20
83.1822391257
 30
0.0
 10
14.9483816408
 20
82.9459373656
 30
0.0
 10
14.8009329194
 20
82.6753227595
 30
0.0
 10
14.6840109876
 20
82.3730870167
 30
0.0
 10
14.5985267929
 20
82.0419812424
 30
0.0
 10
14.545165747
 20
81.6851079802
 30
0.0
 10
14.5315254449
 20
81.4384573929
 30
0.0
 10
14.5297413528
 20
81.3119277346
 30
0.0
  0
SPLINE
  5
28E
100
AcDbEntity
  8
0
100
AcDbSpline
 62
7
  6
BYLAYER
 70
0
 71
3
 72
16
 73
12
 74
0
 42
0.0000001
 43
0.0000001
 44
0.0000000001
 40
0.0
 40
0.0
 40
0.0
 40
0.0
 40
0.1448683247
 40
0.2830777644
 40
0.4146263001
 40
0.4780876432
 40
0.5401072816
 40
0.6601855337
 40
0.77597636
 40
0.8887266213
 40
1.0
 40
1.0
 40
1.0
 40
1.0
 10
12.9778632449
 20
82.7285381027
 30
0.0
 10
12.9778632449
 20
82.9392266053
 30
0.0
 10
12.9950853854
 20
83.351211996
 30
0.0
 10
13.0769787785
 20
83.9495639744
 30
0.0
 10
13.1931730075
 20
84.4212033074
 30
0.0
 10
13.3147550436
 20
84.774918713
 30
0.0
 10
13.4517292491
 20
85.1049377742
 30
0.0
 10
13.6567237788
 20
85.4882766632
 30
0.0
 10
13.9594198144
 20
85.8974567933
 30
0.0
 10
14.3136834778
 20
86.2450325982
 30
0.0
 10
14.582477052
 20
86.4323832915
 30
0.0
 10
14.722626036
 20
86.5132978621
 30
0.0
  0
SPLINE
  5
28F
100
AcDbEntity
  8
0
100
AcDbSpline
 62
7
  6
BYLAYER
 70
0
 71
3
 72
15
 73
11
 74
0
 42
0.0000001
 43
0.0000001
 44
0.0000000001
 40
0.0
 40
0.0
 40
0.0
 40
0.0
 40
0.1080139949
 40
0.2180616115
 40
0.3319975749
 40
0.4513592585
 40
0.577269649
 40
0.7104891716
 40
0.8514353995
 40
1.0
 40
1.0
 40
1.0
 40
1.0
 10
18.4488993453
 20
88.6646334129
 30
0.0
 10
18.5800667613
 20
88.7403511166
 30
0.0
 10
18.8585337172
 20
88.8707804225
 30
0.0
 10
19.3091297635
 20
88.9953553937
 30
0.0
 10
19.7894675382
 20
89.0489656676
 30
0.0
 10
20.2944345951
 20
89.0313601259
 30
0.0
 10
20.8191767437
 20
88.943373315
 30
0.0
 10
21.3588459004
 20
88.7860563357
 30
0.0
 10
21.9082593715
 20
88.5611402959
 30
0.0
 10
22.268470123
 20
88.3726056896
 30
0.0
 10
22.4488743696
 20
88.2684516055
 30
0.0
  0
SPLINE
  5
290
100
AcDbEntity
  8
0
100
AcDbSpline
 62
7
  6
BYLAYER
 70
0
 71
3
 72
25
 73
21
 74
0
 42
0.0000001
 43
0.0000001
 44
0.0000000001
 40
0.0
 40
0.0
 40
0.0
 40
0.0
 40
0.0623810303
 40
0.1287238053
 40
0.1983145903
 40
0.2702910353
 40
0.3436678945
 40
0.4174006525
 40
0.4904255603
 40
0.5617125307
 40
0.6303099551
 40
0.6953974334
 40
0.7563447515
 40
0.8127817595
 40
0.8646821315
 40
0.9124569578
 40
0.9351019206
 40
0.9571071112
 40
0.9786677634
 40
1.0
 40
1.0
 40
1.0
 40
1.0
 10
11.4180074056
 20
60.344038923
 30
0.0
 10
11.4180074056
 20
60.0121614178
 30
0.0
 10
11.4629811536
 20
59.3268733362
 30
0.0
 10
11.6479788117
 20
58.286365146
 30
0.0
 10
11.948809297
 20
57.2201786523
 30
0.0
 10
12.3589456532
 20
56.1511259071
 30
0.0
 10
12.8697319797
 20
55.1018518459
 30
0.0
 10
13.4702317914
 20
54.094741498
 30
0.0
 10
14.1476578684
 20
53.1512843941
 30
0.0
 10
14.8875661212
 20
52.2915907388
 30
0.0
 10
15.6742607748
 20
51.5339375398
 30
0.0
 10
16.491192456
 20
50.8943880987
 30
0.0
 10
17.3213694373
 20
50.3864858079
 30
0.0
 10
18.1480210214
 20
50.0211875646
 30
0.0
 10
18.9543879004
 20
49.8068598149
 30
0.0
 10
19.6083970275
 20
49.7588702924
 30
0.0
 10
20.0989172788
 20
49.8048682351
 30
0.0
 10
20.4442680952
 20
49.8785526769
 30
0.0
 10
20.7713986651
 20
49.9916163336
 30
0.0
 10
20.9765774807
 20
50.0931599686
 30
0.0
 10
21.0748600758
 20
50.1499116468
 30
0.0
  0
SPLINE
  5
291
100
AcDbEntity
  8
0
100
AcDbSpline
 62
7
  6
BYLAYER
 70
0
 71
3
 72
9
 73
5
 74
0
 42
0.0000001
 43
0.0000001
 44
0.0000000001
 40
0.0
 40
0.0
 40
0.0
 40
0.0
 40
0.2446127146
 40
1.0
 40
1.0
 40
1.0
 40
1.0
 10
11.4520904324
 20
61.0403202532
 30
0.0
 10
11.4463732199
 20
60.9837536801
 30
0.0
 10
11.4261102587
 20
60.7521957822
 30
0.0
 10
11.4180074056
 20
60.5196118187
 30
0.0
 10
11.4180074056
 20
60.344038923
 30
0.0
  0
SPLINE
  5
292
100
AcDbEntity
  8
0
100
AcDbSpline
 62
7
  6
BYLAYER
 70
0
 71
3
 72
25
 73
21
 74
0
 42
0.0000001
 43
0.0000001
 44
0.0000000001
 40
0.0
 40
0.0
 40
0.0
 40
0.0
 40
0.0623805656
 40
0.1287229706
 40
0.1983134925
 40
0.2702897814
 40
0.3436665853
 40
0.4173993761
 40
0.4904243887
 40
0.5617115167
 40
0.6303091309
 40
0.6953968103
 40
0.7563443207
 40
0.8127814949
 40
0.8646819937
 40
0.9124569012
 40
0.9351018888
 40
0.9571070953
 40
0.9786677572
 40
1.0
 40
1.0
 40
1.0
 40
1.0
 10
22.4488743696
 20
88.2684516055
 30
0.0
 10
22.7362902336
 20
88.1025157331
 30
0.0
 10
23.3072837552
 20
87.7209276617
 30
0.0
 10
24.1158967141
 20
87.0404645468
 30
0.0
 10
24.8888319331
 20
86.2468450559
 30
0.0
 10
25.6095967174
 20
85.3571279473
 30
0.0
 10
26.2629075881
 20
84.3901322366
 30
0.0
 10
26.8348464549
 20
83.3665221075
 30
0.0
 10
27.3131961526
 20
82.3081168456
 30
0.0
 10
27.6877625258
 20
81.2374810106
 30
0.0
 10
27.9505649106
 20
80.1773465846
 30
0.0
 10
28.095966627
 20
79.1500779415
 30
0.0
 10
28.1207345409
 20
78.1771625773
 30
0.0
 10
28.0237650351
 20
77.2786032859
 30
0.0
 10
27.8061922582
 20
76.4730977206
 30
0.0
 10
27.5207444645
 20
75.8827094955
 30
0.0
 10
27.2356456673
 20
75.4809027211
 30
0.0
 10
26.9991550182
 20
75.2186610117
 30
0.0
 10
26.7376709091
 20
74.9918887062
 30
0.0
 10
26.547140102
 20
74.864970419
 30
0.0
 10
26.448849394
 20
74.8082311241
 30
0.0
  0
SPLINE
  5
293
100
AcDbEntity
  8
0
100
AcDbSpline
 62
7
  6
BYLAYER
 70
0
 71
3
 72
15
 73
11
 74
0
 42
0.0000001
 43
0.0000001
 44
0.0000000001
 40
0.0
 40
0.0
 40
0.0
 40
0.0
 40
0.1141584051
 40
0.2373255769
 40
0.3669766353
 40
0.499999916
 40
0.6330232173
 40
0.7626743353
 40
0.8858416077
 40
1.0
 40
1.0
 40
1.0
 40
1.0
 10
14.5292819532
 20
81.2465222871
 30
0.0
 10
14.5292819532
 20
80.9670349443
 30
0.0
 10
14.5804654122
 20
80.3854607152
 30
0.0
 10
14.7845529348
 20
79.5080926747
 30
0.0
 10
15.111447262
 20
78.6193884234
 30
0.0
 10
15.5489868386
 20
77.7527639926
 30
0.0
 10
16.0807381389
 20
76.9405327203
 30
0.0
 10
16.6869342377
 20
76.2130834979
 30
0.0
 10
17.3447169703
 20
75.5976575932
 30
0.0
 10
17.8227860982
 20
75.2625477136
 30
0.0
 10
18.0648305789
 20
75.1228064288
 30
0.0
  0
SPLINE
  5
294
100
AcDbEntity
  8
0
100
AcDbSpline
 62
7
  6
BYLAYER
 70
0
 71
3
 72
15
 73
11
 74
0
 42
0.0000001
 43
0.0000001
 44
0.0000000001
 40
0.0
 40
0.0
 40
0.0
 40
0.0
 40
0.1485531216
 40
0.2895049553
 40
0.4227270536
 40
0.5486345236
 40
0.6679959805
 40
0.7819359018
 40
0.8919862994
 40
1.0
 40
1.0
 40
1.0
 40
1.0
 10
18.0648305789
 20
75.1228064288
 30
0.0
 10
18.1775745187
 20
75.0577151574
 30
0.0
 10
18.4027041911
 20
74.9398889397
 30
0.0
 10
18.7460803816
 20
74.7993061505
 30
0.0
 10
19.0833790153
 20
74.700985447
 30
0.0
 10
19.4113410813
 20
74.6459844897
 30
0.0
 10
19.7269466493
 20
74.6349917922
 30
0.0
 10
20.0271635599
 20
74.6684897265
 30
0.0
 10
20.3087946628
 20
74.7463420288
 30
0.0
 10
20.4828362227
 20
74.8278681013
 30
0.0
 10
20.564812624
 20
74.8751967472
 30
0.0
  0
SPLINE
  5
295
100
AcDbEntity
  8
0
100
AcDbSpline
 62
7
  6
BYLAYER
 70
0
 71
3
 72
9
 73
5
 74
0
 42
0.0000001
 43
0.0000001
 44
0.0000000001
 40
0.0
 40
0.0
 40
0.0
 40
0.0
 40
0.2451507697
 40
1.0
 40
1.0
 40
1.0
 40
1.0
 10
22.7317630079
 20
53.8121868507
 30
0.0
 10
22.7317630079
 20
53.8723768819
 30
0.0
 10
22.7288236292
 20
54.1178941011
 30
0.0
 10
22.7143857529
 20
54.3632449662
 30
0.0
 10
22.6976799812
 20
54.5478229799
 30
0.0
  0
SPLINE
  5
296
100
AcDbEntity
  8
0
100
AcDbSpline
 62
7
  6
BYLAYER
 70
0
 71
3
 72
15
 73
11
 74
0
 42
0.0000001
 43
0.0000001
 44
0.0000000001
 40
0.0
 40
0.0
 40
0.0
 40
0.0
 40
0.1080127624
 40
0.2180624219
 40
0.3320019285
 40
0.4513630466
 40
0.5772704678
 40
0.7104932647
 40
0.8514464362
 40
1.0
 40
1.0
 40
1.0
 40
1.0
 10
20.564812624
 20
74.8751967472
 30
0.0
 10
20.6467905083
 20
74.9225262493
 30
0.0
 10
20.8044179513
 20
75.0324897866
 30
0.0
 10
21.0126606354
 20
75.2374667705
 30
0.0
 10
21.1917816321
 20
75.4807199279
 30
0.0
 10
21.3400679295
 20
75.7595456279
 30
0.0
 10
21.4564174197
 20
76.0710792025
 30
0.0
 10
21.539918977
 20
76.4123601059
 30
0.0
 10
21.5898564354
 20
76.7800365712
 30
0.0
 10
21.6003792047
 20
77.033926117
 30
0.0
 10
21.6003792047
 20
77.1641147419
 30
0.0
  0
SPLINE
  5
297
100
AcDbEntity
  8
0
100
AcDbSpline
 62
7
  6
BYLAYER
 70
0
 71
3
 72
15
 73
11
 74
0
 42
0.0000001
 43
0.0000001
 44
0.0000000001
 40
0.0
 40
0.0
 40
0.0
 40
0.0
 40
0.1080134872
 40
0.2180606738
 40
0.3319963482
 40
0.4513579245
 40
0.5772684031
 40
0.7104881965
 40
0.8514348527
 40
1.0
 40
1.0
 40
1.0
 40
1.0
 10
21.0748600758
 20
50.1499116468
 30
0.0
 10
21.2060205273
 20
50.2256481059
 30
0.0
 10
21.4582153973
 20
50.4015961026
 30
0.0
 10
21.7914061559
 20
50.7295439801
 30
0.0
 10
22.0780086185
 20
51.1187340707
 30
0.0
 10
22.3152489397
 20
51.5648640985
 30
0.0
 10
22.5014226925
 20
52.0633126048
 30
0.0
 10
22.6350160363
 20
52.609355137
 30
0.0
 10
22.7149367907
 20
53.1976374145
 30
0.0
 10
22.7317630079
 20
53.6038687998
 30
0.0
 10
22.7317630079
 20
53.8121868507
 30
0.0
  0
SPLINE
  5
298
100
AcDbEntity
  8
0
100
AcDbSpline
 62
7
  6
BYLAYER
 70
0
 71
3
 72
15
 73
11
 74
0
 42
0.0000001
 43
0.0000001
 44
0.0000000001
 40
0.0
 40
0.0
 40
0.0
 40
0.0
 40
0.108011046
 40
0.2180581293
 40
0.3319991859
 40
0.4513561079
 40
0.5772616014
 40
0.7104929721
 40
0.8514586598
 40
1.0
 40
1.0
 40
1.0
 40
1.0
 10
15.6083652487
 20
83.5605638359
 30
0.0
 10
15.6903349799
 20
83.6078990964
 30
0.0
 10
15.8643861183
 20
83.6893905733
 30
0.0
 10
16.1459995297
 20
83.7672861125
 30
0.0
 10
16.4462161359
 20
83.8007403175
 30
0.0
 10
16.7618159893
 20
83.7897925066
 30
0.0
 10
17.089779046
 20
83.7347737765
 30
0.0
 10
17.4270974999
 20
83.6364593865
 30
0.0
 10
17.7704764745
 20
83.4958574619
 30
0.0
 10
17.9956121035
 20
83.3780406395
 30
0.0
 10
18.108346932
 20
83.3129546284
 30
0.0
  0
SPLINE
  5
299
100
AcDbEntity
  8
0
100
AcDbSpline
 62
7
  6
BYLAYER
 70
0
 71
3
 72
15
 73
11
 74
0
 42
0.0000001
 43
0.0000001
 44
0.0000000001
 40
0.0
 40
0.0
 40
0.0
 40
0.0
 40
0.1080132808
 40
0.2180617278
 40
0.3319995396
 40
0.4513614582
 40
0.5772752832
 40
0.7104914711
 40
0.8514274728
 40
1.0
 40
1.0
 40
1.0
 40
1.0
 10
22.722590221
 20
72.6568707238
 30
0.0
 10
22.8537554629
 20
72.732598554
 30
0.0
 10
23.1059269804
 20
72.9085836907
 30
0.0
 10
23.4391454873
 20
73.2365064481
 30
0.0
 10
23.7257349321
 20
73.6257161407
 30
0.0
 10
23.9629852373
 20
74.0718488546
 30
0.0
 10
24.1491520507
 20
74.5703018036
 30
0.0
 10
24.2827343677
 20
75.1163306623
 30
0.0
 10
24.3626711203
 20
75.7046017157
 30
0.0
 10
24.3794859297
 20
76.1108296882
 30
0.0
 10
24.3794859297
 20
76.3191582568
 30
0.0
  0
SPLINE
  5
29A
100
AcDbEntity
  8
0
100
AcDbSpline
 62
7
  6
BYLAYER
 70
0
 71
3
 72
15
 73
11
 74
0
 42
0.0000001
 43
0.0000001
 44
0.0000000001
 40
0.0
 40
0.0
 40
0.0
 40
0.0
 40
0.1485719805
 40
0.2895075541
 40
0.4227234707
 40
0.5486372073
 40
0.6679992337
 40
0.781937334
 40
0.891986211
 40
1.0
 40
1.0
 40
1.0
 40
1.0
 10
18.7226081285
 20
86.11710363
 30
0.0
 10
18.5421947733
 20
86.2212629728
 30
0.0
 10
18.1819926806
 20
86.4098057525
 30
0.0
 10
17.6325809312
 20
86.634702325
 30
0.0
 10
17.0929291302
 20
86.7920220192
 30
0.0
 10
16.5681866036
 20
86.8800170537
 30
0.0
 10
16.063212229
 20
86.8976153057
 30
0.0
 10
15.5828639887
 20
86.8440260939
 30
0.0
 10
15.1322758215
 20
86.7194145363
 30
0.0
 10
14.8537883806
 20
86.5890240195
 30
0.0
 10
14.722626036
 20
86.5132978621
 30
0.0
  0
SPLINE
  5
29B
100
AcDbEntity
  8
0
100
AcDbSpline
 62
7
  6
BYLAYER
 70
0
 71
3
 72
19
 73
15
 74
0
 42
0.0000001
 43
0.0000001
 44
0.0000000001
 40
0.0
 40
0.0
 40
0.0
 40
0.0
 40
0.055840264
 40
0.1142091933
 40
0.1748240212
 40
0.2374068459
 40
0.3670178759
 40
0.5000010801
 40
0.6329841338
 40
0.7625947243
 40
0.8251772317
 40
0.8857916858
 40
0.9441601937
 40
1.0
 40
1.0
 40
1.0
 40
1.0
 10
24.3794859297
 20
76.3191582568
 30
0.0
 10
24.3794859297
 20
76.5379623656
 30
0.0
 10
24.3600243039
 20
76.985641702
 30
0.0
 10
24.2776199397
 20
77.6662779772
 30
0.0
 10
24.1419886514
 20
78.3652771525
 30
0.0
 10
23.8890721532
 20
79.3236621814
 30
0.0
 10
23.4479806621
 20
80.5226414807
 30
0.0
 10
22.7479687976
 20
81.9091927855
 30
0.0
 10
21.8971808527
 20
83.2086910252
 30
0.0
 10
21.079377163
 20
84.190170117
 30
0.0
 10
20.3758484761
 20
84.8883873076
 30
0.0
 10
19.838313143
 20
85.355340481
 30
0.0
 10
19.2900677086
 20
85.7670156527
 30
0.0
 10
18.9120975637
 20
86.0077043285
 30
0.0
 10
18.7226081285
 20
86.11710363
 30
0.0
  0
SPLINE
  5
29C
100
AcDbEntity
  8
0
100
AcDbSpline
 62
7
  6
BYLAYER
 70
0
 71
3
 72
34
 73
30
 74
0
 42
0.0000001
 43
0.0000001
 44
0.0000000001
 40
0.0
 40
0.0
 40
0.0
 40
0.0
 40
0.0324317685
 40
0.0662581724
 40
0.1374681348
 40
0.2124096074
 40
0.2895178657
 40
0.3670788846
 40
0.405494263
 40
0.4433717163
 40
0.5166812468
 40
0.5517846321
 40
0.5856373548
 40
0.618117319
 40
0.649138474
 40
0.6786525994
 40
0.7066615905
 40
0.7332209919
 40
0.7584504165
 40
0.7825376396
 40
0.8057389268
 40
0.8283731489
 40
0.8508022173
 40
0.8734047582
 40
0.8965455743
 40
0.9205479588
 40
0.9456744533
 40
0.9721152344
 40
1.0
 40
1.0
 40
1.0
 40
1.0
 10
24.0163197109
 20
76.2919786417
 30
0.0
 10
24.0163197109
 20
76.4915407585
 30
0.0
 10
23.9996707405
 20
76.8993903742
 30
0.0
 10
23.9037178171
 20
77.740392997
 30
0.0
 10
23.6655145008
 20
78.8253181078
 30
0.0
 10
23.213953128
 20
80.1257235631
 30
0.0
 10
22.6064969856
 20
81.4042912655
 30
0.0
 10
21.9850423905
 20
82.4197397819
 30
0.0
 10
21.4271720777
 20
83.1851538048
 30
0.0
 10
20.8446057212
 20
83.8983266489
 30
0.0
 10
20.2168904047
 20
84.5471044497
 30
0.0
 10
19.5506512764
 20
85.1157462569
 30
0.0
 10
19.0492939333
 20
85.4884163547
 30
0.0
 10
18.5433112229
 20
85.8101624255
 30
0.0
 10
18.0369397257
 20
86.0783596653
 30
0.0
 10
17.5343121578
 20
86.2906099165
 30
0.0
 10
17.0396062334
 20
86.4451491626
 30
0.0
 10
16.5568460892
 20
86.5404503296
 30
0.0
 10
16.0900377313
 20
86.5755276972
 30
0.0
 10
15.6431223693
 20
86.549760509
 30
0.0
 10
15.2200691305
 20
86.4629627334
 30
0.0
 10
14.8248176042
 20
86.3156849969
 30
0.0
 10
14.4612962023
 20
86.1090104687
 30
0.0
 10
14.1329830934
 20
85.8450950975
 30
0.0
 10
13.8430019619
 20
85.5265130294
 30
0.0
 10
13.5937082832
 20
85.1565204239
 30
0.0
 10
13.387060095
 20
84.7385483297
 30
0.0
 10
13.2244678241
 20
84.2763918114
 30
0.0
 10
13.148286373
 20
83.9501959605
 30
0.0
 10
13.1172536959
 20
83.7814425087
 30
0.0
  0
SPLINE
  5
29D
100
AcDbEntity
  8
0
100
AcDbSpline
 62
7
  6
BYLAYER
 70
0
 71
3
 72
9
 73
5
 74
0
 42
0.0000001
 43
0.0000001
 44
0.0000000001
 40
0.0
 40
0.0
 40
0.0
 40
0.0
 40
0.2451820532
 40
1.0
 40
1.0
 40
1.0
 40
1.0
 10
13.0540290546
 20
83.3397506148
 30
0.0
 10
13.048822555
 20
83.2899686061
 30
0.0
 10
13.0300702518
 20
83.0866725852
 30
0.0
 10
13.0210349805
 20
82.8825048466
 30
0.0
 10
13.0191789978
 20
82.7284211243
 30
0.0
  0
SPLINE
  5
29E
100
AcDbEntity
  8
0
100
AcDbSpline
 62
7
  6
BYLAYER
 70
0
 71
3
 72
14
 73
10
 74
0
 42
0.0000001
 43
0.0000001
 44
0.0000000001
 40
0.0
 40
0.0
 40
0.0
 40
0.0
 40
0.2886863362
 40
0.4219497251
 40
0.548045181
 40
0.6676185151
 40
0.7818432663
 40
0.8920585488
 40
1.0
 40
1.0
 40
1.0
 40
1.0
 10
14.5020873337
 20
81.3124703908
 30
0.0
 10
14.5020873337
 20
81.5656357761
 30
0.0
 10
14.5310347268
 20
81.937385657
 30
0.0
 10
14.6424781755
 20
82.4056788754
 30
0.0
 10
14.7559442583
 20
82.7189281524
 30
0.0
 10
14.9013510765
 20
83.0001012523
 30
0.0
 10
15.0762433309
 20
83.2472379055
 30
0.0
 10
15.2798431245
 20
83.4575037848
 30
0.0
 10
15.4346727302
 20
83.571657661
 30
0.0
 10
15.5152581233
 20
83.6213215692
 30
0.0
  0
SPLINE
  5
29F
100
AcDbEntity
  8
0
100
AcDbSpline
 62
7
  6
BYLAYER
 70
0
 71
3
 72
25
 73
21
 74
0
 42
0.0000001
 43
0.0000001
 44
0.0000000001
 40
0.0
 40
0.0
 40
0.0
 40
0.0
 40
0.0213264005
 40
0.0428804925
 40
0.0648817304
 40
0.0875257773
 40
0.1353020807
 40
0.1872030501
 40
0.2436416024
 40
0.304590958
 40
0.3696809946
 40
0.4382807782
 40
0.5095696965
 40
0.582596181
 40
0.6563295121
 40
0.7297081798
 40
0.8016854828
 40
0.8712720227
 40
0.9376218757
 40
1.0
 40
1.0
 40
1.0
 40
1.0
 10
15.558932318
 20
83.6473515116
 30
0.0
 10
15.6216033056
 20
83.6834550539
 30
0.0
 10
15.7523716071
 20
83.7481195297
 30
0.0
 10
15.9608143384
 20
83.8202889582
 30
0.0
 10
16.1809361373
 20
83.8672194397
 30
0.0
 10
16.4936168444
 20
83.8964893172
 30
0.0
 10
16.9105190838
 20
83.8657938583
 30
0.0
 10
17.424544446
 20
83.7291242738
 30
0.0
 10
17.9514955262
 20
83.4962048393
 30
0.0
 10
18.4807015883
 20
83.1723976439
 30
0.0
 10
19.0014588939
 20
82.7646628803
 30
0.0
 10
19.5029417649
 20
82.2816493616
 30
0.0
 10
19.974602892
 20
81.7335990321
 30
0.0
 10
20.4064340476
 20
81.1321622259
 30
0.0
 10
20.7892295276
 20
80.4901513983
 30
0.0
 10
21.114821855
 20
79.8212588669
 30
0.0
 10
21.3762437067
 20
79.1397753759
 30
0.0
 10
21.5680217121
 20
78.4601111843
 30
0.0
 10
21.6859233631
 20
77.7968221012
 30
0.0
 10
21.7146065304
 20
77.3599642067
 30
0.0
 10
21.7146065304
 20
77.1484146946
 30
0.0
  0
SPLINE
  5
2A0
100
AcDbEntity
  8
0
100
AcDbSpline
 62
7
  6
BYLAYER
 70
0
 71
3
 72
15
 73
11
 74
0
 42
0.0000001
 43
0.0000001
 44
0.0000000001
 40
0.0
 40
0.0
 40
0.0
 40
0.0
 40
0.1485827704
 40
0.2894643798
 40
0.4226882675
 40
0.5485932283
 40
0.6679021433
 40
0.7818740789
 40
0.8919467856
 40
1.0
 40
1.0
 40
1.0
 40
1.0
 10
21.7146065304
 20
77.1484146946
 30
0.0
 10
21.7146065304
 20
77.0155631852
 30
0.0
 10
21.7039078183
 20
76.7565681794
 30
0.0
 10
21.6529770213
 20
76.3814790723
 30
0.0
 10
21.5679363256
 20
76.0333293977
 30
0.0
 10
21.4493757962
 20
75.7154476678
 30
0.0
 10
21.2975116789
 20
75.4313148739
 30
0.0
 10
21.1150609679
 20
75.1829527424
 30
0.0
 10
20.9025537192
 20
74.9736882678
 30
0.0
 10
20.741476876
 20
74.8617603544
 30
0.0
 10
20.6577615461
 20
74.8135335739
 30
0.0
  0
SPLINE
  5
2A1
100
AcDbEntity
  8
0
100
AcDbSpline
 62
7
  6
BYLAYER
 70
0
 71
3
 72
14
 73
10
 74
0
 42
0.0000001
 43
0.0000001
 44
0.0000000001
 40
0.0
 40
0.0
 40
0.0
 40
0.0
 40
0.1089686797
 40
0.2200463649
 40
0.3348576247
 40
0.454725501
 40
0.580659653
 40
0.713354036
 40
1.0
 40
1.0
 40
1.0
 40
1.0
 10
20.613322202
 20
74.7888028944
 30
0.0
 10
20.5340305615
 20
74.7462033217
 30
0.0
 10
20.3668254241
 20
74.6727100773
 30
0.0
 10
20.0984305168
 20
74.6017452774
 30
0.0
 10
19.8136012195
 20
74.5701053624
 30
0.0
 10
19.5149988131
 20
74.5776993801
 30
0.0
 10
19.2050825348
 20
74.6242424838
 30
0.0
 10
18.7692119494
 20
74.74047352
 30
0.0
 10
18.449726375
 20
74.88086992
 30
0.0
 10
18.2409435348
 20
74.9925502243
 30
0.0
  0
SPLINE
  5
2A2
100
AcDbEntity
  8
0
100
AcDbSpline
 62
7
  6
BYLAYER
 70
0
 71
3
 72
9
 73
5
 74
0
 42
0.0000001
 43
0.0000001
 44
0.0000000001
 40
0.0
 40
0.0
 40
0.0
 40
0.0
 40
0.2407615531
 40
1.0
 40
1.0
 40
1.0
 40
1.0
 10
18.002395727
 20
75.1292588089
 30
0.0
 10
17.9310319418
 20
75.1728795306
 30
0.0
 10
17.6391632002
 20
75.3614489361
 30
0.0
 10
17.3655003912
 20
75.5776531461
 30
0.0
 10
17.1683815013
 20
75.7528996218
 30
0.0
  0
SPLINE
  5
2A3
100
AcDbEntity
  8
0
100
AcDbSpline
 62
7
  6
BYLAYER
 70
0
 71
3
 72
9
 73
5
 74
0
 42
0.0000001
 43
0.0000001
 44
0.0000000001
 40
0.0
 40
0.0
 40
0.0
 40
0.0
 40
0.246320187
 40
1.0
 40
1.0
 40
1.0
 40
1.0
 10
16.7084770284
 20
76.2010250486
 30
0.0
 10
16.6536326045
 20
76.2593609237
 30
0.0
 10
16.4347210051
 20
76.4996904117
 30
0.0
 10
16.2307087244
 20
76.7535241437
 30
0.0
 10
16.0855517007
 20
76.9508811522
 30
0.0
  0
SPLINE
  5
2A4
100
AcDbEntity
  8
0
100
AcDbSpline
 62
7
  6
BYLAYER
 70
0
 71
3
 72
11
 73
7
 74
0
 42
0.0000001
 43
0.0000001
 44
0.0000000001
 40
0.0
 40
0.0
 40
0.0
 40
0.0
 40
0.2655835668
 40
0.5226266682
 40
0.7682610888
 40
1.0
 40
1.0
 40
1.0
 40
1.0
 10
15.0909668287
 20
78.6919791882
 30
0.0
 10
14.9991859689
 20
78.9068692802
 30
0.0
 10
14.8359679548
 20
79.3374497747
 30
0.0
 10
14.6523682759
 20
79.9889296967
 30
0.0
 10
14.5365948291
 20
80.6256507049
 30
0.0
 10
14.5051549511
 20
81.0455443684
 30
0.0
 10
14.5024996248
 20
81.249418972
 30
0.0
  0
SPLINE
  5
2A5
100
AcDbEntity
  8
0
100
AcDbSpline
 62
7
  6
BYLAYER
 70
0
 71
3
 72
9
 73
5
 74
0
 42
0.0000001
 43
0.0000001
 44
0.0000000001
 40
0.0
 40
0.0
 40
0.0
 40
0.0
 40
0.2438828617
 40
1.0
 40
1.0
 40
1.0
 40
1.0
 10
13.0302080541
 20
82.2236865987
 30
0.0
 10
13.0348268549
 20
82.1388574164
 30
0.0
 10
13.0592553919
 20
81.7913403498
 30
0.0
 10
13.1050018425
 20
81.4454052975
 30
0.0
 10
13.150020886
 20
81.1858932696
 30
0.0
  0
SPLINE
  5
2A6
100
AcDbEntity
  8
0
100
AcDbSpline
 62
7
  6
BYLAYER
 70
0
 71
3
 72
9
 73
5
 74
0
 42
0.0000001
 43
0.0000001
 44
0.0000000001
 40
0.0
 40
0.0
 40
0.0
 40
0.0
 40
0.2436060406
 40
1.0
 40
1.0
 40
1.0
 40
1.0
 10
13.150020886
 20
81.1858932696
 30
0.0
 10
13.1722445864
 20
81.0577848707
 30
0.0
 10
13.2739458496
 20
80.5337460684
 30
0.0
 10
13.4159310209
 20
80.0177392935
 30
0.0
 10
13.5424484017
 20
79.6343596032
 30
0.0
  0
SPLINE
  5
2A7
100
AcDbEntity
  8
0
100
AcDbSpline
 62
7
  6
BYLAYER
 70
0
 71
3
 72
9
 73
5
 74
0
 42
0.0000001
 43
0.0000001
 44
0.0000000001
 40
0.0
 40
0.0
 40
0.0
 40
0.0
 40
0.2527763068
 40
1.0
 40
1.0
 40
1.0
 40
1.0
 10
15.0830445194
 20
76.4907577533
 30
0.0
 10
15.1600420063
 20
76.3752009759
 30
0.0
 10
15.4717685499
 20
75.9228474757
 30
0.0
 10
15.8119492996
 20
75.4899999267
 30
0.0
 10
16.0815708877
 20
75.1804897376
 30
0.0
  0
SPLINE
  5
2A8
100
AcDbEntity
  8
0
100
AcDbSpline
 62
7
  6
BYLAYER
 70
0
 71
3
 72
9
 73
5
 74
0
 42
0.0000001
 43
0.0000001
 44
0.0000000001
 40
0.0
 40
0.0
 40
0.0
 40
0.0
 40
0.2577585459
 40
1.0
 40
1.0
 40
1.0
 40
1.0
 10
16.6658102171
 20
74.5570166547
 30
0.0
 10
16.7635510347
 20
74.4602271088
 30
0.0
 10
17.1496631015
 20
74.0918351689
 30
0.0
 10
17.5640212374
 20
73.752554667
 30
0.0
 10
17.8868948778
 20
73.5230958455
 30
0.0
  0
SPLINE
  5
2A9
100
AcDbEntity
  8
0
100
AcDbSpline
 62
7
  6
BYLAYER
 70
0
 71
3
 72
9
 73
5
 74
0
 42
0.0000001
 43
0.0000001
 44
0.0000000001
 40
0.0
 40
0.0
 40
0.0
 40
0.0
 40
0.2590363389
 40
1.0
 40
1.0
 40
1.0
 40
1.0
 10
17.8868948778
 20
73.5230958455
 30
0.0
 10
17.9750821928
 20
73.4604231624
 30
0.0
 10
18.3200235856
 20
73.2249419885
 30
0.0
 10
18.6834723981
 20
73.016003363
 30
0.0
 10
18.9620658916
 20
72.8812526654
 30
0.0
  0
SPLINE
  5
2AA
100
AcDbEntity
  8
0
100
AcDbSpline
 62
7
  6
BYLAYER
 70
0
 71
3
 72
23
 73
19
 74
0
 42
0.0000001
 43
0.0000001
 44
0.0000000001
 40
0.0
 40
0.0
 40
0.0
 40
0.0
 40
0.0719822579
 40
0.1402712552
 40
0.2049920799
 40
0.2664296494
 40
0.3250372482
 40
0.3814404455
 40
0.4364219033
 40
0.4908741357
 40
0.5457335649
 40
0.6019034354
 40
0.6601840928
 40
0.7212241239
 40
0.7854918683
 40
0.853304843
 40
0.9248308856
 40
1.0
 40
1.0
 40
1.0
 40
1.0
 10
18.9620658916
 20
72.8812526654
 30
0.0
 10
19.1278547564
 20
72.8010635522
 30
0.0
 10
19.4578399495
 20
72.6584874787
 30
0.0
 10
19.9579759524
 20
72.4977117196
 30
0.0
 10
20.4463056713
 20
72.3971893271
 30
0.0
 10
20.9186543718
 20
72.3579647802
 30
0.0
 10
21.3709822557
 20
72.3807331021
 30
0.0
 10
21.7992025892
 20
72.4656956223
 30
0.0
 10
22.1992524497
 20
72.6123428494
 30
0.0
 10
22.5670792574
 20
72.8195741593
 30
0.0
 10
22.8990808283
 20
73.0851959221
 30
0.0
 10
23.1920340495
 20
73.4065542782
 30
0.0
 10
23.4435102155
 20
73.7802991551
 30
0.0
 10
23.6515054559
 20
74.2028763724
 30
0.0
 10
23.8145788369
 20
74.6704397998
 30
0.0
 10
23.9315651362
 20
75.1790192438
 30
0.0
 10
24.0015369438
 20
75.7241204082
 30
0.0
 10
24.0163197109
 20
76.099661574
 30
0.0
 10
24.0163197109
 20
76.2919786417
 30
0.0
  0
SPLINE
  5
2AB
100
AcDbEntity
  8
0
100
AcDbSpline
 62
7
  6
BYLAYER
 70
0
 71
3
 72
24
 73
20
 74
0
 42
0.0000001
 43
0.0000001
 44
0.0000000001
 40
0.0
 40
0.0
 40
0.0
 40
0.0
 40
0.0623809245
 40
0.1287352649
 40
0.1983278745
 40
0.2703104113
 40
0.3436916901
 40
0.4174295688
 40
0.4904602236
 40
0.561752538
 40
0.6303556189
 40
0.6954486224
 40
0.7564006985
 40
0.8128419875
 40
0.8647465701
 40
0.9125255258
 40
0.957103889
 40
0.9786660294
 40
1.0
 40
1.0
 40
1.0
 40
1.0
 10
18.108346932
 20
83.3129546284
 30
0.0
 10
18.2879692008
 20
83.2092520093
 30
0.0
 10
18.6448384727
 20
82.9707430579
 30
0.0
 10
19.1502345306
 20
82.5454727018
 30
0.0
 10
19.633316333
 20
82.0494367096
 30
0.0
 10
20.0837984823
 20
81.4933831795
 30
0.0
 10
20.4921205981
 20
80.8890154091
 30
0.0
 10
20.8495721233
 20
80.2492592583
 30
0.0
 10
21.148536025
 20
79.5877564679
 30
0.0
 10
21.3826384843
 20
78.9186085811
 30
0.0
 10
21.5468958225
 20
78.2560243802
 30
0.0
 10
21.6377824025
 20
77.6139834302
 30
0.0
 10
21.6532458513
 20
77.0059001605
 30
0.0
 10
21.5926775614
 20
76.4443363284
 30
0.0
 10
21.4565642624
 20
75.9407790191
 30
0.0
 10
21.2466251882
 20
75.5060063088
 30
0.0
 10
21.0091104758
 20
75.2060321313
 30
0.0
 10
20.7888371422
 20
75.0151318937
 30
0.0
 10
20.6697549542
 20
74.9357932671
 30
0.0
 10
20.6083286153
 20
74.9003212495
 30
0.0
  0
SPLINE
  5
2AC
100
AcDbEntity
  8
0
100
AcDbSpline
 62
7
  6
BYLAYER
 70
0
 71
3
 72
15
 73
11
 74
0
 42
0.0000001
 43
0.0000001
 44
0.0000000001
 40
0.0
 40
0.0
 40
0.0
 40
0.0
 40
0.1141580469
 40
0.237325674
 40
0.3669777672
 40
0.5000022287
 40
0.633026372
 40
0.7626775343
 40
0.8858436919
 40
1.0
 40
1.0
 40
1.0
 40
1.0
 10
21.6003792047
 20
77.1641147419
 30
0.0
 10
21.6003792047
 20
77.4436012047
 30
0.0
 10
21.5491958368
 20
78.0251756578
 30
0.0
 10
21.3451077929
 20
78.9025464431
 30
0.0
 10
21.0182106664
 20
79.7912566747
 30
0.0
 10
20.5806663943
 20
80.6578871673
 30
0.0
 10
20.0489103088
 20
81.470121399
 30
0.0
 10
19.442712368
 20
82.1975683417
 30
0.0
 10
18.7849337591
 20
82.8129872842
 30
0.0
 10
18.3068706379
 20
83.1480918683
 30
0.0
 10
18.0648305789
 20
83.2878306002
 30
0.0
  0
SPLINE
  5
2AD
100
AcDbEntity
  8
0
100
AcDbSpline
 62
7
  6
BYLAYER
 70
0
 71
3
 72
15
 73
11
 74
0
 42
0.0000001
 43
0.0000001
 44
0.0000000001
 40
0.0
 40
0.0
 40
0.0
 40
0.0
 40
0.1485538506
 40
0.2895085794
 40
0.4227317425
 40
0.5486386629
 40
0.6679992358
 40
0.7819383713
 40
0.8919876062
 40
1.0
 40
1.0
 40
1.0
 40
1.0
 10
18.0648305789
 20
83.2878306002
 30
0.0
 10
17.9520860872
 20
83.3529221902
 30
0.0
 10
17.7269529567
 20
83.4707485584
 30
0.0
 10
17.3835734662
 20
83.6113342237
 30
0.0
 10
17.0462713823
 20
83.7096537782
 30
0.0
 10
16.7183095307
 20
83.7646545753
 30
0.0
 10
16.4027058713
 20
83.7756434792
 30
0.0
 10
16.1024913089
 20
83.7421470101
 30
0.0
 10
15.8208636489
 20
83.6642930155
 30
0.0
 10
15.6468237146
 20
83.5827687492
 30
0.0
 10
15.5648484541
 20
83.5354404199
 30
0.0
  0
SPLINE
  5
2AE
100
AcDbEntity
  8
0
100
AcDbSpline
 62
7
  6
BYLAYER
 70
0
 71
3
 72
9
 73
5
 74
0
 42
0.0000001
 43
0.0000001
 44
0.0000000001
 40
0.0
 40
0.0
 40
0.0
 40
0.0
 40
0.5044627309
 40
1.0
 40
1.0
 40
1.0
 40
1.0
 10
50.8157672317
 20
17.8170130467
 30
0.0
 10
50.7476054613
 20
17.894571663
 30
0.0
 10
50.598899375
 20
18.0370172651
 30
0.0
 10
50.4263138111
 20
18.1495714905
 30
0.0
 10
50.3365244963
 20
18.1967447783
 30
0.0
  0
SPLINE
  5
2AF
100
AcDbEntity
  8
0
100
AcDbSpline
 62
7
  6
BYLAYER
 70
0
 71
3
 72
14
 73
10
 74
0
 42
0.0000001
 43
0.0000001
 44
0.0000000001
 40
0.0
 40
0.0
 40
0.0
 40
0.0
 40
0.107860665
 40
0.21808262
 40
0.3323587991
 40
0.4520477929
 40
0.5781857187
 40
0.7114756878
 40
1.0
 40
1.0
 40
1.0
 40
1.0
 10
50.3365244963
 20
18.1967447783
 30
0.0
 10
50.2569272655
 20
18.2385633743
 30
0.0
 10
50.0886417739
 20
18.3098473922
 30
0.0
 10
49.8183979931
 20
18.3756763842
 30
0.0
 10
49.531528014
 20
18.4006277708
 30
0.0
 10
49.2308879173
 20
18.3848321195
 30
0.0
 10
48.9191177634
 20
18.3285209906
 30
0.0
 10
48.4809335763
 20
18.196995628
 30
0.0
 10
48.1613506256
 20
18.0440637743
 30
0.0
 10
47.9530562404
 20
17.9238056737
 30
0.0
  0
SPLINE
  5
2B0
100
AcDbEntity
  8
0
100
AcDbSpline
 62
7
  6
BYLAYER
 70
0
 71
3
 72
9
 73
5
 74
0
 42
0.0000001
 43
0.0000001
 44
0.0000000001
 40
0.0
 40
0.0
 40
0.0
 40
0.0
 40
0.4861324405
 40
1.0
 40
1.0
 40
1.0
 40
1.0
 10
51.314214277
 20
17.233321944
 30
0.0
 10
51.3820780438
 20
17.1515085787
 30
0.0
 10
51.5064859347
 20
16.9702130361
 30
0.0
 10
51.5999882793
 20
16.771544438
 30
0.0
 10
51.6406992468
 20
16.6668182335
 30
0.0
  0
SPLINE
  5
2B1
100
AcDbEntity
  8
0
100
AcDbSpline
 62
7
  6
BYLAYER
 70
0
 71
3
 72
14
 73
10
 74
0
 42
0.0000001
 43
0.0000001
 44
0.0000000001
 40
0.0
 40
0.0
 40
0.0
 40
0.0
 40
0.2877357458
 40
0.4209843318
 40
0.5472817759
 40
0.6672554172
 40
0.7818310707
 40
0.8922331234
 40
1.0
 40
1.0
 40
1.0
 40
1.0
 10
42.8853746818
 20
12.5118995783
 30
0.0
 10
42.8853746829
 20
12.2565780002
 30
0.0
 10
42.9136189722
 20
11.8814398019
 30
0.0
 10
43.0217600392
 20
11.4072820679
 30
0.0
 10
43.1319987944
 20
11.0882621924
 30
0.0
 10
43.2726671957
 20
10.7996771928
 30
0.0
 10
43.4426800492
 20
10.5439285054
 30
0.0
 10
43.6408065371
 20
10.323582503
 30
0.0
 10
43.7916743815
 20
10.2007551179
 30
0.0
 10
43.8704473949
 20
10.1465400747
 30
0.0
  0
SPLINE
  5
2B2
100
AcDbEntity
  8
0
100
AcDbSpline
 62
7
  6
BYLAYER
 70
0
 71
3
 72
9
 73
5
 74
0
 42
0.0000001
 43
0.0000001
 44
0.0000000001
 40
0.0
 40
0.0
 40
0.0
 40
0.0
 40
0.4972313911
 40
1.0
 40
1.0
 40
1.0
 40
1.0
 10
43.8704473949
 20
10.1465400747
 30
0.0
 10
43.955869637
 20
10.0877487406
 30
0.0
 10
44.1384176133
 20
9.9844048815
 30
0.0
 10
44.3361407082
 20
9.9145488283
 30
0.0
 10
44.4375534487
 20
9.8879091691
 30
0.0
  0
SPLINE
  5
2B3
100
AcDbEntity
  8
0
100
AcDbSpline
 62
7
  6
BYLAYER
 70
0
 71
3
 72
9
 73
5
 74
0
 42
0.0000001
 43
0.0000001
 44
0.0000000001
 40
0.0
 40
0.0
 40
0.0
 40
0.0
 40
0.2544651082
 40
1.0
 40
1.0
 40
1.0
 40
1.0
 10
45.6916691256
 20
9.618553091
 30
0.0
 10
45.6626891952
 20
9.6199800528
 30
0.0
 10
45.5489352497
 20
9.6279137876
 30
0.0
 10
45.4358075214
 20
9.6454208471
 30
0.0
 10
45.3528969842
 20
9.6641906799
 30
0.0
  0
SPLINE
  5
2B4
100
AcDbEntity
  8
0
100
AcDbSpline
 62
7
  6
BYLAYER
 70
0
 71
3
 72
15
 73
11
 74
0
 42
0.0000001
 43
0.0000001
 44
0.0000000001
 40
0.0
 40
0.0
 40
0.0
 40
0.0
 40
0.1141521029
 40
0.2373134618
 40
0.3669493111
 40
0.4999646085
 40
0.6329899355
 40
0.7626477792
 40
0.8858359305
 40
1.0
 40
1.0
 40
1.0
 40
1.0
 10
46.6550997045
 20
19.0412910937
 30
0.0
 10
46.39703666
 20
18.8922992161
 30
0.0
 10
45.8873302206
 20
18.5350024979
 30
0.0
 10
45.1860123045
 20
17.8788729354
 30
0.0
 10
44.5397065463
 20
17.103295654
 30
0.0
 10
43.9727351504
 20
16.2373226893
 30
0.0
 10
43.506199334
 20
15.3132943495
 30
0.0
 10
43.157583306
 20
14.365660098
 30
0.0
 10
42.9399683184
 20
13.4300834398
 30
0.0
 10
42.885374683
 20
12.8099159073
 30
0.0
 10
42.8853746818
 20
12.5118995783
 30
0.0
  0
SPLINE
  5
2B5
100
AcDbEntity
  8
0
100
AcDbSpline
 62
7
  6
BYLAYER
 70
0
 71
3
 72
15
 73
11
 74
0
 42
0.0000001
 43
0.0000001
 44
0.0000000001
 40
0.0
 40
0.0
 40
0.0
 40
0.0
 40
0.1485251574
 40
0.289499659
 40
0.4227398928
 40
0.5486431049
 40
0.667993794
 40
0.7819381439
 40
0.8919874623
 40
1.0
 40
1.0
 40
1.0
 40
1.0
 10
33.4090427258
 20
9.6800564358
 30
0.0
 10
33.5217650775
 20
9.614977628
 30
0.0
 10
33.7468990557
 20
9.49717336
 30
0.0
 10
34.0902735302
 20
9.3565583807
 30
0.0
 10
34.4276046996
 20
9.2582436945
 30
0.0
 10
34.7555663454
 20
9.2032083902
 30
0.0
 10
35.0711607027
 20
9.1922934163
 30
0.0
 10
35.3713806333
 20
9.2257127027
 30
0.0
 10
35.6529911294
 20
9.3036424188
 30
0.0
 10
35.8270520809
 20
9.3851143307
 30
0.0
 10
35.9090272656
 20
9.4324424332
 30
0.0
  0
SPLINE
  5
2B6
100
AcDbEntity
  8
0
100
AcDbSpline
 62
7
  6
BYLAYER
 70
0
 71
3
 72
14
 73
10
 74
0
 42
0.0000001
 43
0.0000001
 44
0.0000000001
 40
0.0
 40
0.0
 40
0.0
 40
0.0
 40
0.2892624954
 40
0.4225617739
 40
0.5485068348
 40
0.6678896998
 40
0.7818697665
 40
0.8919548076
 40
1.0
 40
1.0
 40
1.0
 40
1.0
 10
22.0952871234
 20
48.872108454
 30
0.0
 10
22.0952871234
 20
48.6693722096
 30
0.0
 10
22.0716064181
 20
48.371755131
 30
0.0
 10
21.9801213668
 20
47.9976912449
 30
0.0
 10
21.8870489937
 20
47.7484216896
 30
0.0
 10
21.7683732611
 20
47.5254076634
 30
0.0
 10
21.6251135577
 20
47.3307894835
 30
0.0
 10
21.4585037342
 20
47.1668206207
 30
0.0
 10
21.3324092773
 20
47.0788459932
 30
0.0
 10
21.2668324192
 20
47.0409765491
 30
0.0
  0
SPLINE
  5
2B7
100
AcDbEntity
  8
0
100
AcDbSpline
 62
7
  6
BYLAYER
 70
0
 71
3
 72
14
 73
10
 74
0
 42
0.0000001
 43
0.0000001
 44
0.0000000001
 40
0.0
 40
0.0
 40
0.0
 40
0.0
 40
0.2892624954
 40
0.4225617739
 40
0.5485068348
 40
0.6678896998
 40
0.7818697665
 40
0.8919548076
 40
1.0
 40
1.0
 40
1.0
 40
1.0
 10
36.2374816264
 20
40.7072933636
 30
0.0
 10
36.2374816264
 20
40.5045571192
 30
0.0
 10
36.2138009211
 20
40.2069400406
 30
0.0
 10
36.1223158698
 20
39.8328761545
 30
0.0
 10
36.0292434966
 20
39.5836065992
 30
0.0
 10
35.910567764
 20
39.360592573
 30
0.0
 10
35.7673080606
 20
39.1659743931
 30
0.0
 10
35.6006982372
 20
39.0020055303
 30
0.0
 10
35.4746037803
 20
38.9140309028
 30
0.0
 10
35.4090269221
 20
38.8761614587
 30
0.0
  0
SPLINE
  5
2B8
100
AcDbEntity
  8
0
100
AcDbSpline
 62
7
  6
BYLAYER
 70
0
 71
3
 72
11
 73
7
 74
0
 42
0.0000001
 43
0.0000001
 44
0.0000000001
 40
0.0
 40
0.0
 40
0.0
 40
0.0
 40
0.2895453772
 40
0.5491366158
 40
0.7822776227
 40
1.0
 40
1.0
 40
1.0
 40
1.0
 10
30.6513147977
 20
49.2396610356
 30
0.0
 10
30.6513147977
 20
49.2042131573
 30
0.0
 10
30.6459021192
 20
49.1367611409
 30
0.0
 10
30.6186341934
 20
49.0440690291
 30
0.0
 10
30.5726336027
 20
48.9688380535
 30
0.0
 10
30.5294056361
 20
48.9325636156
 30
0.0
 10
30.5063220457
 20
48.9192358136
 30
0.0
  0
SPLINE
  5
2B9
100
AcDbEntity
  8
0
100
AcDbSpline
 62
7
  6
BYLAYER
 70
0
 71
3
 72
17
 73
13
 74
0
 42
0.0000001
 43
0.0000001
 44
0.0000000001
 40
0.0
 40
0.0
 40
0.0
 40
0.0
 40
0.0428570455
 40
0.087485165
 40
0.1353123244
 40
0.1872781392
 40
0.3045378316
 40
0.4381995438
 40
0.5825378192
 40
0.7296849502
 40
0.8713141218
 40
1.0
 40
1.0
 40
1.0
 40
1.0
 10
29.8063539346
 20
50.1316233139
 30
0.0
 10
29.8236099884
 20
50.1415864637
 30
0.0
 10
29.8616361836
 20
50.1574335586
 30
0.0
 10
29.9244337043
 20
50.1665929262
 30
0.0
 10
29.9918665215
 20
50.1616719838
 30
0.0
 10
30.0898377867
 20
50.1355671689
 30
0.0
 10
30.215096417
 20
50.0671107169
 30
0.0
 10
30.3534828316
 20
49.9445552417
 30
0.0
 10
30.4757986847
 20
49.7879893841
 30
0.0
 10
30.5720994072
 20
49.6100483261
 30
0.0
 10
30.6345624048
 20
49.4253117446
 30
0.0
 10
30.6513147977
 20
49.2994916507
 30
0.0
 10
30.6513147977
 20
49.2396610356
 30
0.0
  0
SPLINE
  5
2BA
100
AcDbEntity
  8
0
100
AcDbSpline
 62
7
  6
BYLAYER
 70
0
 71
3
 72
23
 73
19
 74
0
 42
0.0000001
 43
0.0000001
 44
0.0000000001
 40
0.0
 40
0.0
 40
0.0
 40
0.0
 40
0.0428137215
 40
0.0873954413
 40
0.1351788226
 40
0.1870888663
 40
0.243534576
 40
0.3044910586
 40
0.3695891496
 40
0.4381962996
 40
0.5094932147
 40
0.5825291778
 40
0.6562703955
 40
0.7296595911
 40
0.801649742
 40
0.8712469426
 40
0.9376205191
 40
1.0
 40
1.0
 40
1.0
 40
1.0
 10
31.4090585295
 20
45.8043513046
 30
0.0
 10
31.5076668103
 20
45.8612957951
 30
0.0
 10
31.7250631922
 20
45.9516078028
 30
0.0
 10
32.0838876997
 20
46.0042367714
 30
0.0
 10
32.4692284797
 20
45.9758669792
 30
0.0
 10
32.8724987486
 20
45.8687008249
 30
0.0
 10
33.2857992558
 20
45.6860534388
 30
0.0
 10
33.7008998958
 20
45.4321150728
 30
0.0
 10
34.1093469507
 20
45.112327801
 30
0.0
 10
34.502688457
 20
44.7335082424
 30
0.0
 10
34.8726505863
 20
44.3036818984
 30
0.0
 10
35.2113483914
 20
43.8319617948
 30
0.0
 10
35.5115953771
 20
43.3284177709
 30
0.0
 10
35.7669891572
 20
42.8037844191
 30
0.0
 10
35.9720644752
 20
42.269268997
 30
0.0
 10
36.1225078677
 20
41.7361344843
 30
0.0
 10
36.2149569847
 20
41.2158635715
 30
0.0
 10
36.2374816264
 20
40.8732009609
 30
0.0
 10
36.2374816264
 20
40.7072933636
 30
0.0
  0
SPLINE
  5
2BB
100
AcDbEntity
  8
0
100
AcDbSpline
 62
7
  6
BYLAYER
 70
0
 71
3
 72
14
 73
10
 74
0
 42
0.0000001
 43
0.0000001
 44
0.0000000001
 40
0.0
 40
0.0
 40
0.0
 40
0.0
 40
0.2885088423
 40
0.4217871836
 40
0.5479247246
 40
0.6676211952
 40
0.7819043958
 40
0.8921341774
 40
1.0
 40
1.0
 40
1.0
 40
1.0
 10
44.5021347872
 20
11.9466012037
 30
0.0
 10
44.5021347885
 20
11.7063071151
 30
0.0
 10
44.5294247969
 20
11.3534088953
 30
0.0
 10
44.634399257
 20
10.9085539236
 30
0.0
 10
44.7412915431
 20
10.6106171416
 30
0.0
 10
44.8776418404
 20
10.3424962582
 30
0.0
 10
45.0423347074
 20
10.1065757185
 30
0.0
 10
45.2341135825
 20
9.9054356314
 30
0.0
 10
45.3797066574
 20
9.795214539
 30
0.0
 10
45.4555939173
 20
9.7471283887
 30
0.0
  0
SPLINE
  5
2BC
100
AcDbEntity
  8
0
100
AcDbSpline
 62
7
  6
BYLAYER
 70
0
 71
3
 72
9
 73
5
 74
0
 42
0.0000001
 43
0.0000001
 44
0.0000000001
 40
0.0
 40
0.0
 40
0.0
 40
0.0
 40
0.4955266855
 40
1.0
 40
1.0
 40
1.0
 40
1.0
 10
45.4555939173
 20
9.7471283887
 30
0.0
 10
45.5415866607
 20
9.6926388738
 30
0.0
 10
45.725952394
 20
9.5989159984
 30
0.0
 10
45.9243919283
 20
9.541056032
 30
0.0
 10
46.0260235516
 20
9.5207463001
 30
0.0
  0
SPLINE
  5
2BD
100
AcDbEntity
  8
0
100
AcDbSpline
 62
7
  6
BYLAYER
 70
0
 71
3
 72
9
 73
5
 74
0
 42
0.0000001
 43
0.0000001
 44
0.0000000001
 40
0.0
 40
0.0
 40
0.0
 40
0.0
 40
0.5164539529
 40
1.0
 40
1.0
 40
1.0
 40
1.0
 10
21.9525722672
 20
49.9788395667
 30
0.0
 10
21.9984576589
 20
49.7919435942
 30
0.0
 10
22.0687172104
 20
49.4251571754
 30
0.0
 10
22.0952871234
 20
49.0522922656
 30
0.0
 10
22.0952871234
 20
48.872108454
 30
0.0
  0
SPLINE
  5
2BE
100
AcDbEntity
  8
0
100
AcDbSpline
 62
7
  6
BYLAYER
 70
0
 71
3
 72
15
 73
11
 74
0
 42
0.0000001
 43
0.0000001
 44
0.0000000001
 40
0.0
 40
0.0
 40
0.0
 40
0.0
 40
0.1141521029
 40
0.2373134618
 40
0.3669493111
 40
0.4999646085
 40
0.6329899355
 40
0.7626477792
 40
0.8858359305
 40
1.0
 40
1.0
 40
1.0
 40
1.0
 10
47.9530562404
 20
17.9238056737
 30
0.0
 10
47.7168174455
 20
17.7874139571
 30
0.0
 10
47.250216599
 20
17.4603336258
 30
0.0
 10
46.6082087529
 20
16.8596925791
 30
0.0
 10
46.0165607169
 20
16.1497054413
 30
0.0
 10
45.4975377797
 20
15.3569673334
 30
0.0
 10
45.0704566404
 20
14.5110835615
 30
0.0
 10
44.751322878
 20
13.6435902169
 30
0.0
 10
44.5521114699
 20
12.7871347615
 30
0.0
 10
44.5021347886
 20
12.2194144558
 30
0.0
 10
44.5021347872
 20
11.9466012037
 30
0.0
  0
SPLINE
  5
2BF
100
AcDbEntity
  8
0
100
AcDbSpline
 62
7
  6
BYLAYER
 70
0
 71
3
 72
9
 73
5
 74
0
 42
0.0000001
 43
0.0000001
 44
0.0000000001
 40
0.0
 40
0.0
 40
0.0
 40
0.0
 40
0.2462487732
 40
1.0
 40
1.0
 40
1.0
 40
1.0
 10
50.3549688045
 20
18.3282284241
 30
0.0
 10
50.3731281633
 20
18.3085852199
 30
0.0
 10
50.4451363839
 20
18.2272215923
 30
0.0
 10
50.510133342
 20
18.1397059455
 30
0.0
 10
50.5550436263
 20
18.0712375883
 30
0.0
  0
SPLINE
  5
2C0
100
AcDbEntity
  8
0
100
AcDbSpline
 62
7
  6
BYLAYER
 70
0
 71
3
 72
9
 73
5
 74
0
 42
0.0000001
 43
0.0000001
 44
0.0000000001
 40
0.0
 40
0.0
 40
0.0
 40
0.0
 40
0.5027626722
 40
1.0
 40
1.0
 40
1.0
 40
1.0
 10
49.7035302419
 20
19.0090565367
 30
0.0
 10
49.6299102309
 20
19.0833971095
 30
0.0
 10
49.470944594
 20
19.219457359
 30
0.0
 10
49.2906098613
 20
19.3257176982
 30
0.0
 10
49.1972192662
 20
19.3702748964
 30
0.0
  0
SPLINE
  5
2C1
100
AcDbEntity
  8
0
100
AcDbSpline
 62
7
  6
BYLAYER
 70
0
 71
3
 72
14
 73
10
 74
0
 42
0.0000001
 43
0.0000001
 44
0.0000000001
 40
0.0
 40
0.0
 40
0.0
 40
0.0
 40
0.1077585528
 40
0.2181569313
 40
0.3327295867
 40
0.4527009403
 40
0.5790020194
 40
0.7122623363
 40
1.0
 40
1.0
 40
1.0
 40
1.0
 10
49.1972192662
 20
19.3702748964
 30
0.0
 10
49.1108788032
 20
19.4114684353
 30
0.0
 10
48.9290552101
 20
19.4808960528
 30
0.0
 10
48.6390667839
 20
19.5424484798
 30
0.0
 10
48.3324522301
 20
19.5619932582
 30
0.0
 10
48.0120375964
 20
19.5396137306
 30
0.0
 10
47.6804562533
 20
19.4756233
 30
0.0
 10
47.2155027288
 20
19.3321814503
 30
0.0
 10
46.8763196902
 20
19.1690117485
 30
0.0
 10
46.6550997045
 20
19.0412910937
 30
0.0
  0
SPLINE
  5
2C2
100
AcDbEntity
  8
0
100
AcDbSpline
 62
7
  6
BYLAYER
 70
0
 71
3
 72
15
 73
11
 74
0
 42
0.0000001
 43
0.0000001
 44
0.0000000001
 40
0.0
 40
0.0
 40
0.0
 40
0.0
 40
0.1513403343
 40
0.2930990496
 40
0.4253027816
 40
0.5489175037
 40
0.6655893993
 40
0.777664468
 40
0.8880801054
 40
1.0
 40
1.0
 40
1.0
 40
1.0
 10
47.4056106406
 20
18.4044106112
 30
0.0
 10
47.5452369601
 20
18.4850234225
 30
0.0
 10
47.8238240445
 20
18.6276643975
 30
0.0
 10
48.2495944432
 20
18.785936977
 30
0.0
 10
48.6643247944
 20
18.878981116
 30
0.0
 10
49.0621191916
 20
18.9049589813
 30
0.0
 10
49.4373370372
 20
18.8628574919
 30
0.0
 10
49.783977792
 20
18.7522373103
 30
0.0
 10
50.09569934
 20
18.574582388
 30
0.0
 10
50.2740315327
 20
18.4157792771
 30
0.0
 10
50.3549688045
 20
18.3282284241
 30
0.0
  0
SPLINE
  5
2C3
100
AcDbEntity
  8
0
100
AcDbSpline
 62
7
  6
BYLAYER
 70
0
 71
3
 72
15
 73
11
 74
0
 42
0.0000001
 43
0.0000001
 44
0.0000000001
 40
0.0
 40
0.0
 40
0.0
 40
0.0
 40
0.1141522451
 40
0.2373148161
 40
0.366950935
 40
0.4999675557
 40
0.6329917284
 40
0.7626506531
 40
0.8858373605
 40
1.0
 40
1.0
 40
1.0
 40
1.0
 10
43.8121913218
 20
12.1803912278
 30
0.0
 10
43.8121913229
 20
12.464440253
 30
0.0
 10
43.8642133504
 20
13.0555107565
 30
0.0
 10
44.0716019178
 20
13.9471906065
 30
0.0
 10
44.4038169226
 20
14.8503907566
 30
0.0
 10
44.8484643887
 20
15.7311784883
 30
0.0
 10
45.3889103957
 20
16.5567254245
 30
0.0
 10
46.0050413929
 20
17.2961736013
 30
0.0
 10
46.6736579217
 20
17.9217281867
 30
0.0
 10
47.1595942019
 20
18.262373803
 30
0.0
 10
47.4056106406
 20
18.4044106112
 30
0.0
  0
SPLINE
  5
2C4
100
AcDbEntity
  8
0
100
AcDbSpline
 62
7
  6
BYLAYER
 70
0
 71
3
 72
11
 73
7
 74
0
 42
0.0000001
 43
0.0000001
 44
0.0000000001
 40
0.0
 40
0.0
 40
0.0
 40
0.0
 40
0.283776885
 40
0.5433800505
 40
0.7804404181
 40
1.0
 40
1.0
 40
1.0
 40
1.0
 10
44.064255442
 20
12.4283416708
 30
0.0
 10
44.064255442
 20
12.237147298
 30
0.0
 10
44.0883166229
 20
11.8702878594
 30
0.0
 10
44.2075642331
 20
11.3553537571
 30
0.0
 10
44.406986446
 20
10.9121361614
 30
0.0
 10
44.597373082
 20
10.6655677607
 30
0.0
 10
44.7029289347
 20
10.5619305807
 30
0.0
  0
SPLINE
  5
2C5
100
AcDbEntity
  8
0
100
AcDbSpline
 62
7
  6
BYLAYER
 70
0
 71
3
 72
23
 73
19
 74
0
 42
0.0000001
 43
0.0000001
 44
0.0000000001
 40
0.0
 40
0.0
 40
0.0
 40
0.0
 40
0.0428140708
 40
0.0873954907
 40
0.1351785952
 40
0.1870886408
 40
0.2435348234
 40
0.3044922422
 40
0.3695914483
 40
0.4381996715
 40
0.5094974822
 40
0.5825341868
 40
0.656276906
 40
0.7296667433
 40
0.8016554284
 40
0.8712506215
 40
0.9376217655
 40
1.0
 40
1.0
 40
1.0
 40
1.0
 10
47.7414214385
 20
9.731072294
 30
0.0
 10
47.6489629411
 20
9.7844383457
 30
0.0
 10
47.4737298353
 20
9.9186065025
 30
0.0
 10
47.2627988977
 20
10.1852669977
 30
0.0
 10
47.1052023307
 20
10.5114240177
 30
0.0
 10
47.0031750752
 20
10.8890760471
 30
0.0
 10
46.9577300084
 20
11.3102571563
 30
0.0
 10
46.9693239991
 20
11.7663206186
 30
0.0
 10
47.0375015102
 20
12.2478502274
 30
0.0
 10
47.1606883013
 20
12.7447870851
 30
0.0
 10
47.3362478004
 20
13.2466505566
 30
0.0
 10
47.5604783351
 20
13.7427685641
 30
0.0
 10
47.8285722031
 20
14.222583969
 30
0.0
 10
48.1348072262
 20
14.675866265
 30
0.0
 10
48.4726535061
 20
15.0929151746
 30
0.0
 10
48.8349776792
 20
15.4649585619
 30
0.0
 10
49.2140416988
 20
15.7838886106
 30
0.0
 10
49.4816862962
 20
15.9627942314
 30
0.0
 10
49.6163851062
 20
16.0405621614
 30
0.0
  0
SPLINE
  5
2C6
100
AcDbEntity
  8
0
100
AcDbSpline
 62
7
  6
BYLAYER
 70
0
 71
3
 72
14
 73
10
 74
0
 42
0.0000001
 43
0.0000001
 44
0.0000000001
 40
0.0
 40
0.0
 40
0.0
 40
0.0
 40
0.2892624954
 40
0.4225617739
 40
0.5485068348
 40
0.6678896998
 40
0.7818697665
 40
0.8919548076
 40
1.0
 40
1.0
 40
1.0
 40
1.0
 10
30.5806038252
 20
43.9732193997
 30
0.0
 10
30.5806038252
 20
44.1759556441
 30
0.0
 10
30.6042845305
 20
44.4735727227
 30
0.0
 10
30.6957695818
 20
44.8476366088
 30
0.0
 10
30.7888419549
 20
45.0969061641
 30
0.0
 10
30.9075176875
 20
45.3199201903
 30
0.0
 10
31.0507773909
 20
45.5145383702
 30
0.0
 10
31.2173872144
 20
45.6785072329
 30
0.0
 10
31.3434816713
 20
45.7664818605
 30
0.0
 10
31.4090585295
 20
45.8043513046
 30
0.0
  0
SPLINE
  5
2C7
100
AcDbEntity
  8
0
100
AcDbSpline
 62
7
  6
BYLAYER
 70
0
 71
3
 72
11
 73
7
 74
0
 42
0.0000001
 43
0.0000001
 44
0.0000000001
 40
0.0
 40
0.0
 40
0.0
 40
0.0
 40
0.2895453772
 40
0.5491366158
 40
0.7822776227
 40
1.0
 40
1.0
 40
1.0
 40
1.0
 10
29.6613611825
 20
49.8111980919
 30
0.0
 10
29.6613611825
 20
49.8466459703
 30
0.0
 10
29.666773861
 20
49.9140979867
 30
0.0
 10
29.6940417869
 20
50.0067900985
 30
0.0
 10
29.7400423775
 20
50.0820210741
 30
0.0
 10
29.7832703441
 20
50.1182955119
 30
0.0
 10
29.8063539346
 20
50.1316233139
 30
0.0
  0
SPLINE
  5
2C8
100
AcDbEntity
  8
0
100
AcDbSpline
 62
7
  6
BYLAYER
 70
0
 71
3
 72
17
 73
13
 74
0
 42
0.0000001
 43
0.0000001
 44
0.0000000001
 40
0.0
 40
0.0
 40
0.0
 40
0.0
 40
0.0428570455
 40
0.087485165
 40
0.1353123244
 40
0.1872781392
 40
0.3045378316
 40
0.4381995438
 40
0.5825378192
 40
0.7296849502
 40
0.8713141218
 40
1.0
 40
1.0
 40
1.0
 40
1.0
 10
30.5063220457
 20
48.9192358136
 30
0.0
 10
30.4890659918
 20
48.9092726638
 30
0.0
 10
30.4510397966
 20
48.8934255689
 30
0.0
 10
30.388242276
 20
48.8842662014
 30
0.0
 10
30.3208094587
 20
48.8891871437
 30
0.0
 10
30.2228381935
 20
48.9152919587
 30
0.0
 10
30.0975795632
 20
48.9837484106
 30
0.0
 10
29.9591931486
 20
49.1063038859
 30
0.0
 10
29.8368772955
 20
49.2628697435
 30
0.0
 10
29.7405765731
 20
49.4408108014
 30
0.0
 10
29.6781135754
 20
49.6255473829
 30
0.0
 10
29.6613611825
 20
49.7513674769
 30
0.0
 10
29.6613611825
 20
49.8111980919
 30
0.0
  0
SPLINE
  5
2C9
100
AcDbEntity
  8
0
100
AcDbSpline
 62
7
  6
BYLAYER
 70
0
 71
3
 72
15
 73
11
 74
0
 42
0.0000001
 43
0.0000001
 44
0.0000000001
 40
0.0
 40
0.0
 40
0.0
 40
0.0
 40
0.1141536803
 40
0.2373245991
 40
0.3669741054
 40
0.4999983967
 40
0.6330229109
 40
0.7626730686
 40
0.8858450136
 40
1.0
 40
1.0
 40
1.0
 40
1.0
 10
46.0291597618
 20
19.1388687621
 30
0.0
 10
45.7867326702
 20
18.998904251
 30
0.0
 10
45.3078941135
 20
18.6632437827
 30
0.0
 10
44.6490362816
 20
18.046832129
 30
0.0
 10
44.0418607865
 20
17.3181844679
 30
0.0
 10
43.5092395546
 20
16.5046340221
 30
0.0
 10
43.0709983581
 20
15.6365917144
 30
0.0
 10
42.7435608153
 20
14.746432782
 30
0.0
 10
42.5391621539
 20
13.8676317433
 30
0.0
 10
42.4878903064
 20
13.2851095715
 30
0.0
 10
42.4878903064
 20
13.0051760933
 30
0.0
  0
SPLINE
  5
2CA
100
AcDbEntity
  8
0
100
AcDbSpline
 62
7
  6
BYLAYER
 70
0
 71
3
 72
11
 73
7
 74
0
 42
0.0000001
 43
0.0000001
 44
0.0000000001
 40
0.0
 40
0.0
 40
0.0
 40
0.0
 40
0.2458706182
 40
0.5000286188
 40
0.7541682051
 40
1.0
 40
1.0
 40
1.0
 40
1.0
 10
34.2776821262
 20
44.8331607242
 30
0.0
 10
34.3496687505
 20
44.5563268586
 30
0.0
 10
34.5384194835
 20
44.0037409347
 30
0.0
 10
34.9292390385
 20
43.2156589209
 30
0.0
 10
35.4167032911
 20
42.4834568422
 30
0.0
 10
35.8011322614
 20
42.044007958
 30
0.0
 10
36.0049762885
 20
41.8434067635
 30
0.0
  0
SPLINE
  5
2CB
100
AcDbEntity
  8
0
100
AcDbSpline
 62
7
  6
BYLAYER
 70
0
 71
3
 72
11
 73
7
 74
0
 42
0.0000001
 43
0.0000001
 44
0.0000000001
 40
0.0
 40
0.0
 40
0.0
 40
0.0
 40
0.220708521
 40
0.4587702838
 40
0.7181661543
 40
1.0
 40
1.0
 40
1.0
 40
1.0
 10
48.0213546386
 20
19.5806226441
 30
0.0
 10
47.8713535728
 20
19.6118825858
 30
0.0
 10
47.5505807844
 20
19.6377017718
 30
0.0
 10
47.0534499728
 20
19.5713664982
 30
0.0
 10
46.5362075541
 20
19.4047675503
 30
0.0
 10
46.1986057476
 20
19.2366978636
 30
0.0
 10
46.0291597618
 20
19.1388687621
 30
0.0
  0
SPLINE
  5
2CC
100
AcDbEntity
  8
0
100
AcDbSpline
 62
7
  6
BYLAYER
 70
0
 71
3
 72
11
 73
7
 74
0
 42
0.0000001
 43
0.0000001
 44
0.0000000001
 40
0.0
 40
0.0
 40
0.0
 40
0.0
 40
0.2814020131
 40
0.5407395845
 40
0.7790144065
 40
1.0
 40
1.0
 40
1.0
 40
1.0
 10
42.4878903064
 20
13.0051760933
 30
0.0
 10
42.4878903064
 20
12.8122153576
 30
0.0
 10
42.5105211846
 20
12.4407889738
 30
0.0
 10
42.6216515177
 20
11.9159625073
 30
0.0
 10
42.8073810266
 20
11.4565244923
 30
0.0
 10
42.9850300518
 20
11.1926996476
 30
0.0
 10
43.0843908365
 20
11.0782901875
 30
0.0
  0
SPLINE
  5
2CD
100
AcDbEntity
  8
0
100
AcDbSpline
 62
7
  6
BYLAYER
 70
0
 71
3
 72
23
 73
19
 74
0
 42
0.0000001
 43
0.0000001
 44
0.0000000001
 40
0.0
 40
0.0
 40
0.0
 40
0.0
 40
0.0428137215
 40
0.0873954413
 40
0.1351788226
 40
0.1870888663
 40
0.243534576
 40
0.3044910586
 40
0.3695891496
 40
0.4381962996
 40
0.5094932147
 40
0.5825291778
 40
0.6562703955
 40
0.7296595911
 40
0.801649742
 40
0.8712469426
 40
0.9376205191
 40
1.0
 40
1.0
 40
1.0
 40
1.0
 10
35.4090269221
 20
38.8761614587
 30
0.0
 10
35.3104186413
 20
38.8192169682
 30
0.0
 10
35.0930222594
 20
38.7289049605
 30
0.0
 10
34.7341977519
 20
38.6762759919
 30
0.0
 10
34.3488569719
 20
38.7046457841
 30
0.0
 10
33.945586703
 20
38.8118119384
 30
0.0
 10
33.5322861958
 20
38.9944593244
 30
0.0
 10
33.1171855558
 20
39.2483976905
 30
0.0
 10
32.7087385009
 20
39.5681849622
 30
0.0
 10
32.3153969946
 20
39.9470045209
 30
0.0
 10
31.9454348653
 20
40.3768308648
 30
0.0
 10
31.6067370602
 20
40.8485509685
 30
0.0
 10
31.3064900745
 20
41.3520949924
 30
0.0
 10
31.0510962944
 20
41.8767283442
 30
0.0
 10
30.8460209764
 20
42.4112437663
 30
0.0
 10
30.6955775839
 20
42.944378279
 30
0.0
 10
30.6031284669
 20
43.4646491918
 30
0.0
 10
30.5806038252
 20
43.8073118024
 30
0.0
 10
30.5806038252
 20
43.9732193997
 30
0.0
  0
SPLINE
  5
2CE
100
AcDbEntity
  8
0
100
AcDbSpline
 62
7
  6
BYLAYER
 70
0
 71
3
 72
15
 73
11
 74
0
 42
0.0000001
 43
0.0000001
 44
0.0000000001
 40
0.0
 40
0.0
 40
0.0
 40
0.0
 40
0.1141536803
 40
0.2373245991
 40
0.3669741054
 40
0.4999983967
 40
0.6330229109
 40
0.7626730686
 40
0.8858450136
 40
1.0
 40
1.0
 40
1.0
 40
1.0
 10
47.3169092978
 20
18.0621346824
 30
0.0
 10
47.0942401607
 20
17.9335773635
 30
0.0
 10
46.6544272356
 20
17.6252734262
 30
0.0
 10
46.0492667149
 20
17.0590996945
 30
0.0
 10
45.4915763894
 20
16.3898372579
 30
0.0
 10
45.0023641095
 20
15.6425916648
 30
0.0
 10
44.5998398353
 20
14.8452953295
 30
0.0
 10
44.29908865
 20
14.0276848877
 30
0.0
 10
44.111348603
 20
13.2205066644
 30
0.0
 10
44.064255442
 20
12.6854604015
 30
0.0
 10
44.064255442
 20
12.4283416708
 30
0.0
  0
SPLINE
  5
2CF
100
AcDbEntity
  8
0
100
AcDbSpline
 62
7
  6
BYLAYER
 70
0
 71
3
 72
14
 73
10
 74
0
 42
0.0000001
 43
0.0000001
 44
0.0000000001
 40
0.0
 40
0.0
 40
0.0
 40
0.0
 40
0.2892602698
 40
0.4225584825
 40
0.5485027664
 40
0.6678850134
 40
0.7818651061
 40
0.8919518909
 40
1.0
 40
1.0
 40
1.0
 40
1.0
 10
49.6163851062
 20
16.0405621614
 30
0.0
 10
49.7809792582
 20
16.1355900721
 30
0.0
 10
50.0337030547
 20
16.2558663075
 30
0.0
 10
50.3802729723
 20
16.3569282892
 30
0.0
 10
50.6262712128
 20
16.3982077547
 30
0.0
 10
50.8629553578
 20
16.4063954963
 30
0.0
 10
51.0881114434
 20
16.3813149988
 30
0.0
 10
51.2993314396
 20
16.3229077108
 30
0.0
 10
51.4298633159
 20
16.2617726465
 30
0.0
 10
51.491348774
 20
16.2262839004
 30
0.0
  0
SPLINE
  5
2D0
100
AcDbEntity
  8
0
100
AcDbSpline
 62
7
  6
BYLAYER
 70
0
 71
3
 72
10
 73
6
 74
0
 42
0.0000001
 43
0.0000001
 44
0.0000000001
 40
0.0
 40
0.0
 40
0.0
 40
0.0
 40
0.2348910616
 40
0.4784386296
 40
1.0
 40
1.0
 40
1.0
 40
1.0
 10
49.2761656667
 20
18.4354602332
 30
0.0
 10
49.1968182851
 20
18.4587978152
 30
0.0
 10
49.0312899372
 20
18.4939395133
 30
0.0
 10
48.6791102828
 20
18.5174638589
 30
0.0
 10
48.4086747688
 20
18.4810813313
 30
0.0
 10
48.2300794211
 20
18.4382969049
 30
0.0
  0
SPLINE
  5
2D1
100
AcDbEntity
  8
0
100
AcDbSpline
 62
7
  6
BYLAYER
 70
0
 71
3
 72
9
 73
5
 74
0
 42
0.0000001
 43
0.0000001
 44
0.0000000001
 40
0.0
 40
0.0
 40
0.0
 40
0.0
 40
0.480348202
 40
1.0
 40
1.0
 40
1.0
 40
1.0
 10
48.2300794211
 20
18.4382969049
 30
0.0
 10
48.0759020906
 20
18.4013620757
 30
0.0
 10
47.761395882
 20
18.2962545508
 30
0.0
 10
47.4654431787
 20
18.1478902466
 30
0.0
 10
47.3169092978
 20
18.0621346824
 30
0.0
  0
SPLINE
  5
2D2
100
AcDbEntity
  8
0
100
AcDbSpline
 62
7
  6
BYLAYER
 70
0
 71
3
 72
15
 73
11
 74
0
 42
0.0000001
 43
0.0000001
 44
0.0000000001
 40
0.0
 40
0.0
 40
0.0
 40
0.0
 40
0.150948986
 40
0.2927239651
 40
0.4252926737
 40
0.5494860008
 40
0.6667423165
 40
0.7791150029
 40
0.8892314196
 40
1.0
 40
1.0
 40
1.0
 40
1.0
 10
46.1014671151
 20
19.4950565626
 30
0.0
 10
46.2469882871
 20
19.5790727478
 30
0.0
 10
46.5373985733
 20
19.7284220777
 30
0.0
 10
46.9810641151
 20
19.8967510555
 30
0.0
 10
47.4140148905
 20
19.9998401813
 30
0.0
 10
47.8305123546
 20
20.0359036907
 30
0.0
 10
48.2251441591
 20
20.003953466
 30
0.0
 10
48.5922113986
 20
19.9033841538
 30
0.0
 10
48.9257021377
 20
19.7354088391
 30
0.0
 10
49.119999939
 20
19.5816223182
 30
0.0
 10
49.2089333651
 20
19.496211481
 30
0.0
  0
SPLINE
  5
2D3
100
AcDbEntity
  8
0
100
AcDbSpline
 62
7
  6
BYLAYER
 70
0
 71
3
 72
14
 73
10
 74
0
 42
0.0000001
 43
0.0000001
 44
0.0000000001
 40
0.0
 40
0.0
 40
0.0
 40
0.0
 40
0.288030029
 40
0.4212925164
 40
0.5475318991
 40
0.6674038703
 40
0.781870804
 40
0.8922045493
 40
1.0
 40
1.0
 40
1.0
 40
1.0
 10
48.5629011751
 20
17.3721897027
 30
0.0
 10
48.7571816759
 20
17.4843569259
 30
0.0
 10
49.0551160726
 20
17.6274273212
 30
0.0
 10
49.4635571819
 20
17.7522478444
 30
0.0
 10
49.7545896069
 20
17.8071739811
 30
0.0
 10
50.0356241355
 20
17.8251259092
 30
0.0
 10
50.3043039177
 20
17.8058856528
 30
0.0
 10
50.5580700801
 20
17.7492593341
 30
0.0
 10
50.7168331573
 20
17.6864063894
 30
0.0
 10
50.7921202553
 20
17.6492479419
 30
0.0
  0
SPLINE
  5
2D4
100
AcDbEntity
  8
0
100
AcDbSpline
 62
7
  6
BYLAYER
 70
0
 71
3
 72
9
 73
5
 74
0
 42
0.0000001
 43
0.0000001
 44
0.0000000001
 40
0.0
 40
0.0
 40
0.0
 40
0.0
 40
0.4947755265
 40
1.0
 40
1.0
 40
1.0
 40
1.0
 10
50.7921202553
 20
17.6492479419
 30
0.0
 10
50.8913939424
 20
17.6002507539
 30
0.0
 10
51.081849192
 20
17.479088245
 30
0.0
 10
51.2420420843
 20
17.3203293449
 30
0.0
 10
51.314214277
 20
17.233321944
 30
0.0
  0
SPLINE
  5
2D5
100
AcDbEntity
  8
0
100
AcDbSpline
 62
7
  6
BYLAYER
 70
0
 71
3
 72
15
 73
11
 74
0
 42
0.0000001
 43
0.0000001
 44
0.0000000001
 40
0.0
 40
0.0
 40
0.0
 40
0.0
 40
0.1141522451
 40
0.2373148161
 40
0.366950935
 40
0.4999675557
 40
0.6329917284
 40
0.7626506531
 40
0.8858373605
 40
1.0
 40
1.0
 40
1.0
 40
1.0
 10
45.2847756421
 20
11.6942782073
 30
0.0
 10
45.2847756527
 20
11.9534042038
 30
0.0
 10
45.3322331491
 20
12.4926130012
 30
0.0
 10
45.521425036
 20
13.3060550807
 30
0.0
 10
45.8244908309
 20
14.1300066463
 30
0.0
 10
46.2301240412
 20
14.9335123038
 30
0.0
 10
46.7231502363
 20
15.6866241033
 30
0.0
 10
47.2852206693
 20
16.3611916214
 30
0.0
 10
47.8951714504
 20
16.9318587956
 30
0.0
 10
48.3384707069
 20
17.2426154928
 30
0.0
 10
48.5629011751
 20
17.3721897027
 30
0.0
  0
SPLINE
  5
2D6
100
AcDbEntity
  8
0
100
AcDbSpline
 62
7
  6
BYLAYER
 70
0
 71
3
 72
15
 73
11
 74
0
 42
0.0000001
 43
0.0000001
 44
0.0000000001
 40
0.0
 40
0.0
 40
0.0
 40
0.0
 40
0.1141522443
 40
0.237314817
 40
0.3669509345
 40
0.4999675559
 40
0.6329917284
 40
0.7626506531
 40
0.8858373606
 40
1.0
 40
1.0
 40
1.0
 40
1.0
 10
42.2155810153
 20
12.764467043
 30
0.0
 10
42.2155821513
 20
13.0716346884
 30
0.0
 10
42.2718365125
 20
13.7108121582
 30
0.0
 10
42.4961050996
 20
14.6750654237
 30
0.0
 10
42.8553587052
 20
15.6517766351
 30
0.0
 10
43.3361958951
 20
16.6042512785
 30
0.0
 10
43.9206285412
 20
17.4969891108
 30
0.0
 10
44.5869061676
 20
18.2966206411
 30
0.0
 10
45.3099410937
 20
18.9730888326
 30
0.0
 10
45.8354275088
 20
19.3414594431
 30
0.0
 10
46.1014671151
 20
19.4950565626
 30
0.0
  0
SPLINE
  5
2D7
100
AcDbEntity
  8
0
100
AcDbSpline
 62
7
  6
BYLAYER
 70
0
 71
3
 72
19
 73
15
 74
0
 42
0.0000001
 43
0.0000001
 44
0.0000000001
 40
0.0
 40
0.0
 40
0.0
 40
0.0
 40
0.0431681429
 40
0.0876015229
 40
0.1343914173
 40
0.1843420335
 40
0.2379505362
 40
0.2954144424
 40
0.3566880324
 40
0.4215230334
 40
0.5599960288
 40
0.7063903328
 40
0.8550389868
 40
1.0
 40
1.0
 40
1.0
 40
1.0
 10
21.2668324192
 20
47.0409765491
 30
0.0
 10
21.1844883721
 20
46.9934243581
 30
0.0
 10
21.0063661821
 20
46.914833983
 30
0.0
 10
20.7147587595
 20
46.8537807482
 30
0.0
 10
20.4021065844
 20
46.8492229473
 30
0.0
 10
20.0735227519
 20
46.9003583558
 30
0.0
 10
19.7337636862
 20
47.0059739538
 30
0.0
 10
19.3876535248
 20
47.1640876293
 30
0.0
 10
19.0401054893
 20
47.3722343289
 30
0.0
 10
18.5714240178
 20
47.719935612
 30
0.0
 10
18.0173075858
 20
48.260530461
 30
0.0
 10
17.4396083111
 20
49.0248815803
 30
0.0
 10
16.9678123117
 20
49.8749625628
 30
0.0
 10
16.7361487923
 20
50.4818459359
 30
0.0
 10
16.6465082225
 20
50.7883165194
 30
0.0
  0
SPLINE
  5
2D8
100
AcDbEntity
  8
0
100
AcDbSpline
 62
7
  6
BYLAYER
 70
0
 71
3
 72
15
 73
11
 74
0
 42
0.0000001
 43
0.0000001
 44
0.0000000001
 40
0.0
 40
0.0
 40
0.0
 40
0.0
 40
0.1080120351
 40
0.2180609276
 40
0.3320049916
 40
0.4513555801
 40
0.5772588794
 40
0.7104993721
 40
0.8514742921
 40
1.0
 40
1.0
 40
1.0
 40
1.0
 10
35.9090272656
 20
9.4324424332
 30
0.0
 10
35.9910042654
 20
9.4797715836
 30
0.0
 10
36.1485954228
 20
9.5897788489
 30
0.0
 10
36.3568945722
 20
9.7947006761
 30
0.0
 10
36.5359500659
 20
10.0379957028
 30
0.0
 10
36.6842968666
 20
10.3167740323
 30
0.0
 10
36.8006166444
 20
10.6283242158
 30
0.0
 10
36.8841387526
 20
10.9696294295
 30
0.0
 10
36.9340479827
 20
11.3373193185
 30
0.0
 10
36.9445913515
 20
11.5912009548
 30
0.0
 10
36.9445913515
 20
11.7213647489
 30
0.0
  0
SPLINE
  5
2D9
100
AcDbEntity
  8
0
100
AcDbSpline
 62
7
  6
BYLAYER
 70
0
 71
3
 72
25
 73
21
 74
0
 42
0.0000001
 43
0.0000001
 44
0.0000000001
 40
0.0
 40
0.0
 40
0.0
 40
0.0
 40
0.0628330841
 40
0.1297426844
 40
0.199940538
 40
0.2725348806
 40
0.3464774207
 40
0.4206698774
 40
0.4939992079
 40
0.5653912616
 40
0.6338654706
 40
0.698591208
 40
0.758956608
 40
0.8146459901
 40
0.8657338438
 40
0.9127877808
 40
0.9351739711
 40
0.9570221016
 40
0.9785522022
 40
1.0
 40
1.0
 40
1.0
 40
1.0
 10
38.2455875874
 20
14.5138500957
 30
0.0
 10
38.2455888605
 20
14.7749472503
 30
0.0
 10
38.2817873611
 20
15.3144468549
 30
0.0
 10
38.4302240195
 20
16.1333700177
 30
0.0
 10
38.6715124035
 20
16.972134392
 30
0.0
 10
39.0000468009
 20
17.8119954121
 30
0.0
 10
39.4087035325
 20
18.6344469319
 30
0.0
 10
39.888344374
 20
19.4211865654
 30
0.0
 10
40.4282969118
 20
20.1547546248
 30
0.0
 10
41.0165913535
 20
20.8188559352
 30
0.0
 10
41.6402440271
 20
21.3987735817
 30
0.0
 10
42.2856239452
 20
21.8816983179
 30
0.0
 10
42.9387995491
 20
22.2569924156
 30
0.0
 10
43.5861350938
 20
22.516132302
 30
0.0
 10
44.2140637796
 20
22.6526942876
 30
0.0
 10
44.719233822
 20
22.6599392327
 30
0.0
 10
45.0943727211
 20
22.5983077007
 30
0.0
 10
45.3572564795
 20
22.5209720253
 30
0.0
 10
45.6045383074
 20
22.4123321849
 30
0.0
 10
45.7577827571
 20
22.3194549441
 30
0.0
 10
45.8308466043
 20
22.2684174341
 30
0.0
  0
SPLINE
  5
2DA
100
AcDbEntity
  8
0
100
AcDbSpline
 62
7
  6
BYLAYER
 70
0
 71
3
 72
10
 73
6
 74
0
 42
0.0000001
 43
0.0000001
 44
0.0000000001
 40
0.0
 40
0.0
 40
0.0
 40
0.0
 40
0.4700095223
 40
0.7274871897
 40
1.0
 40
1.0
 40
1.0
 40
1.0
 10
38.6204669242
 20
12.6889261863
 30
0.0
 10
38.490192566
 20
12.9524587593
 30
0.0
 10
38.3500744426
 20
13.3922024774
 30
0.0
 10
38.2602005301
 20
14.0115056824
 30
0.0
 10
38.2455875874
 20
14.3434030529
 30
0.0
 10
38.2455875874
 20
14.5138500957
 30
0.0
  0
SPLINE
  5
2DB
100
AcDbEntity
  8
0
100
AcDbSpline
 62
7
  6
BYLAYER
 70
0
 71
3
 72
15
 73
11
 74
0
 42
0.0000001
 43
0.0000001
 44
0.0000000001
 40
0.0
 40
0.0
 40
0.0
 40
0.0
 40
0.1119007552
 40
0.2223058344
 40
0.3343781161
 40
0.4510553083
 40
0.5746760918
 40
0.7068939831
 40
0.8486661616
 40
1.0
 40
1.0
 40
1.0
 40
1.0
 10
45.3528969842
 20
9.6641906799
 30
0.0
 10
45.2366248823
 20
9.6905131232
 30
0.0
 10
45.0099394682
 20
9.7654993334
 30
0.0
 10
44.7002554255
 20
9.9466406915
 30
0.0
 10
44.4311004476
 20
10.1914934354
 30
0.0
 10
44.2070153111
 20
10.4954100752
 30
0.0
 10
44.0305817874
 20
10.8529259451
 30
0.0
 10
43.903773667
 20
11.2586623934
 30
0.0
 10
43.8279608293
 20
11.706565273
 30
0.0
 10
43.8121913225
 20
12.0191664675
 30
0.0
 10
43.8121913218
 20
12.1803912278
 30
0.0
  0
SPLINE
  5
2DC
100
AcDbEntity
  8
0
100
AcDbSpline
 62
7
  6
BYLAYER
 70
0
 71
3
 72
9
 73
5
 74
0
 42
0.0000001
 43
0.0000001
 44
0.0000000001
 40
0.0
 40
0.0
 40
0.0
 40
0.0
 40
0.5052034966
 40
1.0
 40
1.0
 40
1.0
 40
1.0
 10
46.7807376701
 20
9.3809306938
 30
0.0
 10
46.6692330772
 20
9.3999500054
 30
0.0
 10
46.4515002757
 20
9.4593372861
 30
0.0
 10
46.2512344454
 20
9.5638204263
 30
0.0
 10
46.1591173176
 20
9.6253649504
 30
0.0
  0
SPLINE
  5
2DD
100
AcDbEntity
  8
0
100
AcDbSpline
 62
7
  6
BYLAYER
 70
0
 71
3
 72
14
 73
10
 74
0
 42
0.0000001
 43
0.0000001
 44
0.0000000001
 40
0.0
 40
0.0
 40
0.0
 40
0.0
 40
0.1077858644
 40
0.21811979
 40
0.3325894044
 40
0.4524653632
 40
0.5787141343
 40
0.7119884691
 40
1.0
 40
1.0
 40
1.0
 40
1.0
 10
46.1591173176
 20
9.6253649504
 30
0.0
 10
46.0893236051
 20
9.6719949411
 30
0.0
 10
45.9555443347
 20
9.7780522609
 30
0.0
 10
45.7797183615
 20
9.9695362091
 30
0.0
 10
45.6287502446
 20
10.1925772562
 30
0.0
 10
45.5038285481
 20
10.4449282456
 30
0.0
 10
45.4059111127
 20
10.7244163831
 30
0.0
 10
45.3098343058
 20
11.1404936933
 30
0.0
 10
45.2847756512
 20
11.4699909804
 30
0.0
 10
45.2847756421
 20
11.6942782073
 30
0.0
  0
SPLINE
  5
2DE
100
AcDbEntity
  8
0
100
AcDbSpline
 62
7
  6
BYLAYER
 70
0
 71
3
 72
15
 73
11
 74
0
 42
0.0000001
 43
0.0000001
 44
0.0000000001
 40
0.0
 40
0.0
 40
0.0
 40
0.0
 40
0.1107507347
 40
0.2208584023
 40
0.3332297663
 40
0.4504900605
 40
0.574689797
 40
0.7072722871
 40
0.8490589515
 40
1.0
 40
1.0
 40
1.0
 40
1.0
 10
43.7683698401
 20
10.0726670631
 30
0.0
 10
43.6499487162
 20
10.106970777
 30
0.0
 10
43.4196252228
 20
10.1983089139
 30
0.0
 10
43.1074249892
 20
10.4031268836
 30
0.0
 10
42.8367823854
 20
10.6707238419
 30
0.0
 10
42.611758342
 20
10.9965134317
 30
0.0
 10
42.4347235736
 20
11.3752804408
 30
0.0
 10
42.307500986
 20
11.8018171384
 30
0.0
 10
42.2314528353
 20
12.2702450769
 30
0.0
 10
42.2155810153
 20
12.5964370026
 30
0.0
 10
42.2155810153
 20
12.764467043
 30
0.0
  0
SPLINE
  5
2DF
100
AcDbEntity
  8
0
100
AcDbSpline
 62
7
  6
BYLAYER
 70
0
 71
3
 72
13
 73
9
 74
0
 42
0.0000001
 43
0.0000001
 44
0.0000000001
 40
0.0
 40
0.0
 40
0.0
 40
0.0
 40
0.1824062468
 40
0.2868987069
 40
0.4026322861
 40
0.5309717269
 40
0.6729323302
 40
1.0
 40
1.0
 40
1.0
 40
1.0
 10
39.3266831194
 20
11.7794815923
 30
0.0
 10
39.2627111629
 20
11.8104874976
 30
0.0
 10
39.1701454462
 20
11.8763718762
 30
0.0
 10
39.0591623776
 20
11.9873606482
 30
0.0
 10
38.9723340919
 20
12.092117616
 30
0.0
 10
38.8852525082
 20
12.2149220263
 30
0.0
 10
38.7621339292
 20
12.4126443776
 30
0.0
 10
38.6769548594
 20
12.5746564934
 30
0.0
 10
38.6204669242
 20
12.6889261863
 30
0.0
  0
ELLIPSE
  5
2E0
100
AcDbEntity
  8
0
100
AcDbEllipse
 62
7
  6
BYLAYER
 10
13.4085296185
 20
70.7273865138
 30
0.0
 11
0.9299923169
 21
1.1915330745
 31
0.0
 40
0.4603521396
 41
1.3035558193
 42
1.9347884857
  0
ELLIPSE
  5
2E1
100
AcDbEntity
  8
0
100
AcDbEllipse
 62
7
  6
BYLAYER
 10
13.4380594274
 20
70.7103378564
 30
0.0
 11
0.8796278998
 21
1.2220268257
 31
0.0
 40
0.4980812638
 41
-4.3626931504
 42
-3.8769150956
  0
ELLIPSE
  5
2E2
100
AcDbEntity
  8
0
100
AcDbEllipse
 62
7
  6
BYLAYER
 10
26.9518349712
 20
72.2581654875
 30
0.0
 11
0.3455825078
 21
1.494683558
 31
0.0
 40
0.6959784253
 41
-2.1118349881
 42
-0.9948242668
  0
ELLIPSE
  5
2E3
100
AcDbEntity
  8
0
100
AcDbEllipse
 62
7
  6
BYLAYER
 10
22.8330224978
 20
65.2862761073
 30
0.0
 11
0.5782598723
 21
1.3920487312
 31
0.0
 40
0.6464645568
 41
1.3443265235
 42
2.2719460418
  0
ELLIPSE
  5
2E4
100
AcDbEntity
  8
0
100
AcDbEllipse
 62
7
  6
BYLAYER
 10
22.9435090311
 20
65.2224881206
 30
0.0
 11
0.3455825078
 21
1.494683558
 31
0.0
 40
0.6959784253
 41
1.0297576656
 42
1.2191488685
  0
ELLIPSE
  5
2E5
100
AcDbEntity
  8
0
100
AcDbEllipse
 62
7
  6
BYLAYER
 10
54.6222873767
 20
10.0885844565
 30
0.0
 11
3.0095731532
 21
2.5798185717
 31
0.0
 40
0.2183911805
 41
0.0
 42
6.2831853072
  0
ENDSEC
  0
SECTION
  2
OBJECTS
  0
DICTIONARY
  5
C
100
AcDbDictionary
280
0
281
1
  3
ACAD_GROUP
350
D
  3
ACAD_MLINESTYLE
350
17
  3
ACAD_LAYOUT
350
1A
  3
ACAD_PLOTSETTINGS
350
19
  3
ACAD_PLOTSTYLENAME
350
E
  0
DICTIONARY
  5
D
102
{ACAD_REACTORS
330
C
102
}
100
AcDbDictionary
280
0
281
1
  0
ACDBDICTIONARYWDFLT
  5
E
102
{ACAD_REACTORS
330
C
102
}
100
AcDbDictionary
281
1
  3
Normal
350
F
100
AcDbDictionaryWithDefault
340
F
  0
DICTIONARY
  5
17
102
{ACAD_REACTORS
330
C
102
}
100
AcDbDictionary
280
0
281
1
  3
Standard
350
18
  0
DICTIONARY
  5
19
102
{ACAD_REACTORS
330
C
102
}
100
AcDbDictionary
281
1
  0
DICTIONARY
  5
1A
102
{ACAD_REACTORS
330
C
102
}
100
AcDbDictionary
281
1
  3
Model
350
2E6
  3
Layout1
350
2E7
  0
ACDBPLACEHOLDER
  5
F
102
{ACAD_REACTORS
330
E
102
}
  0
MLINESTYLE
  5
18
102
{ACAD_REACTORS
330
17
102
}
100
AcDbMlineStyle
  2
STANDARD
 70
0
  3

 62
256
 51
90.0
 52
90.0
 71
2
 49
0.5
 62
256
  6
BYLAYER
 49
-0.5
 62
256
  6
BYLAYER
  0
LAYOUT
  5
2E6
102
{ACAD_REACTORS
330
1A
102
}
100
AcDbPlotSettings
  1

  2
none_device
  4

  6

 40
0.0
 41
0.0
 42
0.0
 43
0.0
 44
210.0
 45
297.0
 46
0.0
 47
0.0
 48
0.0
 49
0.0
140
0.0
141
0.0
142
1.0
143
1.0
 70
1024
 72
1
 73
0
 74
0
  7

 75
0
147
1.0
148
0.0
149
0.0
100
AcDbLayout
  1
Model
 70
0
 71
0
 10
0.0
 20
0.0
 11
210.0
 21
297.0
 12
0.0
 22
0.0
 32
0.0
 14
0.0
 24
0.0
 34
0.0
 15
0.0
 25
0.0
 35
0.0
146
0.0
 13
0.0
 23
0.0
 33
0.0
 16
1.0
 26
0.0
 36
0.0
 17
0.0
 27
1.0
 37
0.0
 76
0
330
210
345
0
346
0
  0
LAYOUT
  5
2E7
102
{ACAD_REACTORS
330
1A
102
}
100
AcDbPlotSettings
  1

  2
none_device
  4

  6

 40
0.0
 41
0.0
 42
0.0
 43
0.0
 44
210.0
 45
297.0
 46
0.0
 47
0.0
 48
0.0
 49
0.0
140
0.0
141
0.0
142
1.0
143
1.0
 70
0
 72
1
 73
0
 74
0
  7

 75
0
147
1.0
148
0.0
149
0.0
100
AcDbLayout
  1
Layout1
 70
0
 71
1
 10
0.0
 20
0.0
 11
210.0
 21
297.0
 12
0.0
 22
0.0
 32
0.0
 14
0.0
 24
0.0
 34
0.0
 15
0.0
 25
0.0
 35
0.0
146
0.0
 13
0.0
 23
0.0
 33
0.0
 16
1.0
 26
0.0
 36
0.0
 17
0.0
 27
1.0
 37
0.0
 76
0
330
211
345
0
346
0
  0
ENDSEC
  0
EOF
