999
DXF file: C:\Users\sesa63760\Dev\_Creo\CAD\MCADID0003524_3D-CAD\drw0001_1.dxf
999
Pro/ENGINEER 2019471 by Parametric Technology Corporation
  0
SECTION
  2
HEADER
  9
$ACADVER
  1
AC1024
  9
$DWGCODEPAGE
  3
ANSI_1252
  9
$EXTMAX
 10
185.5444002991
 20
262.4127947088
 30
0.0
  9
$EXTMIN
 10
0.0
 20
0.0
 30
0.0
  9
$LIMMIN
 10
0.0
 20
0.0
  9
$LIMMAX
 10
185.5444002991
 20
262.4127947088
  9
$VIEWCTR
 10
92.7722001496
 20
131.2063973544
  9
$VIEWSIZE
 40
262.4127947088
  9
$CLAYER
  8
0
  9
$LTSCALE
 40
17.1054266181
  9
$CELTYPE
  6
BYLAYER
  9
$DIMSCALE
 40
1.0
  9
$DIMASZ
 40
2.2088619083
  9
$DIMEXO
 40
1.0
  9
$DIMDLI
 40
11.8182947543
  9
$DIMEXE
 40
1.0
  9
$DIMCEN
 40
2.7990698102
  9
$DIMLFAC
 40
1.0
  9
$DIMBLK
  1
_FILLED
  9
$DIMALT
 70
0
  9
$DIMALTF
 40
0.0393700787
  9
$DIMTXT
 40
3.0924066717
  9
$DIMTOL
 70
1
  9
$DIMLIM
 70
0
  9
$DIMTFAC
 40
1.0
  9
$DIMTP
 40
0.01
  9
$DIMTM
 40
0.01
  9
$DIMGAP
 40
0.625
  9
$DIMDSEP
 70
46
  9
$AUNITS
 70
0
  9
$PDMODE
 70
3
  9
$PDSIZE
 40
0.3125
  9
$HANDSEED
  5
46F
  9
$TILEMODE
 70
1
  9
$MEASUREMENT
 70
1
  9
$INSUNITS
 70
4
  0
ENDSEC
  0
SECTION
  2
CLASSES
  0
CLASS
  1
ACDBDICTIONARYWDFLT
  2
AcDbDictionaryWithDefault
  3
AutoCAD 2000
 90
0
 91
1
280
0
281
0
  0
CLASS
  1
ACDBPLACEHOLDER
  2
AcDbPlaceHolder
  3
AutoCAD 2000
 90
0
 91
1
280
0
281
0
  0
CLASS
  1
LAYOUT
  2
AcDbLayout
  3
AutoCAD 2000
 90
0
 91
0
280
0
281
0
  0
ENDSEC
  0
SECTION
  2
TABLES
  0
TABLE
  2
VPORT
  5
8
100
AcDbSymbolTable
 70
2
  0
VPORT
  5
1F4
100
AcDbSymbolTableRecord
100
AcDbViewportTableRecord
  2
*ACTIVE
 70
0
 10
0.0
 20
0.0
 11
1.0
 21
1.0
 12
92.7722001496
 22
131.2063973544
 13
0.0
 23
0.0
 14
1.0
 24
1.0
 15
0.0
 25
0.0
 16
0.0
 26
0.0
 36
1.0
 17
0.0
 27
0.0
 37
0.0
 40
262.4127947088
 41
0.7070707071
 42
50.0
 43
0.0
 44
0.0
 50
0.0
 51
0.0
 71
0
 72
100
 73
1
 74
1
 75
0
 76
0
 77
0
 78
0
  0
ENDTAB
  0
TABLE
  2
LTYPE
  5
5
100
AcDbSymbolTable
 70
6
  0
LTYPE
  5
14
100
AcDbSymbolTableRecord
100
AcDbLinetypeTableRecord
  2
BYBLOCK
 70
0
  3

 72
65
 73
0
 40
0.0
  0
LTYPE
  5
15
100
AcDbSymbolTableRecord
100
AcDbLinetypeTableRecord
  2
BYLAYER
 70
0
  3

 72
65
 73
0
 40
0.0
  0
LTYPE
  5
16
100
AcDbSymbolTableRecord
100
AcDbLinetypeTableRecord
  2
CONTINUOUS
 70
64
  3
Solid line
 72
65
 73
0
 40
0.0
  0
LTYPE
  5
1F5
100
AcDbSymbolTableRecord
100
AcDbLinetypeTableRecord
  2
CENTER
 70
64
  3
____ _ ____ _ ____ _ ____ _ ____ _ ____ _ ____
 72
65
 73
4
 40
0.6
 49
0.375
 74
0
 49
-0.075
 74
0
 49
0.075
 74
0
 49
-0.075
 74
0
  0
LTYPE
  5
1F6
100
AcDbSymbolTableRecord
100
AcDbLinetypeTableRecord
  2
HIDDEN
 70
64
  3
- - - - - - - - - - - - - - - - - - - -
 72
65
 73
2
 40
0.2
 49
0.1
 74
0
 49
-0.1
 74
0
  0
LTYPE
  5
1F7
100
AcDbSymbolTableRecord
100
AcDbLinetypeTableRecord
  2
PHANTOM
 70
64
  3
_____ _ _ _____ _ _ _____ _ _ _____
 72
65
 73
6
 40
0.8
 49
0.45
 74
0
 49
-0.05
 74
0
 49
0.1
 74
0
 49
-0.05
 74
0
 49
0.1
 74
0
 49
-0.05
 74
0
  0
LTYPE
  5
1F8
100
AcDbSymbolTableRecord
100
AcDbLinetypeTableRecord
  2
DOT
 70
64
  3
. . . . . . . . . . . . . . . . . . . .
 72
65
 73
2
 40
0.2
 49
0.1
 74
0
 49
-0.1
 74
0
  0
LTYPE
  5
1F9
100
AcDbSymbolTableRecord
100
AcDbLinetypeTableRecord
  2
DASHED
 70
64
  3
- - - - - - - - - - - - - - - - - - - -
 72
65
 73
2
 40
0.2
 49
0.1
 74
0
 49
-0.1
 74
0
  0
ENDTAB
  0
TABLE
  2
LAYER
  5
2
100
AcDbSymbolTable
 70
36
  0
LAYER
  5
10
100
AcDbSymbolTableRecord
100
AcDbLayerTableRecord
  2
0
 70
0
 62
7
  6
CONTINUOUS
370
-3
390
F
  0
LAYER
  5
1FA
100
AcDbSymbolTableRecord
100
AcDbLayerTableRecord
  2
DEFAULT_1
 70
0
 62
7
  6
CENTER
370
-3
390
F
  0
LAYER
  5
1FB
100
AcDbSymbolTableRecord
100
AcDbLayerTableRecord
  2
DEFAULT_2
 70
0
 62
7
  6
HIDDEN
370
-3
390
F
  0
LAYER
  5
1FC
100
AcDbSymbolTableRecord
100
AcDbLayerTableRecord
  2
DEFAULT_3
 70
0
 62
7
  6
PHANTOM
370
-3
390
F
  0
LAYER
  5
1FD
100
AcDbSymbolTableRecord
100
AcDbLayerTableRecord
  2
00_COMPONENTS
 70
0
 62
7
  6
CONTINUOUS
370
-3
390
F
  0
LAYER
  5
1FE
100
AcDbSymbolTableRecord
100
AcDbLayerTableRecord
  2
01_1_DEFAULT_DATUMS
 70
0
 62
7
  6
CONTINUOUS
370
-3
390
F
  0
LAYER
  5
1FF
100
AcDbSymbolTableRecord
100
AcDbLayerTableRecord
  2
01_PLANES
 70
0
 62
7
  6
CONTINUOUS
370
-3
390
F
  0
LAYER
  5
200
100
AcDbSymbolTableRecord
100
AcDbLayerTableRecord
  2
02_COORD_SYS
 70
0
 62
7
  6
CONTINUOUS
370
-3
390
F
  0
LAYER
  5
201
100
AcDbSymbolTableRecord
100
AcDbLayerTableRecord
  2
03_AXES
 70
0
 62
7
  6
CONTINUOUS
370
-3
390
F
  0
LAYER
  5
202
100
AcDbSymbolTableRecord
100
AcDbLayerTableRecord
  2
04_POINTS
 70
0
 62
7
  6
CONTINUOUS
370
-3
390
F
  0
LAYER
  5
203
100
AcDbSymbolTableRecord
100
AcDbLayerTableRecord
  2
05_CURVES
 70
0
 62
7
  6
CONTINUOUS
370
-3
390
F
  0
LAYER
  5
204
100
AcDbSymbolTableRecord
100
AcDbLayerTableRecord
  2
06_SURFS
 70
0
 62
7
  6
CONTINUOUS
370
-3
390
F
  0
LAYER
  5
205
100
AcDbSymbolTableRecord
100
AcDbLayerTableRecord
  2
07_COSMETICS
 70
0
 62
7
  6
CONTINUOUS
370
-3
390
F
  0
LAYER
  5
206
100
AcDbSymbolTableRecord
100
AcDbLayerTableRecord
  2
10_NOTES
 70
0
 62
7
  6
CONTINUOUS
370
-3
390
F
  0
LAYER
  5
207
100
AcDbSymbolTableRecord
100
AcDbLayerTableRecord
  2
11_NOTES_PUB
 70
0
 62
7
  6
CONTINUOUS
370
-3
390
F
  0
LAYER
  5
208
100
AcDbSymbolTableRecord
100
AcDbLayerTableRecord
  2
13_REF_GTOL
 70
0
 62
7
  6
CONTINUOUS
370
-3
390
F
  0
LAYER
  5
209
100
AcDbSymbolTableRecord
100
AcDbLayerTableRecord
  2
16_MISC
 70
0
 62
7
  6
CONTINUOUS
370
-3
390
F
  0
LAYER
  5
20A
100
AcDbSymbolTableRecord
100
AcDbLayerTableRecord
  2
17_NO_PRINT
 70
0
 62
7
  6
CONTINUOUS
370
-3
390
F
  0
LAYER
  5
20B
100
AcDbSymbolTableRecord
100
AcDbLayerTableRecord
  2
18_DATUM_CAMS_JOINTS
 70
0
 62
7
  6
CONTINUOUS
370
-3
390
F
  0
LAYER
  5
20C
100
AcDbSymbolTableRecord
100
AcDbLayerTableRecord
  2
19_DATUM_FUNCTIONAL
 70
0
 62
7
  6
CONTINUOUS
370
-3
390
F
  0
LAYER
  5
20D
100
AcDbSymbolTableRecord
100
AcDbLayerTableRecord
  2
20_DATUM_KINEMATIC_SCHEME
 70
0
 62
7
  6
CONTINUOUS
370
-3
390
F
  0
ENDTAB
  0
TABLE
  2
STYLE
  5
3
100
AcDbSymbolTable
 70
1
  0
STYLE
  5
11
100
AcDbSymbolTableRecord
100
AcDbTextStyleTableRecord
  2
STANDARD
 70
0
 40
0.0
 41
1.0
 50
0.0
 71
0
 42
0.2
  3
ARIAL.TTF
  4

  0
STYLE
  5
20E
100
AcDbSymbolTableRecord
100
AcDbTextStyleTableRecord
  2
TEXTSTYLE_1
 70
0
 40
0.0
 41
0.8
 50
0.0
 71
0
 42
0.2
  3
gdt
  4

  0
ENDTAB
  0
TABLE
  2
VIEW
  5
6
100
AcDbSymbolTable
 70
0
  0
ENDTAB
  0
TABLE
  2
UCS
  5
7
100
AcDbSymbolTable
 70
0
  0
ENDTAB
  0
TABLE
  2
APPID
  5
9
100
AcDbSymbolTable
 70
1
  0
APPID
  5
20F
100
AcDbSymbolTableRecord
100
AcDbRegAppTableRecord
  2
ACAD
 70
0
  0
ENDTAB
  0
TABLE
  2
BLOCK_RECORD
  5
1
100
AcDbSymbolTable
 70
0
  0
BLOCK_RECORD
  5
210
100
AcDbSymbolTableRecord
100
AcDbBlockTableRecord
  2
*Model_Space
  0
BLOCK_RECORD
  5
211
100
AcDbSymbolTableRecord
100
AcDbBlockTableRecord
  2
*Paper_Space
  0
BLOCK_RECORD
  5
212
100
AcDbSymbolTableRecord
100
AcDbBlockTableRecord
  2
_FILLED
  0
ENDTAB
  0
TABLE
  2
DIMSTYLE
  5
A
100
AcDbSymbolTable
 70
1
100
AcDbDimStyleTable
 71
0
  0
DIMSTYLE
105
213
100
AcDbSymbolTableRecord
100
AcDbDimStyleTableRecord
  2
STANDARD
 70
0
  3

  4

 40
1.0
 41
2.2088619083
 42
1.0
 43
0.38
 44
1.0
 45
0.0
 46
0.0
 47
0.01
 48
0.01
140
3.0924066717
141
0.09
142
0.0
143
25.4
144
1.0
145
0.0
146
1.0
147
0.625
 71
1
 72
0
 73
0
 74
0
 75
0
 76
0
 77
1
 78
8
 79
2
170
0
171
1
172
0
173
0
174
0
175
0
176
0
177
0
178
0
270
2
179
2
271
2
272
2
273
2
274
2
275
0
280
0
281
0
282
0
283
1
284
8
285
0
286
0
287
3
288
0
340
11
278
46
341
212
342
212
343
212
344
212
  0
ENDTAB
  0
ENDSEC
  0
SECTION
  2
BLOCKS
  0
BLOCK
  5
20
100
AcDbEntity
  8
0
100
AcDbBlockBegin
  2
*Model_Space
 70
0
 10
0.0
 20
0.0
 30
0.0
  3
*Model_Space
  1

  0
ENDBLK
  5
21
100
AcDbEntity
  8
0
100
AcDbBlockEnd
  0
BLOCK
  5
1C
100
AcDbEntity
  8
0
100
AcDbBlockBegin
  2
*Paper_Space
 70
0
 10
0.0
 20
0.0
 30
0.0
  3
*Paper_Space
  1

  0
ENDBLK
  5
1D
100
AcDbEntity
  8
0
100
AcDbBlockEnd
  0
BLOCK
  5
214
100
AcDbEntity
  8
0
100
AcDbBlockBegin
  2
_FILLED
 70
64
 10
0.0
 20
0.0
  3
_FILLED
  1

  0
SOLID
  5
215
100
AcDbEntity
  8
0
  6
BYBLOCK
 62
0
100
AcDbTrace
 10
0.0
 20
0.0
 11
-1.0
 21
0.25
 12
-1.0
 22
-0.25
 13
-1.0
 23
-0.25
  0
ENDBLK
  5
216
100
AcDbEntity
  8
0
  6
BYBLOCK
 62
0
100
AcDbBlockEnd
  0
ENDSEC
  0
SECTION
  2
ENTITIES
  0
LINE
  5
217
100
AcDbEntity
  8
0
100
AcDbLine
 62
7
  6
BYLAYER
 10
21.9501628119
 20
189.302401829
 11
22.0362034511
 21
189.4558508019
  0
LINE
  5
218
100
AcDbEntity
  8
0
100
AcDbLine
 62
7
  6
BYLAYER
 10
21.9511998144
 20
189.3012353836
 11
22.126234435
 21
189.6070374498
  0
LINE
  5
219
100
AcDbEntity
  8
0
100
AcDbLine
 62
7
  6
BYLAYER
 10
22.0362034511
 20
189.4558508019
 11
22.1260629253
 21
189.6070724353
  0
LINE
  5
21A
100
AcDbEntity
  8
0
100
AcDbLine
 62
7
  6
BYLAYER
 10
85.6936568466
 20
29.5366572887
 11
78.8346925127
 21
33.4965926075
  0
LINE
  5
21B
100
AcDbEntity
  8
0
100
AcDbLine
 62
7
  6
BYLAYER
 10
37.065022908
 20
57.6117770394
 11
31.5997628728
 21
60.7670750095
  0
LINE
  5
21C
100
AcDbEntity
  8
0
100
AcDbLine
 62
7
  6
BYLAYER
 10
31.2878940081
 20
68.166025471
 11
31.1271255161
 21
68.2917974168
  0
LINE
  5
21D
100
AcDbEntity
  8
0
100
AcDbLine
 62
7
  6
BYLAYER
 10
31.1271255161
 20
103.8913028036
 11
31.1271255161
 21
68.2917974168
  0
LINE
  5
21E
100
AcDbEntity
  8
0
100
AcDbLine
 62
7
  6
BYLAYER
 10
31.5997628728
 20
60.7670750095
 11
31.5997628728
 21
67.9220451149
  0
LINE
  5
21F
100
AcDbEntity
  8
0
100
AcDbLine
 62
7
  6
BYLAYER
 10
31.5997628728
 20
104.1641784799
 11
31.5997628728
 21
111.0227987838
  0
LINE
  5
220
100
AcDbEntity
  8
0
100
AcDbLine
 62
7
  6
BYLAYER
 10
35.1352820589
 20
128.6592157203
 11
35.1352820589
 21
112.1271477106
  0
LINE
  5
221
100
AcDbEntity
  8
0
100
AcDbLine
 62
7
  6
BYLAYER
 10
38.5711044492
 20
115.6597951348
 11
37.8004075778
 21
117.9053770594
  0
LINE
  5
222
100
AcDbEntity
  8
0
100
AcDbLine
 62
7
  6
BYLAYER
 10
37.065022908
 20
108.2428659238
 11
37.065022908
 21
103.2371537726
  0
LINE
  5
223
100
AcDbEntity
  8
0
100
AcDbLine
 62
7
  6
BYLAYER
 10
37.065022908
 20
59.9625256647
 11
37.065022908
 21
56.0024889417
  0
LINE
  5
224
100
AcDbEntity
  8
0
100
AcDbLine
 62
7
  6
BYLAYER
 10
85.6936568466
 20
72.9337607591
 11
82.1581082209
 21
74.9749645317
  0
LINE
  5
225
100
AcDbEntity
  8
0
100
AcDbLine
 62
7
  6
BYLAYER
 10
35.1353114986
 20
102.1229747073
 11
31.5997628728
 21
104.1641784799
  0
LINE
  5
226
100
AcDbEntity
  8
0
100
AcDbLine
 62
7
  6
BYLAYER
 10
102.2529349334
 20
65.9344210374
 11
101.4840682536
 21
66.3783163797
  0
LINE
  5
227
100
AcDbEntity
  8
0
100
AcDbLine
 62
7
  6
BYLAYER
 10
39.2146152523
 20
118.7218653671
 11
39.9020497297
 21
116.7188853444
  0
LINE
  5
228
100
AcDbEntity
  8
0
100
AcDbLine
 62
7
  6
BYLAYER
 10
50.9391844159
 20
135.7834329577
 11
50.9391844159
 21
123.5358967007
  0
LINE
  5
229
100
AcDbEntity
  8
0
100
AcDbLine
 62
7
  6
BYLAYER
 10
50.9391844159
 20
119.5350348568
 11
50.9391844159
 21
122.7193942836
  0
LINE
  5
22A
100
AcDbEntity
  8
0
100
AcDbLine
 62
7
  6
BYLAYER
 10
53.3829788951
 20
145.9080971296
 11
53.3829788951
 21
142.3586276104
  0
LINE
  5
22B
100
AcDbEntity
  8
0
100
AcDbLine
 62
7
  6
BYLAYER
 10
53.5430931626
 20
142.5884642332
 11
53.5430931626
 21
145.2212319414
  0
LINE
  5
22C
100
AcDbEntity
  8
0
100
AcDbLine
 62
7
  6
BYLAYER
 10
109.3109250095
 20
73.4234265826
 11
108.8866627072
 21
73.6683689957
  0
LINE
  5
22D
100
AcDbEntity
  8
0
100
AcDbLine
 62
7
  6
BYLAYER
 10
84.5315537727
 20
88.2199748296
 11
82.5554842211
 21
89.3608333075
  0
LINE
  5
22E
100
AcDbEntity
  8
0
100
AcDbLine
 62
7
  6
BYLAYER
 10
40.0031855515
 20
113.9278586186
 11
39.8370819901
 21
114.023756385
  0
LINE
  5
22F
100
AcDbEntity
  8
0
100
AcDbLine
 62
7
  6
BYLAYER
 10
53.696912344
 20
121.127255341
 11
53.696912344
 21
121.9437577581
  0
LINE
  5
230
100
AcDbEntity
  8
0
100
AcDbLine
 62
7
  6
BYLAYER
 10
55.1329788951
 20
146.7529721069
 11
55.1329788951
 21
145.9080971296
  0
LINE
  5
231
100
AcDbEntity
  8
0
100
AcDbLine
 62
7
  6
BYLAYER
 10
56.6933126206
 20
143.4024930347
 11
56.6933126206
 21
143.7914635396
  0
LINE
  5
232
100
AcDbEntity
  8
0
100
AcDbLine
 62
7
  6
BYLAYER
 10
60.6329788951
 20
146.7529721069
 11
60.6329788951
 21
145.9080971296
  0
LINE
  5
233
100
AcDbEntity
  8
0
100
AcDbLine
 62
7
  6
BYLAYER
 10
38.9881385469
 20
108.2701707326
 11
38.7128106695
 21
107.7030774605
  0
LINE
  5
234
100
AcDbEntity
  8
0
100
AcDbLine
 62
7
  6
BYLAYER
 10
35.0981589707
 20
111.9596218337
 11
35.2635034243
 21
111.9163979295
  0
LINE
  5
235
100
AcDbEntity
  8
0
100
AcDbLine
 62
7
  6
BYLAYER
 10
35.0981589707
 20
111.9596218337
 11
35.2640084817
 21
111.9139673375
  0
LINE
  5
236
100
AcDbEntity
  8
0
100
AcDbLine
 62
7
  6
BYLAYER
 10
39.0682361246
 20
119.5299546967
 11
41.0401280049
 21
118.3915081439
  0
LINE
  5
237
100
AcDbEntity
  8
0
100
AcDbLine
 62
7
  6
BYLAYER
 10
83.3201524154
 20
93.9816768933
 11
85.296221967
 21
92.8408184154
  0
LINE
  5
238
100
AcDbEntity
  8
0
100
AcDbLine
 62
7
  6
BYLAYER
 10
46.0247830133
 20
120.8209867748
 11
46.6579976619
 21
120.4554083974
  0
LINE
  5
239
100
AcDbEntity
  8
0
100
AcDbLine
 62
7
  6
BYLAYER
 10
75.0194658482
 20
104.0812775377
 11
75.6526804969
 21
103.7156991604
  0
LINE
  5
23A
100
AcDbEntity
  8
0
100
AcDbLine
 62
7
  6
BYLAYER
 10
53.3829773775
 20
145.908097129
 11
53.5430931626
 21
145.2212319414
  0
LINE
  5
23B
100
AcDbEntity
  8
0
100
AcDbLine
 62
7
  6
BYLAYER
 10
67.5109135626
 20
154.064815324
 11
67.5109135626
 21
150.728615199
  0
LINE
  5
23C
100
AcDbEntity
  8
0
100
AcDbLine
 62
7
  6
BYLAYER
 10
67.671145471
 20
137.453552171
 11
67.671145471
 21
137.064581666
  0
LINE
  5
23D
100
AcDbEntity
  8
0
100
AcDbLine
 62
7
  6
BYLAYER
 10
69.2609135626
 20
154.9096903012
 11
69.2609135626
 21
154.064815324
  0
LINE
  5
23E
100
AcDbEntity
  8
0
100
AcDbLine
 62
7
  6
BYLAYER
 10
69.2610312035
 20
138.5963218316
 11
69.2610312035
 21
137.7514468543
  0
LINE
  5
23F
100
AcDbEntity
  8
0
100
AcDbLine
 62
7
  6
BYLAYER
 10
76.0718744756
 20
151.3960451791
 11
76.1164134185
 21
151.5129747752
  0
LINE
  5
240
100
AcDbEntity
  8
0
100
AcDbLine
 62
7
  6
BYLAYER
 10
75.4788827411
 20
151.6546410716
 11
75.3718076095
 21
151.3816607442
  0
LINE
  5
241
100
AcDbEntity
  8
0
100
AcDbLine
 62
7
  6
BYLAYER
 10
41.7996577356
 20
118.1574395409
 11
41.6259239372
 21
117.9784812829
  0
LINE
  5
242
100
AcDbEntity
  8
0
100
AcDbLine
 62
7
  6
BYLAYER
 10
74.8149385135
 20
155.6383900879
 11
90.1925507524
 21
164.5166056577
  0
LINE
  5
243
100
AcDbEntity
  8
0
100
AcDbLine
 62
7
  6
BYLAYER
 10
61.6096532216
 20
147.3215412901
 11
68.0688270506
 21
151.0507247788
  0
LINE
  5
244
100
AcDbEntity
  8
0
100
AcDbLine
 62
7
  6
BYLAYER
 10
87.7086716813
 20
159.1119484083
 11
86.4358847743
 21
158.3771089313
  0
LINE
  5
245
100
AcDbEntity
  8
0
100
AcDbLine
 62
7
  6
BYLAYER
 10
48.1063692397
 20
136.1480316936
 11
35.1352820589
 21
128.6592157203
  0
LINE
  5
246
100
AcDbEntity
  8
0
100
AcDbLine
 62
7
  6
BYLAYER
 10
87.8501042246
 20
157.5606274223
 11
89.1228911316
 21
158.2954668993
  0
LINE
  5
247
100
AcDbEntity
  8
0
100
AcDbLine
 62
7
  6
BYLAYER
 10
103.03868876
 20
165.9416492894
 11
102.6289658329
 21
165.7050970592
  0
LINE
  5
248
100
AcDbEntity
  8
0
100
AcDbLine
 62
7
  6
BYLAYER
 10
89.1228911316
 20
157.4775469379
 11
88.5016995032
 21
157.1189039248
  0
LINE
  5
249
100
AcDbEntity
  8
0
100
AcDbLine
 62
7
  6
BYLAYER
 10
70.7209511686
 20
156.311870553
 11
70.0663618185
 21
156.0323523762
  0
LINE
  5
24A
100
AcDbEntity
  8
0
100
AcDbLine
 62
7
  6
BYLAYER
 10
56.5930165011
 20
148.1551523586
 11
55.9384271509
 21
147.8756341818
  0
LINE
  5
24B
100
AcDbEntity
  8
0
100
AcDbLine
 62
7
  6
BYLAYER
 10
38.7128106695
 20
107.7030774605
 11
38.2262154571
 21
107.7147605147
  0
LINE
  5
24C
100
AcDbEntity
  8
0
100
AcDbLine
 62
7
  6
BYLAYER
 10
73.4252736756
 20
106.5529788631
 11
50.9391844159
 21
119.5350348568
  0
LINE
  5
24D
100
AcDbEntity
  8
0
100
AcDbLine
 62
7
  6
BYLAYER
 10
35.1352820589
 20
128.6592157203
 11
47.368280304
 21
121.5966506671
  0
LINE
  5
24E
100
AcDbEntity
  8
0
100
AcDbLine
 62
7
  6
BYLAYER
 10
76.9961777876
 20
104.4913630527
 11
89.2291760327
 21
97.4287979995
  0
LINE
  5
24F
100
AcDbEntity
  8
0
100
AcDbLine
 62
7
  6
BYLAYER
 10
73.4252736756
 20
109.7373382899
 11
70.6675457476
 21
111.3294772325
  0
LINE
  5
250
100
AcDbEntity
  8
0
100
AcDbLine
 62
7
  6
BYLAYER
 10
53.696912344
 20
121.127255341
 11
50.9391844159
 21
122.7193942836
  0
LINE
  5
251
100
AcDbEntity
  8
0
100
AcDbLine
 62
7
  6
BYLAYER
 10
73.4252736756
 20
110.553840707
 11
70.6675457476
 21
112.1459796496
  0
LINE
  5
252
100
AcDbEntity
  8
0
100
AcDbLine
 62
7
  6
BYLAYER
 10
53.696912344
 20
121.9437577581
 11
50.9391844159
 21
123.5358967007
  0
LINE
  5
253
100
AcDbEntity
  8
0
100
AcDbLine
 62
7
  6
BYLAYER
 10
77.2436162894
 20
112.7583486838
 11
77.9507382338
 21
112.3501008746
  0
LINE
  5
254
100
AcDbEntity
  8
0
100
AcDbLine
 62
7
  6
BYLAYER
 10
76.1714201557
 20
103.0041384235
 11
76.132349478
 21
103.1056494896
  0
LINE
  5
255
100
AcDbEntity
  8
0
100
AcDbLine
 62
7
  6
BYLAYER
 10
67.5110312037
 20
138.5425119481
 11
67.671145471
 21
137.453552171
  0
LINE
  5
256
100
AcDbEntity
  8
0
100
AcDbLine
 62
7
  6
BYLAYER
 10
78.8700297463
 20
89.6549502113
 11
78.8663615216
 21
89.7065750607
  0
LINE
  5
257
100
AcDbEntity
  8
0
100
AcDbLine
 62
7
  6
BYLAYER
 10
70.6675457476
 20
111.3294772325
 11
70.6675457476
 21
112.1459796496
  0
LINE
  5
258
100
AcDbEntity
  8
0
100
AcDbLine
 62
7
  6
BYLAYER
 10
70.821364929
 20
135.2458427593
 11
70.821364929
 21
132.6130750512
  0
LINE
  5
259
100
AcDbEntity
  8
0
100
AcDbLine
 62
7
  6
BYLAYER
 10
73.4252736756
 20
122.8013769639
 11
73.4252736756
 21
110.553840707
  0
LINE
  5
25A
100
AcDbEntity
  8
0
100
AcDbLine
 62
7
  6
BYLAYER
 10
73.4252736756
 20
109.7373382899
 11
73.4252736756
 21
106.5529788631
  0
LINE
  5
25B
100
AcDbEntity
  8
0
100
AcDbLine
 62
7
  6
BYLAYER
 10
74.7609135626
 20
154.9096903012
 11
74.7609135626
 21
154.064815324
  0
LINE
  5
25C
100
AcDbEntity
  8
0
100
AcDbLine
 62
7
  6
BYLAYER
 10
74.7610312035
 20
138.5963218316
 11
74.7610312035
 21
137.7514468543
  0
LINE
  5
25D
100
AcDbEntity
  8
0
100
AcDbLine
 62
7
  6
BYLAYER
 10
75.3717921331
 20
151.3816602703
 11
75.3717921331
 21
150.5640617418
  0
LINE
  5
25E
100
AcDbEntity
  8
0
100
AcDbLine
 62
7
  6
BYLAYER
 10
76.1164145063
 20
151.5129823361
 11
76.1164145063
 21
151.3053438865
  0
LINE
  5
25F
100
AcDbEntity
  8
0
100
AcDbLine
 62
7
  6
BYLAYER
 10
76.3507992951
 20
155.1406510173
 11
76.3507992951
 21
154.7516805123
  0
LINE
  5
260
100
AcDbEntity
  8
0
100
AcDbLine
 62
7
  6
BYLAYER
 10
76.5110312035
 20
137.7514468543
 11
76.5110312035
 21
134.0817065406
  0
LINE
  5
261
100
AcDbEntity
  8
0
100
AcDbLine
 62
7
  6
BYLAYER
 10
76.9134576499
 20
153.5203995401
 11
76.913457647
 21
152.6938344663
  0
LINE
  5
262
100
AcDbEntity
  8
0
100
AcDbLine
 62
7
  6
BYLAYER
 10
77.0673371115
 20
150.7375764766
 11
77.0673371115
 21
149.919150559
  0
LINE
  5
263
100
AcDbEntity
  8
0
100
AcDbLine
 62
7
  6
BYLAYER
 10
77.143129275
 20
152.1057486038
 11
77.143129275
 21
151.2889132196
  0
LINE
  5
264
100
AcDbEntity
  8
0
100
AcDbLine
 62
7
  6
BYLAYER
 10
77.4409882139
 20
32.6919418586
 11
77.4409882139
 21
36.6519785816
  0
LINE
  5
265
100
AcDbEntity
  8
0
100
AcDbLine
 62
7
  6
BYLAYER
 10
77.4409882139
 20
79.9266066895
 11
77.4409882139
 21
84.9323188407
  0
LINE
  5
266
100
AcDbEntity
  8
0
100
AcDbLine
 62
7
  6
BYLAYER
 10
77.9507382338
 20
112.3501008746
 11
77.9507382338
 21
113.1666032918
  0
LINE
  5
267
100
AcDbEntity
  8
0
100
AcDbLine
 62
7
  6
BYLAYER
 10
78.4425126604
 20
151.5315297111
 11
78.4425126604
 21
150.7131037933
  0
LINE
  5
268
100
AcDbEntity
  8
0
100
AcDbLine
 62
7
  6
BYLAYER
 10
78.549606354
 20
151.8307288395
 11
78.549606354
 21
151.013130311
  0
LINE
  5
269
100
AcDbEntity
  8
0
100
AcDbLine
 62
7
  6
BYLAYER
 10
80.5481807773
 20
151.7239935393
 11
80.5197478861
 21
151.4383540036
  0
LINE
  5
26A
100
AcDbEntity
  8
0
100
AcDbLine
 62
7
  6
BYLAYER
 10
83.5516167175
 20
156.0337770382
 11
83.5584313367
 21
156.0633997857
  0
LINE
  5
26B
100
AcDbEntity
  8
0
100
AcDbLine
 62
7
  6
BYLAYER
 10
78.5495723737
 20
151.0131313011
 11
78.4425126631
 21
150.7131037963
  0
LINE
  5
26C
100
AcDbEntity
  8
0
100
AcDbLine
 62
7
  6
BYLAYER
 10
78.4425157454
 20
151.5315379507
 11
78.5495908776
 21
151.8307292614
  0
LINE
  5
26D
100
AcDbEntity
  8
0
100
AcDbLine
 62
7
  6
BYLAYER
 10
77.8495240117
 20
151.8451141407
 11
77.8049850711
 21
151.7236387378
  0
LINE
  5
26E
100
AcDbEntity
  8
0
100
AcDbLine
 62
7
  6
BYLAYER
 10
98.4292731746
 20
161.0359225184
 11
98.3497239929
 21
160.9899950511
  0
LINE
  5
26F
100
AcDbEntity
  8
0
100
AcDbLine
 62
7
  6
BYLAYER
 10
102.6003022214
 20
163.396874947
 11
98.4637447737
 21
161.0086466468
  0
LINE
  5
270
100
AcDbEntity
  8
0
100
AcDbLine
 62
7
  6
BYLAYER
 10
101.9073514713
 20
161.0912986475
 11
105.796422576
 21
163.3366414938
  0
LINE
  5
271
100
AcDbEntity
  8
0
100
AcDbLine
 62
7
  6
BYLAYER
 10
37.8004075778
 20
117.9053770594
 11
39.2146152523
 21
118.7218653671
  0
LINE
  5
272
100
AcDbEntity
  8
0
100
AcDbLine
 62
7
  6
BYLAYER
 10
84.8490034771
 20
148.1552202777
 11
84.1944141269
 21
147.8757021009
  0
LINE
  5
273
100
AcDbEntity
  8
0
100
AcDbLine
 62
7
  6
BYLAYER
 10
70.7210688095
 20
139.9985020833
 11
70.0664794594
 21
139.7189839065
  0
LINE
  5
274
100
AcDbEntity
  8
0
100
AcDbLine
 62
7
  6
BYLAYER
 10
50.9391844159
 20
134.5125420888
 11
42.646112478
 21
139.3004410878
  0
LINE
  5
275
100
AcDbEntity
  8
0
100
AcDbLine
 62
7
  6
BYLAYER
 10
78.1783761666
 20
118.7863431732
 11
90.3760189254
 21
111.7441901577
  0
LINE
  5
276
100
AcDbEntity
  8
0
100
AcDbLine
 62
7
  6
BYLAYER
 10
78.1785123585
 20
118.7865793499
 11
76.9085324722
 21
119.9814673227
  0
LINE
  5
277
100
AcDbEntity
  8
0
100
AcDbLine
 62
7
  6
BYLAYER
 10
89.106175231
 20
112.9393143072
 11
90.3760808141
 21
111.7442974531
  0
LINE
  5
278
100
AcDbEntity
  8
0
100
AcDbLine
 62
7
  6
BYLAYER
 10
78.8346925127
 20
33.4965926075
 11
78.8346925127
 21
35.6987564767
  0
LINE
  5
279
100
AcDbEntity
  8
0
100
AcDbLine
 62
7
  6
BYLAYER
 10
78.8346925127
 20
35.9476088075
 11
78.8346925127
 21
37.4566293306
  0
LINE
  5
27A
100
AcDbEntity
  8
0
100
AcDbLine
 62
7
  6
BYLAYER
 10
78.8346925127
 20
80.7312574385
 11
78.8346925127
 21
85.7369695896
  0
LINE
  5
27B
100
AcDbEntity
  8
0
100
AcDbLine
 62
7
  6
BYLAYER
 10
80.5197478861
 20
151.4383540036
 11
80.5197478829
 21
150.6117889228
  0
LINE
  5
27C
100
AcDbEntity
  8
0
100
AcDbLine
 62
7
  6
BYLAYER
 10
81.8397157203
 20
154.4404832879
 11
81.8397157203
 21
153.6239808708
  0
LINE
  5
27D
100
AcDbEntity
  8
0
100
AcDbLine
 62
7
  6
BYLAYER
 10
83.388965871
 20
146.7530400259
 11
83.388965871
 21
145.9081650487
  0
LINE
  5
27E
100
AcDbEntity
  8
0
100
AcDbLine
 62
7
  6
BYLAYER
 10
83.5516167175
 20
155.2172174243
 11
83.5516167175
 21
156.0337481203
  0
LINE
  5
27F
100
AcDbEntity
  8
0
100
AcDbLine
 62
7
  6
BYLAYER
 10
83.8033813308
 20
155.1054362038
 11
83.8033813308
 21
155.92198104
  0
LINE
  5
280
100
AcDbEntity
  8
0
100
AcDbLine
 62
7
  6
BYLAYER
 10
85.2210194898
 20
37.061379696
 11
85.2210194898
 21
72.6608850828
  0
LINE
  5
281
100
AcDbEntity
  8
0
100
AcDbLine
 62
7
  6
BYLAYER
 10
85.6936568466
 20
79.792381063
 11
85.6936568466
 21
72.9337607591
  0
LINE
  5
282
100
AcDbEntity
  8
0
100
AcDbLine
 62
7
  6
BYLAYER
 10
85.6936568466
 20
37.3342553723
 11
85.6936568466
 21
29.5366572887
  0
LINE
  5
283
100
AcDbEntity
  8
0
100
AcDbLine
 62
7
  6
BYLAYER
 10
46.0247830133
 20
120.8209867748
 11
47.368280304
 21
121.5966506671
  0
LINE
  5
284
100
AcDbEntity
  8
0
100
AcDbLine
 62
7
  6
BYLAYER
 10
41.7995324076
 20
118.1576835159
 11
45.9080010196
 21
120.5296948159
  0
LINE
  5
285
100
AcDbEntity
  8
0
100
AcDbLine
 62
7
  6
BYLAYER
 10
39.9020497297
 20
116.7188853444
 11
41.4612310383
 21
117.6190737193
  0
LINE
  5
286
100
AcDbEntity
  8
0
100
AcDbLine
 62
7
  6
BYLAYER
 10
42.4878133513
 20
118.0477657348
 11
46.6579976619
 21
120.4554083974
  0
LINE
  5
287
100
AcDbEntity
  8
0
100
AcDbLine
 62
7
  6
BYLAYER
 10
41.2841460539
 20
117.2326230395
 11
38.5692534434
 21
115.6651884162
  0
LINE
  5
288
100
AcDbEntity
  8
0
100
AcDbLine
 62
7
  6
BYLAYER
 10
50.9391844159
 20
122.7193942836
 11
51.6463063603
 21
123.1276488916
  0
LINE
  5
289
100
AcDbEntity
  8
0
100
AcDbLine
 62
7
  6
BYLAYER
 10
34.0039159194
 20
112.410828907
 11
31.5997628728
 21
111.0227987838
  0
LINE
  5
28A
100
AcDbEntity
  8
0
100
AcDbLine
 62
7
  6
BYLAYER
 10
35.8601739315
 20
112.5725846763
 11
35.1030304569
 21
112.1354502967
  0
LINE
  5
28B
100
AcDbEntity
  8
0
100
AcDbLine
 62
7
  6
BYLAYER
 10
35.0981589707
 20
111.9596218337
 11
35.3102901218
 21
112.0820950799
  0
LINE
  5
28C
100
AcDbEntity
  8
0
100
AcDbLine
 62
7
  6
BYLAYER
 10
36.9745251485
 20
112.6703648651
 11
35.6310278578
 21
111.8947009727
  0
LINE
  5
28D
100
AcDbEntity
  8
0
100
AcDbLine
 62
7
  6
BYLAYER
 10
39.8370819901
 20
114.023756385
 11
40.0647772827
 21
114.1552155388
  0
LINE
  5
28E
100
AcDbEntity
  8
0
100
AcDbLine
 62
7
  6
BYLAYER
 10
32.3461099799
 20
107.5256211745
 11
33.7603176543
 21
108.3421094822
  0
LINE
  5
28F
100
AcDbEntity
  8
0
100
AcDbLine
 62
7
  6
BYLAYER
 10
38.4587272068
 20
109.0475166727
 11
37.065022908
 21
108.2428659238
  0
LINE
  5
290
100
AcDbEntity
  8
0
100
AcDbLine
 62
7
  6
BYLAYER
 10
31.5997628728
 20
104.1641784799
 11
31.1271255161
 21
103.8913028036
  0
LINE
  5
291
100
AcDbEntity
  8
0
100
AcDbLine
 62
7
  6
BYLAYER
 10
38.2262154571
 20
107.7147605147
 11
38.9102109523
 21
108.1096631407
  0
LINE
  5
292
100
AcDbEntity
  8
0
100
AcDbLine
 62
7
  6
BYLAYER
 10
109.3109250095
 20
109.0229319695
 11
98.9545323645
 21
115.0020627849
  0
LINE
  5
293
100
AcDbEntity
  8
0
100
AcDbLine
 62
7
  6
BYLAYER
 10
97.3759438537
 20
117.6963818772
 11
98.931585249
 21
116.7982522173
  0
LINE
  5
294
100
AcDbEntity
  8
0
100
AcDbLine
 62
7
  6
BYLAYER
 10
70.821364929
 20
135.2458427593
 11
67.671145471
 21
137.064581666
  0
LINE
  5
295
100
AcDbEntity
  8
0
100
AcDbLine
 62
7
  6
BYLAYER
 10
56.6933126206
 20
143.4024930347
 11
53.5430931626
 21
145.2212319414
  0
LINE
  5
296
100
AcDbEntity
  8
0
100
AcDbLine
 62
7
  6
BYLAYER
 10
92.7264733501
 20
113.2782796936
 11
89.6708137079
 21
117.7505509526
  0
LINE
  5
297
100
AcDbEntity
  8
0
100
AcDbLine
 62
7
  6
BYLAYER
 10
87.3286321456
 20
148.4137691437
 11
87.3286321456
 21
148.8027396487
  0
LINE
  5
298
100
AcDbEntity
  8
0
100
AcDbLine
 62
7
  6
BYLAYER
 10
88.0978098931
 20
81.1804111862
 11
88.0978098931
 21
79.0867255136
  0
LINE
  5
299
100
AcDbEntity
  8
0
100
AcDbLine
 62
7
  6
BYLAYER
 10
88.888965871
 20
146.7530400259
 11
88.888965871
 21
145.9081650487
  0
LINE
  5
29A
100
AcDbEntity
  8
0
100
AcDbLine
 62
7
  6
BYLAYER
 10
89.1228911316
 20
158.2954668993
 11
89.1228911316
 21
157.4775469379
  0
LINE
  5
29B
100
AcDbEntity
  8
0
100
AcDbLine
 62
7
  6
BYLAYER
 10
89.1814691865
 20
157.562013809
 11
89.1814691865
 21
158.379772188
  0
LINE
  5
29C
100
AcDbEntity
  8
0
100
AcDbLine
 62
7
  6
BYLAYER
 10
89.2291760327
 20
79.7399161598
 11
89.2291760327
 21
97.4287979995
  0
LINE
  5
29D
100
AcDbEntity
  8
0
100
AcDbLine
 62
7
  6
BYLAYER
 10
89.2643236749
 20
156.5559702264
 11
89.2643236749
 21
155.7264373207
  0
LINE
  5
29E
100
AcDbEntity
  8
0
100
AcDbLine
 62
7
  6
BYLAYER
 10
90.638965871
 20
145.9081650487
 11
90.638965871
 21
142.238424735
  0
LINE
  5
29F
100
AcDbEntity
  8
0
100
AcDbLine
 62
7
  6
BYLAYER
 10
94.1335822567
 20
231.0790587743
 11
94.1335822567
 21
163.4241305499
  0
LINE
  5
2A0
100
AcDbEntity
  8
0
100
AcDbLine
 62
7
  6
BYLAYER
 10
89.6708137079
 20
117.7505509526
 11
92.8202659645
 21
125.7427947353
  0
LINE
  5
2A1
100
AcDbEntity
  8
0
100
AcDbLine
 62
7
  6
BYLAYER
 10
107.7801289567
 20
144.9216347912
 11
107.7441048577
 21
144.9004031131
  0
LINE
  5
2A2
100
AcDbEntity
  8
0
100
AcDbLine
 62
7
  6
BYLAYER
 10
35.0960976684
 20
102.7624743457
 11
36.5103053429
 21
103.5789626534
  0
LINE
  5
2A3
100
AcDbEntity
  8
0
100
AcDbLine
 62
7
  6
BYLAYER
 10
35.1353114986
 20
102.1229747073
 11
34.1538960575
 21
101.5563576205
  0
LINE
  5
2A4
100
AcDbEntity
  8
0
100
AcDbLine
 62
7
  6
BYLAYER
 10
73.4252736756
 20
122.8013769639
 11
76.0533573154
 21
124.3186927037
  0
LINE
  5
2A5
100
AcDbEntity
  8
0
100
AcDbLine
 62
7
  6
BYLAYER
 10
103.3680513918
 20
137.3406827291
 11
103.6217587998
 21
137.4850809844
  0
LINE
  5
2A6
100
AcDbEntity
  8
0
100
AcDbLine
 62
7
  6
BYLAYER
 10
100.5253961104
 20
125.6886256599
 11
102.0810375057
 21
124.7904959999
  0
LINE
  5
2A7
100
AcDbEntity
  8
0
100
AcDbLine
 62
7
  6
BYLAYER
 10
63.9931835069
 20
149.8966587558
 11
65.0315574655
 21
149.2971668336
  0
LINE
  5
2A8
100
AcDbEntity
  8
0
100
AcDbLine
 62
7
  6
BYLAYER
 10
76.5109135624
 20
154.8559284011
 11
76.3507992951
 21
155.1406510173
  0
LINE
  5
2A9
100
AcDbEntity
  8
0
100
AcDbLine
 62
7
  6
BYLAYER
 10
90.6389673886
 20
145.9081650494
 11
90.4788516035
 21
146.595030237
  0
LINE
  5
2AA
100
AcDbEntity
  8
0
100
AcDbLine
 62
7
  6
BYLAYER
 10
98.3497239929
 20
228.6449232754
 11
98.3497239929
 21
160.9899950511
  0
LINE
  5
2AB
100
AcDbEntity
  8
0
100
AcDbLine
 62
7
  6
BYLAYER
 10
102.5658306223
 20
133.5552185766
 11
102.5658306223
 21
129.676869374
  0
LINE
  5
2AC
100
AcDbEntity
  8
0
100
AcDbLine
 62
7
  6
BYLAYER
 10
102.5658306223
 20
120.8985666708
 11
102.5658306223
 21
112.9171259312
  0
LINE
  5
2AD
100
AcDbEntity
  8
0
100
AcDbLine
 62
7
  6
BYLAYER
 10
102.5658306223
 20
163.3769728788
 11
102.5658306223
 21
231.0790790429
  0
LINE
  5
2AE
100
AcDbEntity
  8
0
100
AcDbLine
 62
7
  6
BYLAYER
 10
97.3759438537
 20
117.6963818772
 11
100.5253961104
 21
125.6886256599
  0
LINE
  5
2AF
100
AcDbEntity
  8
0
100
AcDbLine
 62
7
  6
BYLAYER
 10
81.2876556744
 20
92.4493401318
 11
82.0565015399
 21
93.801762124
  0
LINE
  5
2B0
100
AcDbEntity
  8
0
100
AcDbLine
 62
7
  6
BYLAYER
 10
99.5819908832
 20
131.8325081833
 11
106.497199642
 21
135.8249819898
  0
LINE
  5
2B1
100
AcDbEntity
  8
0
100
AcDbLine
 62
7
  6
BYLAYER
 10
70.6675457476
 20
111.3294772325
 11
71.3746676919
 21
111.7377318405
  0
LINE
  5
2B2
100
AcDbEntity
  8
0
100
AcDbLine
 62
7
  6
BYLAYER
 10
77.9507382338
 20
113.1666032918
 11
73.4252736756
 21
110.553840707
  0
LINE
  5
2B3
100
AcDbEntity
  8
0
100
AcDbLine
 62
7
  6
BYLAYER
 10
73.4252736756
 20
109.7373382899
 11
77.9507382338
 21
112.3501008746
  0
LINE
  5
2B4
100
AcDbEntity
  8
0
100
AcDbLine
 62
7
  6
BYLAYER
 10
92.8202659645
 20
125.7427947353
 11
99.0253778634
 21
129.2627672589
  0
LINE
  5
2B5
100
AcDbEntity
  8
0
100
AcDbLine
 62
7
  6
BYLAYER
 10
65.8435685995
 20
151.3109547095
 11
53.6459258407
 21
158.353107725
  0
LINE
  5
2B6
100
AcDbEntity
  8
0
100
AcDbLine
 62
7
  6
BYLAYER
 10
89.1781895293
 20
137.8390098103
 11
101.3758322881
 21
130.7968567948
  0
LINE
  5
2B7
100
AcDbEntity
  8
0
100
AcDbLine
 62
7
  6
BYLAYER
 10
102.6456759825
 20
129.6017326453
 11
101.3757703994
 21
130.7967494995
  0
LINE
  5
2B8
100
AcDbEntity
  8
0
100
AcDbLine
 62
7
  6
BYLAYER
 10
98.3465015844
 20
128.8776612547
 11
100.5253961104
 21
125.6886256599
  0
LINE
  5
2B9
100
AcDbEntity
  8
0
100
AcDbLine
 62
7
  6
BYLAYER
 10
99.0253778634
 20
129.2627672589
 11
102.0810375057
 21
124.7904959999
  0
LWPOLYLINE
  5
2BA
100
AcDbEntity
  8
0
100
AcDbPolyline
 62
7
  6
BYLAYER
 90
4
 70
0
 10
92.1939435841
 20
143.0572899227
 10
88.5490153576
 20
149.1373172573
 10
83.804722379
 20
153.7173271774
 10
82.0178055735
 20
154.748957799
  0
LINE
  5
2BB
100
AcDbEntity
  8
0
100
AcDbLine
 62
7
  6
BYLAYER
 10
93.3807507035
 20
139.7952958686
 11
92.1939435841
 21
143.0572899227
  0
LINE
  5
2BC
100
AcDbEntity
  8
0
100
AcDbLine
 62
7
  6
BYLAYER
 10
105.796422576
 20
163.3366414938
 11
105.796422576
 21
156.3150472485
  0
LINE
  5
2BD
100
AcDbEntity
  8
0
100
AcDbLine
 62
7
  6
BYLAYER
 10
108.8866627072
 20
80.2004008776
 11
108.8866627072
 21
73.1784800903
  0
LINE
  5
2BE
100
AcDbEntity
  8
0
100
AcDbLine
 62
7
  6
BYLAYER
 10
108.8866627072
 20
52.7659196621
 11
108.8866627072
 21
42.9270655357
  0
LINE
  5
2BF
100
AcDbEntity
  8
0
100
AcDbLine
 62
7
  6
BYLAYER
 10
109.3109250095
 20
53.0108661544
 11
109.3109250095
 21
73.4234265826
  0
LINE
  5
2C0
100
AcDbEntity
  8
0
100
AcDbLine
 62
7
  6
BYLAYER
 10
109.3109250095
 20
80.4453473699
 11
109.3109250095
 21
109.0229319695
  0
LINE
  5
2C1
100
AcDbEntity
  8
0
100
AcDbLine
 62
7
  6
BYLAYER
 10
102.0810375057
 20
124.7904959999
 11
98.931585249
 21
116.7982522173
  0
LINE
  5
2C2
100
AcDbEntity
  8
0
100
AcDbLine
 62
7
  6
BYLAYER
 10
86.5640505137
 20
89.7523115911
 11
85.7952046482
 21
88.3998895989
  0
LINE
  5
2C3
100
AcDbEntity
  8
0
100
AcDbLine
 62
7
  6
BYLAYER
 10
82.0565015399
 20
93.801762124
 11
82.3244238167
 21
94.0781594392
  0
LINE
  5
2C4
100
AcDbEntity
  8
0
100
AcDbLine
 62
7
  6
BYLAYER
 10
86.3963608564
 20
114.0417948364
 11
73.4252736756
 21
106.5529788631
  0
LINE
  5
2C5
100
AcDbEntity
  8
0
100
AcDbLine
 62
7
  6
BYLAYER
 10
75.0194658482
 20
104.0812775377
 11
70.8492815377
 21
101.6736348751
  0
LINE
  5
2C6
100
AcDbEntity
  8
0
100
AcDbLine
 62
7
  6
BYLAYER
 10
76.9961777876
 20
104.4913630527
 11
75.6526804969
 21
103.7156991604
  0
LINE
  5
2C7
100
AcDbEntity
  8
0
100
AcDbLine
 62
7
  6
BYLAYER
 10
76.132349478
 20
103.1056494896
 11
75.9202183269
 21
102.9831762434
  0
LINE
  5
2C8
100
AcDbEntity
  8
0
100
AcDbLine
 62
7
  6
BYLAYER
 10
71.8670323206
 20
100.5190137825
 11
76.1714201557
 21
103.0041384235
  0
LINE
  5
2C9
100
AcDbEntity
  8
0
100
AcDbLine
 62
7
  6
BYLAYER
 10
91.8497082338
 20
114.5615153578
 11
97.3759438537
 21
117.6963818772
  0
LINE
  5
2CA
100
AcDbEntity
  8
0
100
AcDbLine
 62
7
  6
BYLAYER
 10
98.931585249
 20
116.7982522173
 11
92.7264733501
 21
113.2782796936
  0
LINE
  5
2CB
100
AcDbEntity
  8
0
100
AcDbLine
 62
7
  6
BYLAYER
 10
22.0390987929
 20
184.5857861334
 11
70.6654013768
 21
156.5120123606
  0
LINE
  5
2CC
100
AcDbEntity
  8
0
100
AcDbLine
 62
7
  6
BYLAYER
 10
103.4073943101
 20
137.6088415736
 11
162.1710925612
 21
103.682372089
  0
LINE
  5
2CD
100
AcDbEntity
  8
0
100
AcDbLine
 62
7
  6
BYLAYER
 10
73.2005798371
 20
156.570419419
 11
76.3507992951
 21
154.7516805123
  0
LINE
  5
2CE
100
AcDbEntity
  8
0
100
AcDbLine
 62
7
  6
BYLAYER
 10
87.3286321456
 20
148.4137691437
 11
90.4788516035
 21
146.595030237
  0
LINE
  5
2CF
100
AcDbEntity
  8
0
100
AcDbLine
 62
7
  6
BYLAYER
 10
22.0390987929
 20
189.4541817956
 11
77.7129917122
 21
157.3115718948
  0
LINE
  5
2D0
100
AcDbEntity
  8
0
100
AcDbLine
 62
7
  6
BYLAYER
 10
103.5211368728
 20
142.4115694221
 11
162.1710925612
 21
108.5507677511
  0
LINE
  5
2D1
100
AcDbEntity
  8
0
100
AcDbLine
 62
7
  6
BYLAYER
 10
85.7952046482
 20
88.3998895989
 11
85.5272823714
 21
88.1234922837
  0
LINE
  5
2D2
100
AcDbEntity
  8
0
100
AcDbLine
 62
7
  6
BYLAYER
 10
26.2552054223
 20
191.888337563
 11
81.9290983416
 21
159.7457276622
  0
LINE
  5
2D3
100
AcDbEntity
  8
0
100
AcDbLine
 62
7
  6
BYLAYER
 10
107.6938432801
 20
144.8707817526
 11
166.3871991906
 21
110.9849235186
  0
LINE
  5
2D4
100
AcDbEntity
  8
0
100
AcDbLine
 62
7
  6
BYLAYER
 10
105.8909593877
 20
156.1989445682
 11
106.1787624356
 21
155.8454874898
  0
LINE
  5
2D5
100
AcDbEntity
  8
0
100
AcDbLine
 62
7
  6
BYLAYER
 10
106.1787624356
 20
155.8454874898
 11
108.3905242538
 21
151.099755114
  0
LINE
  5
2D6
100
AcDbEntity
  8
0
100
AcDbLine
 62
7
  6
BYLAYER
 10
103.03868876
 20
165.9416492894
 11
103.2752383146
 21
165.3319799089
  0
LINE
  5
2D7
100
AcDbEntity
  8
0
100
AcDbLine
 62
7
  6
BYLAYER
 10
82.0565015399
 20
93.801762124
 11
82.6443421672
 21
94.1411500426
  0
LINE
  5
2D8
100
AcDbEntity
  8
0
100
AcDbLine
 62
7
  6
BYLAYER
 10
109.3109250095
 20
109.0229319695
 11
89.2291760327
 21
97.4287979995
  0
LINE
  5
2D9
100
AcDbEntity
  8
0
100
AcDbLine
 62
7
  6
BYLAYER
 10
32.3461099799
 20
64.2509930666
 11
33.7603176543
 21
65.0674813743
  0
LINE
  5
2DA
100
AcDbEntity
  8
0
100
AcDbLine
 62
7
  6
BYLAYER
 10
83.6309571169
 20
93.8022377747
 11
81.2876556744
 21
92.4493401318
  0
LINE
  5
2DB
100
AcDbEntity
  8
0
100
AcDbLine
 62
7
  6
BYLAYER
 10
78.8010095383
 20
90.5061166615
 11
79.0131406894
 21
90.6285899077
  0
LINE
  5
2DC
100
AcDbEntity
  8
0
100
AcDbLine
 62
7
  6
BYLAYER
 10
80.213527037
 20
90.4804807569
 11
78.8700297463
 21
89.7048168646
  0
LINE
  5
2DD
100
AcDbEntity
  8
0
100
AcDbLine
 62
7
  6
BYLAYER
 10
75.0507345294
 20
87.4498922521
 11
78.8700297463
 21
89.6549502113
  0
LINE
  5
2DE
100
AcDbEntity
  8
0
100
AcDbLine
 62
7
  6
BYLAYER
 10
81.0656303741
 20
88.899231427
 11
79.7221330834
 21
88.1235675346
  0
LINE
  5
2DF
100
AcDbEntity
  8
0
100
AcDbLine
 62
7
  6
BYLAYER
 10
75.9905905852
 20
85.9119816135
 11
79.7209193191
 21
88.0656750564
  0
LINE
  5
2E0
100
AcDbEntity
  8
0
100
AcDbLine
 62
7
  6
BYLAYER
 10
82.5554842211
 20
89.3608333075
 11
86.3531854203
 21
91.5534240291
  0
LINE
  5
2E1
100
AcDbEntity
  8
0
100
AcDbLine
 62
7
  6
BYLAYER
 10
77.4409882139
 20
84.9323188407
 11
78.8346925127
 21
85.7369695896
  0
LINE
  5
2E2
100
AcDbEntity
  8
0
100
AcDbLine
 62
7
  6
BYLAYER
 10
86.2644289971
 20
89.2252687252
 11
84.5273761014
 21
88.2223867547
  0
LINE
  5
2E3
100
AcDbEntity
  8
0
100
AcDbLine
 62
7
  6
BYLAYER
 10
35.0960976684
 20
59.4878462378
 11
36.5103053429
 21
60.3043345456
  0
LINE
  5
2E4
100
AcDbEntity
  8
0
100
AcDbLine
 62
7
  6
BYLAYER
 10
78.8346925127
 20
80.7312574385
 11
77.4409882139
 21
79.9266066895
  0
LINE
  5
2E5
100
AcDbEntity
  8
0
100
AcDbLine
 62
7
  6
BYLAYER
 10
79.3689067021
 20
80.3776109989
 11
80.7831143766
 21
81.1940993066
  0
LINE
  5
2E6
100
AcDbEntity
  8
0
100
AcDbLine
 62
7
  6
BYLAYER
 10
86.0464356524
 20
82.7880101925
 11
87.3899329431
 21
83.5636740849
  0
LINE
  5
2E7
100
AcDbEntity
  8
0
100
AcDbLine
 62
7
  6
BYLAYER
 10
86.7914356907
 20
82.3601142286
 11
86.5793045395
 21
82.2376409824
  0
LINE
  5
2E8
100
AcDbEntity
  8
0
100
AcDbLine
 62
7
  6
BYLAYER
 10
85.6936568466
 20
79.792381063
 11
88.0978098931
 21
81.1804111862
  0
LINE
  5
2E9
100
AcDbEntity
  8
0
100
AcDbLine
 62
7
  6
BYLAYER
 10
88.0978098931
 20
79.0867255136
 11
89.2291760327
 21
79.7399161598
  0
LINE
  5
2EA
100
AcDbEntity
  8
0
100
AcDbLine
 62
7
  6
BYLAYER
 10
82.1188943907
 20
75.6144641701
 11
83.5331020651
 21
76.4309524778
  0
LINE
  5
2EB
100
AcDbEntity
  8
0
100
AcDbLine
 62
7
  6
BYLAYER
 10
81.1766927798
 20
74.4083474449
 11
82.1581082209
 21
74.9749645317
  0
LINE
  5
2EC
100
AcDbEntity
  8
0
100
AcDbLine
 62
7
  6
BYLAYER
 10
85.6936568466
 20
72.9337607591
 11
85.2210194898
 21
72.6608850828
  0
LINE
  5
2ED
100
AcDbEntity
  8
0
100
AcDbLine
 62
7
  6
BYLAYER
 10
109.3109250095
 20
80.4453473699
 11
108.8866627072
 21
80.2004008776
  0
LINE
  5
2EE
100
AcDbEntity
  8
0
100
AcDbLine
 62
7
  6
BYLAYER
 10
109.3109250095
 20
73.4234265826
 11
108.8866627072
 21
73.1784800903
  0
LINE
  5
2EF
100
AcDbEntity
  8
0
100
AcDbLine
 62
7
  6
BYLAYER
 10
166.2999445182
 20
105.9631620712
 11
166.4761460645
 21
106.2683278351
  0
LINE
  5
2F0
100
AcDbEntity
  8
0
100
AcDbLine
 62
7
  6
BYLAYER
 10
77.4409882139
 20
36.6519785816
 11
78.8346925127
 21
37.4566293306
  0
LINE
  5
2F1
100
AcDbEntity
  8
0
100
AcDbLine
 62
7
  6
BYLAYER
 10
79.3689067021
 20
37.102982891
 11
80.7831143766
 21
37.9194711987
  0
LINE
  5
2F2
100
AcDbEntity
  8
0
100
AcDbLine
 62
7
  6
BYLAYER
 10
109.3109250095
 20
53.0108661544
 11
108.8866627072
 21
52.7659196621
  0
LINE
  5
2F3
100
AcDbEntity
  8
0
100
AcDbLine
 62
7
  6
BYLAYER
 10
78.8346925127
 20
33.4965926075
 11
77.4409882139
 21
32.6919418586
  0
LINE
  5
2F4
100
AcDbEntity
  8
0
100
AcDbLine
 62
7
  6
BYLAYER
 10
85.6936568466
 20
37.3342553723
 11
85.2210194898
 21
37.061379696
  0
LINE
  5
2F5
100
AcDbEntity
  8
0
100
AcDbLine
 62
7
  6
BYLAYER
 10
82.1188943907
 20
32.3398360622
 11
83.5331020651
 21
33.15632437
  0
LINE
  5
2F6
100
AcDbEntity
  8
0
100
AcDbLine
 62
7
  6
BYLAYER
 10
108.8866627072
 20
42.9270655357
 11
85.6936568466
 21
29.5366572887
  0
LINE
  5
2F7
100
AcDbEntity
  8
0
100
AcDbLine
 62
7
  6
BYLAYER
 10
98.5262109399
 20
233.5143334724
 11
98.1736871295
 21
233.5143457209
  0
ARC
  5
2F8
100
AcDbEntity
  8
0
100
AcDbCircle
 62
7
  6
BYLAYER
 10
-146.3211792499
 20
-244.7856512782
 40
398.476407592
100
AcDbArc
 50
55.8373341035
 51
56.0889984457
  0
ARC
  5
2F9
100
AcDbEntity
  8
0
100
AcDbCircle
 62
7
  6
BYLAYER
 10
-35.6201452027
 20
-54.5086416915
 40
183.623668093
100
AcDbArc
 50
47.6422073384
 51
48.1914424194
  0
ARC
  5
2FA
100
AcDbEntity
  8
0
100
AcDbCircle
 62
7
  6
BYLAYER
 10
-35.0628564388
 20
-52.6091891966
 40
179.1990828884
100
AcDbArc
 50
47.6337007062
 51
50.5360753314
  0
ARC
  5
2FB
100
AcDbEntity
  8
0
100
AcDbCircle
 62
7
  6
BYLAYER
 10
-31.3218592253
 20
-49.9141755106
 40
177.1586484846
100
AcDbArc
 50
48.5088851184
 51
51.1851801247
  0
ARC
  5
2FC
100
AcDbEntity
  8
0
100
AcDbCircle
 62
7
  6
BYLAYER
 10
-28.5935374626
 20
-47.4970619244
 40
175.0116622703
100
AcDbArc
 50
48.492466119
 51
51.2015991241
  0
ARC
  5
2FD
100
AcDbEntity
  8
0
100
AcDbCircle
 62
7
  6
BYLAYER
 10
-29.6364901913
 20
-47.5747391201
 40
174.2336505179
100
AcDbArc
 50
48.1631959247
 51
51.1231883184
  0
ARC
  5
2FE
100
AcDbEntity
  8
0
100
AcDbCircle
 62
7
  6
BYLAYER
 10
-27.3141491143
 20
-34.854033493
 40
156.9120786077
100
AcDbArc
 50
65.3112638689
 51
65.7770605492
  0
ARC
  5
2FF
100
AcDbEntity
  8
0
100
AcDbCircle
 62
7
  6
BYLAYER
 10
12.4429412836
 20
26.2870473377
 40
88.6924896475
100
AcDbArc
 50
72.3637325766
 51
74.8442606221
  0
ARC
  5
300
100
AcDbEntity
  8
0
100
AcDbCircle
 62
7
  6
BYLAYER
 10
10.8299234791
 20
26.0054980865
 40
87.5175847833
100
AcDbArc
 50
71.5972661363
 51
76.2714696155
  0
ARC
  5
301
100
AcDbEntity
  8
0
100
AcDbCircle
 62
7
  6
BYLAYER
 10
14.273720822
 20
28.7592506898
 40
86.9275652437
100
AcDbArc
 50
73.1529155014
 51
74.8619148626
  0
ARC
  5
302
100
AcDbEntity
  8
0
100
AcDbCircle
 62
7
  6
BYLAYER
 10
13.3664320426
 20
28.5540334221
 40
86.1902868736
100
AcDbArc
 50
72.4845129594
 51
75.2824046536
  0
ARC
  5
303
100
AcDbEntity
  8
0
100
AcDbCircle
 62
7
  6
BYLAYER
 10
14.4895790642
 20
32.106527143
 40
82.6413545132
100
AcDbArc
 50
75.4076243311
 51
76.031102416
  0
ARC
  5
304
100
AcDbEntity
  8
0
100
AcDbCircle
 62
7
  6
BYLAYER
 10
14.7300971689
 20
33.0697152651
 40
81.6485909441
100
AcDbArc
 50
76.0317313851
 51
76.3459922336
  0
ARC
  5
305
100
AcDbEntity
  8
0
100
AcDbCircle
 62
7
  6
BYLAYER
 10
18.6565788137
 20
82.4840132182
 40
60.8222006757
100
AcDbArc
 50
19.6962854439
 51
20.4309255909
  0
ARC
  5
306
100
AcDbEntity
  8
0
100
AcDbCircle
 62
7
  6
BYLAYER
 10
79.6209818121
 20
34.0513229302
 40
4.527406904
100
AcDbArc
 50
19.2268962964
 51
25.0585595035
  0
ARC
  5
307
100
AcDbEntity
  8
0
100
AcDbCircle
 62
7
  6
BYLAYER
 10
80.0097097312
 20
34.1885331793
 40
4.1151770876
100
AcDbArc
 50
14.8742164824
 51
19.2053857944
  0
ARC
  5
308
100
AcDbEntity
  8
0
100
AcDbCircle
 62
7
  6
BYLAYER
 10
79.9859962307
 20
34.4211218697
 40
4.0163132403
100
AcDbArc
 50
43.1726473024
 51
45.1763159342
  0
ARC
  5
309
100
AcDbEntity
  8
0
100
AcDbCircle
 62
7
  6
BYLAYER
 10
80.1264400902
 20
34.5623983526
 40
3.8171060073
100
AcDbArc
 50
45.1766801532
 51
47.0851831982
  0
ARC
  5
30A
100
AcDbEntity
  8
0
100
AcDbCircle
 62
7
  6
BYLAYER
 10
80.3182502637
 20
34.2723003031
 40
3.7954727894
100
AcDbArc
 50
12.5600809234
 51
14.8476700957
  0
ARC
  5
30B
100
AcDbEntity
  8
0
100
AcDbCircle
 62
7
  6
BYLAYER
 10
37.1330353581
 20
86.5134102662
 40
41.8588315251
100
AcDbArc
 50
4.3725956536
 51
5.4734817234
  0
ARC
  5
30C
100
AcDbEntity
  8
0
100
AcDbCircle
 62
7
  6
BYLAYER
 10
36.4116949577
 20
63.4270257206
 40
4.6965108424
100
AcDbArc
 50
204.8973840664
 51
207.7594972344
  0
ARC
  5
30D
100
AcDbEntity
  8
0
100
AcDbCircle
 62
7
  6
BYLAYER
 10
66.5259087909
 20
131.7572930306
 40
26.8830961396
100
AcDbArc
 50
23.3939573038
 51
26.0444384657
  0
ARC
  5
30E
100
AcDbEntity
  8
0
100
AcDbCircle
 62
7
  6
BYLAYER
 10
59.4592496793
 20
112.0404716821
 40
16.0493719471
100
AcDbArc
 50
146.8321232726
 51
148.0225922086
  0
ARC
  5
30F
100
AcDbEntity
  8
0
100
AcDbCircle
 62
7
  6
BYLAYER
 10
57.9693456018
 20
141.429431858
 40
7.0708474722
100
AcDbArc
 50
79.4995596303
 51
80.0143465919
  0
ARC
  5
310
100
AcDbEntity
  8
0
100
AcDbCircle
 62
7
  6
BYLAYER
 10
57.5640917139
 20
142.3612762234
 40
6.1099868934
100
AcDbArc
 50
106.1234470131
 51
108.0091143222
  0
ARC
  5
311
100
AcDbEntity
  8
0
100
AcDbCircle
 62
7
  6
BYLAYER
 10
56.9933261239
 20
138.3255749048
 40
5.4841893579
100
AcDbArc
 50
128.9854930178
 51
132.7089611545
  0
ARC
  5
312
100
AcDbEntity
  8
0
100
AcDbCircle
 62
7
  6
BYLAYER
 10
32.5981850899
 20
104.4739612137
 40
4.527406904
100
AcDbArc
 50
19.2268962964
 51
25.0585595035
  0
ARC
  5
313
100
AcDbEntity
  8
0
100
AcDbCircle
 62
7
  6
BYLAYER
 10
57.9098708412
 20
148.7914215134
 40
4.4696988836
100
AcDbArc
 50
275.0632648216
 51
280.8069916701
  0
ARC
  5
314
100
AcDbEntity
  8
0
100
AcDbCircle
 62
7
  6
BYLAYER
 10
57.8829788951
 20
143.9484913285
 40
4.4
100
AcDbArc
 50
72.951968997
 51
107.048031003
  0
ARC
  5
315
100
AcDbEntity
  8
0
100
AcDbCircle
 62
7
  6
BYLAYER
 10
57.9773018695
 20
148.4436962101
 40
4.115497438
100
AcDbArc
 50
280.7925658405
 51
285.1299497476
  0
ARC
  5
316
100
AcDbEntity
  8
0
100
AcDbCircle
 62
7
  6
BYLAYER
 10
32.986913009
 20
104.6111714628
 40
4.1151770876
100
AcDbArc
 50
14.8742164824
 51
19.2053857944
  0
ARC
  5
317
100
AcDbEntity
  8
0
100
AcDbCircle
 62
7
  6
BYLAYER
 10
57.7647532081
 20
148.3503008987
 40
4.019073912
100
AcDbArc
 50
254.8861042303
 51
256.8823671467
  0
ARC
  5
318
100
AcDbEntity
  8
0
100
AcDbCircle
 62
7
  6
BYLAYER
 10
32.9631995085
 20
104.8437601532
 40
4.0163132403
100
AcDbArc
 50
43.1726473024
 51
45.1763159342
  0
ARC
  5
319
100
AcDbEntity
  8
0
100
AcDbCircle
 62
7
  6
BYLAYER
 10
57.7360738312
 20
149.0856527386
 40
3.9058783265
100
AcDbArc
 50
253.6188496575
 51
255.9062583039
  0
ARC
  5
31A
100
AcDbEntity
  8
0
100
AcDbCircle
 62
7
  6
BYLAYER
 10
57.7133313657
 20
148.1597260413
 40
3.8216834872
100
AcDbArc
 50
252.9742269836
 51
254.8853980852
  0
ARC
  5
31B
100
AcDbEntity
  8
0
100
AcDbCircle
 62
7
  6
BYLAYER
 10
33.1036433679
 20
104.9850366359
 40
3.8171060075
100
AcDbArc
 50
45.1766801532
 51
47.0851831982
  0
ARC
  5
31C
100
AcDbEntity
  8
0
100
AcDbCircle
 62
7
  6
BYLAYER
 10
33.2954535415
 20
104.6949385866
 40
3.7954727893
100
AcDbArc
 50
12.5600809234
 51
14.8476700958
  0
ARC
  5
31D
100
AcDbEntity
  8
0
100
AcDbCircle
 62
7
  6
BYLAYER
 10
58.0591716443
 20
148.1341947766
 40
3.7953561046
100
AcDbArc
 50
285.1563808871
 51
287.4425753446
  0
ARC
  5
31E
100
AcDbEntity
  8
0
100
AcDbCircle
 62
7
  6
BYLAYER
 10
57.6611572331
 20
147.9897496098
 40
3.6438799081
100
AcDbArc
 50
250.7360824024
 51
252.9760838403
  0
ARC
  5
31F
100
AcDbEntity
  8
0
100
AcDbCircle
 62
7
  6
BYLAYER
 10
63.3366138221
 20
146.9685124048
 40
3.0140421247
100
AcDbArc
 50
53.5597665821
 51
60.0021825068
  0
ARC
  5
320
100
AcDbEntity
  8
0
100
AcDbCircle
 62
7
  6
BYLAYER
 10
39.4683474917
 20
115.9522379622
 40
2.9111382775
100
AcDbArc
 50
43.3470934929
 51
44.2985297913
  0
ARC
  5
321
100
AcDbEntity
  8
0
100
AcDbCircle
 62
7
  6
BYLAYER
 10
35.1605160698
 20
110.4005455143
 40
1.560322844
100
AcDbArc
 50
85.9697605169
 51
92.2903915965
  0
ARC
  5
322
100
AcDbEntity
  8
0
100
AcDbCircle
 62
7
  6
BYLAYER
 10
103.7635193997
 20
56.0232326485
 40
11.94178879
100
AcDbArc
 50
120.0415185982
 51
123.1536387589
  0
ARC
  5
323
100
AcDbEntity
  8
0
100
AcDbCircle
 62
7
  6
BYLAYER
 10
102.5234141389
 20
56.9723715686
 40
9.7572852358
100
AcDbArc
 50
117.4124908622
 51
120.0071944137
  0
ARC
  5
324
100
AcDbEntity
  8
0
100
AcDbCircle
 62
7
  6
BYLAYER
 10
84.9893960883
 20
79.7345098
 40
5.540415884
100
AcDbArc
 50
230.9786006174
 51
234.9900793487
  0
ARC
  5
325
100
AcDbEntity
  8
0
100
AcDbCircle
 62
7
  6
BYLAYER
 10
79.6209818121
 20
77.3259510381
 40
4.527406904
100
AcDbArc
 50
19.2268962964
 51
25.0585595035
  0
ARC
  5
326
100
AcDbEntity
  8
0
100
AcDbCircle
 62
7
  6
BYLAYER
 10
80.0097097312
 20
77.4631612871
 40
4.1151770876
100
AcDbArc
 50
14.8742164824
 51
19.2053857944
  0
ARC
  5
327
100
AcDbEntity
  8
0
100
AcDbCircle
 62
7
  6
BYLAYER
 10
99.5013335315
 20
63.305666298
 40
4.078812524
100
AcDbArc
 50
35.5527982315
 51
38.8877990559
  0
ARC
  5
328
100
AcDbEntity
  8
0
100
AcDbCircle
 62
7
  6
BYLAYER
 10
79.9859962307
 20
77.6957499776
 40
4.0163132403
100
AcDbArc
 50
43.1726473024
 51
45.1763159342
  0
ARC
  5
329
100
AcDbEntity
  8
0
100
AcDbCircle
 62
7
  6
BYLAYER
 10
94.3359100903
 20
50.7364678297
 40
3.9907761305
100
AcDbArc
 50
219.4364096668
 51
222.5142314928
  0
ARC
  5
32A
100
AcDbEntity
  8
0
100
AcDbCircle
 62
7
  6
BYLAYER
 10
80.1264400902
 20
77.8370264604
 40
3.8171060073
100
AcDbArc
 50
45.1766801532
 51
47.0851831982
  0
ARC
  5
32B
100
AcDbEntity
  8
0
100
AcDbCircle
 62
7
  6
BYLAYER
 10
94.2070021882
 20
50.6170626912
 40
3.8150661906
100
AcDbArc
 50
222.5006828569
 51
228.8379074999
  0
ARC
  5
32C
100
AcDbEntity
  8
0
100
AcDbCircle
 62
7
  6
BYLAYER
 10
80.3182502636
 20
77.546928411
 40
3.7954727894
100
AcDbArc
 50
12.5600809235
 51
14.8476700957
  0
ARC
  5
32D
100
AcDbEntity
  8
0
100
AcDbCircle
 62
7
  6
BYLAYER
 10
92.9816129069
 20
51.1388467275
 40
3.6558117719
100
AcDbArc
 50
251.0584506301
 51
259.3862974345
  0
ARC
  5
32E
100
AcDbEntity
  8
0
100
AcDbCircle
 62
7
  6
BYLAYER
 10
94.0935764709
 20
50.4878697984
 40
3.643147425
100
AcDbArc
 50
228.8435526649
 51
239.9424246677
  0
ARC
  5
32F
100
AcDbEntity
  8
0
100
AcDbCircle
 62
7
  6
BYLAYER
 10
101.2062003226
 20
62.8103416056
 40
3.6288436057
100
AcDbArc
 50
60.0370818249
 51
71.433815372
  0
ARC
  5
330
100
AcDbEntity
  8
0
100
AcDbCircle
 62
7
  6
BYLAYER
 10
100.50386888
 20
62.9099719927
 40
3.493721603
100
AcDbArc
 50
50.4686564221
 51
59.958818573
  0
ARC
  5
331
100
AcDbEntity
  8
0
100
AcDbCircle
 62
7
  6
BYLAYER
 10
93.6382250804
 20
51.0141852978
 40
3.4712799196
100
AcDbArc
 50
240.0106045513
 51
248.6077314443
  0
ARC
  5
332
100
AcDbEntity
  8
0
100
AcDbCircle
 62
7
  6
BYLAYER
 10
93.0394061295
 20
51.1532546334
 40
3.2923453177
100
AcDbArc
 50
236.4631736166
 51
239.9878245202
  0
ARC
  5
333
100
AcDbEntity
  8
0
100
AcDbCircle
 62
7
  6
BYLAYER
 10
80.4107703153
 20
144.6834129706
 40
16.3062283122
100
AcDbArc
 50
57.7047877562
 51
62.2963347701
  0
ARC
  5
334
100
AcDbEntity
  8
0
100
AcDbCircle
 62
7
  6
BYLAYER
 10
68.9410922133
 20
137.4045949547
 40
15.9393886984
100
AcDbArc
 50
135.2334524579
 51
135.9129829527
  0
ARC
  5
335
100
AcDbEntity
  8
0
100
AcDbCircle
 62
7
  6
BYLAYER
 10
71.9303517129
 20
133.2374768776
 40
7.1066121018
100
AcDbArc
 50
99.6417760484
 51
100.4600838784
  0
ARC
  5
336
100
AcDbEntity
  8
0
100
AcDbCircle
 62
7
  6
BYLAYER
 10
70.4196979614
 20
135.7953883299
 40
5.5916685849
100
AcDbArc
 50
49.9780594598
 51
56.1173536252
  0
ARC
  5
337
100
AcDbEntity
  8
0
100
AcDbCircle
 62
7
  6
BYLAYER
 10
72.0379231496
 20
140.6347712381
 40
4.4696988836
100
AcDbArc
 50
275.0632648216
 51
280.8069916701
  0
ARC
  5
338
100
AcDbEntity
  8
0
100
AcDbCircle
 62
7
  6
BYLAYER
 10
72.0110312035
 20
135.7918410532
 40
4.4
100
AcDbArc
 50
72.951968997
 51
107.048031003
  0
ARC
  5
339
100
AcDbEntity
  8
0
100
AcDbCircle
 62
7
  6
BYLAYER
 10
72.105354178
 20
140.2870459347
 40
4.115497438
100
AcDbArc
 50
280.7925658405
 51
285.1299497476
  0
ARC
  5
33A
100
AcDbEntity
  8
0
100
AcDbCircle
 62
7
  6
BYLAYER
 10
71.8928055166
 20
140.1936506234
 40
4.019073912
100
AcDbArc
 50
254.8861042303
 51
256.8823671467
  0
ARC
  5
33B
100
AcDbEntity
  8
0
100
AcDbCircle
 62
7
  6
BYLAYER
 10
71.8641261397
 20
140.9290024633
 40
3.9058783265
100
AcDbArc
 50
253.6188496575
 51
255.9062583039
  0
ARC
  5
33C
100
AcDbEntity
  8
0
100
AcDbCircle
 62
7
  6
BYLAYER
 10
71.8413836742
 20
140.0030757661
 40
3.8216834874
100
AcDbArc
 50
252.9742269836
 51
254.8853980851
  0
ARC
  5
33D
100
AcDbEntity
  8
0
100
AcDbCircle
 62
7
  6
BYLAYER
 10
72.1872239528
 20
139.9775445013
 40
3.7953561046
100
AcDbArc
 50
285.1563808871
 51
287.4425753446
  0
ARC
  5
33E
100
AcDbEntity
  8
0
100
AcDbCircle
 62
7
  6
BYLAYER
 10
71.7892095415
 20
139.8330993345
 40
3.6438799081
100
AcDbArc
 50
250.7360824024
 51
252.9760838403
  0
ARC
  5
33F
100
AcDbEntity
  8
0
100
AcDbCircle
 62
7
  6
BYLAYER
 10
71.9431435927
 20
149.4818787219
 40
7.1767616571
100
AcDbArc
 50
98.690729121
 51
100.4722028404
  0
ARC
  5
340
100
AcDbEntity
  8
0
100
AcDbCircle
 62
7
  6
BYLAYER
 10
76.8000887331
 20
148.5862887866
 40
6.5697431647
100
AcDbArc
 50
92.4520254777
 51
93.921385651
  0
ARC
  5
341
100
AcDbEntity
  8
0
100
AcDbCircle
 62
7
  6
BYLAYER
 10
72.0378055087
 20
156.9481397078
 40
4.4696988836
100
AcDbArc
 50
275.0632648216
 51
280.8069916701
  0
ARC
  5
342
100
AcDbEntity
  8
0
100
AcDbCircle
 62
7
  6
BYLAYER
 10
72.0109135626
 20
152.1052095229
 40
4.4
100
AcDbArc
 50
72.951968997
 51
107.048031003
  0
ARC
  5
343
100
AcDbEntity
  8
0
100
AcDbCircle
 62
7
  6
BYLAYER
 10
72.1052365371
 20
156.6004144044
 40
4.115497438
100
AcDbArc
 50
280.7925658405
 51
285.1299497476
  0
ARC
  5
344
100
AcDbEntity
  8
0
100
AcDbCircle
 62
7
  6
BYLAYER
 10
71.8926878757
 20
156.507019093
 40
4.019073912
100
AcDbArc
 50
254.8861042303
 51
256.8823671467
  0
ARC
  5
345
100
AcDbEntity
  8
0
100
AcDbCircle
 62
7
  6
BYLAYER
 10
71.8640084988
 20
157.2423709329
 40
3.9058783264
100
AcDbArc
 50
253.6188496575
 51
255.9062583039
  0
ARC
  5
346
100
AcDbEntity
  8
0
100
AcDbCircle
 62
7
  6
BYLAYER
 10
71.8412660332
 20
156.3164442357
 40
3.8216834873
100
AcDbArc
 50
252.9742269836
 51
254.8853980852
  0
ARC
  5
347
100
AcDbEntity
  8
0
100
AcDbCircle
 62
7
  6
BYLAYER
 10
72.1871063119
 20
156.290912971
 40
3.7953561046
100
AcDbArc
 50
285.1563808871
 51
287.4425753446
  0
ARC
  5
348
100
AcDbEntity
  8
0
100
AcDbCircle
 62
7
  6
BYLAYER
 10
71.7890919006
 20
156.1464678041
 40
3.643879908
100
AcDbArc
 50
250.7360824024
 51
252.9760838404
  0
ARC
  5
349
100
AcDbEntity
  8
0
100
AcDbCircle
 62
7
  6
BYLAYER
 10
74.7870621164
 20
154.007671804
 40
1.7317109811
100
AcDbArc
 50
18.2498463848
 51
25.4445839902
  0
ARC
  5
34A
100
AcDbEntity
  8
0
100
AcDbCircle
 62
7
  6
BYLAYER
 10
77.3304492836
 20
150.4410266303
 40
1.6249155919
100
AcDbArc
 50
126.1262401486
 51
127.0770166792
  0
ARC
  5
34B
100
AcDbEntity
  8
0
100
AcDbCircle
 62
7
  6
BYLAYER
 10
79.004770991
 20
150.8526607477
 40
1.5527395439
100
AcDbArc
 50
20.6629919462
 51
30.5771247994
  0
ARC
  5
34C
100
AcDbEntity
  8
0
100
AcDbCircle
 62
7
  6
BYLAYER
 10
77.3457464398
 20
150.538035731
 40
0.777733392
100
AcDbArc
 50
99.7639320559
 51
105.1005711744
  0
ARC
  5
34D
100
AcDbEntity
  8
0
100
AcDbCircle
 62
7
  6
BYLAYER
 10
85.9190504554
 20
144.0262594789
 40
23.3846387871
100
AcDbArc
 50
43.4225934689
 51
46.8657945917
  0
ARC
  5
34E
100
AcDbEntity
  8
0
100
AcDbCircle
 62
7
  6
BYLAYER
 10
88.0331001716
 20
141.9317230976
 40
19.972098482
100
AcDbArc
 50
8.2904388516
 51
8.6097984552
  0
ARC
  5
34F
100
AcDbEntity
  8
0
100
AcDbCircle
 62
7
  6
BYLAYER
 10
91.822297317
 20
139.415726748
 40
11.7307393133
100
AcDbArc
 50
349.8113688197
 51
351.1202943933
  0
ARC
  5
350
100
AcDbEntity
  8
0
100
AcDbCircle
 62
7
  6
BYLAYER
 10
86.0711959012
 20
141.3252284466
 40
7.1767616571
100
AcDbArc
 50
98.690729121
 51
100.4722028404
  0
ARC
  5
351
100
AcDbEntity
  8
0
100
AcDbCircle
 62
7
  6
BYLAYER
 10
86.138965871
 20
143.9485592476
 40
4.4
100
AcDbArc
 50
72.951968997
 51
107.048031003
  0
ARC
  5
352
100
AcDbEntity
  8
0
100
AcDbCircle
 62
7
  6
BYLAYER
 10
86.0876736932
 20
145.4030288041
 40
19.9173904828
100
AcDbArc
 50
51.5837437873
 51
51.7101951604
  0
ARC
  5
353
100
AcDbEntity
  8
0
100
AcDbCircle
 62
7
  6
BYLAYER
 10
90.2242311744
 20
147.7912571466
 40
19.9173904287
100
AcDbArc
 50
51.5837437872
 51
51.7101951606
  0
ARC
  5
354
100
AcDbEntity
  8
0
100
AcDbCircle
 62
7
  6
BYLAYER
 10
94.143819836
 20
151.7860514955
 40
16.3558571862
100
AcDbArc
 50
57.8974688585
 51
58.7435389735
  0
ARC
  5
355
100
AcDbEntity
  8
0
100
AcDbCircle
 62
7
  6
BYLAYER
 10
94.2836492079
 20
152.0155562068
 40
16.0871110991
100
AcDbArc
 50
58.7451437487
 51
59.0089403012
  0
ARC
  5
356
100
AcDbEntity
  8
0
100
AcDbCircle
 62
7
  6
BYLAYER
 10
90.1494858203
 20
152.5152332353
 40
11.6136585552
100
AcDbArc
 50
69.6771522338
 51
69.9370319852
  0
ARC
  5
357
100
AcDbEntity
  8
0
100
AcDbCircle
 62
7
  6
BYLAYER
 10
86.1658578171
 20
148.7914894324
 40
4.4696988836
100
AcDbArc
 50
275.0632648216
 51
280.8069916701
  0
ARC
  5
358
100
AcDbEntity
  8
0
100
AcDbCircle
 62
7
  6
BYLAYER
 10
86.2332888455
 20
148.4437641291
 40
4.115497438
100
AcDbArc
 50
280.7925658405
 51
285.1299497476
  0
ARC
  5
359
100
AcDbEntity
  8
0
100
AcDbCircle
 62
7
  6
BYLAYER
 10
86.0207401841
 20
148.3503688177
 40
4.019073912
100
AcDbArc
 50
254.8861042303
 51
256.8823671467
  0
ARC
  5
35A
100
AcDbEntity
  8
0
100
AcDbCircle
 62
7
  6
BYLAYER
 10
85.9920608072
 20
149.0857206576
 40
3.9058783265
100
AcDbArc
 50
253.6188496575
 51
255.9062583039
  0
ARC
  5
35B
100
AcDbEntity
  8
0
100
AcDbCircle
 62
7
  6
BYLAYER
 10
85.9693183417
 20
148.1597939604
 40
3.8216834872
100
AcDbArc
 50
252.9742269836
 51
254.8853980852
  0
ARC
  5
35C
100
AcDbEntity
  8
0
100
AcDbCircle
 62
7
  6
BYLAYER
 10
86.3151586203
 20
148.1342626957
 40
3.7953561046
100
AcDbArc
 50
285.1563808871
 51
287.4425753446
  0
ARC
  5
35D
100
AcDbEntity
  8
0
100
AcDbCircle
 62
7
  6
BYLAYER
 10
85.917144209
 20
147.9898175288
 40
3.643879908
100
AcDbArc
 50
250.7360824024
 51
252.9760838404
  0
ARC
  5
35E
100
AcDbEntity
  8
0
100
AcDbCircle
 62
7
  6
BYLAYER
 10
98.3497439916
 20
228.8457860881
 40
4.4779957738
100
AcDbArc
 50
87.6278181217
 51
92.3664973947
  0
ARC
  5
35F
100
AcDbEntity
  8
0
100
AcDbCircle
 62
7
  6
BYLAYER
 10
162.3453360907
 20
108.4501852534
 40
4.4777471621
100
AcDbArc
 50
327.6140756911
 51
332.3519612864
  0
ARC
  5
360
100
AcDbEntity
  8
0
100
AcDbCircle
 62
7
  6
BYLAYER
 10
197.8329420784
 20
303.2442275299
 40
289.0237941591
100
AcDbArc
 50
246.1952210304
 51
247.0686111624
  0
ARC
  5
361
100
AcDbEntity
  8
0
100
AcDbCircle
 62
7
  6
BYLAYER
 10
197.3489432372
 20
337.7235660488
 40
287.8035721196
100
AcDbArc
 50
246.193369506
 51
247.0704626868
  0
ARC
  5
362
100
AcDbEntity
  8
0
100
AcDbCircle
 62
7
  6
BYLAYER
 10
148.1244801281
 20
216.8266977929
 40
189.0793598796
100
AcDbArc
 50
231.8351053329
 51
232.9317539155
  0
ARC
  5
363
100
AcDbEntity
  8
0
100
AcDbCircle
 62
7
  6
BYLAYER
 10
147.3915141131
 20
251.4746270079
 40
187.8782734619
100
AcDbArc
 50
231.769380415
 51
232.9351906029
  0
SPLINE
  5
364
100
AcDbEntity
  8
0
100
AcDbSpline
 62
7
  6
BYLAYER
 70
0
 71
3
 72
9
 73
5
 74
0
 42
0.0000001
 43
0.0000001
 44
0.0000000001
 40
0.0
 40
0.0
 40
0.0
 40
0.0
 40
0.2451572904
 40
1.0
 40
1.0
 40
1.0
 40
1.0
 10
102.9033995446
 20
160.1002514293
 30
0.0
 10
103.1797778852
 20
159.8086038146
 30
0.0
 10
104.2779013604
 20
158.5914933436
 30
0.0
 10
105.2601602793
 20
157.2707776092
 30
0.0
 10
105.9326394888
 20
156.2323619332
 30
0.0
  0
SPLINE
  5
365
100
AcDbEntity
  8
0
100
AcDbSpline
 62
7
  6
BYLAYER
 70
0
 71
3
 72
9
 73
5
 74
0
 42
0.0000001
 43
0.0000001
 44
0.0000000001
 40
0.0
 40
0.0
 40
0.0
 40
0.0
 40
0.5225564047
 40
1.0
 40
1.0
 40
1.0
 40
1.0
 10
108.5527353642
 20
151.1139845807
 30
0.0
 10
109.0441726226
 20
149.8450033962
 30
0.0
 10
109.8029927846
 20
147.3411258354
 30
0.0
 10
110.109824283
 20
144.7345293573
 30
0.0
 10
110.109824283
 20
143.4911927218
 30
0.0
  0
SPLINE
  5
366
100
AcDbEntity
  8
0
100
AcDbSpline
 62
7
  6
BYLAYER
 70
0
 71
3
 72
9
 73
5
 74
0
 42
0.0000001
 43
0.0000001
 44
0.0000000001
 40
0.0
 40
0.0
 40
0.0
 40
0.0
 40
0.2402127679
 40
1.0
 40
1.0
 40
1.0
 40
1.0
 10
102.8359111898
 20
165.6410726861
 30
0.0
 10
103.0906088428
 20
165.4812964127
 30
0.0
 10
104.1326793905
 20
164.7872429775
 30
0.0
 10
105.1022722511
 20
163.9866785586
 30
0.0
 10
105.796422576
 20
163.3366414938
 30
0.0
  0
SPLINE
  5
367
100
AcDbEntity
  8
0
100
AcDbSpline
 62
7
  6
BYLAYER
 70
0
 71
3
 72
9
 73
5
 74
0
 42
0.0000001
 43
0.0000001
 44
0.0000000001
 40
0.0
 40
0.0
 40
0.0
 40
0.0
 40
0.5171689538
 40
1.0
 40
1.0
 40
1.0
 40
1.0
 10
91.1991204918
 20
142.4312558566
 30
0.0
 10
91.6813035117
 20
141.31640918
 30
0.0
 10
92.4679706466
 20
139.0941338994
 30
0.0
 10
92.907783534
 20
136.7739197281
 30
0.0
 10
93.0120356698
 20
135.6447163442
 30
0.0
  0
SPLINE
  5
368
100
AcDbEntity
  8
0
100
AcDbSpline
 62
7
  6
BYLAYER
 70
0
 71
3
 72
9
 73
5
 74
0
 42
0.0000001
 43
0.0000001
 44
0.0000000001
 40
0.0
 40
0.0
 40
0.0
 40
0.0
 40
0.4776935126
 40
1.0
 40
1.0
 40
1.0
 40
1.0
 10
81.8397157203
 20
153.6239808708
 30
0.0
 10
82.8511705045
 20
153.0400303896
 30
0.0
 10
84.8299976189
 20
151.5730609783
 30
0.0
 10
86.5204092499
 20
149.7914225967
 30
0.0
 10
87.3286321456
 20
148.8027396487
 30
0.0
  0
SPLINE
  5
369
100
AcDbEntity
  8
0
100
AcDbSpline
 62
7
  6
BYLAYER
 70
0
 71
3
 72
9
 73
5
 74
0
 42
0.0000001
 43
0.0000001
 44
0.0000000001
 40
0.0
 40
0.0
 40
0.0
 40
0.0
 40
0.473010521
 40
1.0
 40
1.0
 40
1.0
 40
1.0
 10
76.5190163591
 20
155.1500166581
 30
0.0
 10
77.1759413511
 20
155.1781845029
 30
0.0
 10
78.5762460043
 20
155.0316928593
 30
0.0
 10
79.8991851237
 20
154.5730707039
 30
0.0
 10
80.5682325072
 20
154.274698167
 30
0.0
  0
SPLINE
  5
36A
100
AcDbEntity
  8
0
100
AcDbSpline
 62
7
  6
BYLAYER
 70
0
 71
3
 72
11
 73
7
 74
0
 42
0.0000001
 43
0.0000001
 44
0.0000000001
 40
0.0
 40
0.0
 40
0.0
 40
0.0
 40
0.2895410651
 40
0.5491142309
 40
0.7822583424
 40
1.0
 40
1.0
 40
1.0
 40
1.0
 10
84.1944141269
 20
147.8757021009
 30
0.0
 10
84.0738169618
 20
147.8060757108
 30
0.0
 10
83.8549674429
 20
147.6551868716
 30
0.0
 10
83.5931880541
 20
147.3803530717
 30
0.0
 10
83.4275687718
 20
147.0760938679
 30
0.0
 10
83.389070486
 20
146.857761843
 30
0.0
 10
83.3890654975
 20
146.7530400243
 30
0.0
  0
SPLINE
  5
36B
100
AcDbEntity
  8
0
100
AcDbSpline
 62
7
  6
BYLAYER
 70
0
 71
3
 72
10
 73
6
 74
0
 42
0.0000001
 43
0.0000001
 44
0.0000000001
 40
0.0
 40
0.0
 40
0.0
 40
0.0
 40
0.4659743636
 40
0.7242636109
 40
1.0
 40
1.0
 40
1.0
 40
1.0
 10
41.6259239372
 20
117.9784812829
 30
0.0
 10
40.8378634064
 20
116.616502841
 30
0.0
 10
39.9444485732
 20
114.3012654355
 30
0.0
 10
39.2512017868
 20
110.9951775254
 30
0.0
 10
39.0523419268
 20
109.1990829506
 30
0.0
 10
38.9881385469
 20
108.2701707326
 30
0.0
  0
SPLINE
  5
36C
100
AcDbEntity
  8
0
100
AcDbSpline
 62
7
  6
BYLAYER
 70
0
 71
3
 72
9
 73
5
 74
0
 42
0.0000001
 43
0.0000001
 44
0.0000000001
 40
0.0
 40
0.0
 40
0.0
 40
0.0
 40
0.5142300211
 40
1.0
 40
1.0
 40
1.0
 40
1.0
 10
77.4409882139
 20
32.6919418586
 30
0.0
 10
70.1684320671
 20
36.0280148523
 30
0.0
 10
56.296006626
 20
43.128065869
 30
0.0
 10
43.1796476474
 20
51.5594486595
 30
0.0
 10
37.065022908
 20
56.0024889417
 30
0.0
  0
SPLINE
  5
36D
100
AcDbEntity
  8
0
100
AcDbSpline
 62
7
  6
BYLAYER
 70
0
 71
3
 72
11
 73
7
 74
0
 42
0.0000001
 43
0.0000001
 44
0.0000000001
 40
0.0
 40
0.0
 40
0.0
 40
0.0
 40
0.2897743511
 40
0.5490675719
 40
0.7822265364
 40
1.0
 40
1.0
 40
1.0
 40
1.0
 10
97.7851324629
 20
66.360795666
 30
0.0
 10
98.3118055212
 20
66.6648686828
 30
0.0
 10
99.3591504735
 20
67.1633802168
 30
0.0
 10
100.9692116012
 20
67.5518483455
 30
0.0
 10
102.4796973782
 20
67.5137787304
 30
0.0
 10
103.3891803965
 20
67.1835788318
 30
0.0
 10
103.7849897034
 20
66.9550593387
 30
0.0
  0
SPLINE
  5
36E
100
AcDbEntity
  8
0
100
AcDbSpline
 62
7
  6
BYLAYER
 70
0
 71
3
 72
15
 73
11
 74
0
 42
0.0000001
 43
0.0000001
 44
0.0000000001
 40
0.0
 40
0.0
 40
0.0
 40
0.0
 40
0.1288248732
 40
0.2705977602
 40
0.4178979
 40
0.5623932695
 40
0.696206034
 40
0.8135977194
 40
0.9130663632
 40
1.0
 40
1.0
 40
1.0
 40
1.0
 10
78.7993488023
 20
79.1186996594
 30
0.0
 10
78.7993488023
 20
78.8836530428
 30
0.0
 10
78.8651578307
 20
78.3893793543
 30
0.0
 10
79.1105212599
 20
77.6636687396
 30
0.0
 10
79.4888531582
 20
76.9646037982
 30
0.0
 10
79.9692101068
 20
76.3496237576
 30
0.0
 10
80.5133913274
 20
75.8677809931
 30
0.0
 10
81.0808859494
 20
75.5578176183
 30
0.0
 10
81.6363796936
 20
75.4465196343
 30
0.0
 10
81.9814672796
 20
75.5352668609
 30
0.0
 10
82.1188344844
 20
75.6145683291
 30
0.0
  0
SPLINE
  5
36F
100
AcDbEntity
  8
0
100
AcDbSpline
 62
7
  6
BYLAYER
 70
0
 71
3
 72
12
 73
8
 74
0
 42
0.0000001
 43
0.0000001
 44
0.0000000001
 40
0.0
 40
0.0
 40
0.0
 40
0.0
 40
0.255079784
 40
0.535153649
 40
0.6705211679
 40
0.7953008209
 40
1.0
 40
1.0
 40
1.0
 40
1.0
 10
85.296221967
 20
92.8408184154
 30
0.0
 10
85.5601110153
 20
92.688465449
 30
0.0
 10
86.0397907074
 20
92.2421650347
 30
0.0
 10
86.4541938135
 20
91.545825994
 30
0.0
 10
86.6560612988
 20
90.9288701492
 30
0.0
 10
86.7393650969
 20
90.3814660782
 30
0.0
 10
86.6848999857
 20
89.9648892883
 30
0.0
 10
86.5640505137
 20
89.7523115911
 30
0.0
  0
SPLINE
  5
370
100
AcDbEntity
  8
0
100
AcDbSpline
 62
7
  6
BYLAYER
 70
0
 71
3
 72
11
 73
7
 74
0
 42
0.0000001
 43
0.0000001
 44
0.0000000001
 40
0.0
 40
0.0
 40
0.0
 40
0.0
 40
0.224264964
 40
0.4863874071
 40
0.7560918062
 40
1.0
 40
1.0
 40
1.0
 40
1.0
 10
106.2593646443
 20
155.7230664698
 30
0.0
 10
106.5725330364
 20
155.6132844344
 30
0.0
 10
107.190253193
 20
155.2058336438
 30
0.0
 10
107.9156268047
 20
154.340978232
 30
0.0
 10
108.4271314992
 20
153.3017961395
 30
0.0
 10
108.5789164195
 20
152.5416715422
 30
0.0
 10
108.5789164195
 20
152.1807515403
 30
0.0
  0
SPLINE
  5
371
100
AcDbEntity
  8
0
100
AcDbSpline
 62
7
  6
BYLAYER
 70
0
 71
3
 72
10
 73
6
 74
0
 42
0.0000001
 43
0.0000001
 44
0.0000000001
 40
0.0
 40
0.0
 40
0.0
 40
0.0
 40
0.443183262
 40
0.710172011
 40
1.0
 40
1.0
 40
1.0
 40
1.0
 10
98.1736808643
 20
233.5143225141
 30
0.0
 10
97.4614465707
 20
233.4962690733
 30
0.0
 10
96.338653794
 20
233.0509765816
 30
0.0
 10
95.0581693901
 20
232.0851268088
 30
0.0
 10
94.4328309865
 20
231.4361856645
 30
0.0
 10
94.1335822567
 20
231.0790587743
 30
0.0
  0
SPLINE
  5
372
100
AcDbEntity
  8
0
100
AcDbSpline
 62
7
  6
BYLAYER
 70
0
 71
3
 72
10
 73
6
 74
0
 42
0.0000001
 43
0.0000001
 44
0.0000000001
 40
0.0
 40
0.0
 40
0.0
 40
0.0
 40
0.4432329625
 40
0.7102416313
 40
1.0
 40
1.0
 40
1.0
 40
1.0
 10
22.1261194723
 20
189.6070609032
 30
0.0
 10
22.4980912025
 20
190.2148145159
 30
0.0
 10
23.4449412098
 20
190.9649105534
 30
0.0
 10
24.92190958
 20
191.5903849528
 30
0.0
 10
25.7964059633
 20
191.8077618582
 30
0.0
 10
26.2552054223
 20
191.888337563
 30
0.0
  0
SPLINE
  5
373
100
AcDbEntity
  8
0
100
AcDbSpline
 62
7
  6
BYLAYER
 70
0
 71
3
 72
10
 73
6
 74
0
 42
0.0000001
 43
0.0000001
 44
0.0000000001
 40
0.0
 40
0.0
 40
0.0
 40
0.0
 40
0.4431836855
 40
0.710172494
 40
1.0
 40
1.0
 40
1.0
 40
1.0
 10
166.476129109
 20
106.2683448535
 30
0.0
 10
166.8166266723
 20
106.8941978197
 30
0.0
 10
166.9924010697
 20
108.089242554
 30
0.0
 10
166.7961941091
 20
109.6811408776
 30
0.0
 10
166.5468593017
 20
110.5471925084
 30
0.0
 10
166.3871991906
 20
110.9849235186
 30
0.0
  0
SPLINE
  5
374
100
AcDbEntity
  8
0
100
AcDbSpline
 62
7
  6
BYLAYER
 70
0
 71
3
 72
11
 73
7
 74
0
 42
0.0000001
 43
0.0000001
 44
0.0000000001
 40
0.0
 40
0.0
 40
0.0
 40
0.0
 40
0.282290438
 40
0.5411375809
 40
0.77814159
 40
1.0
 40
1.0
 40
1.0
 40
1.0
 10
81.1766927798
 20
38.808842058
 30
0.0
 10
80.9406749623
 20
38.912975542
 30
0.0
 10
80.4712729823
 20
39.0776698471
 30
0.0
 10
79.7625219194
 20
39.1815001655
 30
0.0
 10
79.1023871401
 20
39.1237444994
 30
0.0
 10
78.7041676423
 20
38.9708566157
 30
0.0
 10
78.5285842836
 20
38.8694880535
 30
0.0
  0
SPLINE
  5
375
100
AcDbEntity
  8
0
100
AcDbSpline
 62
7
  6
BYLAYER
 70
0
 71
3
 72
9
 73
5
 74
0
 42
0.0000001
 43
0.0000001
 44
0.0000000001
 40
0.0
 40
0.0
 40
0.0
 40
0.0
 40
0.4745344314
 40
1.0
 40
1.0
 40
1.0
 40
1.0
 10
78.7993488023
 20
35.8440715515
 30
0.0
 10
78.7993488023
 20
35.5189646264
 30
0.0
 10
78.9233714869
 20
34.8336621112
 30
0.0
 10
79.2065303885
 20
34.2031901645
 30
0.0
 10
79.3891335013
 20
33.8929382427
 30
0.0
  0
SPLINE
  5
376
100
AcDbEntity
  8
0
100
AcDbSpline
 62
7
  6
BYLAYER
 70
0
 71
3
 72
13
 73
9
 74
0
 42
0.0000001
 43
0.0000001
 44
0.0000000001
 40
0.0
 40
0.0
 40
0.0
 40
0.0
 40
0.3064897865
 40
0.5826714541
 40
0.7034350136
 40
0.8115614569
 40
0.9089481277
 40
1.0
 40
1.0
 40
1.0
 40
1.0
 10
79.3891335013
 20
33.8929382427
 30
0.0
 10
79.5662801617
 20
33.5919571095
 30
0.0
 10
79.9658192697
 20
33.0544676299
 30
0.0
 10
80.5913776985
 20
32.5342430832
 30
0.0
 10
81.1153269461
 20
32.2885755045
 30
0.0
 10
81.4805284838
 20
32.2026978838
 30
0.0
 10
81.8228837831
 20
32.212662923
 30
0.0
 10
82.0289796695
 20
32.2880674415
 30
0.0
 10
82.1188344844
 20
32.3399402212
 30
0.0
  0
SPLINE
  5
377
100
AcDbEntity
  8
0
100
AcDbSpline
 62
7
  6
BYLAYER
 70
0
 71
3
 72
9
 73
5
 74
0
 42
0.0000001
 43
0.0000001
 44
0.0000000001
 40
0.0
 40
0.0
 40
0.0
 40
0.0
 40
0.5342972001
 40
1.0
 40
1.0
 40
1.0
 40
1.0
 10
98.0312251607
 20
65.6340603967
 30
0.0
 10
98.6011010159
 20
65.9293247443
 30
0.0
 10
99.728389104
 20
66.3791198947
 30
0.0
 10
100.950274668
 20
66.4920934704
 30
0.0
 10
101.506684026
 20
66.4340751307
 30
0.0
  0
SPLINE
  5
378
100
AcDbEntity
  8
0
100
AcDbSpline
 62
7
  6
BYLAYER
 70
0
 71
3
 72
9
 73
5
 74
0
 42
0.0000001
 43
0.0000001
 44
0.0000000001
 40
0.0
 40
0.0
 40
0.0
 40
0.0
 40
0.2547046857
 40
1.0
 40
1.0
 40
1.0
 40
1.0
 10
101.506684026
 20
66.4340751307
 30
0.0
 10
101.5806104896
 20
66.4263666143
 30
0.0
 10
101.869998862
 20
66.3885698567
 30
0.0
 10
102.1554878775
 20
66.319681528
 30
0.0
 10
102.3616237302
 20
66.2503274579
 30
0.0
  0
SPLINE
  5
379
100
AcDbEntity
  8
0
100
AcDbSpline
 62
7
  6
BYLAYER
 70
0
 71
3
 72
9
 73
5
 74
0
 42
0.0000001
 43
0.0000001
 44
0.0000000001
 40
0.0
 40
0.0
 40
0.0
 40
0.0
 40
0.4762856365
 40
1.0
 40
1.0
 40
1.0
 40
1.0
 10
97.0780227378
 20
48.5202073976
 30
0.0
 10
97.83318614
 20
48.9561985887
 30
0.0
 10
99.3000391354
 20
50.0805012719
 30
0.0
 10
100.5203269574
 20
51.4587149405
 30
0.0
 10
101.094971118
 20
52.2262552091
 30
0.0
  0
SPLINE
  5
37A
100
AcDbEntity
  8
0
100
AcDbSpline
 62
7
  6
BYLAYER
 70
0
 71
3
 72
15
 73
11
 74
0
 42
0.0000001
 43
0.0000001
 44
0.0000000001
 40
0.0
 40
0.0
 40
0.0
 40
0.0
 40
0.1484168867
 40
0.2967133368
 40
0.4406181279
 40
0.5762453179
 40
0.7005575275
 40
0.8118960938
 40
0.9106545515
 40
1.0
 40
1.0
 40
1.0
 40
1.0
 10
101.094971118
 20
52.2262552091
 30
0.0
 10
101.526615083
 20
52.802793087
 30
0.0
 10
102.3184747398
 20
54.0103717216
 30
0.0
 10
103.2710233043
 20
55.9301424322
 30
0.0
 10
103.9600359227
 20
57.8946630675
 30
0.0
 10
104.3558120034
 20
59.8208699777
 30
0.0
 10
104.4412691185
 20
61.6291729974
 30
0.0
 10
104.2088441742
 20
63.2477199758
 30
0.0
 10
103.6594906698
 20
64.6113201858
 30
0.0
 10
103.0620940972
 20
65.3287232819
 30
0.0
 10
102.7276235232
 20
65.6045973704
 30
0.0
  0
SPLINE
  5
37B
100
AcDbEntity
  8
0
100
AcDbSpline
 62
7
  6
BYLAYER
 70
0
 71
3
 72
13
 73
9
 74
0
 42
0.0000001
 43
0.0000001
 44
0.0000000001
 40
0.0
 40
0.0
 40
0.0
 40
0.0
 40
0.0907022345
 40
0.1893593867
 40
0.3009623103
 40
0.4265966195
 40
0.70870996
 40
1.0
 40
1.0
 40
1.0
 40
1.0
 10
78.5496186644
 20
151.8307266295
 30
0.0
 10
78.5496587205
 20
151.8918075921
 30
0.0
 10
78.5216866968
 20
152.0205058419
 30
0.0
 10
78.404946939
 20
152.1908093661
 30
0.0
 10
78.2254844034
 20
152.3328881052
 30
0.0
 10
77.9056351201
 20
152.480378788
 30
0.0
 10
77.4312879785
 20
152.55106687
 30
0.0
 10
77.0428199526
 20
152.5019824852
 30
0.0
 10
76.8540613716
 20
152.448601739
 30
0.0
  0
SPLINE
  5
37C
100
AcDbEntity
  8
0
100
AcDbSpline
 62
7
  6
BYLAYER
 70
0
 71
3
 72
12
 73
8
 74
0
 42
0.0000001
 43
0.0000001
 44
0.0000000001
 40
0.0
 40
0.0
 40
0.0
 40
0.0
 40
0.241366211
 40
0.5081948908
 40
0.7704628922
 40
0.8908907022
 40
1.0
 40
1.0
 40
1.0
 40
1.0
 10
37.065022908
 20
59.9625256647
 30
0.0
 10
37.065022908
 20
60.5135981843
 30
0.0
 10
36.8821568895
 20
61.6743302763
 30
0.0
 10
36.2570438666
 20
63.3273861538
 30
0.0
 10
35.4794697313
 20
64.6037782828
 30
0.0
 10
34.7443878987
 20
65.4552224866
 30
0.0
 10
34.3526629489
 20
65.8066911929
 30
0.0
 10
34.1538960575
 20
65.9568522336
 30
0.0
  0
SPLINE
  5
37D
100
AcDbEntity
  8
0
100
AcDbSpline
 62
7
  6
BYLAYER
 70
0
 71
3
 72
9
 73
5
 74
0
 42
0.0000001
 43
0.0000001
 44
0.0000000001
 40
0.0
 40
0.0
 40
0.0
 40
0.0
 40
0.4754898046
 40
1.0
 40
1.0
 40
1.0
 40
1.0
 10
31.77655208
 20
62.9920817271
 30
0.0
 10
31.77655208
 20
62.7390872634
 30
0.0
 10
31.8525540613
 20
62.2065728011
 30
0.0
 10
32.0342039697
 20
61.7029757013
 30
0.0
 10
32.151662633
 20
61.4498209548
 30
0.0
  0
SPLINE
  5
37E
100
AcDbEntity
  8
0
100
AcDbSpline
 62
7
  6
BYLAYER
 70
0
 71
3
 72
13
 73
9
 74
0
 42
0.0000001
 43
0.0000001
 44
0.0000000001
 40
0.0
 40
0.0
 40
0.0
 40
0.0
 40
0.3050765174
 40
0.5830705241
 40
0.7046874549
 40
0.8130836796
 40
0.9099837822
 40
1.0
 40
1.0
 40
1.0
 40
1.0
 10
32.2557034536
 20
61.2395731585
 30
0.0
 10
32.4282913026
 20
60.9115779418
 30
0.0
 10
32.831022423
 20
60.3207420517
 30
0.0
 10
33.4785393291
 20
59.740828298
 30
0.0
 10
34.0309821132
 20
59.4580406708
 30
0.0
 10
34.4181217691
 20
59.3538974322
 30
0.0
 10
34.7820999868
 20
59.3555201101
 30
0.0
 10
35.0013279889
 20
59.4332748716
 30
0.0
 10
35.0960377622
 20
59.4879503968
 30
0.0
  0
SPLINE
  5
37F
100
AcDbEntity
  8
0
100
AcDbSpline
 62
7
  6
BYLAYER
 70
0
 71
3
 72
11
 73
7
 74
0
 42
0.0000001
 43
0.0000001
 44
0.0000000001
 40
0.0
 40
0.0
 40
0.0
 40
0.0
 40
0.202730748
 40
0.4308140621
 40
0.6968019605
 40
1.0
 40
1.0
 40
1.0
 40
1.0
 10
74.7608139362
 20
154.9096903028
 30
0.0
 10
74.7608208609
 20
155.0550566527
 30
0.0
 10
74.6820032004
 20
155.3668208394
 30
0.0
 10
74.3654882819
 20
155.7664959681
 30
0.0
 10
73.8902681228
 20
156.0947149745
 30
0.0
 10
73.5087209841
 20
156.248112145
 30
0.0
 10
73.3008741936
 20
156.3118686372
 30
0.0
  0
SPLINE
  5
380
100
AcDbEntity
  8
0
100
AcDbSpline
 62
7
  6
BYLAYER
 70
0
 71
3
 72
14
 73
10
 74
0
 42
0.0000001
 43
0.0000001
 44
0.0000000001
 40
0.0
 40
0.0
 40
0.0
 40
0.0
 40
0.0952891476
 40
0.1952885826
 40
0.3036514534
 40
0.4225190081
 40
0.5525675338
 40
0.6932535801
 40
1.0
 40
1.0
 40
1.0
 40
1.0
 10
42.646148597
 20
139.3005033602
 30
0.0
 10
42.347694488
 20
139.4728725167
 30
0.0
 10
41.7839715795
 20
139.9162775905
 30
0.0
 10
41.1280516907
 20
140.8111324864
 30
0.0
 10
40.6646339351
 20
141.9100706797
 30
0.0
 10
40.40040237
 20
143.1817406458
 30
0.0
 10
40.3378237999
 20
144.5947503821
 30
0.0
 10
40.5285580058
 20
146.6792338464
 30
0.0
 10
40.9650239502
 20
148.2549020633
 30
0.0
 10
41.3578341299
 20
149.2925153692
 30
0.0
  0
SPLINE
  5
381
100
AcDbEntity
  8
0
100
AcDbSpline
 62
7
  6
BYLAYER
 70
0
 71
3
 72
21
 73
17
 74
0
 42
0.0000001
 43
0.0000001
 44
0.0000000001
 40
0.0
 40
0.0
 40
0.0
 40
0.0
 40
0.0442110782
 40
0.0910741498
 40
0.1425299089
 40
0.1995578041
 40
0.2622700054
 40
0.3301133317
 40
0.476539417
 40
0.6277785143
 40
0.701307662
 40
0.7713846172
 40
0.8368080614
 40
0.8967541373
 40
0.9509931618
 40
1.0
 40
1.0
 40
1.0
 40
1.0
 10
90.376010188
 20
111.7441751196
 30
0.0
 10
90.707150869
 20
111.5530078744
 30
0.0
 10
91.4569879242
 20
111.2671291699
 30
0.0
 10
92.701686817
 20
111.1848940637
 30
0.0
 10
94.0339830766
 20
111.431419106
 30
0.0
 10
95.4137092005
 20
111.9902166955
 30
0.0
 10
96.8028423681
 20
112.8400597435
 30
0.0
 10
98.6589527047
 20
114.363993396
 30
0.0
 10
100.7158537798
 20
116.80073331
 30
0.0
 10
102.2641048178
 20
119.6395343361
 30
0.0
 10
103.1181367962
 20
122.0470288884
 30
0.0
 10
103.525107027
 20
123.8130382587
 30
0.0
 10
103.6914943293
 20
125.5004139407
 30
0.0
 10
103.611269884
 20
127.0588593906
 30
0.0
 10
103.2839605611
 20
128.4406629749
 30
0.0
 10
102.8847793176
 20
129.2517803932
 30
0.0
 10
102.6456759825
 20
129.6017326453
 30
0.0
  0
SPLINE
  5
382
100
AcDbEntity
  8
0
100
AcDbSpline
 62
7
  6
BYLAYER
 70
0
 71
3
 72
11
 73
7
 74
0
 42
0.0000001
 43
0.0000001
 44
0.0000000001
 40
0.0
 40
0.0
 40
0.0
 40
0.0
 40
0.2157551709
 40
0.448113056
 40
0.7081609412
 40
1.0
 40
1.0
 40
1.0
 40
1.0
 10
74.7609315771
 20
138.5963218332
 30
0.0
 10
74.7609368039
 20
138.7060452261
 30
0.0
 10
74.7183431904
 20
138.9355953675
 30
0.0
 10
74.5365501888
 20
139.2525912654
 30
0.0
 10
74.251058185
 20
139.5362759443
 30
0.0
 10
74.013565604
 20
139.6893692855
 30
0.0
 10
73.8827629098
 20
139.7594979975
 30
0.0
  0
SPLINE
  5
383
100
AcDbEntity
  8
0
100
AcDbSpline
 62
7
  6
BYLAYER
 70
0
 71
3
 72
9
 73
5
 74
0
 42
0.0000001
 43
0.0000001
 44
0.0000000001
 40
0.0
 40
0.0
 40
0.0
 40
0.0
 40
0.2400458511
 40
1.0
 40
1.0
 40
1.0
 40
1.0
 10
73.8827629098
 20
139.7594979975
 30
0.0
 10
73.8383696997
 20
139.783299026
 30
0.0
 10
73.6506983443
 20
139.8773196985
 30
0.0
 10
73.4534487577
 20
139.9517343811
 30
0.0
 10
73.3009918345
 20
139.9985001676
 30
0.0
  0
SPLINE
  5
384
100
AcDbEntity
  8
0
100
AcDbSpline
 62
7
  6
BYLAYER
 70
0
 71
3
 72
11
 73
7
 74
0
 42
0.0000001
 43
0.0000001
 44
0.0000000001
 40
0.0
 40
0.0
 40
0.0
 40
0.0
 40
0.2240641
 40
0.4600467322
 40
0.7170495603
 40
1.0
 40
1.0
 40
1.0
 40
1.0
 10
76.5109900239
 20
137.7514469123
 30
0.0
 10
76.5110352392
 20
137.8981461842
 30
0.0
 10
76.4654344291
 20
138.2009453717
 30
0.0
 10
76.2674272059
 20
138.6322349609
 30
0.0
 10
75.9494005836
 20
139.0334611183
 30
0.0
 10
75.6781877172
 20
139.2635666803
 30
0.0
 10
75.5280867469
 20
139.3721415528
 30
0.0
  0
SPLINE
  5
385
100
AcDbEntity
  8
0
100
AcDbSpline
 62
7
  6
BYLAYER
 70
0
 71
3
 72
9
 73
5
 74
0
 42
0.0000001
 43
0.0000001
 44
0.0000000001
 40
0.0
 40
0.0
 40
0.0
 40
0.0
 40
0.2319253502
 40
1.0
 40
1.0
 40
1.0
 40
1.0
 10
75.5280867469
 20
139.3721415528
 30
0.0
 10
75.4232478222
 20
139.447976325
 30
0.0
 10
74.9533935937
 20
139.7502744711
 30
0.0
 10
74.4274470827
 20
139.9591705072
 30
0.0
 10
74.0155932696
 20
140.0774782982
 30
0.0
  0
SPLINE
  5
386
100
AcDbEntity
  8
0
100
AcDbSpline
 62
7
  6
BYLAYER
 70
0
 71
3
 72
9
 73
5
 74
0
 42
0.0000001
 43
0.0000001
 44
0.0000000001
 40
0.0
 40
0.0
 40
0.0
 40
0.0
 40
0.2353987881
 40
1.0
 40
1.0
 40
1.0
 40
1.0
 10
41.0401280049
 20
118.3915081439
 30
0.0
 10
41.084603689
 20
118.3658306766
 30
0.0
 10
41.2689460871
 20
118.2488428507
 30
0.0
 10
41.4353770948
 20
118.1047513077
 30
0.0
 10
41.5518801746
 20
117.9853679705
 30
0.0
  0
SPLINE
  5
387
100
AcDbEntity
  8
0
100
AcDbSpline
 62
7
  6
BYLAYER
 70
0
 71
3
 72
11
 73
7
 74
0
 42
0.0000001
 43
0.0000001
 44
0.0000000001
 40
0.0
 40
0.0
 40
0.0
 40
0.0
 40
0.202730748
 40
0.4308140621
 40
0.6968019605
 40
1.0
 40
1.0
 40
1.0
 40
1.0
 10
60.6328792686
 20
146.7529721085
 30
0.0
 10
60.6328861933
 20
146.8983384583
 30
0.0
 10
60.5540685328
 20
147.2101026451
 30
0.0
 10
60.2375536143
 20
147.6097777737
 30
0.0
 10
59.7623334553
 20
147.9379967801
 30
0.0
 10
59.3807863166
 20
148.0913939507
 30
0.0
 10
59.1729395261
 20
148.1551504429
 30
0.0
  0
SPLINE
  5
388
100
AcDbEntity
  8
0
100
AcDbSpline
 62
7
  6
BYLAYER
 70
0
 71
3
 72
11
 73
7
 74
0
 42
0.0000001
 43
0.0000001
 44
0.0000000001
 40
0.0
 40
0.0
 40
0.0
 40
0.0
 40
0.2177239861
 40
0.4508730345
 40
0.7104683317
 40
1.0
 40
1.0
 40
1.0
 40
1.0
 10
32.3461698861
 20
107.5255170155
 30
0.0
 10
32.2554809136
 20
107.4731626804
 30
0.0
 10
32.0856553261
 20
107.3306489298
 30
0.0
 10
31.9049348888
 20
107.0350949417
 30
0.0
 10
31.7978178197
 20
106.6709465609
 30
0.0
 10
31.77655208
 20
106.4059624454
 30
0.0
 10
31.77655208
 20
106.266709835
 30
0.0
  0
SPLINE
  5
389
100
AcDbEntity
  8
0
100
AcDbSpline
 62
7
  6
BYLAYER
 70
0
 71
3
 72
11
 73
7
 74
0
 42
0.0000001
 43
0.0000001
 44
0.0000000001
 40
0.0
 40
0.0
 40
0.0
 40
0.0
 40
0.2043736893
 40
0.4333723211
 40
0.697827065
 40
1.0
 40
1.0
 40
1.0
 40
1.0
 10
36.2057667023
 20
101.1514755887
 30
0.0
 10
36.3444603095
 20
101.231546245
 30
0.0
 10
36.6050248331
 20
101.4632395142
 30
0.0
 10
36.8740081729
 20
101.9476492738
 30
0.0
 10
37.0339882329
 20
102.5551158963
 30
0.0
 10
37.065022908
 20
103.0003706283
 30
0.0
 10
37.065022908
 20
103.2371537726
 30
0.0
  0
SPLINE
  5
38A
100
AcDbEntity
  8
0
100
AcDbSpline
 62
7
  6
BYLAYER
 70
0
 71
3
 72
11
 73
7
 74
0
 42
0.0000001
 43
0.0000001
 44
0.0000000001
 40
0.0
 40
0.0
 40
0.0
 40
0.0
 40
0.2177064543
 40
0.4508739661
 40
0.7105562324
 40
1.0
 40
1.0
 40
1.0
 40
1.0
 10
38.0682899591
 20
119.6289186923
 30
0.0
 10
38.1342176103
 20
119.6670248369
 30
0.0
 10
38.2857516306
 20
119.7221080241
 30
0.0
 10
38.5376331689
 20
119.7285263066
 30
0.0
 10
38.8059164004
 20
119.6634738146
 30
0.0
 10
38.9805592481
 20
119.5805738198
 30
0.0
 10
39.0682361246
 20
119.5299546967
 30
0.0
  0
SPLINE
  5
38B
100
AcDbEntity
  8
0
100
AcDbSpline
 62
7
  6
BYLAYER
 70
0
 71
3
 72
9
 73
5
 74
0
 42
0.0000001
 43
0.0000001
 44
0.0000000001
 40
0.0
 40
0.0
 40
0.0
 40
0.0
 40
0.2339242814
 40
1.0
 40
1.0
 40
1.0
 40
1.0
 10
39.0682483505
 20
119.5299599851
 30
0.0
 10
39.0682382599
 20
119.4657559573
 30
0.0
 10
39.0822295479
 20
119.1913174503
 30
0.0
 10
39.1463604514
 20
118.9207395974
 30
0.0
 10
39.2146152523
 20
118.7218653671
 30
0.0
  0
SPLINE
  5
38C
100
AcDbEntity
  8
0
100
AcDbSpline
 62
7
  6
BYLAYER
 70
0
 71
3
 72
11
 73
7
 74
0
 42
0.0000001
 43
0.0000001
 44
0.0000000001
 40
0.0
 40
0.0
 40
0.0
 40
0.0
 40
0.2177239861
 40
0.4508730345
 40
0.7104683317
 40
1.0
 40
1.0
 40
1.0
 40
1.0
 10
32.3461698861
 20
64.2508889076
 30
0.0
 10
32.2554809136
 20
64.1985345725
 30
0.0
 10
32.0856553261
 20
64.0560208219
 30
0.0
 10
31.9049348888
 20
63.7604668338
 30
0.0
 10
31.7978178197
 20
63.396318453
 30
0.0
 10
31.77655208
 20
63.1313343375
 30
0.0
 10
31.77655208
 20
62.9920817271
 30
0.0
  0
SPLINE
  5
38D
100
AcDbEntity
  8
0
100
AcDbSpline
 62
7
  6
BYLAYER
 70
0
 71
3
 72
11
 73
7
 74
0
 42
0.0000001
 43
0.0000001
 44
0.0000000001
 40
0.0
 40
0.0
 40
0.0
 40
0.0
 40
0.2183145956
 40
0.4537766388
 40
0.7135719193
 40
1.0
 40
1.0
 40
1.0
 40
1.0
 10
92.3720717546
 20
47.782059057
 30
0.0
 10
92.7050660691
 20
47.6515577117
 30
0.0
 10
93.44239767
 20
47.4868195866
 30
0.0
 10
94.6210147034
 20
47.5462800417
 30
0.0
 10
95.862600655
 20
47.8926176405
 30
0.0
 10
96.67164845
 20
48.2855884937
 30
0.0
 10
97.0780227378
 20
48.5202073976
 30
0.0
  0
SPLINE
  5
38E
100
AcDbEntity
  8
0
100
AcDbSpline
 62
7
  6
BYLAYER
 70
0
 71
3
 72
16
 73
12
 74
0
 42
0.0000001
 43
0.0000001
 44
0.0000000001
 40
0.0
 40
0.0
 40
0.0
 40
0.0
 40
0.091594818
 40
0.1429720764
 40
0.1983820633
 40
0.320631758
 40
0.4554380717
 40
0.5973036075
 40
0.7396424097
 40
0.8757723001
 40
1.0
 40
1.0
 40
1.0
 40
1.0
 10
91.2537136972
 20
48.2014412977
 30
0.0
 10
90.8641441883
 20
48.6749327303
 30
0.0
 10
90.4236906114
 20
49.5574174225
 30
0.0
 10
90.1241161363
 20
50.8525717002
 30
0.0
 10
89.9858796397
 20
52.3845454778
 30
0.0
 10
90.1822398108
 20
54.4842389204
 30
0.0
 10
90.9171854814
 20
57.0639495298
 30
0.0
 10
92.1098139245
 20
59.6152136301
 30
0.0
 10
93.6794389746
 20
61.9641832728
 30
0.0
 10
95.5178163846
 20
63.9510001256
 30
0.0
 10
96.9235176825
 20
65.0060147501
 30
0.0
 10
97.6437105179
 20
65.4218157955
 30
0.0
  0
SPLINE
  5
38F
100
AcDbEntity
  8
0
100
AcDbSpline
 62
7
  6
BYLAYER
 70
0
 71
3
 72
17
 73
13
 74
0
 42
0.0000001
 43
0.0000001
 44
0.0000000001
 40
0.0
 40
0.0
 40
0.0
 40
0.0
 40
0.0428166228
 40
0.0873110354
 40
0.1348556142
 40
0.186358705
 40
0.3023096994
 40
0.4345223806
 40
0.5778646899
 40
0.7250591829
 40
0.8681664723
 40
1.0
 40
1.0
 40
1.0
 40
1.0
 10
91.7852752225
 20
46.1704739821
 30
0.0
 10
91.4977021456
 20
46.3365035641
 30
0.0
 10
90.9519207042
 20
46.7509589086
 30
0.0
 10
90.2893957213
 20
47.5714352241
 30
0.0
 10
89.7871418372
 20
48.5733240156
 30
0.0
 10
89.3230356823
 20
50.1827467189
 30
0.0
 10
89.2234359503
 20
52.5361235962
 30
0.0
 10
89.7737030433
 20
55.5400243194
 30
0.0
 10
90.9412799999
 20
58.6212295072
 30
0.0
 10
92.6376063622
 20
61.5425383135
 30
0.0
 10
94.7297443692
 20
64.0792206217
 30
0.0
 10
96.376614567
 20
65.4620310415
 30
0.0
 10
97.2327226395
 20
66.0209830546
 30
0.0
  0
SPLINE
  5
390
100
AcDbEntity
  8
0
100
AcDbSpline
 62
7
  6
BYLAYER
 70
0
 71
3
 72
9
 73
5
 74
0
 42
0.0000001
 43
0.0000001
 44
0.0000000001
 40
0.0
 40
0.0
 40
0.0
 40
0.0
 40
0.4754898046
 40
1.0
 40
1.0
 40
1.0
 40
1.0
 10
31.77655208
 20
106.266709835
 30
0.0
 10
31.77655208
 20
106.0137153713
 30
0.0
 10
31.8525540613
 20
105.481200909
 30
0.0
 10
32.0342039697
 20
104.9776038091
 30
0.0
 10
32.151662633
 20
104.7244490627
 30
0.0
  0
SPLINE
  5
391
100
AcDbEntity
  8
0
100
AcDbSpline
 62
7
  6
BYLAYER
 70
0
 71
3
 72
13
 73
9
 74
0
 42
0.0000001
 43
0.0000001
 44
0.0000000001
 40
0.0
 40
0.0
 40
0.0
 40
0.0
 40
0.3029855939
 40
0.5828165177
 40
0.7054580116
 40
0.8143145951
 40
0.9108934812
 40
1.0
 40
1.0
 40
1.0
 40
1.0
 10
32.151662633
 20
104.7244490627
 30
0.0
 10
32.3164995064
 20
104.3691816374
 30
0.0
 10
32.7189145071
 20
103.7230369726
 30
0.0
 10
33.3859655871
 20
103.0805694805
 30
0.0
 10
33.9668402308
 20
102.7574275578
 30
0.0
 10
34.3765930266
 20
102.6330632111
 30
0.0
 10
34.7631627497
 20
102.6250154416
 30
0.0
 10
34.9962857908
 20
102.7049921412
 30
0.0
 10
35.0960377622
 20
102.7625785047
 30
0.0
  0
SPLINE
  5
392
100
AcDbEntity
  8
0
100
AcDbSpline
 62
7
  6
BYLAYER
 70
0
 71
3
 72
11
 73
7
 74
0
 42
0.0000001
 43
0.0000001
 44
0.0000000001
 40
0.0
 40
0.0
 40
0.0
 40
0.0
 40
0.2177239861
 40
0.4508730345
 40
0.7104683317
 40
1.0
 40
1.0
 40
1.0
 40
1.0
 10
79.3689666084
 20
37.102878732
 30
0.0
 10
79.2782776359
 20
37.0505243969
 30
0.0
 10
79.1084520483
 20
36.9080106463
 30
0.0
 10
78.927731611
 20
36.6124566582
 30
0.0
 10
78.820614542
 20
36.2483082774
 30
0.0
 10
78.7993488023
 20
35.9833241619
 30
0.0
 10
78.7993488023
 20
35.8440715515
 30
0.0
  0
SPLINE
  5
393
100
AcDbEntity
  8
0
100
AcDbSpline
 62
7
  6
BYLAYER
 70
0
 71
3
 72
11
 73
7
 74
0
 42
0.0000001
 43
0.0000001
 44
0.0000000001
 40
0.0
 40
0.0
 40
0.0
 40
0.0
 40
0.2179594507
 40
0.4511717279
 40
0.7108115686
 40
1.0
 40
1.0
 40
1.0
 40
1.0
 10
82.3243831643
 20
94.0782297623
 30
0.0
 10
82.3900437781
 20
94.1162834234
 30
0.0
 10
82.5409970168
 20
94.1711679573
 30
0.0
 10
82.7917596434
 20
94.1778790938
 30
0.0
 10
83.058932394
 20
94.1140586539
 30
0.0
 10
83.2329503404
 20
94.0320218958
 30
0.0
 10
83.3201524154
 20
93.9816768933
 30
0.0
  0
SPLINE
  5
394
100
AcDbEntity
  8
0
100
AcDbSpline
 62
7
  6
BYLAYER
 70
0
 71
3
 72
11
 73
7
 74
0
 42
0.0000001
 43
0.0000001
 44
0.0000000001
 40
0.0
 40
0.0
 40
0.0
 40
0.0
 40
0.2177239861
 40
0.4508730345
 40
0.7104683317
 40
1.0
 40
1.0
 40
1.0
 40
1.0
 10
79.3689666084
 20
80.3775068399
 30
0.0
 10
79.2782776359
 20
80.3251525048
 30
0.0
 10
79.1084520483
 20
80.1826387542
 30
0.0
 10
78.927731611
 20
79.8870847661
 30
0.0
 10
78.820614542
 20
79.5229363853
 30
0.0
 10
78.7993488023
 20
79.2579522698
 30
0.0
 10
78.7993488023
 20
79.1186996594
 30
0.0
  0
SPLINE
  5
395
100
AcDbEntity
  8
0
100
AcDbSpline
 62
7
  6
BYLAYER
 70
0
 71
3
 72
11
 73
7
 74
0
 42
0.0000001
 43
0.0000001
 44
0.0000000001
 40
0.0
 40
0.0
 40
0.0
 40
0.0
 40
0.202730748
 40
0.4308140621
 40
0.6968019605
 40
1.0
 40
1.0
 40
1.0
 40
1.0
 10
88.8888662446
 20
146.7530400275
 30
0.0
 10
88.8888731693
 20
146.8984063773
 30
0.0
 10
88.8100555088
 20
147.2101705641
 30
0.0
 10
88.4935405903
 20
147.6098456927
 30
0.0
 10
88.0183204313
 20
147.9380646992
 30
0.0
 10
87.6367732926
 20
148.0914618697
 30
0.0
 10
87.428926502
 20
148.1552183619
 30
0.0
  0
SPLINE
  5
396
100
AcDbEntity
  8
0
100
AcDbSpline
 62
7
  6
BYLAYER
 70
0
 71
3
 72
9
 73
5
 74
0
 42
0.0000001
 43
0.0000001
 44
0.0000000001
 40
0.0
 40
0.0
 40
0.0
 40
0.0
 40
0.234984702
 40
1.0
 40
1.0
 40
1.0
 40
1.0
 10
81.6389588629
 20
146.6991397309
 30
0.0
 10
81.6389683662
 20
146.5414437793
 30
0.0
 10
81.6881226314
 20
145.870131929
 30
0.0
 10
81.9031663112
 20
145.2206615587
 30
0.0
 10
82.1101203259
 20
144.750827777
 30
0.0
  0
SPLINE
  5
397
100
AcDbEntity
  8
0
100
AcDbSpline
 62
7
  6
BYLAYER
 70
0
 71
3
 72
11
 73
7
 74
0
 42
0.0000001
 43
0.0000001
 44
0.0000000001
 40
0.0
 40
0.0
 40
0.0
 40
0.0
 40
0.2191435805
 40
0.4557263235
 40
0.7153421336
 40
1.0
 40
1.0
 40
1.0
 40
1.0
 10
53.2735397621
 20
142.3554039751
 30
0.0
 10
52.8891481552
 20
142.0006936646
 30
0.0
 10
52.1927679078
 20
141.1458670255
 30
0.0
 10
51.4632400305
 20
139.5874183459
 30
0.0
 10
51.0268055799
 20
137.764808597
 30
0.0
 10
50.9391844159
 20
136.462845691
 30
0.0
 10
50.9391844159
 20
135.7834329577
 30
0.0
  0
SPLINE
  5
398
100
AcDbEntity
  8
0
100
AcDbSpline
 62
7
  6
BYLAYER
 70
0
 71
3
 72
10
 73
6
 74
0
 42
0.0000001
 43
0.0000001
 44
0.0000000001
 40
0.0
 40
0.0
 40
0.0
 40
0.0
 40
0.2391476829
 40
0.4829941776
 40
1.0
 40
1.0
 40
1.0
 40
1.0
 10
90.1926013137
 20
164.5165179666
 30
0.0
 10
90.4698332311
 20
164.676545665
 30
0.0
 10
91.0595287226
 20
164.9511644623
 30
0.0
 10
92.3564499402
 20
165.3017333717
 30
0.0
 10
93.394975038
 20
165.3175702176
 30
0.0
 10
94.0826911442
 20
165.240490939
 30
0.0
  0
SPLINE
  5
399
100
AcDbEntity
  8
0
100
AcDbSpline
 62
7
  6
BYLAYER
 70
0
 71
3
 72
11
 73
7
 74
0
 42
0.0000001
 43
0.0000001
 44
0.0000000001
 40
0.0
 40
0.0
 40
0.0
 40
0.0
 40
0.289703705
 40
0.5490987334
 40
0.7822045597
 40
1.0
 40
1.0
 40
1.0
 40
1.0
 10
54.7009851319
 20
147.745180525
 30
0.0
 10
54.5035316476
 20
147.6311813831
 30
0.0
 10
54.1452847496
 20
147.384447155
 30
0.0
 10
53.7172010376
 20
146.9344637368
 30
0.0
 10
53.4463079511
 20
146.4367561289
 30
0.0
 10
53.3829489898
 20
146.0795040077
 30
0.0
 10
53.3829883257
 20
145.9080971298
 30
0.0
  0
SPLINE
  5
39A
100
AcDbEntity
  8
0
100
AcDbSpline
 62
7
  6
BYLAYER
 70
0
 71
3
 72
9
 73
5
 74
0
 42
0.0000001
 43
0.0000001
 44
0.0000000001
 40
0.0
 40
0.0
 40
0.0
 40
0.0
 40
0.4547606331
 40
1.0
 40
1.0
 40
1.0
 40
1.0
 10
61.9118244402
 20
147.0654344013
 30
0.0
 10
61.6147618958
 20
147.4101293371
 30
0.0
 10
60.76204678
 20
147.9913081937
 30
0.0
 10
59.794395149
 20
148.2824376676
 30
0.0
 10
59.2579586423
 20
148.3818674317
 30
0.0
  0
SPLINE
  5
39B
100
AcDbEntity
  8
0
100
AcDbSpline
 62
7
  6
BYLAYER
 70
0
 71
3
 72
9
 73
5
 74
0
 42
0.0000001
 43
0.0000001
 44
0.0000000001
 40
0.0
 40
0.0
 40
0.0
 40
0.0
 40
0.2487907712
 40
1.0
 40
1.0
 40
1.0
 40
1.0
 10
59.1954417326
 20
148.3931644959
 30
0.0
 10
58.9767679037
 20
148.431667293
 30
0.0
 10
58.0911425928
 20
148.5452313232
 30
0.0
 10
57.1852486025
 20
148.5056053795
 30
0.0
 10
56.5257303728
 20
148.385141045
 30
0.0
  0
SPLINE
  5
39C
100
AcDbEntity
  8
0
100
AcDbSpline
 62
7
  6
BYLAYER
 70
0
 71
3
 72
9
 73
5
 74
0
 42
0.0000001
 43
0.0000001
 44
0.0000000001
 40
0.0
 40
0.0
 40
0.0
 40
0.0
 40
0.2536673237
 40
1.0
 40
1.0
 40
1.0
 40
1.0
 10
56.5257303728
 20
148.385141045
 30
0.0
 10
56.469467139
 20
148.3748642813
 30
0.0
 10
56.2481695841
 20
148.3316703388
 30
0.0
 10
56.0289498284
 20
148.2776844888
 30
0.0
 10
55.8673006505
 20
148.2309303805
 30
0.0
  0
SPLINE
  5
39D
100
AcDbEntity
  8
0
100
AcDbSpline
 62
7
  6
BYLAYER
 70
0
 71
3
 72
9
 73
5
 74
0
 42
0.0000001
 43
0.0000001
 44
0.0000000001
 40
0.0
 40
0.0
 40
0.0
 40
0.0
 40
0.260970988
 40
1.0
 40
1.0
 40
1.0
 40
1.0
 10
55.675077577
 20
148.1719186515
 30
0.0
 10
55.5870162183
 20
148.1432762906
 30
0.0
 10
55.252261998
 20
148.0256596608
 30
0.0
 10
54.9280878625
 20
147.8762975649
 30
0.0
 10
54.7009851319
 20
147.745180525
 30
0.0
  0
SPLINE
  5
39E
100
AcDbEntity
  8
0
100
AcDbSpline
 62
7
  6
BYLAYER
 70
0
 71
3
 72
10
 73
6
 74
0
 42
0.0000001
 43
0.0000001
 44
0.0000000001
 40
0.0
 40
0.0
 40
0.0
 40
0.0
 40
0.5104202856
 40
0.7673159285
 40
1.0
 40
1.0
 40
1.0
 40
1.0
 10
56.6933126206
 20
143.7914635396
 30
0.0
 10
57.4589544664
 20
143.9853586778
 30
0.0
 10
58.6109156869
 20
144.279709613
 30
0.0
 10
60.0675089301
 20
144.8061405472
 30
0.0
 10
60.7531600627
 20
145.1338176625
 30
0.0
 10
61.0649726582
 20
145.3138416739
 30
0.0
  0
SPLINE
  5
39F
100
AcDbEntity
  8
0
100
AcDbSpline
 62
7
  6
BYLAYER
 70
0
 71
3
 72
11
 73
7
 74
0
 42
0.0000001
 43
0.0000001
 44
0.0000000001
 40
0.0
 40
0.0
 40
0.0
 40
0.0
 40
0.3445428552
 40
0.6282507765
 40
0.8452630223
 40
1.0
 40
1.0
 40
1.0
 40
1.0
 10
61.0649726582
 20
145.3138416739
 30
0.0
 10
61.2609679673
 20
145.4269989429
 30
0.0
 10
61.6087050147
 20
145.6510559939
 30
0.0
 10
62.030636169
 20
146.0166936557
 30
0.0
 10
62.2973368851
 20
146.3571263689
 30
0.0
 10
62.3830030614
 20
146.5974229024
 30
0.0
 10
62.3829859032
 20
146.699063042
 30
0.0
  0
SPLINE
  5
3A0
100
AcDbEntity
  8
0
100
AcDbSpline
 62
7
  6
BYLAYER
 70
0
 71
3
 72
11
 73
7
 74
0
 42
0.0000001
 43
0.0000001
 44
0.0000000001
 40
0.0
 40
0.0
 40
0.0
 40
0.0
 40
0.2895410651
 40
0.5491142309
 40
0.7822583424
 40
1.0
 40
1.0
 40
1.0
 40
1.0
 10
55.9384271509
 20
147.8756341818
 30
0.0
 10
55.8178299858
 20
147.8060077917
 30
0.0
 10
55.5989804669
 20
147.6551189526
 30
0.0
 10
55.3372010782
 20
147.3802851526
 30
0.0
 10
55.1715817959
 20
147.0760259489
 30
0.0
 10
55.13308351
 20
146.8576939239
 30
0.0
 10
55.1330785215
 20
146.7529721053
 30
0.0
  0
SPLINE
  5
3A1
100
AcDbEntity
  8
0
100
AcDbSpline
 62
7
  6
BYLAYER
 70
0
 71
3
 72
11
 73
7
 74
0
 42
0.0000001
 43
0.0000001
 44
0.0000000001
 40
0.0
 40
0.0
 40
0.0
 40
0.0
 40
0.2895410651
 40
0.5491142309
 40
0.7822583424
 40
1.0
 40
1.0
 40
1.0
 40
1.0
 10
70.0664794594
 20
139.7189839065
 30
0.0
 10
69.9458822943
 20
139.6493575164
 30
0.0
 10
69.7270327753
 20
139.4984686773
 30
0.0
 10
69.4652533866
 20
139.2236348773
 30
0.0
 10
69.2996341043
 20
138.9193756736
 30
0.0
 10
69.2611358185
 20
138.7010436486
 30
0.0
 10
69.2611308299
 20
138.59632183
 30
0.0
  0
SPLINE
  5
3A2
100
AcDbEntity
  8
0
100
AcDbSpline
 62
7
  6
BYLAYER
 70
0
 71
3
 72
21
 73
17
 74
0
 42
0.0000001
 43
0.0000001
 44
0.0000000001
 40
0.0
 40
0.0
 40
0.0
 40
0.0
 40
0.0490063655
 40
0.1032433999
 40
0.1631873394
 40
0.2286082247
 40
0.2986830284
 40
0.3722114896
 40
0.5234519065
 40
0.6698785885
 40
0.7377220953
 40
0.8004350116
 40
0.8574643867
 40
0.9089222639
 40
0.9557872223
 40
1.0
 40
1.0
 40
1.0
 40
1.0
 10
76.9085324722
 20
119.9814673227
 30
0.0
 10
76.6694314634
 20
120.3314161701
 30
0.0
 10
76.2702554286
 20
121.1425118454
 30
0.0
 10
75.9429489121
 20
122.524274509
 30
0.0
 10
75.8627095683
 20
124.0826605955
 30
0.0
 10
76.0290733145
 20
125.7699787147
 30
0.0
 10
76.4360049649
 20
127.5359483072
 30
0.0
 10
77.2899903509
 20
129.9434456495
 30
0.0
 10
78.8382235999
 20
132.7822701568
 30
0.0
 10
80.8951046427
 20
135.2190473013
 30
0.0
 10
82.7511968513
 20
136.7430233085
 30
0.0
 10
84.1403342248
 20
137.5928984599
 30
0.0
 10
85.5200855458
 20
138.1517346434
 30
0.0
 10
86.8524234396
 20
138.3982889675
 30
0.0
 10
88.0971757227
 20
138.3160884892
 30
0.0
 10
88.8470441573
 20
138.03019799
 30
0.0
 10
89.1781977719
 20
137.8390238128
 30
0.0
  0
SPLINE
  5
3A3
100
AcDbEntity
  8
0
100
AcDbSpline
 62
7
  6
BYLAYER
 70
0
 71
3
 72
9
 73
5
 74
0
 42
0.0000001
 43
0.0000001
 44
0.0000000001
 40
0.0
 40
0.0
 40
0.0
 40
0.0
 40
0.255010449
 40
1.0
 40
1.0
 40
1.0
 40
1.0
 10
66.8601419009
 20
150.4506173484
 30
0.0
 10
66.7872778803
 20
150.5376797006
 30
0.0
 10
66.4877755452
 20
150.8672614998
 30
0.0
 10
66.130744231
 20
151.1450241172
 30
0.0
 10
65.843536239
 20
151.3108990762
 30
0.0
  0
SPLINE
  5
3A4
100
AcDbEntity
  8
0
100
AcDbSpline
 62
7
  6
BYLAYER
 70
0
 71
3
 72
12
 73
8
 74
0
 42
0.0000001
 43
0.0000001
 44
0.0000000001
 40
0.0
 40
0.0
 40
0.0
 40
0.0
 40
0.2977855597
 40
0.5603784382
 40
0.7900502055
 40
0.8964341119
 40
1.0
 40
1.0
 40
1.0
 40
1.0
 10
59.3107323147
 20
148.4392877728
 30
0.0
 10
59.7804922689
 20
148.7997756328
 30
0.0
 10
60.7242482488
 20
149.4073932539
 30
0.0
 10
62.2099773405
 20
149.9608002362
 30
0.0
 10
63.4223323701
 20
150.043532232
 30
0.0
 10
64.2807956586
 20
149.853386804
 30
0.0
 10
64.665172313
 20
149.6817475126
 30
0.0
 10
64.8435354544
 20
149.5788068563
 30
0.0
  0
SPLINE
  5
3A5
100
AcDbEntity
  8
0
100
AcDbSpline
 62
7
  6
BYLAYER
 70
0
 71
3
 72
16
 73
12
 74
0
 42
0.0000001
 43
0.0000001
 44
0.0000000001
 40
0.0
 40
0.0
 40
0.0
 40
0.0
 40
0.1490400936
 40
0.2990981684
 40
0.4449221433
 40
0.5817120957
 40
0.7057996886
 40
0.8154017788
 40
0.9116579154
 40
0.956392406
 40
1.0
 40
1.0
 40
1.0
 40
1.0
 10
41.3578341299
 20
149.2925153692
 30
0.0
 10
41.654219993
 20
150.0754225624
 30
0.0
 10
42.360642489
 20
151.6063488488
 30
0.0
 10
43.6998643962
 20
153.7243480181
 30
0.0
 10
45.2669889454
 20
155.5922476078
 30
0.0
 10
46.9825339346
 20
157.1148068825
 30
0.0
 10
48.7637599133
 20
158.2152036853
 30
0.0
 10
50.527902717
 20
158.8372602265
 30
0.0
 10
51.9616080822
 20
158.9144269724
 30
0.0
 10
52.9776124336
 20
158.6805671591
 30
0.0
 10
53.4337864415
 20
158.47554356
 30
0.0
 10
53.6458897216
 20
158.3530454526
 30
0.0
  0
SPLINE
  5
3A6
100
AcDbEntity
  8
0
100
AcDbSpline
 62
7
  6
BYLAYER
 70
0
 71
3
 72
11
 73
7
 74
0
 42
0.0000001
 43
0.0000001
 44
0.0000000001
 40
0.0
 40
0.0
 40
0.0
 40
0.0
 40
0.2896849557
 40
0.5491047442
 40
0.7822253312
 40
1.0
 40
1.0
 40
1.0
 40
1.0
 10
68.8289197994
 20
155.9018987193
 30
0.0
 10
68.6314798893
 20
155.7879074145
 30
0.0
 10
68.2732609424
 20
155.5411348929
 30
0.0
 10
67.845095212
 20
155.0912191048
 30
0.0
 10
67.574227971
 20
154.5934416627
 30
0.0
 10
67.5110075675
 20
154.2362051026
 30
0.0
 10
67.5109547422
 20
154.064815266
 30
0.0
  0
SPLINE
  5
3A7
100
AcDbEntity
  8
0
100
AcDbSpline
 62
7
  6
BYLAYER
 70
0
 71
3
 72
9
 73
5
 74
0
 42
0.0000001
 43
0.0000001
 44
0.0000000001
 40
0.0
 40
0.0
 40
0.0
 40
0.0
 40
0.2485608408
 40
1.0
 40
1.0
 40
1.0
 40
1.0
 10
73.2005798371
 20
156.570419419
 30
0.0
 10
73.0085146363
 20
156.6008162082
 30
0.0
 10
72.2312111265
 20
156.6917953016
 30
0.0
 10
71.4398437935
 20
156.665104292
 30
0.0
 10
70.8587286433
 20
156.5762393063
 30
0.0
  0
SPLINE
  5
3A8
100
AcDbEntity
  8
0
100
AcDbSpline
 62
7
  6
BYLAYER
 70
0
 71
3
 72
9
 73
5
 74
0
 42
0.0000001
 43
0.0000001
 44
0.0000000001
 40
0.0
 40
0.0
 40
0.0
 40
0.0
 40
0.2541831581
 40
1.0
 40
1.0
 40
1.0
 40
1.0
 10
70.6387063312
 20
156.5390985225
 30
0.0
 10
70.5763403591
 20
156.527566713
 30
0.0
 10
70.3316084277
 20
156.4789040056
 30
0.0
 10
70.0894682741
 20
156.4169762173
 30
0.0
 10
69.9114445145
 20
156.3627667755
 30
0.0
  0
SPLINE
  5
3A9
100
AcDbEntity
  8
0
100
AcDbSpline
 62
7
  6
BYLAYER
 70
0
 71
3
 72
9
 73
5
 74
0
 42
0.0000001
 43
0.0000001
 44
0.0000000001
 40
0.0
 40
0.0
 40
0.0
 40
0.0
 40
0.2617326273
 40
1.0
 40
1.0
 40
1.0
 40
1.0
 10
69.9114445145
 20
156.3627667755
 30
0.0
 10
69.8131348234
 20
156.3328308079
 30
0.0
 10
69.4405719661
 20
156.2089977474
 30
0.0
 10
69.0799573788
 20
156.0468344682
 30
0.0
 10
68.8289197994
 20
155.9018987193
 30
0.0
  0
SPLINE
  5
3AA
100
AcDbEntity
  8
0
100
AcDbSpline
 62
7
  6
BYLAYER
 70
0
 71
3
 72
9
 73
5
 74
0
 42
0.0000001
 43
0.0000001
 44
0.0000000001
 40
0.0
 40
0.0
 40
0.0
 40
0.0
 40
0.5725146851
 40
1.0
 40
1.0
 40
1.0
 40
1.0
 10
75.1929073258
 20
153.470559243
 30
0.0
 10
75.4473767196
 20
153.617476339
 30
0.0
 10
75.8758877596
 20
153.9020230264
 30
0.0
 10
76.2454357208
 20
154.270578266
 30
0.0
 10
76.3652964875
 20
154.4543450995
 30
0.0
  0
SPLINE
  5
3AB
100
AcDbEntity
  8
0
100
AcDbSpline
 62
7
  6
BYLAYER
 70
0
 71
3
 72
9
 73
5
 74
0
 42
0.0000001
 43
0.0000001
 44
0.0000000001
 40
0.0
 40
0.0
 40
0.0
 40
0.0
 40
0.2959816133
 40
1.0
 40
1.0
 40
1.0
 40
1.0
 10
76.3652964875
 20
154.4543450995
 30
0.0
 10
76.3884728167
 20
154.4898783331
 30
0.0
 10
76.4608095137
 20
154.6127931889
 30
0.0
 10
76.5109109771
 20
154.7549443787
 30
0.0
 10
76.5109140132
 20
154.8558524052
 30
0.0
  0
SPLINE
  5
3AC
100
AcDbEntity
  8
0
100
AcDbSpline
 62
7
  6
BYLAYER
 70
0
 71
3
 72
11
 73
7
 74
0
 42
0.0000001
 43
0.0000001
 44
0.0000000001
 40
0.0
 40
0.0
 40
0.0
 40
0.0
 40
0.2330548392
 40
0.494892313
 40
0.7600002767
 40
1.0
 40
1.0
 40
1.0
 40
1.0
 10
70.0063514965
 20
151.7387838802
 30
0.0
 10
70.4181107181
 20
151.8478909173
 30
0.0
 10
71.2961751836
 20
152.0650893398
 30
0.0
 10
72.6391587909
 20
152.4216062714
 30
0.0
 10
73.9702344887
 20
152.8647737997
 30
0.0
 10
74.8130133695
 20
153.2512286743
 30
0.0
 10
75.1929073258
 20
153.470559243
 30
0.0
  0
SPLINE
  5
3AD
100
AcDbEntity
  8
0
100
AcDbSpline
 62
7
  6
BYLAYER
 70
0
 71
3
 72
11
 73
7
 74
0
 42
0.0000001
 43
0.0000001
 44
0.0000000001
 40
0.0
 40
0.0
 40
0.0
 40
0.0
 40
0.2895410651
 40
0.5491142309
 40
0.7822583424
 40
1.0
 40
1.0
 40
1.0
 40
1.0
 10
70.0663618185
 20
156.0323523762
 30
0.0
 10
69.9457646534
 20
155.9627259861
 30
0.0
 10
69.7269151344
 20
155.8118371469
 30
0.0
 10
69.4651357457
 20
155.537003347
 30
0.0
 10
69.2995164634
 20
155.2327441433
 30
0.0
 10
69.2610181776
 20
155.0144121183
 30
0.0
 10
69.261013189
 20
154.9096902997
 30
0.0
  0
SPLINE
  5
3AE
100
AcDbEntity
  8
0
100
AcDbSpline
 62
7
  6
BYLAYER
 70
0
 71
3
 72
9
 73
5
 74
0
 42
0.0000001
 43
0.0000001
 44
0.0000000001
 40
0.0
 40
0.0
 40
0.0
 40
0.0
 40
0.2716946762
 40
1.0
 40
1.0
 40
1.0
 40
1.0
 10
76.0414382786
 20
152.1134164773
 30
0.0
 10
75.9843416042
 20
152.0804518938
 30
0.0
 10
75.77875998
 20
151.9519394923
 30
0.0
 10
75.5905352154
 20
151.7916354134
 30
0.0
 10
75.4788827411
 20
151.6546410716
 30
0.0
  0
SPLINE
  5
3AF
100
AcDbEntity
  8
0
100
AcDbSpline
 62
7
  6
BYLAYER
 70
0
 71
3
 72
9
 73
5
 74
0
 42
0.0000001
 43
0.0000001
 44
0.0000000001
 40
0.0
 40
0.0
 40
0.0
 40
0.0
 40
0.2634584299
 40
1.0
 40
1.0
 40
1.0
 40
1.0
 10
76.8540613716
 20
152.448601739
 30
0.0
 10
76.7796761217
 20
152.4275656614
 30
0.0
 10
76.4996800013
 20
152.3399826593
 30
0.0
 10
76.2285970482
 20
152.2214719984
 30
0.0
 10
76.0414382786
 20
152.1134164773
 30
0.0
  0
SPLINE
  5
3B0
100
AcDbEntity
  8
0
100
AcDbSpline
 62
7
  6
BYLAYER
 70
0
 71
3
 72
10
 73
6
 74
0
 42
0.0000001
 43
0.0000001
 44
0.0000000001
 40
0.0
 40
0.0
 40
0.0
 40
0.0
 40
0.1521588963
 40
0.3099114595
 40
1.0
 40
1.0
 40
1.0
 40
1.0
 10
76.7782632549
 20
151.1308641886
 30
0.0
 10
76.7394170244
 20
151.1210346605
 30
0.0
 10
76.6572939884
 20
151.1082218237
 30
0.0
 10
76.4048829283
 20
151.1000369149
 30
0.0
 10
76.071193584
 20
151.2143151452
 30
0.0
 10
76.0718471499
 20
151.3960465562
 30
0.0
  0
SPLINE
  5
3B1
100
AcDbEntity
  8
0
100
AcDbSpline
 62
7
  6
BYLAYER
 70
0
 71
3
 72
9
 73
5
 74
0
 42
0.0000001
 43
0.0000001
 44
0.0000000001
 40
0.0
 40
0.0
 40
0.0
 40
0.0
 40
0.2366905087
 40
1.0
 40
1.0
 40
1.0
 40
1.0
 10
77.384963343
 20
151.3699560294
 30
0.0
 10
77.3403249574
 20
151.3441841993
 30
0.0
 10
77.1472557584
 20
151.2430783202
 30
0.0
 10
76.939409638
 20
151.1716401624
 30
0.0
 10
76.7782632549
 20
151.1308641886
 30
0.0
  0
SPLINE
  5
3B2
100
AcDbEntity
  8
0
100
AcDbSpline
 62
7
  6
BYLAYER
 70
0
 71
3
 72
9
 73
5
 74
0
 42
0.0000001
 43
0.0000001
 44
0.0000000001
 40
0.0
 40
0.0
 40
0.0
 40
0.0
 40
0.2326082163
 40
1.0
 40
1.0
 40
1.0
 40
1.0
 10
77.8049850711
 20
151.7236387378
 30
0.0
 10
77.7788379803
 20
151.6898407201
 30
0.0
 10
77.657782687
 20
151.5512246661
 30
0.0
 10
77.5070507723
 20
151.4404428188
 30
0.0
 10
77.384963343
 20
151.3699560294
 30
0.0
  0
SPLINE
  5
3B3
100
AcDbEntity
  8
0
100
AcDbSpline
 62
7
  6
BYLAYER
 70
0
 71
3
 72
9
 73
5
 74
0
 42
0.0000001
 43
0.0000001
 44
0.0000000001
 40
0.0
 40
0.0
 40
0.0
 40
0.0
 40
0.2583112412
 40
1.0
 40
1.0
 40
1.0
 40
1.0
 10
103.5691137888
 20
139.7149342984
 30
0.0
 10
103.5691137888
 20
139.532657733
 30
0.0
 10
103.5567117659
 20
138.8271198341
 30
0.0
 10
103.4932640693
 20
138.122056549
 30
0.0
 10
103.4124390605
 20
137.604964698
 30
0.0
  0
SPLINE
  5
3B4
100
AcDbEntity
  8
0
100
AcDbSpline
 62
7
  6
BYLAYER
 70
0
 71
3
 72
9
 73
5
 74
0
 42
0.0000001
 43
0.0000001
 44
0.0000000001
 40
0.0
 40
0.0
 40
0.0
 40
0.0
 40
0.2578115586
 40
1.0
 40
1.0
 40
1.0
 40
1.0
 10
103.3680513918
 20
142.3213474736
 30
0.0
 10
103.4011514674
 20
142.0990325948
 30
0.0
 10
103.5149669663
 20
141.2346697592
 30
0.0
 10
103.5691137888
 20
140.3619896171
 30
0.0
 10
103.5691137888
 20
139.7149342984
 30
0.0
  0
SPLINE
  5
3B5
100
AcDbEntity
  8
0
100
AcDbSpline
 62
7
  6
BYLAYER
 70
0
 71
3
 72
9
 73
5
 74
0
 42
0.0000001
 43
0.0000001
 44
0.0000000001
 40
0.0
 40
0.0
 40
0.0
 40
0.0
 40
0.50342197
 40
1.0
 40
1.0
 40
1.0
 40
1.0
 10
87.7086716813
 20
159.1119484083
 30
0.0
 10
87.7508507239
 20
159.1363003446
 30
0.0
 10
87.8490379586
 20
159.1573637749
 30
0.0
 10
87.948969307
 20
159.1426733716
 30
0.0
 10
87.9915143937
 20
159.1203586652
 30
0.0
  0
SPLINE
  5
3B6
100
AcDbEntity
  8
0
100
AcDbSpline
 62
7
  6
BYLAYER
 70
0
 71
3
 72
9
 73
5
 74
0
 42
0.0000001
 43
0.0000001
 44
0.0000000001
 40
0.0
 40
0.0
 40
0.0
 40
0.0
 40
0.2441197927
 40
1.0
 40
1.0
 40
1.0
 40
1.0
 10
85.021665324
 20
159.0054147535
 30
0.0
 10
85.1395540603
 20
158.9610398309
 30
0.0
 10
85.6197054262
 20
158.7719704621
 30
0.0
 10
86.0886092624
 20
158.5546521932
 30
0.0
 10
86.4358847743
 20
158.3771089313
 30
0.0
  0
SPLINE
  5
3B7
100
AcDbEntity
  8
0
100
AcDbSpline
 62
7
  6
BYLAYER
 70
0
 71
3
 72
9
 73
5
 74
0
 42
0.0000001
 43
0.0000001
 44
0.0000000001
 40
0.0
 40
0.0
 40
0.0
 40
0.0
 40
0.2452733175
 40
1.0
 40
1.0
 40
1.0
 40
1.0
 10
87.8501042246
 20
157.5606274223
 30
0.0
 10
87.9693995773
 20
157.4838694181
 30
0.0
 10
88.4520519014
 20
157.1651544564
 30
0.0
 10
88.9198494091
 20
156.8240610527
 30
0.0
 10
89.2643236749
 20
156.5559702264
 30
0.0
  0
SPLINE
  5
3B8
100
AcDbEntity
  8
0
100
AcDbSpline
 62
7
  6
BYLAYER
 70
0
 71
3
 72
9
 73
5
 74
0
 42
0.0000001
 43
0.0000001
 44
0.0000000001
 40
0.0
 40
0.0
 40
0.0
 40
0.0
 40
0.2892895072
 40
1.0
 40
1.0
 40
1.0
 40
1.0
 10
89.122889954
 20
158.467173458
 30
0.0
 10
89.1316621508
 20
158.4616454045
 30
0.0
 10
89.1602438456
 20
158.440570826
 30
0.0
 10
89.1814953363
 20
158.4052486115
 30
0.0
 10
89.1814956735
 20
158.3797752584
 30
0.0
  0
SPLINE
  5
3B9
100
AcDbEntity
  8
0
100
AcDbSpline
 62
7
  6
BYLAYER
 70
0
 71
3
 72
9
 73
5
 74
0
 42
0.0000001
 43
0.0000001
 44
0.0000000001
 40
0.0
 40
0.0
 40
0.0
 40
0.0
 40
0.2774517264
 40
1.0
 40
1.0
 40
1.0
 40
1.0
 10
108.5789164195
 20
152.1807515403
 30
0.0
 10
108.5789164195
 20
152.0914138608
 30
0.0
 10
108.5624627561
 20
151.770701528
 30
0.0
 10
108.4714677086
 20
151.446114909
 30
0.0
 10
108.3462334073
 20
151.2500405711
 30
0.0
  0
SPLINE
  5
3BA
100
AcDbEntity
  8
0
100
AcDbSpline
 62
7
  6
BYLAYER
 70
0
 71
3
 72
17
 73
13
 74
0
 42
0.0000001
 43
0.0000001
 44
0.0000000001
 40
0.0
 40
0.0
 40
0.0
 40
0.0
 40
0.0739499971
 40
0.1465414773
 40
0.2181405577
 40
0.2886103821
 40
0.3573857136
 40
0.4248209015
 40
0.554802375
 40
0.6773027129
 40
0.7922834459
 40
1.0
 40
1.0
 40
1.0
 40
1.0
 10
162.1710925612
 20
103.682372089
 30
0.0
 10
162.2887107935
 20
103.7030285474
 30
0.0
 10
162.5216957123
 20
103.7450205156
 30
0.0
 10
162.8640482036
 20
103.8286990879
 30
0.0
 10
163.1981146581
 20
103.921193616
 30
0.0
 10
163.52402388
 20
104.0202269533
 30
0.0
 10
163.8370126733
 20
104.1365400273
 30
0.0
 10
164.2353525956
 20
104.2981788264
 30
0.0
 10
164.7016620734
 20
104.5224656095
 30
0.0
 10
165.2073231772
 20
104.8356735045
 30
0.0
 10
165.7738623831
 20
105.2789637176
 30
0.0
 10
166.1248675253
 20
105.6770453508
 30
0.0
 10
166.2999263137
 20
105.9631725334
 30
0.0
  0
SPLINE
  5
3BB
100
AcDbEntity
  8
0
100
AcDbSpline
 62
7
  6
BYLAYER
 70
0
 71
3
 72
10
 73
6
 74
0
 42
0.0000001
 43
0.0000001
 44
0.0000000001
 40
0.0
 40
0.0
 40
0.0
 40
0.0
 40
0.2897060908
 40
0.5566781665
 40
1.0
 40
1.0
 40
1.0
 40
1.0
 10
22.0390987929
 20
184.5857861334
 30
0.0
 10
21.8795059991
 20
185.0233325836
 30
0.0
 10
21.6303466057
 20
185.8891925702
 30
0.0
 10
21.4338523412
 20
187.4810318756
 30
0.0
 10
21.6095691473
 20
188.6763446867
 30
0.0
 10
21.9501808143
 20
189.3023862118
 30
0.0
  0
SPLINE
  5
3BC
100
AcDbEntity
  8
0
100
AcDbSpline
 62
7
  6
BYLAYER
 70
0
 71
3
 72
17
 73
13
 74
0
 42
0.0000001
 43
0.0000001
 44
0.0000000001
 40
0.0
 40
0.0
 40
0.0
 40
0.0
 40
0.0739493391
 40
0.1465402238
 40
0.2181387307
 40
0.2886080908
 40
0.3573830271
 40
0.4248178776
 40
0.5547990406
 40
0.6772995288
 40
0.792280872
 40
1.0
 40
1.0
 40
1.0
 40
1.0
 10
102.5658306223
 20
231.0790790429
 30
0.0
 10
102.4891335491
 20
231.1706090849
 30
0.0
 10
102.3362770368
 20
231.351379842
 30
0.0
 10
102.0926365291
 20
231.6060207558
 30
0.0
 10
101.8455034575
 20
231.8490774748
 30
0.0
 10
101.5967868501
 20
232.0818015513
 30
0.0
 10
101.3395654238
 20
232.2946965225
 30
0.0
 10
101.0004152907
 20
232.5588436642
 30
0.0
 10
100.5730264092
 20
232.8505309115
 30
0.0
 10
100.0489535664
 20
233.1318377076
 30
0.0
 10
99.3817846265
 20
233.4008277077
 30
0.0
 10
98.8615343977
 20
233.505767178
 30
0.0
 10
98.5262109909
 20
233.514312464
 30
0.0
  0
SPLINE
  5
3BD
100
AcDbEntity
  8
0
100
AcDbSpline
 62
7
  6
BYLAYER
 70
0
 71
3
 72
9
 73
5
 74
0
 42
0.0000001
 43
0.0000001
 44
0.0000000001
 40
0.0
 40
0.0
 40
0.0
 40
0.0
 40
0.476560687
 40
1.0
 40
1.0
 40
1.0
 40
1.0
 10
75.0194658482
 20
104.0812775377
 30
0.0
 10
75.2172730888
 20
103.9670760578
 30
0.0
 10
75.5769936574
 20
103.6328643487
 30
0.0
 10
75.824896826
 20
103.2152366436
 30
0.0
 10
75.9202183269
 20
102.9831762434
 30
0.0
  0
SPLINE
  5
3BE
100
AcDbEntity
  8
0
100
AcDbSpline
 62
7
  6
BYLAYER
 70
0
 71
3
 72
11
 73
7
 74
0
 42
0.0000001
 43
0.0000001
 44
0.0000000001
 40
0.0
 40
0.0
 40
0.0
 40
0.0
 40
0.2514008323
 40
0.5138532789
 40
0.7689691067
 40
1.0
 40
1.0
 40
1.0
 40
1.0
 10
87.389932943
 20
83.5636740849
 30
0.0
 10
87.6629772953
 20
83.3222479048
 30
0.0
 10
88.164465679
 20
82.7629124204
 30
0.0
 10
88.7428765441
 20
81.8028474043
 30
0.0
 10
89.1245847615
 20
80.7803989794
 30
0.0
 10
89.2291760327
 20
80.0748565202
 30
0.0
 10
89.2291760327
 20
79.7399161598
 30
0.0
  0
SPLINE
  5
3BF
100
AcDbEntity
  8
0
100
AcDbSpline
 62
7
  6
BYLAYER
 70
0
 71
3
 72
11
 73
7
 74
0
 42
0.0000001
 43
0.0000001
 44
0.0000000001
 40
0.0
 40
0.0
 40
0.0
 40
0.0
 40
0.3070483615
 40
0.5769400505
 40
0.8039199678
 40
1.0
 40
1.0
 40
1.0
 40
1.0
 10
37.8004075778
 20
117.9053770594
 30
0.0
 10
37.7383451419
 20
118.0862085763
 30
0.0
 10
37.6519960151
 20
118.4379783068
 30
0.0
 10
37.6451115653
 20
118.9436814012
 30
0.0
 10
37.7719102903
 20
119.3666026499
 30
0.0
 10
37.9625864532
 20
119.5678221265
 30
0.0
 10
38.0682899591
 20
119.6289186923
 30
0.0
  0
SPLINE
  5
3C0
100
AcDbEntity
  8
0
100
AcDbSpline
 62
7
  6
BYLAYER
 70
0
 71
3
 72
10
 73
6
 74
0
 42
0.0000001
 43
0.0000001
 44
0.0000000001
 40
0.0
 40
0.0
 40
0.0
 40
0.0
 40
0.2286722158
 40
0.4798270354
 40
1.0
 40
1.0
 40
1.0
 40
1.0
 10
39.8370819901
 20
114.023756385
 30
0.0
 10
39.6982559334
 20
114.103905833
 30
0.0
 10
39.4276547582
 20
114.309020456
 30
0.0
 10
38.954926332
 20
114.82910275
 30
0.0
 10
38.6894758557
 20
115.3148959912
 30
0.0
 10
38.5711044492
 20
115.6597951348
 30
0.0
  0
SPLINE
  5
3C1
100
AcDbEntity
  8
0
100
AcDbSpline
 62
7
  6
BYLAYER
 70
0
 71
3
 72
9
 73
5
 74
0
 42
0.0000001
 43
0.0000001
 44
0.0000000001
 40
0.0
 40
0.0
 40
0.0
 40
0.0
 40
0.4945689168
 40
1.0
 40
1.0
 40
1.0
 40
1.0
 10
80.213527037
 20
90.4804807569
 30
0.0
 10
80.2365025062
 20
90.1798021003
 30
0.0
 10
80.4406311868
 20
89.5856481607
 30
0.0
 10
80.8254214823
 20
89.0922948745
 30
0.0
 10
81.0656303741
 20
88.899231427
 30
0.0
  0
SPLINE
  5
3C2
100
AcDbEntity
  8
0
100
AcDbSpline
 62
7
  6
BYLAYER
 70
0
 71
3
 72
9
 73
5
 74
0
 42
0.0000001
 43
0.0000001
 44
0.0000000001
 40
0.0
 40
0.0
 40
0.0
 40
0.0
 40
0.5165507138
 40
1.0
 40
1.0
 40
1.0
 40
1.0
 10
76.9961777876
 20
104.4913630527
 30
0.0
 10
77.8622819343
 20
102.166227872
 30
0.0
 10
79.269260024
 20
97.5585642455
 30
0.0
 10
80.036598203
 20
92.7959383281
 30
0.0
 10
80.213527037
 20
90.4804807569
 30
0.0
  0
SPLINE
  5
3C3
100
AcDbEntity
  8
0
100
AcDbSpline
 62
7
  6
BYLAYER
 70
0
 71
3
 72
12
 73
8
 74
0
 42
0.0000001
 43
0.0000001
 44
0.0000000001
 40
0.0
 40
0.0
 40
0.0
 40
0.0
 40
0.255079784
 40
0.535153649
 40
0.6705211679
 40
0.7953008209
 40
1.0
 40
1.0
 40
1.0
 40
1.0
 10
82.5554842211
 20
89.3608333075
 30
0.0
 10
82.2915951728
 20
89.5131862739
 30
0.0
 10
81.8119154807
 20
89.9594866881
 30
0.0
 10
81.3975123746
 20
90.6558257288
 30
0.0
 10
81.1956448893
 20
91.2727815737
 30
0.0
 10
81.1123410912
 20
91.8201856447
 30
0.0
 10
81.1668062024
 20
92.2367624345
 30
0.0
 10
81.2876556744
 20
92.4493401318
 30
0.0
  0
SPLINE
  5
3C4
100
AcDbEntity
  8
0
100
AcDbSpline
 62
7
  6
BYLAYER
 70
0
 71
3
 72
11
 73
7
 74
0
 42
0.0000001
 43
0.0000001
 44
0.0000000001
 40
0.0
 40
0.0
 40
0.0
 40
0.0
 40
0.2177227832
 40
0.4508712161
 40
0.7104668615
 40
1.0
 40
1.0
 40
1.0
 40
1.0
 10
60.6328587384
 20
145.9080969308
 30
0.0
 10
60.6328627816
 20
145.8033851509
 30
0.0
 10
60.5943555831
 20
145.585063819
 30
0.0
 10
60.4287628163
 20
145.2807909745
 30
0.0
 10
60.166966931
 20
145.0059617891
 30
0.0
 10
59.9481233958
 20
144.8550588996
 30
0.0
 10
59.8275306392
 20
144.7854350547
 30
0.0
  0
SPLINE
  5
3C5
100
AcDbEntity
  8
0
100
AcDbSpline
 62
7
  6
BYLAYER
 70
0
 71
3
 72
9
 73
5
 74
0
 42
0.0000001
 43
0.0000001
 44
0.0000000001
 40
0.0
 40
0.0
 40
0.0
 40
0.0
 40
0.5841826256
 40
1.0
 40
1.0
 40
1.0
 40
1.0
 10
70.0063514965
 20
151.7387838802
 30
0.0
 10
69.6186105267
 20
151.6360411456
 30
0.0
 10
68.9579375193
 20
151.4508331086
 30
0.0
 10
68.3160881005
 20
151.1934861611
 30
0.0
 10
68.0688260872
 20
151.050724016
 30
0.0
  0
SPLINE
  5
3C6
100
AcDbEntity
  8
0
100
AcDbSpline
 62
7
  6
BYLAYER
 70
0
 71
3
 72
11
 73
7
 74
0
 42
0.0000001
 43
0.0000001
 44
0.0000000001
 40
0.0
 40
0.0
 40
0.0
 40
0.0
 40
0.2019753478
 40
0.4298883248
 40
0.6962780655
 40
1.0
 40
1.0
 40
1.0
 40
1.0
 10
55.1330785215
 20
146.7529721053
 30
0.0
 10
55.1330714848
 20
146.6052540201
 30
0.0
 10
55.2147457717
 20
146.2879351625
 30
0.0
 10
55.5412285028
 20
145.8834740882
 30
0.0
 10
56.0298934395
 20
145.5534725474
 30
0.0
 10
56.4214129253
 20
145.4010170856
 30
0.0
 10
56.6345152222
 20
145.3383264742
 30
0.0
  0
SPLINE
  5
3C7
100
AcDbEntity
  8
0
100
AcDbSpline
 62
7
  6
BYLAYER
 70
0
 71
3
 72
9
 73
5
 74
0
 42
0.0000001
 43
0.0000001
 44
0.0000000001
 40
0.0
 40
0.0
 40
0.0
 40
0.0
 40
0.4996799582
 40
1.0
 40
1.0
 40
1.0
 40
1.0
 10
56.7849570202
 20
145.2973467434
 30
0.0
 10
57.1378313333
 20
145.2086765609
 30
0.0
 10
57.8688385567
 20
145.1242410279
 30
0.0
 10
58.6002870698
 20
145.204278902
 30
0.0
 10
58.9542033502
 20
145.2906810255
 30
0.0
  0
SPLINE
  5
3C8
100
AcDbEntity
  8
0
100
AcDbSpline
 62
7
  6
BYLAYER
 70
0
 71
3
 72
9
 73
5
 74
0
 42
0.0000001
 43
0.0000001
 44
0.0000000001
 40
0.0
 40
0.0
 40
0.0
 40
0.0
 40
0.2639569973
 40
1.0
 40
1.0
 40
1.0
 40
1.0
 10
58.9542033502
 20
145.2906810255
 30
0.0
 10
59.0344407955
 20
145.3102695159
 30
0.0
 10
59.335912547
 20
145.3938123587
 30
0.0
 10
59.6280735862
 20
145.5151541361
 30
0.0
 10
59.8275306392
 20
145.630310032
 30
0.0
  0
SPLINE
  5
3C9
100
AcDbEntity
  8
0
100
AcDbSpline
 62
7
  6
BYLAYER
 70
0
 71
3
 72
9
 73
5
 74
0
 42
0.0000001
 43
0.0000001
 44
0.0000000001
 40
0.0
 40
0.0
 40
0.0
 40
0.0
 40
0.2456931469
 40
1.0
 40
1.0
 40
1.0
 40
1.0
 10
62.3379701944
 20
146.2746442734
 30
0.0
 10
62.3309580644
 20
146.3030602757
 30
0.0
 10
62.2992369833
 20
146.4179192747
 30
0.0
 10
62.2548684163
 20
146.5291974931
 30
0.0
 10
62.2155592583
 20
146.6100006302
 30
0.0
  0
SPLINE
  5
3CA
100
AcDbEntity
  8
0
100
AcDbSpline
 62
7
  6
BYLAYER
 70
0
 71
3
 72
9
 73
5
 74
0
 42
0.0000001
 43
0.0000001
 44
0.0000000001
 40
0.0
 40
0.0
 40
0.0
 40
0.0
 40
0.2414524884
 40
1.0
 40
1.0
 40
1.0
 40
1.0
 10
62.2155592583
 20
146.6100006302
 30
0.0
 10
62.1962542088
 20
146.6496837126
 30
0.0
 10
62.1104222812
 20
146.8111553713
 30
0.0
 10
62.0023312485
 20
146.96041531
 30
0.0
 10
61.9118244402
 20
147.0654344013
 30
0.0
  0
SPLINE
  5
3CB
100
AcDbEntity
  8
0
100
AcDbSpline
 62
7
  6
BYLAYER
 70
0
 71
3
 72
11
 73
7
 74
0
 42
0.0000001
 43
0.0000001
 44
0.0000000001
 40
0.0
 40
0.0
 40
0.0
 40
0.0
 40
0.2294432283
 40
0.449956662
 40
0.699636783
 40
1.0
 40
1.0
 40
1.0
 40
1.0
 10
62.3829859032
 20
146.699063042
 30
0.0
 10
62.3829773355
 20
146.7498159913
 30
0.0
 10
62.3635770352
 20
146.8519668869
 30
0.0
 10
62.2588024942
 20
146.9741362942
 30
0.0
 10
62.0997769479
 20
147.045118095
 30
0.0
 10
61.978180512
 20
147.062086302
 30
0.0
 10
61.9118244402
 20
147.0654344013
 30
0.0
  0
SPLINE
  5
3CC
100
AcDbEntity
  8
0
100
AcDbSpline
 62
7
  6
BYLAYER
 70
0
 71
3
 72
11
 73
7
 74
0
 42
0.0000001
 43
0.0000001
 44
0.0000000001
 40
0.0
 40
0.0
 40
0.0
 40
0.0
 40
0.2177239861
 40
0.4508730345
 40
0.7104683317
 40
1.0
 40
1.0
 40
1.0
 40
1.0
 10
35.0960377622
 20
102.7625785047
 30
0.0
 10
35.1867267347
 20
102.8149328398
 30
0.0
 10
35.3565523222
 20
102.9574465904
 30
0.0
 10
35.5372727595
 20
103.2530005785
 30
0.0
 10
35.6443898286
 20
103.6171489593
 30
0.0
 10
35.6656555683
 20
103.8821330748
 30
0.0
 10
35.6656555683
 20
104.0213856851
 30
0.0
  0
SPLINE
  5
3CD
100
AcDbEntity
  8
0
100
AcDbSpline
 62
7
  6
BYLAYER
 70
0
 71
3
 72
11
 73
7
 74
0
 42
0.0000001
 43
0.0000001
 44
0.0000000001
 40
0.0
 40
0.0
 40
0.0
 40
0.0
 40
0.2027691436
 40
0.430860827
 40
0.6968308994
 40
1.0
 40
1.0
 40
1.0
 40
1.0
 10
33.7603741374
 20
108.3420115149
 30
0.0
 10
33.8861349945
 20
108.4146222212
 30
0.0
 10
34.1951510881
 20
108.5022244832
 30
0.0
 10
34.6989796926
 20
108.4283356856
 30
0.0
 10
35.2203399847
 20
108.1815512441
 30
0.0
 10
35.5437169782
 20
107.9283759646
 30
0.0
 10
35.7027501005
 20
107.780558495
 30
0.0
  0
SPLINE
  5
3CE
100
AcDbEntity
  8
0
100
AcDbSpline
 62
7
  6
BYLAYER
 70
0
 71
3
 72
9
 73
5
 74
0
 42
0.0000001
 43
0.0000001
 44
0.0000000001
 40
0.0
 40
0.0
 40
0.0
 40
0.0
 40
0.2449691454
 40
1.0
 40
1.0
 40
1.0
 40
1.0
 10
35.8922780524
 20
107.5917177451
 30
0.0
 10
35.9732865233
 20
107.5053945979
 30
0.0
 10
36.2886967952
 20
107.1389140887
 30
0.0
 10
36.5449922435
 20
106.7220799355
 30
0.0
 10
36.699451513
 20
106.391518775
 30
0.0
  0
SPLINE
  5
3CF
100
AcDbEntity
  8
0
100
AcDbSpline
 62
7
  6
BYLAYER
 70
0
 71
3
 72
9
 73
5
 74
0
 42
0.0000001
 43
0.0000001
 44
0.0000000001
 40
0.0
 40
0.0
 40
0.0
 40
0.0
 40
0.2603853284
 40
1.0
 40
1.0
 40
1.0
 40
1.0
 10
37.0000950104
 20
105.5203144287
 30
0.0
 10
37.0120753366
 20
105.4664971734
 30
0.0
 10
37.0534447935
 20
105.2588450922
 30
0.0
 10
37.0761519672
 20
105.0471930612
 30
0.0
 10
37.079325146
 20
104.8906174395
 30
0.0
  0
SPLINE
  5
3D0
100
AcDbEntity
  8
0
100
AcDbSpline
 62
7
  6
BYLAYER
 70
0
 71
3
 72
13
 73
9
 74
0
 42
0.0000001
 43
0.0000001
 44
0.0000000001
 40
0.0
 40
0.0
 40
0.0
 40
0.0
 40
0.2937054476
 40
0.5823611673
 40
0.7104331683
 40
0.8218136762
 40
0.9164635385
 40
1.0
 40
1.0
 40
1.0
 40
1.0
 10
77.0673371076
 20
149.9191505578
 30
0.0
 10
76.8776267756
 20
149.873728082
 30
0.0
 10
76.4849526672
 20
149.849738287
 30
0.0
 10
76.0163699205
 20
149.9465870256
 30
0.0
 10
75.6980796469
 20
150.0981071701
 30
0.0
 10
75.5195548009
 20
150.2332037307
 30
0.0
 10
75.4013468031
 20
150.3892552368
 30
0.0
 10
75.371765816
 20
150.5085772677
 30
0.0
 10
75.3718061837
 20
150.5640602267
 30
0.0
  0
SPLINE
  5
3D1
100
AcDbEntity
  8
0
100
AcDbSpline
 62
7
  6
BYLAYER
 70
0
 71
3
 72
9
 73
5
 74
0
 42
0.0000001
 43
0.0000001
 44
0.0000000001
 40
0.0
 40
0.0
 40
0.0
 40
0.0
 40
0.2370820018
 40
1.0
 40
1.0
 40
1.0
 40
1.0
 10
77.8799394337
 20
150.2329193759
 30
0.0
 10
77.8202031092
 20
150.1984307988
 30
0.0
 10
77.5619994515
 20
150.063797379
 30
0.0
 10
77.2832019026
 20
149.9708352152
 30
0.0
 10
77.0673371076
 20
149.9191505578
 30
0.0
  0
SPLINE
  5
3D2
100
AcDbEntity
  8
0
100
AcDbSpline
 62
7
  6
BYLAYER
 70
0
 71
3
 72
9
 73
5
 74
0
 42
0.0000001
 43
0.0000001
 44
0.0000000001
 40
0.0
 40
0.0
 40
0.0
 40
0.0
 40
0.23403145
 40
1.0
 40
1.0
 40
1.0
 40
1.0
 10
78.4425126631
 20
150.7131037963
 30
0.0
 10
78.4075791639
 20
150.6669000743
 30
0.0
 10
78.246488127
 20
150.4784141402
 30
0.0
 10
78.0441204289
 20
150.3277087519
 30
0.0
 10
77.8799394337
 20
150.2329193759
 30
0.0
  0
SPLINE
  5
3D3
100
AcDbEntity
  8
0
100
AcDbSpline
 62
7
  6
BYLAYER
 70
0
 71
3
 72
9
 73
5
 74
0
 42
0.0000001
 43
0.0000001
 44
0.0000000001
 40
0.0
 40
0.0
 40
0.0
 40
0.0
 40
0.4719262047
 40
1.0
 40
1.0
 40
1.0
 40
1.0
 10
35.8601818269
 20
112.5725709995
 30
0.0
 10
36.0156317683
 20
112.662373934
 30
0.0
 10
36.3946807373
 20
112.7730386126
 30
0.0
 10
36.7806088708
 20
112.7228139987
 30
0.0
 10
36.9745251486
 20
112.6703648651
 30
0.0
  0
SPLINE
  5
3D4
100
AcDbEntity
  8
0
100
AcDbSpline
 62
7
  6
BYLAYER
 70
0
 71
3
 72
13
 73
9
 74
0
 42
0.0000001
 43
0.0000001
 44
0.0000000001
 40
0.0
 40
0.0
 40
0.0
 40
0.0
 40
0.2966989639
 40
0.5673784232
 40
0.6880868837
 40
0.7987131533
 40
0.9014572729
 40
1.0
 40
1.0
 40
1.0
 40
1.0
 10
76.9134576499
 20
153.5203995401
 30
0.0
 10
77.3581416578
 20
153.5895178162
 30
0.0
 10
78.2265736538
 20
153.6280513865
 30
0.0
 10
79.2640978646
 20
153.3768921781
 30
0.0
 10
79.9172740041
 20
152.9733567626
 30
0.0
 10
80.2747054791
 20
152.6056296283
 30
0.0
 10
80.4985058734
 20
152.1808369964
 30
0.0
 10
80.5494143998
 20
151.8733623915
 30
0.0
 10
80.5494576257
 20
151.7238959213
 30
0.0
  0
SPLINE
  5
3D5
100
AcDbEntity
  8
0
100
AcDbSpline
 62
7
  6
BYLAYER
 70
0
 71
3
 72
9
 73
5
 74
0
 42
0.0000001
 43
0.0000001
 44
0.0000000001
 40
0.0
 40
0.0
 40
0.0
 40
0.0
 40
0.5259765172
 40
1.0
 40
1.0
 40
1.0
 40
1.0
 10
87.3286321456
 20
148.8027396487
 30
0.0
 10
86.6400866866
 20
149.1950528516
 30
0.0
 10
85.1427074115
 20
149.6548991245
 30
0.0
 10
83.5754813007
 20
149.3451707132
 30
0.0
 10
82.9569721079
 20
148.9880763958
 30
0.0
  0
SPLINE
  5
3D6
100
AcDbEntity
  8
0
100
AcDbSpline
 62
7
  6
BYLAYER
 70
0
 71
3
 72
11
 73
7
 74
0
 42
0.0000001
 43
0.0000001
 44
0.0000000001
 40
0.0
 40
0.0
 40
0.0
 40
0.0
 40
0.284587082
 40
0.5433150471
 40
0.7794275247
 40
1.0
 40
1.0
 40
1.0
 40
1.0
 10
82.0152616101
 20
154.8149387656
 30
0.0
 10
81.396041958
 20
155.1398795299
 30
0.0
 10
80.1662067393
 20
155.6768770698
 30
0.0
 10
78.2898317052
 20
156.1186068399
 30
0.0
 10
76.5157981908
 20
156.139795176
 30
0.0
 10
75.4124506673
 20
155.8558538368
 30
0.0
 10
74.9130000598
 20
155.6453473257
 30
0.0
  0
SPLINE
  5
3D7
100
AcDbEntity
  8
0
100
AcDbSpline
 62
7
  6
BYLAYER
 70
0
 71
3
 72
11
 73
7
 74
0
 42
0.0000001
 43
0.0000001
 44
0.0000000001
 40
0.0
 40
0.0
 40
0.0
 40
0.0
 40
0.2565536716
 40
0.5022116945
 40
0.7463885036
 40
1.0
 40
1.0
 40
1.0
 40
1.0
 10
82.9569721079
 20
148.9880763958
 30
0.0
 10
82.7519796778
 20
148.8697246675
 30
0.0
 10
82.3752031394
 20
148.5903141928
 30
0.0
 10
81.9451080069
 20
148.0411617422
 30
0.0
 10
81.6892647044
 20
147.3950961202
 30
0.0
 10
81.6389447619
 20
146.933129703
 30
0.0
 10
81.6389588629
 20
146.6991397309
 30
0.0
  0
SPLINE
  5
3D8
100
AcDbEntity
  8
0
100
AcDbSpline
 62
7
  6
BYLAYER
 70
0
 71
3
 72
11
 73
7
 74
0
 42
0.0000001
 43
0.0000001
 44
0.0000000001
 40
0.0
 40
0.0
 40
0.0
 40
0.0
 40
0.2177239861
 40
0.4508730345
 40
0.7104683317
 40
1.0
 40
1.0
 40
1.0
 40
1.0
 10
35.0960377622
 20
59.4879503968
 30
0.0
 10
35.1867267347
 20
59.5403047319
 30
0.0
 10
35.3565523222
 20
59.6828184825
 30
0.0
 10
35.5372727595
 20
59.9783724706
 30
0.0
 10
35.6443898286
 20
60.3425208514
 30
0.0
 10
35.6656555683
 20
60.6075049669
 30
0.0
 10
35.6656555683
 20
60.7467575773
 30
0.0
  0
SPLINE
  5
3D9
100
AcDbEntity
  8
0
100
AcDbSpline
 62
7
  6
BYLAYER
 70
0
 71
3
 72
11
 73
7
 74
0
 42
0.0000001
 43
0.0000001
 44
0.0000000001
 40
0.0
 40
0.0
 40
0.0
 40
0.0
 40
0.2148826043
 40
0.4468873319
 40
0.7072906963
 40
1.0
 40
1.0
 40
1.0
 40
1.0
 10
33.7603727823
 20
65.0673858057
 30
0.0
 10
33.8572559066
 20
65.1233260788
 30
0.0
 10
34.0824627054
 20
65.2020394666
 30
0.0
 10
34.4562320365
 20
65.1996436043
 30
0.0
 10
34.8530509591
 20
65.0868698682
 30
0.0
 10
35.1091981141
 20
64.9510604215
 30
0.0
 10
35.2376415448
 20
64.8690507084
 30
0.0
  0
SPLINE
  5
3DA
100
AcDbEntity
  8
0
100
AcDbSpline
 62
7
  6
BYLAYER
 70
0
 71
3
 72
9
 73
5
 74
0
 42
0.0000001
 43
0.0000001
 44
0.0000000001
 40
0.0
 40
0.0
 40
0.0
 40
0.0
 40
0.2485608408
 40
1.0
 40
1.0
 40
1.0
 40
1.0
 10
87.3286321456
 20
148.4137691437
 30
0.0
 10
87.1365669448
 20
148.4441659329
 30
0.0
 10
86.359263435
 20
148.5351450263
 30
0.0
 10
85.567896102
 20
148.5084540167
 30
0.0
 10
84.9867809518
 20
148.419589031
 30
0.0
  0
SPLINE
  5
3DB
100
AcDbEntity
  8
0
100
AcDbSpline
 62
7
  6
BYLAYER
 70
0
 71
3
 72
9
 73
5
 74
0
 42
0.0000001
 43
0.0000001
 44
0.0000000001
 40
0.0
 40
0.0
 40
0.0
 40
0.0
 40
0.2541831581
 40
1.0
 40
1.0
 40
1.0
 40
1.0
 10
84.7667586396
 20
148.3824482472
 30
0.0
 10
84.7043926676
 20
148.3709164377
 30
0.0
 10
84.4596607361
 20
148.3222537303
 30
0.0
 10
84.2175205826
 20
148.260325942
 30
0.0
 10
84.039496823
 20
148.2061165001
 30
0.0
  0
SPLINE
  5
3DC
100
AcDbEntity
  8
0
100
AcDbSpline
 62
7
  6
BYLAYER
 70
0
 71
3
 72
9
 73
5
 74
0
 42
0.0000001
 43
0.0000001
 44
0.0000000001
 40
0.0
 40
0.0
 40
0.0
 40
0.0
 40
0.2617326273
 40
1.0
 40
1.0
 40
1.0
 40
1.0
 10
84.039496823
 20
148.2061165001
 30
0.0
 10
83.9411871319
 20
148.1761805326
 30
0.0
 10
83.5686242746
 20
148.0523474721
 30
0.0
 10
83.2080096872
 20
147.8901841929
 30
0.0
 10
82.9569721079
 20
147.745248444
 30
0.0
  0
SPLINE
  5
3DD
100
AcDbEntity
  8
0
100
AcDbSpline
 62
7
  6
BYLAYER
 70
0
 71
3
 72
11
 73
7
 74
0
 42
0.0000001
 43
0.0000001
 44
0.0000000001
 40
0.0
 40
0.0
 40
0.0
 40
0.0
 40
0.289703705
 40
0.5490987334
 40
0.7822045597
 40
1.0
 40
1.0
 40
1.0
 40
1.0
 10
89.3209596342
 20
144.0710816533
 30
0.0
 10
89.5184131185
 20
144.1850807952
 30
0.0
 10
89.8766600165
 20
144.4318150233
 30
0.0
 10
90.3047437285
 20
144.8817984415
 30
0.0
 10
90.575636815
 20
145.3795060494
 30
0.0
 10
90.6389957763
 20
145.7367581707
 30
0.0
 10
90.6389564404
 20
145.9081650485
 30
0.0
  0
SPLINE
  5
3DE
100
AcDbEntity
  8
0
100
AcDbSpline
 62
7
  6
BYLAYER
 70
0
 71
3
 72
9
 73
5
 74
0
 42
0.0000001
 43
0.0000001
 44
0.0000000001
 40
0.0
 40
0.0
 40
0.0
 40
0.0
 40
0.4925097667
 40
1.0
 40
1.0
 40
1.0
 40
1.0
 10
102.2529039217
 20
65.9343673144
 30
0.0
 10
102.0356486376
 20
66.0598482609
 30
0.0
 10
101.5649514343
 20
66.2663164488
 30
0.0
 10
101.0618700466
 20
66.3683204882
 30
0.0
 10
100.8047939687
 20
66.3956081363
 30
0.0
  0
SPLINE
  5
3DF
100
AcDbEntity
  8
0
100
AcDbSpline
 62
7
  6
BYLAYER
 70
0
 71
3
 72
11
 73
7
 74
0
 42
0.0000001
 43
0.0000001
 44
0.0000000001
 40
0.0
 40
0.0
 40
0.0
 40
0.0
 40
0.1818739189
 40
0.3520557703
 40
0.5536857325
 40
1.0
 40
1.0
 40
1.0
 40
1.0
 10
83.5517084716
 20
155.2172177653
 30
0.0
 10
83.5517207384
 20
155.1989527919
 30
0.0
 10
83.5684663241
 20
155.1637921602
 30
0.0
 10
83.6142660973
 20
155.1310343998
 30
0.0
 10
83.6916464021
 20
155.1016441144
 30
0.0
 10
83.7590571215
 20
155.0987758731
 30
0.0
 10
83.8033813308
 20
155.1054362038
 30
0.0
  0
SPLINE
  5
3E0
100
AcDbEntity
  8
0
100
AcDbSpline
 62
7
  6
BYLAYER
 70
0
 71
3
 72
14
 73
10
 74
0
 42
0.0000001
 43
0.0000001
 44
0.0000000001
 40
0.0
 40
0.0
 40
0.0
 40
0.0
 40
0.1009665755
 40
0.215615831
 40
0.3420731133
 40
0.4767259347
 40
0.7507155852
 40
0.8807106314
 40
1.0
 40
1.0
 40
1.0
 40
1.0
 10
82.1101203259
 20
144.750827777
 30
0.0
 10
82.2791093854
 20
144.554742225
 30
0.0
 10
82.7056169853
 20
144.1916846726
 30
0.0
 10
83.4855853893
 20
143.7804556944
 30
0.0
 10
84.4071446408
 20
143.4844961949
 30
0.0
 10
85.7643456055
 20
143.2636756564
 30
0.0
 10
87.165606076
 20
143.3199334192
 30
0.0
 10
88.4677616916
 20
143.6572718721
 30
0.0
 10
89.0561004842
 20
143.9181660645
 30
0.0
 10
89.3209596342
 20
144.0710816533
 30
0.0
  0
SPLINE
  5
3E1
100
AcDbEntity
  8
0
100
AcDbSpline
 62
7
  6
BYLAYER
 70
0
 71
3
 72
9
 73
5
 74
0
 42
0.0000001
 43
0.0000001
 44
0.0000000001
 40
0.0
 40
0.0
 40
0.0
 40
0.0
 40
0.2780782415
 40
1.0
 40
1.0
 40
1.0
 40
1.0
 10
82.9569721079
 20
147.745248444
 30
0.0
 10
82.8290094148
 20
147.6713695897
 30
0.0
 10
82.3843053128
 20
147.3832423238
 30
0.0
 10
81.9963266786
 20
146.9836141668
 30
0.0
 10
81.8221435593
 20
146.6418439104
 30
0.0
  0
SPLINE
  5
3E2
100
AcDbEntity
  8
0
100
AcDbSpline
 62
7
  6
BYLAYER
 70
0
 71
3
 72
9
 73
5
 74
0
 42
0.0000001
 43
0.0000001
 44
0.0000000001
 40
0.0
 40
0.0
 40
0.0
 40
0.0
 40
0.2545452802
 40
1.0
 40
1.0
 40
1.0
 40
1.0
 10
81.8221435593
 20
146.6418439104
 30
0.0
 10
81.8100985135
 20
146.6182099418
 30
0.0
 10
81.7647637121
 20
146.5243689901
 30
0.0
 10
81.727606089
 20
146.4265367829
 30
0.0
 10
81.7052599996
 20
146.3521357171
 30
0.0
  0
SPLINE
  5
3E3
100
AcDbEntity
  8
0
100
AcDbSpline
 62
7
  6
BYLAYER
 70
0
 71
3
 72
8
 73
4
 74
0
 42
0.0000001
 43
0.0000001
 44
0.0000000001
 40
0.0
 40
0.0
 40
0.0
 40
0.0
 40
1.0
 40
1.0
 40
1.0
 40
1.0
 10
89.1814956735
 20
158.3797752584
 30
0.0
 10
89.1814958151
 20
158.3690781496
 30
0.0
 10
89.1790296996
 20
158.3581790484
 30
0.0
 10
89.1746371712
 20
158.348425391
 30
0.0
  0
SPLINE
  5
3E4
100
AcDbEntity
  8
0
100
AcDbSpline
 62
7
  6
BYLAYER
 70
0
 71
3
 72
9
 73
5
 74
0
 42
0.0000001
 43
0.0000001
 44
0.0000000001
 40
0.0
 40
0.0
 40
0.0
 40
0.0
 40
0.2288551518
 40
1.0
 40
1.0
 40
1.0
 40
1.0
 10
89.1746371712
 20
158.348425391
 30
0.0
 10
89.1722956876
 20
158.343226101
 30
0.0
 10
89.1596948649
 20
158.3215665279
 30
0.0
 10
89.1395309854
 20
158.305073866
 30
0.0
 10
89.1228911316
 20
158.2954668993
 30
0.0
  0
SPLINE
  5
3E5
100
AcDbEntity
  8
0
100
AcDbSpline
 62
7
  6
BYLAYER
 70
0
 71
3
 72
16
 73
12
 74
0
 42
0.0000001
 43
0.0000001
 44
0.0000000001
 40
0.0
 40
0.0
 40
0.0
 40
0.0
 40
0.0439338912
 40
0.0889127116
 40
0.18522259
 40
0.2941956589
 40
0.4172187459
 40
0.5529627918
 40
0.6982774184
 40
0.8488915533
 40
1.0
 40
1.0
 40
1.0
 40
1.0
 10
103.0185878093
 20
65.9541859899
 30
0.0
 10
103.2173072173
 20
65.8394123595
 30
0.0
 10
103.5979436921
 20
65.5674690858
 30
0.0
 10
104.2691760091
 20
64.8638873411
 30
0.0
 10
104.8980179959
 20
63.6896702705
 30
0.0
 10
105.2614734519
 20
61.9976214171
 30
0.0
 10
105.2594218359
 20
60.0651579966
 30
0.0
 10
104.8962821586
 20
57.9773353096
 30
0.0
 10
104.1909303565
 20
55.8282218853
 30
0.0
 10
103.1767882178
 20
53.7182361856
 30
0.0
 10
102.3179183203
 20
52.3907426001
 30
0.0
 10
101.8466953716
 20
51.7575479007
 30
0.0
  0
SPLINE
  5
3E6
100
AcDbEntity
  8
0
100
AcDbSpline
 62
7
  6
BYLAYER
 70
0
 71
3
 72
9
 73
5
 74
0
 42
0.0000001
 43
0.0000001
 44
0.0000000001
 40
0.0
 40
0.0
 40
0.0
 40
0.0
 40
0.5238020922
 40
1.0
 40
1.0
 40
1.0
 40
1.0
 10
101.8466953716
 20
51.7575479007
 30
0.0
 10
101.2466981496
 20
50.9513158152
 30
0.0
 10
99.9711184911
 20
49.5039284721
 30
0.0
 10
98.4349604611
 20
48.323839468
 30
0.0
 10
97.6437105179
 20
47.8670138272
 30
0.0
  0
SPLINE
  5
3E7
100
AcDbEntity
  8
0
100
AcDbSpline
 62
7
  6
BYLAYER
 70
0
 71
3
 72
9
 73
5
 74
0
 42
0.0000001
 43
0.0000001
 44
0.0000000001
 40
0.0
 40
0.0
 40
0.0
 40
0.0
 40
0.238044427
 40
1.0
 40
1.0
 40
1.0
 40
1.0
 10
88.0835176152
 20
144.7855029737
 30
0.0
 10
88.0362625676
 20
144.7582204222
 30
0.0
 10
87.8340807217
 20
144.6499984121
 30
0.0
 10
87.6194334057
 20
144.5658084284
 30
0.0
 10
87.4528158023
 20
144.51342521
 30
0.0
  0
SPLINE
  5
3E8
100
AcDbEntity
  8
0
100
AcDbSpline
 62
7
  6
BYLAYER
 70
0
 71
3
 72
9
 73
5
 74
0
 42
0.0000001
 43
0.0000001
 44
0.0000000001
 40
0.0
 40
0.0
 40
0.0
 40
0.0
 40
0.2527335474
 40
1.0
 40
1.0
 40
1.0
 40
1.0
 10
86.5603340738
 20
144.3392319609
 30
0.0
 10
86.4379680006
 20
144.3282899637
 30
0.0
 10
85.9523641781
 20
144.3042638062
 30
0.0
 10
85.4623647427
 20
144.3536781453
 30
0.0
 10
85.1086071835
 20
144.4361679415
 30
0.0
  0
SPLINE
  5
3E9
100
AcDbEntity
  8
0
100
AcDbSpline
 62
7
  6
BYLAYER
 70
0
 71
3
 72
11
 73
7
 74
0
 42
0.0000001
 43
0.0000001
 44
0.0000000001
 40
0.0
 40
0.0
 40
0.0
 40
0.0
 40
0.3012800655
 40
0.5659563167
 40
0.794692917
 40
1.0
 40
1.0
 40
1.0
 40
1.0
 10
84.7149554874
 20
144.5499624357
 30
0.0
 10
84.5243054903
 20
144.6166289524
 30
0.0
 10
84.1752375424
 20
144.7722967606
 30
0.0
 10
83.7435388531
 20
145.0936171752
 30
0.0
 10
83.458918742
 20
145.4769343194
 30
0.0
 10
83.3890913421
 20
145.7705329962
 30
0.0
 10
83.3890860277
 20
145.9081652475
 30
0.0
  0
SPLINE
  5
3EA
100
AcDbEntity
  8
0
100
AcDbSpline
 62
7
  6
BYLAYER
 70
0
 71
3
 72
11
 73
7
 74
0
 42
0.0000001
 43
0.0000001
 44
0.0000000001
 40
0.0
 40
0.0
 40
0.0
 40
0.0
 40
0.2177621285
 40
0.451503958
 40
0.7109809262
 40
1.0
 40
1.0
 40
1.0
 40
1.0
 10
91.7760268495
 20
46.1791011338
 30
0.0
 10
92.1705515816
 20
45.9707177025
 30
0.0
 10
93.0683767976
 20
45.6779265681
 30
0.0
 10
94.5433202327
 20
45.6692710966
 30
0.0
 10
96.1107948758
 20
46.0622840173
 30
0.0
 10
97.1308703079
 20
46.5502991399
 30
0.0
 10
97.6437105179
 20
46.8463858058
 30
0.0
  0
SPLINE
  5
3EB
100
AcDbEntity
  8
0
100
AcDbSpline
 62
7
  6
BYLAYER
 70
0
 71
3
 72
9
 73
5
 74
0
 42
0.0000001
 43
0.0000001
 44
0.0000000001
 40
0.0
 40
0.0
 40
0.0
 40
0.0
 40
0.2776594513
 40
1.0
 40
1.0
 40
1.0
 40
1.0
 10
35.1353114986
 20
102.1229747073
 30
0.0
 10
35.2674426704
 20
102.0466904655
 30
0.0
 10
35.7553748585
 20
101.7971483943
 30
0.0
 10
36.3125973027
 20
101.6546832063
 30
0.0
 10
36.7091409911
 20
101.6719366842
 30
0.0
  0
SPLINE
  5
3EC
100
AcDbEntity
  8
0
100
AcDbSpline
 62
7
  6
BYLAYER
 70
0
 71
3
 72
9
 73
5
 74
0
 42
0.0000001
 43
0.0000001
 44
0.0000000001
 40
0.0
 40
0.0
 40
0.0
 40
0.0
 40
0.2380436707
 40
1.0
 40
1.0
 40
1.0
 40
1.0
 10
94.2017973596
 20
134.9398426363
 30
0.0
 10
94.1865664077
 20
135.3308326973
 30
0.0
 10
94.0647212695
 20
136.9709627737
 30
0.0
 10
93.7279269145
 20
138.5919016326
 30
0.0
 10
93.3807507035
 20
139.7952958686
 30
0.0
  0
SPLINE
  5
3ED
100
AcDbEntity
  8
0
100
AcDbSpline
 62
7
  6
BYLAYER
 70
0
 71
3
 72
11
 73
7
 74
0
 42
0.0000001
 43
0.0000001
 44
0.0000000001
 40
0.0
 40
0.0
 40
0.0
 40
0.0
 40
0.2883050393
 40
0.5473356482
 40
0.7809950476
 40
1.0
 40
1.0
 40
1.0
 40
1.0
 10
37.0793167656
 20
104.7853477543
 30
0.0
 10
37.0765223912
 20
104.6517327671
 30
0.0
 10
37.0510205918
 20
104.397653144
 30
0.0
 10
36.9414670013
 20
104.0493039764
 30
0.0
 10
36.7630626837
 20
103.7666243703
 30
0.0
 10
36.5981670041
 20
103.6298220318
 30
0.0
 10
36.5102488597
 20
103.5790606207
 30
0.0
  0
SPLINE
  5
3EE
100
AcDbEntity
  8
0
100
AcDbSpline
 62
7
  6
BYLAYER
 70
0
 71
3
 72
17
 73
13
 74
0
 42
0.0000001
 43
0.0000001
 44
0.0000000001
 40
0.0
 40
0.0
 40
0.0
 40
0.0
 40
0.0428578284
 40
0.0874871442
 40
0.1353215969
 40
0.1872852232
 40
0.3045510959
 40
0.4382205257
 40
0.5825651491
 40
0.7297209579
 40
0.8713081793
 40
1.0
 40
1.0
 40
1.0
 40
1.0
 10
103.7849897034
 20
66.9550593387
 30
0.0
 10
104.0808220188
 20
66.7842613065
 30
0.0
 10
104.6416564427
 20
66.3550696562
 30
0.0
 10
105.3165318575
 20
65.5016823704
 30
0.0
 10
105.8208741438
 20
64.4579688821
 30
0.0
 10
106.2738577831
 20
62.7798713607
 30
0.0
 10
106.3305811702
 20
60.3331763793
 30
0.0
 10
105.6972917804
 20
57.2280821527
 30
0.0
 10
104.4212540834
 20
54.0698583773
 30
0.0
 10
102.6045920174
 20
51.1153760954
 30
0.0
 10
100.397737712
 20
48.6044722406
 30
0.0
 10
98.6734464763
 20
47.2776029282
 30
0.0
 10
97.7851324629
 20
46.7647376548
 30
0.0
  0
SPLINE
  5
3EF
100
AcDbEntity
  8
0
100
AcDbSpline
 62
7
  6
BYLAYER
 70
0
 71
3
 72
11
 73
7
 74
0
 42
0.0000001
 43
0.0000001
 44
0.0000000001
 40
0.0
 40
0.0
 40
0.0
 40
0.0
 40
0.2994489105
 40
0.5598145999
 40
0.7878361412
 40
1.0
 40
1.0
 40
1.0
 40
1.0
 10
34.1538960575
 20
101.5563576205
 30
0.0
 10
34.329800858
 20
101.4234680445
 30
0.0
 10
34.6793200746
 20
101.1998403032
 30
0.0
 10
35.2294153179
 20
100.997793989
 30
0.0
 10
35.753830387
 20
100.9673133549
 30
0.0
 10
36.0704932434
 20
101.0733794538
 30
0.0
 10
36.2057667023
 20
101.1514755887
 30
0.0
  0
SPLINE
  5
3F0
100
AcDbEntity
  8
0
100
AcDbSpline
 62
7
  6
BYLAYER
 70
0
 71
3
 72
11
 73
7
 74
0
 42
0.0000001
 43
0.0000001
 44
0.0000000001
 40
0.0
 40
0.0
 40
0.0
 40
0.0
 40
0.2177239861
 40
0.4508730345
 40
0.7104683317
 40
1.0
 40
1.0
 40
1.0
 40
1.0
 10
82.1188344844
 20
32.3399402212
 30
0.0
 10
82.209523457
 20
32.3922945563
 30
0.0
 10
82.3793490445
 20
32.5348083069
 30
0.0
 10
82.5600694818
 20
32.830362295
 30
0.0
 10
82.6671865509
 20
33.1945106758
 30
0.0
 10
82.6884522906
 20
33.4594947913
 30
0.0
 10
82.6884522906
 20
33.5987474017
 30
0.0
  0
SPLINE
  5
3F1
100
AcDbEntity
  8
0
100
AcDbSpline
 62
7
  6
BYLAYER
 70
0
 71
3
 72
15
 73
11
 74
0
 42
0.0000001
 43
0.0000001
 44
0.0000000001
 40
0.0
 40
0.0
 40
0.0
 40
0.0
 40
0.1288248732
 40
0.2705977602
 40
0.4178979
 40
0.5623932695
 40
0.696206034
 40
0.8135977194
 40
0.9130663632
 40
1.0
 40
1.0
 40
1.0
 40
1.0
 10
35.6656555683
 20
104.0213856851
 30
0.0
 10
35.6656555683
 20
104.2564323018
 30
0.0
 10
35.5998465399
 20
104.7507059902
 30
0.0
 10
35.3544831107
 20
105.4764166049
 30
0.0
 10
34.9761512124
 20
106.1754815463
 30
0.0
 10
34.4957942638
 20
106.7904615869
 30
0.0
 10
33.9516130432
 20
107.2723043515
 30
0.0
 10
33.3841184212
 20
107.5822677262
 30
0.0
 10
32.828624677
 20
107.6935657102
 30
0.0
 10
32.483537091
 20
107.6048184837
 30
0.0
 10
32.3461698861
 20
107.5255170155
 30
0.0
  0
SPLINE
  5
3F2
100
AcDbEntity
  8
0
100
AcDbSpline
 62
7
  6
BYLAYER
 70
0
 71
3
 72
11
 73
7
 74
0
 42
0.0000001
 43
0.0000001
 44
0.0000000001
 40
0.0
 40
0.0
 40
0.0
 40
0.0
 40
0.2027691436
 40
0.430860827
 40
0.6968308994
 40
1.0
 40
1.0
 40
1.0
 40
1.0
 10
80.7831708597
 20
37.9193732314
 30
0.0
 10
80.9089317168
 20
37.9919839377
 30
0.0
 10
81.2179478104
 20
38.0795861997
 30
0.0
 10
81.7217764149
 20
38.0056974022
 30
0.0
 10
82.243136707
 20
37.7589129606
 30
0.0
 10
82.5665137005
 20
37.5057376811
 30
0.0
 10
82.7255468228
 20
37.3579202115
 30
0.0
  0
SPLINE
  5
3F3
100
AcDbEntity
  8
0
100
AcDbSpline
 62
7
  6
BYLAYER
 70
0
 71
3
 72
9
 73
5
 74
0
 42
0.0000001
 43
0.0000001
 44
0.0000000001
 40
0.0
 40
0.0
 40
0.0
 40
0.0
 40
0.2449691454
 40
1.0
 40
1.0
 40
1.0
 40
1.0
 10
82.9150747747
 20
37.1690794616
 30
0.0
 10
82.9960832456
 20
37.0827563144
 30
0.0
 10
83.3114935175
 20
36.7162758052
 30
0.0
 10
83.5677889658
 20
36.299441652
 30
0.0
 10
83.7222482353
 20
35.9688804916
 30
0.0
  0
SPLINE
  5
3F4
100
AcDbEntity
  8
0
100
AcDbSpline
 62
7
  6
BYLAYER
 70
0
 71
3
 72
9
 73
5
 74
0
 42
0.0000001
 43
0.0000001
 44
0.0000000001
 40
0.0
 40
0.0
 40
0.0
 40
0.0
 40
0.2615496901
 40
1.0
 40
1.0
 40
1.0
 40
1.0
 10
84.0228917327
 20
35.0976761453
 30
0.0
 10
84.0359220571
 20
35.0391421549
 30
0.0
 10
84.0802699221
 20
34.8142172116
 30
0.0
 10
84.102659965
 20
34.5845438961
 30
0.0
 10
84.102659965
 20
34.4152357094
 30
0.0
  0
SPLINE
  5
3F5
100
AcDbEntity
  8
0
100
AcDbSpline
 62
7
  6
BYLAYER
 70
0
 71
3
 72
11
 73
7
 74
0
 42
0.0000001
 43
0.0000001
 44
0.0000000001
 40
0.0
 40
0.0
 40
0.0
 40
0.0
 40
0.2895410651
 40
0.5491142309
 40
0.7822583424
 40
1.0
 40
1.0
 40
1.0
 40
1.0
 10
88.0835176152
 20
145.630377951
 30
0.0
 10
88.2041147803
 20
145.7000043411
 30
0.0
 10
88.4229642992
 20
145.8508931802
 30
0.0
 10
88.6847436879
 20
146.1257269802
 30
0.0
 10
88.8503629702
 20
146.4299861839
 30
0.0
 10
88.8888612561
 20
146.6483182089
 30
0.0
 10
88.8888662446
 20
146.7530400275
 30
0.0
  0
SPLINE
  5
3F6
100
AcDbEntity
  8
0
100
AcDbSpline
 62
7
  6
BYLAYER
 70
0
 71
3
 72
11
 73
7
 74
0
 42
0.0000001
 43
0.0000001
 44
0.0000000001
 40
0.0
 40
0.0
 40
0.0
 40
0.0
 40
0.2292805586
 40
0.466117395
 40
0.7211713136
 40
1.0
 40
1.0
 40
1.0
 40
1.0
 10
78.5285842836
 20
38.8694880535
 30
0.0
 10
78.3576422225
 20
38.7707990258
 30
0.0
 10
78.0390019379
 20
38.5146734661
 30
0.0
 10
77.6905636474
 20
37.9906197388
 30
0.0
 10
77.4825499147
 20
37.3534936712
 30
0.0
 10
77.4409882139
 20
36.8920186085
 30
0.0
 10
77.4409882139
 20
36.6519785816
 30
0.0
  0
SPLINE
  5
3F7
100
AcDbEntity
  8
0
100
AcDbSpline
 62
7
  6
BYLAYER
 70
0
 71
3
 72
9
 73
5
 74
0
 42
0.0000001
 43
0.0000001
 44
0.0000000001
 40
0.0
 40
0.0
 40
0.0
 40
0.0
 40
0.2243552642
 40
1.0
 40
1.0
 40
1.0
 40
1.0
 10
79.2865020306
 20
39.127583609
 30
0.0
 10
79.210693184
 20
39.0211359915
 30
0.0
 10
78.9225475563
 20
38.5107173738
 30
0.0
 10
78.8346925127
 20
37.9084291599
 30
0.0
 10
78.8346925127
 20
37.4566293306
 30
0.0
  0
SPLINE
  5
3F8
100
AcDbEntity
  8
0
100
AcDbSpline
 62
7
  6
BYLAYER
 70
0
 71
3
 72
11
 73
7
 74
0
 42
0.0000001
 43
0.0000001
 44
0.0000000001
 40
0.0
 40
0.0
 40
0.0
 40
0.0
 40
0.2179594507
 40
0.4511717279
 40
0.7108115686
 40
1.0
 40
1.0
 40
1.0
 40
1.0
 10
85.5273230239
 20
88.1234219606
 30
0.0
 10
85.46166241
 20
88.0853682995
 30
0.0
 10
85.3107091713
 20
88.0304837656
 30
0.0
 10
85.0599465447
 20
88.0237726291
 30
0.0
 10
84.7927737941
 20
88.0875930689
 30
0.0
 10
84.6187558477
 20
88.1696298271
 30
0.0
 10
84.5315537727
 20
88.2199748296
 30
0.0
  0
SPLINE
  5
3F9
100
AcDbEntity
  8
0
100
AcDbSpline
 62
7
  6
BYLAYER
 70
0
 71
3
 72
11
 73
7
 74
0
 42
0.0000001
 43
0.0000001
 44
0.0000000001
 40
0.0
 40
0.0
 40
0.0
 40
0.0
 40
0.2177239861
 40
0.4508730345
 40
0.7104683317
 40
1.0
 40
1.0
 40
1.0
 40
1.0
 10
82.1188344844
 20
75.6145683291
 30
0.0
 10
82.209523457
 20
75.6669226642
 30
0.0
 10
82.3793490445
 20
75.8094364148
 30
0.0
 10
82.5600694818
 20
76.1049904029
 30
0.0
 10
82.6671865509
 20
76.4691387837
 30
0.0
 10
82.6884522906
 20
76.7341228992
 30
0.0
 10
82.6884522906
 20
76.8733755095
 30
0.0
  0
SPLINE
  5
3FA
100
AcDbEntity
  8
0
100
AcDbSpline
 62
7
  6
BYLAYER
 70
0
 71
3
 72
11
 73
7
 74
0
 42
0.0000001
 43
0.0000001
 44
0.0000000001
 40
0.0
 40
0.0
 40
0.0
 40
0.0
 40
0.2027691436
 40
0.430860827
 40
0.6968308994
 40
1.0
 40
1.0
 40
1.0
 40
1.0
 10
80.7831708597
 20
81.1940013393
 30
0.0
 10
80.9089317168
 20
81.2666120456
 30
0.0
 10
81.2179478104
 20
81.3542143076
 30
0.0
 10
81.7217764149
 20
81.28032551
 30
0.0
 10
82.243136707
 20
81.0335410685
 30
0.0
 10
82.5665137005
 20
80.780365789
 30
0.0
 10
82.7255468228
 20
80.6325483194
 30
0.0
  0
SPLINE
  5
3FB
100
AcDbEntity
  8
0
100
AcDbSpline
 62
7
  6
BYLAYER
 70
0
 71
3
 72
9
 73
5
 74
0
 42
0.0000001
 43
0.0000001
 44
0.0000000001
 40
0.0
 40
0.0
 40
0.0
 40
0.0
 40
0.2449691454
 40
1.0
 40
1.0
 40
1.0
 40
1.0
 10
82.9150747747
 20
80.4437075695
 30
0.0
 10
82.9960832456
 20
80.3573844223
 30
0.0
 10
83.3114935175
 20
79.9909039131
 30
0.0
 10
83.5677889658
 20
79.5740697599
 30
0.0
 10
83.7222482353
 20
79.2435085994
 30
0.0
  0
SPLINE
  5
3FC
100
AcDbEntity
  8
0
100
AcDbSpline
 62
7
  6
BYLAYER
 70
0
 71
3
 72
9
 73
5
 74
0
 42
0.0000001
 43
0.0000001
 44
0.0000000001
 40
0.0
 40
0.0
 40
0.0
 40
0.0
 40
0.2615496901
 40
1.0
 40
1.0
 40
1.0
 40
1.0
 10
84.0228917327
 20
78.3723042531
 30
0.0
 10
84.0359220571
 20
78.3137702628
 30
0.0
 10
84.0802699221
 20
78.0888453195
 30
0.0
 10
84.102659965
 20
77.859172004
 30
0.0
 10
84.102659965
 20
77.6898638173
 30
0.0
  0
SPLINE
  5
3FD
100
AcDbEntity
  8
0
100
AcDbSpline
 62
7
  6
BYLAYER
 70
0
 71
3
 72
9
 73
5
 74
0
 42
0.0000001
 43
0.0000001
 44
0.0000000001
 40
0.0
 40
0.0
 40
0.0
 40
0.0
 40
0.4787328649
 40
1.0
 40
1.0
 40
1.0
 40
1.0
 10
45.9080629049
 20
120.5295882202
 30
0.0
 10
45.9645370136
 20
120.5622498689
 30
0.0
 10
46.0973693021
 20
120.6067932296
 30
0.0
 10
46.2361365001
 20
120.6012286162
 30
0.0
 10
46.3061430878
 20
120.5891839789
 30
0.0
  0
SPLINE
  5
3FE
100
AcDbEntity
  8
0
100
AcDbSpline
 62
7
  6
BYLAYER
 70
0
 71
3
 72
9
 73
5
 74
0
 42
0.0000001
 43
0.0000001
 44
0.0000000001
 40
0.0
 40
0.0
 40
0.0
 40
0.0
 40
0.2332019423
 40
1.0
 40
1.0
 40
1.0
 40
1.0
 10
46.3061430878
 20
120.5891839789
 30
0.0
 10
46.3350674588
 20
120.5842075392
 30
0.0
 10
46.457914029
 20
120.5560213192
 30
0.0
 10
46.5744218939
 20
120.5036597979
 30
0.0
 10
46.6579976619
 20
120.4554083974
 30
0.0
  0
SPLINE
  5
3FF
100
AcDbEntity
  8
0
100
AcDbSpline
 62
7
  6
BYLAYER
 70
0
 71
3
 72
11
 73
7
 74
0
 42
0.0000001
 43
0.0000001
 44
0.0000000001
 40
0.0
 40
0.0
 40
0.0
 40
0.0
 40
0.2177227832
 40
0.4508712161
 40
0.7104668615
 40
1.0
 40
1.0
 40
1.0
 40
1.0
 10
88.8888457144
 20
145.9081648498
 30
0.0
 10
88.8888497576
 20
145.8034530699
 30
0.0
 10
88.8503425591
 20
145.5851317381
 30
0.0
 10
88.6847497922
 20
145.2808588935
 30
0.0
 10
88.422953907
 20
145.0060297081
 30
0.0
 10
88.2041103717
 20
144.8551268186
 30
0.0
 10
88.0835176152
 20
144.7855029737
 30
0.0
  0
SPLINE
  5
400
100
AcDbEntity
  8
0
100
AcDbSpline
 62
7
  6
BYLAYER
 70
0
 71
3
 72
11
 73
7
 74
0
 42
0.0000001
 43
0.0000001
 44
0.0000000001
 40
0.0
 40
0.0
 40
0.0
 40
0.0
 40
0.2019753478
 40
0.4298883248
 40
0.6962780655
 40
1.0
 40
1.0
 40
1.0
 40
1.0
 10
83.3890654975
 20
146.7530400243
 30
0.0
 10
83.3890584608
 20
146.6053219391
 30
0.0
 10
83.4707327477
 20
146.2880030815
 30
0.0
 10
83.7972154787
 20
145.8835420072
 30
0.0
 10
84.2858804155
 20
145.5535404664
 30
0.0
 10
84.6773999013
 20
145.4010850046
 30
0.0
 10
84.8905021982
 20
145.3383943932
 30
0.0
  0
SPLINE
  5
401
100
AcDbEntity
  8
0
100
AcDbSpline
 62
7
  6
BYLAYER
 70
0
 71
3
 72
9
 73
5
 74
0
 42
0.0000001
 43
0.0000001
 44
0.0000000001
 40
0.0
 40
0.0
 40
0.0
 40
0.0
 40
0.4996799582
 40
1.0
 40
1.0
 40
1.0
 40
1.0
 10
85.0409439961
 20
145.2974146625
 30
0.0
 10
85.3938183093
 20
145.20874448
 30
0.0
 10
86.1248255327
 20
145.124308947
 30
0.0
 10
86.8562740458
 20
145.2043468211
 30
0.0
 10
87.2101903261
 20
145.2907489445
 30
0.0
  0
SPLINE
  5
402
100
AcDbEntity
  8
0
100
AcDbSpline
 62
7
  6
BYLAYER
 70
0
 71
3
 72
9
 73
5
 74
0
 42
0.0000001
 43
0.0000001
 44
0.0000000001
 40
0.0
 40
0.0
 40
0.0
 40
0.0
 40
0.2639569973
 40
1.0
 40
1.0
 40
1.0
 40
1.0
 10
87.2101903261
 20
145.2907489445
 30
0.0
 10
87.2904277714
 20
145.3103374349
 30
0.0
 10
87.591899523
 20
145.3938802777
 30
0.0
 10
87.8840605622
 20
145.5152220551
 30
0.0
 10
88.0835176152
 20
145.630377951
 30
0.0
  0
SPLINE
  5
403
100
AcDbEntity
  8
0
100
AcDbSpline
 62
7
  6
BYLAYER
 70
0
 71
3
 72
12
 73
8
 74
0
 42
0.0000001
 43
0.0000001
 44
0.0000000001
 40
0.0
 40
0.0
 40
0.0
 40
0.0
 40
0.2605298114
 40
0.518848733
 40
0.6461810427
 40
0.7707344567
 40
1.0
 40
1.0
 40
1.0
 40
1.0
 10
90.6389684334
 20
142.2384243798
 30
0.0
 10
90.6389539778
 20
141.8802626251
 30
0.0
 10
90.5975971445
 20
141.1662706284
 30
0.0
 10
90.4312139096
 20
140.2902288415
 30
0.0
 10
90.2060719426
 20
139.6235322203
 30
0.0
 10
89.9229445256
 20
139.0281453423
 30
0.0
 10
89.5938249964
 20
138.632632152
 30
0.0
 10
89.3208694942
 20
138.47504216
 30
0.0
  0
SPLINE
  5
404
100
AcDbEntity
  8
0
100
AcDbSpline
 62
7
  6
BYLAYER
 70
0
 71
3
 72
9
 73
5
 74
0
 42
0.0000001
 43
0.0000001
 44
0.0000000001
 40
0.0
 40
0.0
 40
0.0
 40
0.0
 40
0.7470327522
 40
1.0
 40
1.0
 40
1.0
 40
1.0
 10
80.547294442
 20
150.9768893074
 30
0.0
 10
80.5413112422
 20
151.0847981144
 30
0.0
 10
80.5163764476
 20
151.229063185
 30
0.0
 10
80.4704926436
 20
151.3663159079
 30
0.0
 10
80.4576261375
 20
151.4005768126
 30
0.0
  0
SPLINE
  5
405
100
AcDbEntity
  8
0
100
AcDbSpline
 62
7
  6
BYLAYER
 70
0
 71
3
 72
9
 73
5
 74
0
 42
0.0000001
 43
0.0000001
 44
0.0000000001
 40
0.0
 40
0.0
 40
0.0
 40
0.0
 40
0.4668250268
 40
1.0
 40
1.0
 40
1.0
 40
1.0
 10
80.3415946356
 20
151.6425358228
 30
0.0
 10
80.2091759107
 20
151.8671931896
 30
0.0
 10
79.804529813
 20
152.2797725382
 30
0.0
 10
79.2855167114
 20
152.5125573386
 30
0.0
 10
79.0004864899
 20
152.5989779573
 30
0.0
  0
SPLINE
  5
406
100
AcDbEntity
  8
0
100
AcDbSpline
 62
7
  6
BYLAYER
 70
0
 71
3
 72
9
 73
5
 74
0
 42
0.0000001
 43
0.0000001
 44
0.0000000001
 40
0.0
 40
0.0
 40
0.0
 40
0.0
 40
0.4856152075
 40
1.0
 40
1.0
 40
1.0
 40
1.0
 10
79.0004864899
 20
152.5989779573
 30
0.0
 10
78.6748442983
 20
152.6977120477
 30
0.0
 10
77.9727888056
 20
152.8002630727
 30
0.0
 10
77.2693527609
 20
152.7508967923
 30
0.0
 10
76.9134576486
 20
152.6938344666
 30
0.0
  0
SPLINE
  5
407
100
AcDbEntity
  8
0
100
AcDbSpline
 62
7
  6
BYLAYER
 70
0
 71
3
 72
11
 73
7
 74
0
 42
0.0000001
 43
0.0000001
 44
0.0000000001
 40
0.0
 40
0.0
 40
0.0
 40
0.0
 40
0.2939471834
 40
0.432193225
 40
0.5630780736
 40
1.0
 40
1.0
 40
1.0
 40
1.0
 10
67.671145471
 20
137.453552171
 30
0.0
 10
66.8628838476
 20
138.442282494
 30
0.0
 10
65.5641433743
 20
139.8119584283
 30
0.0
 10
63.6524327867
 20
141.3492340208
 30
0.0
 10
61.1007190526
 20
143.0249913724
 30
0.0
 10
58.5870735476
 20
143.9213862175
 30
0.0
 10
56.6933126206
 20
143.7914635396
 30
0.0
  0
SPLINE
  5
408
100
AcDbEntity
  8
0
100
AcDbSpline
 62
7
  6
BYLAYER
 70
0
 71
3
 72
10
 73
6
 74
0
 42
0.0000001
 43
0.0000001
 44
0.0000000001
 40
0.0
 40
0.0
 40
0.0
 40
0.0
 40
0.2293887099
 40
0.4753288561
 40
1.0
 40
1.0
 40
1.0
 40
1.0
 10
73.4252736756
 20
122.8013769639
 30
0.0
 10
73.4252736756
 20
123.5834823691
 30
0.0
 10
73.2993621534
 20
125.2057232594
 30
0.0
 10
72.6053971955
 20
128.5496064931
 30
0.0
 10
71.6331201084
 20
131.0189816799
 30
0.0
 10
70.821364929
 20
132.6130750512
 30
0.0
  0
SPLINE
  5
409
100
AcDbEntity
  8
0
100
AcDbSpline
 62
7
  6
BYLAYER
 70
0
 71
3
 72
9
 73
5
 74
0
 42
0.0000001
 43
0.0000001
 44
0.0000000001
 40
0.0
 40
0.0
 40
0.0
 40
0.0
 40
0.2425322786
 40
1.0
 40
1.0
 40
1.0
 40
1.0
 10
42.4878133513
 20
118.0477657348
 30
0.0
 10
44.6802325415
 20
116.5614099143
 30
0.0
 10
53.8361370493
 20
110.6050865918
 30
0.0
 10
63.4254949886
 20
105.3235711137
 30
0.0
 10
70.8492815377
 20
101.6736348751
 30
0.0
  0
SPLINE
  5
40A
100
AcDbEntity
  8
0
100
AcDbSpline
 62
7
  6
BYLAYER
 70
0
 71
3
 72
9
 73
5
 74
0
 42
0.0000001
 43
0.0000001
 44
0.0000000001
 40
0.0
 40
0.0
 40
0.0
 40
0.0
 40
0.238044427
 40
1.0
 40
1.0
 40
1.0
 40
1.0
 10
59.8275306392
 20
144.7854350547
 30
0.0
 10
59.7802755916
 20
144.7581525031
 30
0.0
 10
59.5780937457
 20
144.6499304931
 30
0.0
 10
59.3634464297
 20
144.5657405093
 30
0.0
 10
59.1968288263
 20
144.513357291
 30
0.0
  0
SPLINE
  5
40B
100
AcDbEntity
  8
0
100
AcDbSpline
 62
7
  6
BYLAYER
 70
0
 71
3
 72
9
 73
5
 74
0
 42
0.0000001
 43
0.0000001
 44
0.0000000001
 40
0.0
 40
0.0
 40
0.0
 40
0.0
 40
0.2527335474
 40
1.0
 40
1.0
 40
1.0
 40
1.0
 10
58.3043470979
 20
144.3391640418
 30
0.0
 10
58.1819810246
 20
144.3282220447
 30
0.0
 10
57.6963772021
 20
144.3041958872
 30
0.0
 10
57.2063777667
 20
144.3536102262
 30
0.0
 10
56.8526202075
 20
144.4361000224
 30
0.0
  0
SPLINE
  5
40C
100
AcDbEntity
  8
0
100
AcDbSpline
 62
7
  6
BYLAYER
 70
0
 71
3
 72
11
 73
7
 74
0
 42
0.0000001
 43
0.0000001
 44
0.0000000001
 40
0.0
 40
0.0
 40
0.0
 40
0.0
 40
0.3012800655
 40
0.5659563167
 40
0.794692917
 40
1.0
 40
1.0
 40
1.0
 40
1.0
 10
56.4589685115
 20
144.5498945166
 30
0.0
 10
56.2683185143
 20
144.6165610334
 30
0.0
 10
55.9192505664
 20
144.7722288416
 30
0.0
 10
55.4875518771
 20
145.0935492561
 30
0.0
 10
55.202931766
 20
145.4768664003
 30
0.0
 10
55.1331043661
 20
145.7704650771
 30
0.0
 10
55.1330990518
 20
145.9080973285
 30
0.0
  0
SPLINE
  5
40D
100
AcDbEntity
  8
0
100
AcDbSpline
 62
7
  6
BYLAYER
 70
0
 71
3
 72
11
 73
7
 74
0
 42
0.0000001
 43
0.0000001
 44
0.0000000001
 40
0.0
 40
0.0
 40
0.0
 40
0.0
 40
0.2895410651
 40
0.5491142309
 40
0.7822583424
 40
1.0
 40
1.0
 40
1.0
 40
1.0
 10
59.8275306392
 20
145.630310032
 30
0.0
 10
59.9481278043
 20
145.6999364221
 30
0.0
 10
60.1669773232
 20
145.8508252612
 30
0.0
 10
60.428756712
 20
146.1256590611
 30
0.0
 10
60.5943759943
 20
146.4299182649
 30
0.0
 10
60.6328742801
 20
146.6482502899
 30
0.0
 10
60.6328792686
 20
146.7529721085
 30
0.0
  0
SPLINE
  5
40E
100
AcDbEntity
  8
0
100
AcDbSpline
 62
7
  6
BYLAYER
 70
0
 71
3
 72
11
 73
7
 74
0
 42
0.0000001
 43
0.0000001
 44
0.0000000001
 40
0.0
 40
0.0
 40
0.0
 40
0.0
 40
0.2565271705
 40
0.5022444382
 40
0.7463629845
 40
1.0
 40
1.0
 40
1.0
 40
1.0
 10
68.8290374403
 20
140.8313575616
 30
0.0
 10
68.6240693963
 20
140.7130199125
 30
0.0
 10
68.2472689254
 20
140.433587196
 30
0.0
 10
67.8172798777
 20
139.8844229847
 30
0.0
 10
67.5611822821
 20
139.2384359324
 30
0.0
 10
67.5110332652
 20
138.7764749243
 30
0.0
 10
67.5110307529
 20
138.5424650731
 30
0.0
  0
SPLINE
  5
40F
100
AcDbEntity
  8
0
100
AcDbSpline
 62
7
  6
BYLAYER
 70
0
 71
3
 72
9
 73
5
 74
0
 42
0.0000001
 43
0.0000001
 44
0.0000000001
 40
0.0
 40
0.0
 40
0.0
 40
0.0
 40
0.5259799887
 40
1.0
 40
1.0
 40
1.0
 40
1.0
 10
73.5370179198
 20
140.4374863298
 30
0.0
 10
72.823214741
 20
140.916590074
 30
0.0
 10
71.2230389186
 20
141.5146504691
 30
0.0
 10
69.4999983592
 20
141.2187347164
 30
0.0
 10
68.8290374403
 20
140.8313575616
 30
0.0
  0
SPLINE
  5
410
100
AcDbEntity
  8
0
100
AcDbSpline
 62
7
  6
BYLAYER
 70
0
 71
3
 72
9
 73
5
 74
0
 42
0.0000001
 43
0.0000001
 44
0.0000000001
 40
0.0
 40
0.0
 40
0.0
 40
0.0
 40
0.2797715289
 40
1.0
 40
1.0
 40
1.0
 40
1.0
 10
68.8290374403
 20
139.5885302497
 30
0.0
 10
68.6943238745
 20
139.5107538004
 30
0.0
 10
68.2299721735
 20
139.2083578376
 30
0.0
 10
67.8280232574
 20
138.7806053422
 30
0.0
 10
67.6610454863
 20
138.4166307057
 30
0.0
  0
SPLINE
  5
411
100
AcDbEntity
  8
0
100
AcDbSpline
 62
7
  6
BYLAYER
 70
0
 71
3
 72
9
 73
5
 74
0
 42
0.0000001
 43
0.0000001
 44
0.0000000001
 40
0.0
 40
0.0
 40
0.0
 40
0.0
 40
0.2548503593
 40
1.0
 40
1.0
 40
1.0
 40
1.0
 10
67.6610454863
 20
138.4166307057
 30
0.0
 10
67.6479485838
 20
138.3880823528
 30
0.0
 10
67.5994944512
 20
138.2747477031
 30
0.0
 10
67.5632411654
 20
138.1561238206
 30
0.0
 10
67.5442328881
 20
138.0662760848
 30
0.0
  0
SPLINE
  5
412
100
AcDbEntity
  8
0
100
AcDbSpline
 62
7
  6
BYLAYER
 70
0
 71
3
 72
9
 73
5
 74
0
 42
0.0000001
 43
0.0000001
 44
0.0000000001
 40
0.0
 40
0.0
 40
0.0
 40
0.0
 40
0.2458066521
 40
1.0
 40
1.0
 40
1.0
 40
1.0
 10
74.0155932696
 20
140.0774782982
 30
0.0
 10
73.9623927016
 20
140.0927605208
 30
0.0
 10
73.7451379896
 20
140.1520461225
 30
0.0
 10
73.5248413518
 20
140.2000809505
 30
0.0
 10
73.3577281813
 20
140.2303547536
 30
0.0
  0
SPLINE
  5
413
100
AcDbEntity
  8
0
100
AcDbSpline
 62
7
  6
BYLAYER
 70
0
 71
3
 72
9
 73
5
 74
0
 42
0.0000001
 43
0.0000001
 44
0.0000000001
 40
0.0
 40
0.0
 40
0.0
 40
0.0
 40
0.2484552471
 40
1.0
 40
1.0
 40
1.0
 40
1.0
 10
73.3577281813
 20
140.2303547536
 30
0.0
 10
73.1438172362
 20
140.2691063242
 30
0.0
 10
72.2762024543
 20
140.3855575097
 30
0.0
 10
71.3883762156
 20
140.3538486398
 30
0.0
 10
70.7400821571
 20
140.2437022487
 30
0.0
  0
SPLINE
  5
414
100
AcDbEntity
  8
0
100
AcDbSpline
 62
7
  6
BYLAYER
 70
0
 71
3
 72
9
 73
5
 74
0
 42
0.0000001
 43
0.0000001
 44
0.0000000001
 40
0.0
 40
0.0
 40
0.0
 40
0.0
 40
0.2542122714
 40
1.0
 40
1.0
 40
1.0
 40
1.0
 10
70.6401428793
 20
140.2259886456
 30
0.0
 10
70.5778718629
 20
140.2144913437
 30
0.0
 10
70.3335400718
 20
140.1659713563
 30
0.0
 10
70.0917947678
 20
140.1042062955
 30
0.0
 10
69.9140557202
 20
140.0501635447
 30
0.0
  0
SPLINE
  5
415
100
AcDbEntity
  8
0
100
AcDbSpline
 62
7
  6
BYLAYER
 70
0
 71
3
 72
9
 73
5
 74
0
 42
0.0000001
 43
0.0000001
 44
0.0000000001
 40
0.0
 40
0.0
 40
0.0
 40
0.0
 40
0.2616993114
 40
1.0
 40
1.0
 40
1.0
 40
1.0
 10
69.9140557202
 20
140.0501635447
 30
0.0
 10
69.8155289667
 20
140.0202058238
 30
0.0
 10
69.4420864192
 20
139.8962693308
 30
0.0
 10
69.0806411428
 20
139.7337928479
 30
0.0
 10
68.8290374403
 20
139.5885302497
 30
0.0
  0
SPLINE
  5
416
100
AcDbEntity
  8
0
100
AcDbSpline
 62
7
  6
BYLAYER
 70
0
 71
3
 72
11
 73
7
 74
0
 42
0.0000001
 43
0.0000001
 44
0.0000000001
 40
0.0
 40
0.0
 40
0.0
 40
0.0
 40
0.2896849557
 40
0.5491047442
 40
0.7822253312
 40
1.0
 40
1.0
 40
1.0
 40
1.0
 10
75.1930249667
 20
135.914363459
 30
0.0
 10
75.3904648769
 20
136.0283547638
 30
0.0
 10
75.7486838237
 20
136.2751272854
 30
0.0
 10
76.1768495541
 20
136.7250430735
 30
0.0
 10
76.4477167951
 20
137.2228205156
 30
0.0
 10
76.5109371986
 20
137.5800570757
 30
0.0
 10
76.5109900239
 20
137.7514469123
 30
0.0
  0
SPLINE
  5
417
100
AcDbEntity
  8
0
100
AcDbSpline
 62
7
  6
BYLAYER
 70
0
 71
3
 72
10
 73
6
 74
0
 42
0.0000001
 43
0.0000001
 44
0.0000000001
 40
0.0
 40
0.0
 40
0.0
 40
0.0
 40
0.5216035892
 40
0.7716462799
 40
1.0
 40
1.0
 40
1.0
 40
1.0
 10
70.821364929
 20
135.2458427593
 30
0.0
 10
71.5923881607
 20
135.1238184125
 30
0.0
 10
72.7715961685
 20
135.1203764134
 30
0.0
 10
74.233480939
 20
135.4586928745
 30
0.0
 10
74.8970614482
 20
135.7434898619
 30
0.0
 10
75.1930249667
 20
135.914363459
 30
0.0
  0
SPLINE
  5
418
100
AcDbEntity
  8
0
100
AcDbSpline
 62
7
  6
BYLAYER
 70
0
 71
3
 72
9
 73
5
 74
0
 42
0.0000001
 43
0.0000001
 44
0.0000000001
 40
0.0
 40
0.0
 40
0.0
 40
0.0
 40
0.238044427
 40
1.0
 40
1.0
 40
1.0
 40
1.0
 10
73.9555829477
 20
136.6287847794
 30
0.0
 10
73.9083279001
 20
136.6015022278
 30
0.0
 10
73.7061460542
 20
136.4932802177
 30
0.0
 10
73.4914987382
 20
136.409090234
 30
0.0
 10
73.3248811348
 20
136.3567070157
 30
0.0
  0
SPLINE
  5
419
100
AcDbEntity
  8
0
100
AcDbSpline
 62
7
  6
BYLAYER
 70
0
 71
3
 72
9
 73
5
 74
0
 42
0.0000001
 43
0.0000001
 44
0.0000000001
 40
0.0
 40
0.0
 40
0.0
 40
0.0
 40
0.2527335474
 40
1.0
 40
1.0
 40
1.0
 40
1.0
 10
72.4323994063
 20
136.1825137665
 30
0.0
 10
72.310033333
 20
136.1715717694
 30
0.0
 10
71.8244295105
 20
136.1475456118
 30
0.0
 10
71.3344300751
 20
136.1969599509
 30
0.0
 10
70.980672516
 20
136.2794497471
 30
0.0
  0
SPLINE
  5
41A
100
AcDbEntity
  8
0
100
AcDbSpline
 62
7
  6
BYLAYER
 70
0
 71
3
 72
11
 73
7
 74
0
 42
0.0000001
 43
0.0000001
 44
0.0000000001
 40
0.0
 40
0.0
 40
0.0
 40
0.0
 40
0.3012800655
 40
0.5659563167
 40
0.794692917
 40
1.0
 40
1.0
 40
1.0
 40
1.0
 10
70.5870208199
 20
136.3932442413
 30
0.0
 10
70.3963708227
 20
136.459910758
 30
0.0
 10
70.0473028749
 20
136.6155785662
 30
0.0
 10
69.6156041855
 20
136.9368989808
 30
0.0
 10
69.3309840745
 20
137.320216125
 30
0.0
 10
69.2611566746
 20
137.6138148018
 30
0.0
 10
69.2611513602
 20
137.7514470532
 30
0.0
  0
SPLINE
  5
41B
100
AcDbEntity
  8
0
100
AcDbSpline
 62
7
  6
BYLAYER
 70
0
 71
3
 72
11
 73
7
 74
0
 42
0.0000001
 43
0.0000001
 44
0.0000000001
 40
0.0
 40
0.0
 40
0.0
 40
0.0
 40
0.2895410651
 40
0.5491142309
 40
0.7822583424
 40
1.0
 40
1.0
 40
1.0
 40
1.0
 10
73.9555829477
 20
137.4736597566
 30
0.0
 10
74.0761801127
 20
137.5432861468
 30
0.0
 10
74.2950296317
 20
137.6941749859
 30
0.0
 10
74.5568090204
 20
137.9690087858
 30
0.0
 10
74.7224283027
 20
138.2732679896
 30
0.0
 10
74.7609265886
 20
138.4916000145
 30
0.0
 10
74.7609315771
 20
138.5963218332
 30
0.0
  0
SPLINE
  5
41C
100
AcDbEntity
  8
0
100
AcDbSpline
 62
7
  6
BYLAYER
 70
0
 71
3
 72
9
 73
5
 74
0
 42
0.0000001
 43
0.0000001
 44
0.0000000001
 40
0.0
 40
0.0
 40
0.0
 40
0.0
 40
0.238044427
 40
1.0
 40
1.0
 40
1.0
 40
1.0
 10
73.9554653068
 20
152.9421532491
 30
0.0
 10
73.9082102592
 20
152.9148706975
 30
0.0
 10
73.7060284132
 20
152.8066486874
 30
0.0
 10
73.4913810973
 20
152.7224587037
 30
0.0
 10
73.3247634939
 20
152.6700754853
 30
0.0
  0
SPLINE
  5
41D
100
AcDbEntity
  8
0
100
AcDbSpline
 62
7
  6
BYLAYER
 70
0
 71
3
 72
9
 73
5
 74
0
 42
0.0000001
 43
0.0000001
 44
0.0000000001
 40
0.0
 40
0.0
 40
0.0
 40
0.0
 40
0.2527335474
 40
1.0
 40
1.0
 40
1.0
 40
1.0
 10
72.4322817654
 20
152.4958822362
 30
0.0
 10
72.3099156921
 20
152.484940239
 30
0.0
 10
71.8243118696
 20
152.4609140815
 30
0.0
 10
71.3343124342
 20
152.5103284206
 30
0.0
 10
70.9805548751
 20
152.5928182168
 30
0.0
  0
SPLINE
  5
41E
100
AcDbEntity
  8
0
100
AcDbSpline
 62
7
  6
BYLAYER
 70
0
 71
3
 72
11
 73
7
 74
0
 42
0.0000001
 43
0.0000001
 44
0.0000000001
 40
0.0
 40
0.0
 40
0.0
 40
0.0
 40
0.3012800655
 40
0.5659563167
 40
0.794692917
 40
1.0
 40
1.0
 40
1.0
 40
1.0
 10
70.586903179
 20
152.706612711
 30
0.0
 10
70.3962531818
 20
152.7732792277
 30
0.0
 10
70.0471852339
 20
152.9289470359
 30
0.0
 10
69.6154865446
 20
153.2502674505
 30
0.0
 10
69.3308664336
 20
153.6335845947
 30
0.0
 10
69.2610390337
 20
153.9271832715
 30
0.0
 10
69.2610337193
 20
154.0648155229
 30
0.0
  0
SPLINE
  5
41F
100
AcDbEntity
  8
0
100
AcDbSpline
 62
7
  6
BYLAYER
 70
0
 71
3
 72
9
 73
5
 74
0
 42
0.0000001
 43
0.0000001
 44
0.0000000001
 40
0.0
 40
0.0
 40
0.0
 40
0.0
 40
0.2584494303
 40
1.0
 40
1.0
 40
1.0
 40
1.0
 10
35.6310278579
 20
111.8947009727
 30
0.0
 10
35.6005486078
 20
111.9029447894
 30
0.0
 10
35.4819442201
 20
111.9322411124
 30
0.0
 10
35.3605570524
 20
111.9507372282
 30
0.0
 10
35.270180173
 20
111.9570098287
 30
0.0
  0
SPLINE
  5
420
100
AcDbEntity
  8
0
100
AcDbSpline
 62
7
  6
BYLAYER
 70
0
 71
3
 72
11
 73
7
 74
0
 42
0.0000001
 43
0.0000001
 44
0.0000000001
 40
0.0
 40
0.0
 40
0.0
 40
0.0
 40
0.2895410651
 40
0.5491142309
 40
0.7822583424
 40
1.0
 40
1.0
 40
1.0
 40
1.0
 10
73.9554653068
 20
153.7870282263
 30
0.0
 10
74.0760624718
 20
153.8566546164
 30
0.0
 10
74.2949119908
 20
154.0075434555
 30
0.0
 10
74.5566913795
 20
154.2823772555
 30
0.0
 10
74.7223106618
 20
154.5866364592
 30
0.0
 10
74.7608089476
 20
154.8049684842
 30
0.0
 10
74.7608139362
 20
154.9096903028
 30
0.0
  0
SPLINE
  5
421
100
AcDbEntity
  8
0
100
AcDbSpline
 62
7
  6
BYLAYER
 70
0
 71
3
 72
9
 73
5
 74
0
 42
0.0000001
 43
0.0000001
 44
0.0000000001
 40
0.0
 40
0.0
 40
0.0
 40
0.0
 40
0.2553530934
 40
1.0
 40
1.0
 40
1.0
 40
1.0
 10
77.8799602012
 20
151.0520091958
 30
0.0
 10
77.8993361374
 20
151.063195831
 30
0.0
 10
77.9745983889
 20
151.1080591641
 30
0.0
 10
78.047335429
 20
151.1571960664
 30
0.0
 10
78.0995930459
 20
151.196259131
 30
0.0
  0
SPLINE
  5
422
100
AcDbEntity
  8
0
100
AcDbSpline
 62
7
  6
BYLAYER
 70
0
 71
3
 72
9
 73
5
 74
0
 42
0.0000001
 43
0.0000001
 44
0.0000000001
 40
0.0
 40
0.0
 40
0.0
 40
0.0
 40
0.2557577812
 40
1.0
 40
1.0
 40
1.0
 40
1.0
 10
78.0995930459
 20
151.196259131
 30
0.0
 10
78.1165120183
 20
151.2089062234
 30
0.0
 10
78.1818906278
 20
151.2593774083
 30
0.0
 10
78.2440908086
 20
151.314004573
 30
0.0
 10
78.2880311404
 20
151.3569881405
 30
0.0
  0
SPLINE
  5
423
100
AcDbEntity
  8
0
100
AcDbSpline
 62
7
  6
BYLAYER
 70
0
 71
3
 72
9
 73
5
 74
0
 42
0.0000001
 43
0.0000001
 44
0.0000000001
 40
0.0
 40
0.0
 40
0.0
 40
0.0
 40
0.2558023062
 40
1.0
 40
1.0
 40
1.0
 40
1.0
 10
78.2880311404
 20
151.3569881405
 30
0.0
 10
78.3022461806
 20
151.37089366
 30
0.0
 10
78.3568636127
 20
151.4262150612
 30
0.0
 10
78.4075760824
 20
151.4854284559
 30
0.0
 10
78.4425157454
 20
151.5315379507
 30
0.0
  0
SPLINE
  5
424
100
AcDbEntity
  8
0
100
AcDbSpline
 62
7
  6
BYLAYER
 70
0
 71
3
 72
9
 73
5
 74
0
 42
0.0000001
 43
0.0000001
 44
0.0000000001
 40
0.0
 40
0.0
 40
0.0
 40
0.0
 40
0.2535013096
 40
1.0
 40
1.0
 40
1.0
 40
1.0
 10
77.0673371155
 20
150.7375764776
 30
0.0
 10
77.0923651351
 20
150.743602202
 30
0.0
 10
77.1908470032
 20
150.7683832754
 30
0.0
 10
77.2883092412
 20
150.7972576458
 30
0.0
 10
77.3602104246
 20
150.8212777426
 30
0.0
  0
SPLINE
  5
425
100
AcDbEntity
  8
0
100
AcDbSpline
 62
7
  6
BYLAYER
 70
0
 71
3
 72
9
 73
5
 74
0
 42
0.0000001
 43
0.0000001
 44
0.0000000001
 40
0.0
 40
0.0
 40
0.0
 40
0.0
 40
0.259297005
 40
1.0
 40
1.0
 40
1.0
 40
1.0
 10
77.3602104246
 20
150.8212777426
 30
0.0
 10
77.4068714964
 20
150.8368658513
 30
0.0
 10
77.5854286843
 20
150.9009906295
 30
0.0
 10
77.7582554527
 20
150.9817433459
 30
0.0
 10
77.8799602012
 20
151.0520091958
 30
0.0
  0
SPLINE
  5
426
100
AcDbEntity
  8
0
100
AcDbSpline
 62
7
  6
BYLAYER
 70
0
 71
3
 72
9
 73
5
 74
0
 42
0.0000001
 43
0.0000001
 44
0.0000000001
 40
0.0
 40
0.0
 40
0.0
 40
0.0
 40
0.2361724544
 40
1.0
 40
1.0
 40
1.0
 40
1.0
 10
76.536435141
 20
151.859842932
 30
0.0
 10
76.5811382564
 20
151.8856521337
 30
0.0
 10
76.7746034132
 20
151.9876445645
 30
0.0
 10
76.9819831305
 20
152.0621542393
 30
0.0
 10
77.1431352185
 20
152.1057493166
 30
0.0
  0
SPLINE
  5
427
100
AcDbEntity
  8
0
100
AcDbSpline
 62
7
  6
BYLAYER
 70
0
 71
3
 72
9
 73
5
 74
0
 42
0.0000001
 43
0.0000001
 44
0.0000000001
 40
0.0
 40
0.0
 40
0.0
 40
0.0
 40
0.243278506
 40
1.0
 40
1.0
 40
1.0
 40
1.0
 10
76.1164134185
 20
151.5129747752
 30
0.0
 10
76.1249953818
 20
151.5237369784
 30
0.0
 10
76.1611348871
 20
151.5672837438
 30
0.0
 10
76.2005584934
 20
151.6080730567
 30
0.0
 10
76.2317683671
 20
151.6373847141
 30
0.0
  0
SPLINE
  5
428
100
AcDbEntity
  8
0
100
AcDbSpline
 62
7
  6
BYLAYER
 70
0
 71
3
 72
8
 73
4
 74
0
 42
0.0000001
 43
0.0000001
 44
0.0000000001
 40
0.0
 40
0.0
 40
0.0
 40
0.0
 40
1.0
 40
1.0
 40
1.0
 40
1.0
 10
76.2317683671
 20
151.6373847141
 30
0.0
 10
76.2695497156
 20
151.6728681626
 30
0.0
 10
76.3094559761
 20
151.7061759194
 30
0.0
 10
76.3508071711
 20
151.7374262648
 30
0.0
  0
SPLINE
  5
429
100
AcDbEntity
  8
0
100
AcDbSpline
 62
7
  6
BYLAYER
 70
0
 71
3
 72
9
 73
5
 74
0
 42
0.0000001
 43
0.0000001
 44
0.0000000001
 40
0.0
 40
0.0
 40
0.0
 40
0.0
 40
0.2438964829
 40
1.0
 40
1.0
 40
1.0
 40
1.0
 10
76.3724537513
 20
151.7535033885
 30
0.0
 10
76.3852909469
 20
151.7628742681
 30
0.0
 10
76.4384787089
 20
151.8005339427
 30
0.0
 10
76.4937644506
 20
151.8352071445
 30
0.0
 10
76.536435141
 20
151.859842932
 30
0.0
  0
SPLINE
  5
42A
100
AcDbEntity
  8
0
100
AcDbSpline
 62
7
  6
BYLAYER
 70
0
 71
3
 72
12
 73
8
 74
0
 42
0.0000001
 43
0.0000001
 44
0.0000000001
 40
0.0
 40
0.0
 40
0.0
 40
0.0
 40
0.2929056286
 40
0.5778350798
 40
0.7044906289
 40
0.8164233048
 40
1.0
 40
1.0
 40
1.0
 40
1.0
 10
77.1431352185
 20
152.1057493166
 30
0.0
 10
77.221881057
 20
152.1270517459
 30
0.0
 10
77.384249917
 20
152.1444327614
 30
0.0
 10
77.5812609942
 20
152.1123726101
 30
0.0
 10
77.714201073
 20
152.0496180488
 30
0.0
 10
77.8078878909
 20
151.9784146866
 30
0.0
 10
77.8497277137
 20
151.8962425667
 30
0.0
 10
77.8495513371
 20
151.8451154259
 30
0.0
  0
SPLINE
  5
42B
100
AcDbEntity
  8
0
100
AcDbSpline
 62
7
  6
BYLAYER
 70
0
 71
3
 72
9
 73
5
 74
0
 42
0.0000001
 43
0.0000001
 44
0.0000000001
 40
0.0
 40
0.0
 40
0.0
 40
0.0
 40
0.2579445981
 40
1.0
 40
1.0
 40
1.0
 40
1.0
 10
77.1431358992
 20
151.2889140153
 30
0.0
 10
77.1059355368
 20
151.2788300531
 30
0.0
 10
76.9624893835
 20
151.2369855613
 30
0.0
 10
76.822175252
 20
151.1840729769
 30
0.0
 10
76.7213576311
 20
151.1379186012
 30
0.0
  0
SPLINE
  5
42C
100
AcDbEntity
  8
0
100
AcDbSpline
 62
7
  6
BYLAYER
 70
0
 71
3
 72
11
 73
7
 74
0
 42
0.0000001
 43
0.0000001
 44
0.0000000001
 40
0.0
 40
0.0
 40
0.0
 40
0.0
 40
0.2964100965
 40
0.5571841303
 40
0.7867143865
 40
1.0
 40
1.0
 40
1.0
 40
1.0
 10
42.4880813713
 20
118.0475840297
 30
0.0
 10
42.4281585989
 20
118.0882088162
 30
0.0
 10
42.3091348969
 20
118.1559526762
 30
0.0
 10
42.1243744407
 20
118.2150830142
 30
0.0
 10
41.949734136
 20
118.2199074306
 30
0.0
 10
41.844682457
 20
118.183651637
 30
0.0
 10
41.7996059533
 20
118.1575403187
 30
0.0
  0
SPLINE
  5
42D
100
AcDbEntity
  8
0
100
AcDbSpline
 62
7
  6
BYLAYER
 70
0
 71
3
 72
9
 73
5
 74
0
 42
0.0000001
 43
0.0000001
 44
0.0000000001
 40
0.0
 40
0.0
 40
0.0
 40
0.0
 40
0.5163784187
 40
1.0
 40
1.0
 40
1.0
 40
1.0
 10
71.8668412621
 20
100.5192764555
 30
0.0
 10
71.76759467
 20
100.7693504529
 30
0.0
 10
71.4871481421
 20
101.2202974132
 30
0.0
 10
71.0750967248
 20
101.5626118775
 30
0.0
 10
70.8489683674
 20
101.6737888464
 30
0.0
  0
SPLINE
  5
42E
100
AcDbEntity
  8
0
100
AcDbSpline
 62
7
  6
BYLAYER
 70
0
 71
3
 72
9
 73
5
 74
0
 42
0.0000001
 43
0.0000001
 44
0.0000000001
 40
0.0
 40
0.0
 40
0.0
 40
0.0
 40
0.4837354133
 40
1.0
 40
1.0
 40
1.0
 40
1.0
 10
75.0507345294
 20
87.4498922521
 30
0.0
 10
74.8817813593
 20
89.6183614669
 30
0.0
 10
74.1243614817
 20
94.0736625623
 30
0.0
 10
72.7231247512
 20
98.3616785928
 30
0.0
 10
71.8668412621
 20
100.5192764555
 30
0.0
  0
SPLINE
  5
42F
100
AcDbEntity
  8
0
100
AcDbSpline
 62
7
  6
BYLAYER
 70
0
 71
3
 72
9
 73
5
 74
0
 42
0.0000001
 43
0.0000001
 44
0.0000000001
 40
0.0
 40
0.0
 40
0.0
 40
0.0
 40
0.5106233956
 40
1.0
 40
1.0
 40
1.0
 40
1.0
 10
75.9905905852
 20
85.9119816135
 30
0.0
 10
75.7302094377
 20
86.0870206386
 30
0.0
 10
75.3025445537
 20
86.5534195341
 30
0.0
 10
75.0740917173
 20
87.1501089278
 30
0.0
 10
75.0507345294
 20
87.4498922521
 30
0.0
  0
SPLINE
  5
430
100
AcDbEntity
  8
0
100
AcDbSpline
 62
7
  6
BYLAYER
 70
0
 71
3
 72
11
 73
7
 74
0
 42
0.0000001
 43
0.0000001
 44
0.0000000001
 40
0.0
 40
0.0
 40
0.0
 40
0.0
 40
0.2895453772
 40
0.5491366158
 40
0.7822776227
 40
1.0
 40
1.0
 40
1.0
 40
1.0
 10
84.102659965
 20
34.4152357094
 30
0.0
 10
84.102659965
 20
34.2759761873
 30
0.0
 10
84.0813958707
 20
34.010986123
 30
0.0
 10
83.9742718764
 20
33.6468385408
 30
0.0
 10
83.7935552702
 20
33.3512882796
 30
0.0
 10
83.6237311159
 20
33.2087815595
 30
0.0
 10
83.533045582
 20
33.1564223373
 30
0.0
  0
SPLINE
  5
431
100
AcDbEntity
  8
0
100
AcDbSpline
 62
7
  6
BYLAYER
 70
0
 71
3
 72
15
 73
11
 74
0
 42
0.0000001
 43
0.0000001
 44
0.0000000001
 40
0.0
 40
0.0
 40
0.0
 40
0.0
 40
0.1288248732
 40
0.2705977602
 40
0.4178979
 40
0.5623932695
 40
0.696206034
 40
0.8135977194
 40
0.9130663632
 40
1.0
 40
1.0
 40
1.0
 40
1.0
 10
82.6884522906
 20
33.5987474017
 30
0.0
 10
82.6884522906
 20
33.8337940183
 30
0.0
 10
82.6226432621
 20
34.3280677068
 30
0.0
 10
82.3772798329
 20
35.0537783214
 30
0.0
 10
81.9989479347
 20
35.7528432628
 30
0.0
 10
81.518590986
 20
36.3678233035
 30
0.0
 10
80.9744097655
 20
36.849666068
 30
0.0
 10
80.4069151435
 20
37.1596294428
 30
0.0
 10
79.8514213993
 20
37.2709274268
 30
0.0
 10
79.5063338133
 20
37.1821802002
 30
0.0
 10
79.3689666084
 20
37.102878732
 30
0.0
  0
SPLINE
  5
432
100
AcDbEntity
  8
0
100
AcDbSpline
 62
7
  6
BYLAYER
 70
0
 71
3
 72
17
 73
13
 74
0
 42
0.0000001
 43
0.0000001
 44
0.0000000001
 40
0.0
 40
0.0
 40
0.0
 40
0.0
 40
0.128204263
 40
0.2691973123
 40
0.4158471528
 40
0.5599717664
 40
0.6938394025
 40
0.8117144776
 40
0.8640596154
 40
0.9122498543
 40
0.9571177341
 40
1.0
 40
1.0
 40
1.0
 40
1.0
 10
97.6437105179
 20
46.8463858058
 30
0.0
 10
98.5227315936
 20
47.3538858311
 30
0.0
 10
100.2300545615
 20
48.6641155871
 30
0.0
 10
102.42053614
 20
51.1424753932
 30
0.0
 10
104.2314214317
 20
54.0605369319
 30
0.0
 10
105.5156070855
 20
57.1857783972
 30
0.0
 10
106.1720149228
 20
60.2685615591
 30
0.0
 10
106.1484465673
 20
62.7072061383
 30
0.0
 10
105.7307147234
 20
64.3929320028
 30
0.0
 10
105.2545964187
 20
65.4493029049
 30
0.0
 10
104.6102301037
 20
66.3223565628
 30
0.0
 10
104.0690109201
 20
66.7714644134
 30
0.0
 10
103.7820869411
 20
66.9529492116
 30
0.0
  0
SPLINE
  5
433
100
AcDbEntity
  8
0
100
AcDbSpline
 62
7
  6
BYLAYER
 70
0
 71
3
 72
11
 73
7
 74
0
 42
0.0000001
 43
0.0000001
 44
0.0000000001
 40
0.0
 40
0.0
 40
0.0
 40
0.0
 40
0.2897450508
 40
0.5490771031
 40
0.7822206419
 40
1.0
 40
1.0
 40
1.0
 40
1.0
 10
97.6437105179
 20
47.8670138272
 30
0.0
 10
97.1719491169
 20
47.5946438811
 30
0.0
 10
96.2336682142
 20
47.148136851
 30
0.0
 10
94.7913514274
 20
46.799985991
 30
0.0
 10
93.4381938215
 20
46.8342608115
 30
0.0
 10
92.6233867588
 20
47.1298654658
 30
0.0
 10
92.2688332265
 20
47.3346436327
 30
0.0
  0
SPLINE
  5
434
100
AcDbEntity
  8
0
100
AcDbSpline
 62
7
  6
BYLAYER
 70
0
 71
3
 72
9
 73
5
 74
0
 42
0.0000001
 43
0.0000001
 44
0.0000000001
 40
0.0
 40
0.0
 40
0.0
 40
0.0
 40
0.2576143161
 40
1.0
 40
1.0
 40
1.0
 40
1.0
 10
93.3489993081
 20
47.4867992693
 30
0.0
 10
93.2595404586
 20
47.4810896767
 30
0.0
 10
92.9117754666
 20
47.4687533221
 30
0.0
 10
92.5621432078
 20
47.4978745524
 30
0.0
 10
92.3082620276
 20
47.5455810395
 30
0.0
  0
SPLINE
  5
435
100
AcDbEntity
  8
0
100
AcDbSpline
 62
7
  6
BYLAYER
 70
0
 71
3
 72
11
 73
7
 74
0
 42
0.0000001
 43
0.0000001
 44
0.0000000001
 40
0.0
 40
0.0
 40
0.0
 40
0.0
 40
0.2113404026
 40
0.4415592474
 40
0.7032405541
 40
1.0
 40
1.0
 40
1.0
 40
1.0
 10
75.3717798227
 20
151.38165799
 30
0.0
 10
75.3717475149
 20
151.3370952212
 30
0.0
 10
75.3899318747
 20
151.2433360504
 30
0.0
 10
75.4661476566
 20
151.1136759086
 30
0.0
 10
75.5855299081
 20
150.9959402393
 30
0.0
 10
75.6843744874
 20
150.9307150607
 30
0.0
 10
75.7390232248
 20
150.900235102
 30
0.0
  0
SPLINE
  5
436
100
AcDbEntity
  8
0
100
AcDbSpline
 62
7
  6
BYLAYER
 70
0
 71
3
 72
9
 73
5
 74
0
 42
0.0000001
 43
0.0000001
 44
0.0000000001
 40
0.0
 40
0.0
 40
0.0
 40
0.0
 40
0.2356981699
 40
1.0
 40
1.0
 40
1.0
 40
1.0
 10
75.7390232248
 20
150.900235102
 30
0.0
 10
75.7674125619
 20
150.8844011438
 30
0.0
 10
75.8904869522
 20
150.8219633928
 30
0.0
 10
76.0220312214
 20
150.7769363797
 30
0.0
 10
76.1241754253
 20
150.7509048585
 30
0.0
  0
SPLINE
  5
437
100
AcDbEntity
  8
0
100
AcDbSpline
 62
7
  6
BYLAYER
 70
0
 71
3
 72
9
 73
5
 74
0
 42
0.0000001
 43
0.0000001
 44
0.0000000001
 40
0.0
 40
0.0
 40
0.0
 40
0.0
 40
0.7551691509
 40
1.0
 40
1.0
 40
1.0
 40
1.0
 10
76.1241754253
 20
150.7509048585
 30
0.0
 10
76.3554987631
 20
150.6919519453
 30
0.0
 10
76.6797188111
 20
150.6679087048
 30
0.0
 10
76.9920934254
 20
150.719460872
 30
0.0
 10
77.0673371155
 20
150.7375764776
 30
0.0
  0
SPLINE
  5
438
100
AcDbEntity
  8
0
100
AcDbSpline
 62
7
  6
BYLAYER
 70
0
 71
3
 72
9
 73
5
 74
0
 42
0.0000001
 43
0.0000001
 44
0.0000000001
 40
0.0
 40
0.0
 40
0.0
 40
0.0
 40
0.2529886993
 40
1.0
 40
1.0
 40
1.0
 40
1.0
 10
91.147512421
 20
48.5953070575
 30
0.0
 10
91.2041414662
 20
48.5375833315
 30
0.0
 10
91.4353373289
 20
48.3167676599
 30
0.0
 10
91.6963816856
 20
48.1270665854
 30
0.0
 10
91.9031415539
 20
48.0076475154
 30
0.0
  0
SPLINE
  5
439
100
AcDbEntity
  8
0
100
AcDbSpline
 62
7
  6
BYLAYER
 70
0
 71
3
 72
9
 73
5
 74
0
 42
0.0000001
 43
0.0000001
 44
0.0000000001
 40
0.0
 40
0.0
 40
0.0
 40
0.0
 40
0.52208
 40
1.0
 40
1.0
 40
1.0
 40
1.0
 10
36.9741209199
 20
60.8939278648
 30
0.0
 10
36.9292535048
 20
60.7691174729
 30
0.0
 10
36.8106079835
 20
60.5389124749
 30
0.0
 10
36.6153933752
 20
60.3651399358
 30
0.0
 10
36.5102488597
 20
60.3044325129
 30
0.0
  0
SPLINE
  5
43A
100
AcDbEntity
  8
0
100
AcDbSpline
 62
7
  6
BYLAYER
 70
0
 71
3
 72
19
 73
15
 74
0
 42
0.0000001
 43
0.0000001
 44
0.0000000001
 40
0.0
 40
0.0
 40
0.0
 40
0.0
 40
0.0273077082
 40
0.0537932345
 40
0.1062920369
 40
0.1605027186
 40
0.2170034905
 40
0.2757042688
 40
0.3364016894
 40
0.4629568783
 40
0.5951038319
 40
0.7308476535
 40
0.8672488945
 40
1.0
 40
1.0
 40
1.0
 40
1.0
 10
89.3208694942
 20
138.47504216
 30
0.0
 10
89.2409319974
 20
138.4288905002
 30
0.0
 10
89.0732355717
 20
138.3541231653
 30
0.0
 10
88.7179818296
 20
138.2846307289
 30
0.0
 10
88.2612720138
 20
138.3338473908
 30
0.0
 10
87.7424900848
 20
138.5292066375
 30
0.0
 10
87.2405522871
 20
138.8075781221
 30
0.0
 10
86.7499796976
 20
139.144518712
 30
0.0
 10
86.0971242673
 20
139.6599154568
 30
0.0
 10
85.30113836
 20
140.3913693576
 30
0.0
 10
84.3843566117
 20
141.3605815356
 30
0.0
 10
83.5138663672
 20
142.4157104592
 30
0.0
 10
82.7291420248
 20
143.5387959779
 30
0.0
 10
82.2910021537
 20
144.340183928
 30
0.0
 10
82.1101203259
 20
144.750827777
 30
0.0
  0
SPLINE
  5
43B
100
AcDbEntity
  8
0
100
AcDbSpline
 62
7
  6
BYLAYER
 70
0
 71
3
 72
11
 73
7
 74
0
 42
0.0000001
 43
0.0000001
 44
0.0000000001
 40
0.0
 40
0.0
 40
0.0
 40
0.0
 40
0.2177227832
 40
0.4508712161
 40
0.7104668615
 40
1.0
 40
1.0
 40
1.0
 40
1.0
 10
74.7607934059
 20
154.0648151251
 30
0.0
 10
74.7607974491
 20
153.9601033453
 30
0.0
 10
74.7222902506
 20
153.7417820134
 30
0.0
 10
74.5566974838
 20
153.4375091688
 30
0.0
 10
74.2949015985
 20
153.1626799835
 30
0.0
 10
74.0760580633
 20
153.0117770939
 30
0.0
 10
73.9554653068
 20
152.9421532491
 30
0.0
  0
SPLINE
  5
43C
100
AcDbEntity
  8
0
100
AcDbSpline
 62
7
  6
BYLAYER
 70
0
 71
3
 72
15
 73
11
 74
0
 42
0.0000001
 43
0.0000001
 44
0.0000000001
 40
0.0
 40
0.0
 40
0.0
 40
0.0
 40
0.1288248732
 40
0.2705977602
 40
0.4178979
 40
0.5623932695
 40
0.696206034
 40
0.8135977194
 40
0.9130663632
 40
1.0
 40
1.0
 40
1.0
 40
1.0
 10
35.6656555683
 20
60.7467575773
 30
0.0
 10
35.6656555683
 20
60.9818041939
 30
0.0
 10
35.5998465399
 20
61.4760778824
 30
0.0
 10
35.3544831107
 20
62.201788497
 30
0.0
 10
34.9761512124
 20
62.9008534384
 30
0.0
 10
34.4957942638
 20
63.5158334791
 30
0.0
 10
33.9516130432
 20
63.9976762436
 30
0.0
 10
33.3841184212
 20
64.3076396184
 30
0.0
 10
32.828624677
 20
64.4189376024
 30
0.0
 10
32.483537091
 20
64.3301903758
 30
0.0
 10
32.3461698861
 20
64.2508889076
 30
0.0
  0
SPLINE
  5
43D
100
AcDbEntity
  8
0
100
AcDbSpline
 62
7
  6
BYLAYER
 70
0
 71
3
 72
14
 73
10
 74
0
 42
0.0000001
 43
0.0000001
 44
0.0000000001
 40
0.0
 40
0.0
 40
0.0
 40
0.0
 40
0.2779762853
 40
0.4106045599
 40
0.537234861
 40
0.6579012334
 40
0.7739313668
 40
0.8873594193
 40
1.0
 40
1.0
 40
1.0
 40
1.0
 10
77.5170973025
 20
130.1048800519
 30
0.0
 10
77.7168988064
 20
131.0898026906
 30
0.0
 10
78.1011331317
 20
132.5335261217
 30
0.0
 10
78.8944802268
 20
134.3113664905
 30
0.0
 10
79.6339090148
 20
135.4765059026
 30
0.0
 10
80.5426234508
 20
136.439203839
 30
0.0
 10
81.61660832
 20
137.134823672
 30
0.0
 10
82.8042661058
 20
137.5243161987
 30
0.0
 10
83.6285067494
 20
137.58126444
 30
0.0
 10
84.0353720181
 20
137.5638871658
 30
0.0
  0
SPLINE
  5
43E
100
AcDbEntity
  8
0
100
AcDbSpline
 62
7
  6
BYLAYER
 70
0
 71
3
 72
15
 73
11
 74
0
 42
0.0000001
 43
0.0000001
 44
0.0000000001
 40
0.0
 40
0.0
 40
0.0
 40
0.0
 40
0.0581644752
 40
0.1145410125
 40
0.2269095479
 40
0.3438327201
 40
0.4661493706
 40
0.5934600279
 40
0.7252185966
 40
1.0
 40
1.0
 40
1.0
 40
1.0
 10
75.1929687688
 20
130.3182181379
 30
0.0
 10
75.1051687286
 20
130.2675270636
 30
0.0
 10
74.9197101648
 20
130.1873841161
 30
0.0
 10
74.5257739252
 20
130.1238515703
 30
0.0
 10
74.0235287694
 20
130.2043537989
 30
0.0
 10
73.4585270284
 20
130.4480512243
 30
0.0
 10
72.9111956642
 20
130.7803050001
 30
0.0
 10
72.3756844687
 20
131.1751321233
 30
0.0
 10
71.6624555599
 20
131.7733689748
 30
0.0
 10
71.1530817647
 20
132.2675899126
 30
0.0
 10
70.821364929
 20
132.6130750512
 30
0.0
  0
SPLINE
  5
43F
100
AcDbEntity
  8
0
100
AcDbSpline
 62
7
  6
BYLAYER
 70
0
 71
3
 72
11
 73
7
 74
0
 42
0.0000001
 43
0.0000001
 44
0.0000000001
 40
0.0
 40
0.0
 40
0.0
 40
0.0
 40
0.2019753478
 40
0.4298883248
 40
0.6962780655
 40
1.0
 40
1.0
 40
1.0
 40
1.0
 10
69.261013189
 20
154.9096902997
 30
0.0
 10
69.2610061523
 20
154.7619722145
 30
0.0
 10
69.3426804392
 20
154.4446533569
 30
0.0
 10
69.6691631703
 20
154.0401922826
 30
0.0
 10
70.1578281071
 20
153.7101907417
 30
0.0
 10
70.5493475928
 20
153.5577352799
 30
0.0
 10
70.7624498898
 20
153.4950446685
 30
0.0
  0
SPLINE
  5
440
100
AcDbEntity
  8
0
100
AcDbSpline
 62
7
  6
BYLAYER
 70
0
 71
3
 72
9
 73
5
 74
0
 42
0.0000001
 43
0.0000001
 44
0.0000000001
 40
0.0
 40
0.0
 40
0.0
 40
0.0
 40
0.4996799582
 40
1.0
 40
1.0
 40
1.0
 40
1.0
 10
70.9128916877
 20
153.4540649378
 30
0.0
 10
71.2657660008
 20
153.3653947553
 30
0.0
 10
71.9967732242
 20
153.2809592223
 30
0.0
 10
72.7282217373
 20
153.3609970964
 30
0.0
 10
73.0821380177
 20
153.4473992198
 30
0.0
  0
SPLINE
  5
441
100
AcDbEntity
  8
0
100
AcDbSpline
 62
7
  6
BYLAYER
 70
0
 71
3
 72
9
 73
5
 74
0
 42
0.0000001
 43
0.0000001
 44
0.0000000001
 40
0.0
 40
0.0
 40
0.0
 40
0.0
 40
0.2639569973
 40
1.0
 40
1.0
 40
1.0
 40
1.0
 10
73.0821380177
 20
153.4473992198
 30
0.0
 10
73.162375463
 20
153.4669877102
 30
0.0
 10
73.4638472146
 20
153.550530553
 30
0.0
 10
73.7560082537
 20
153.6718723304
 30
0.0
 10
73.9554653068
 20
153.7870282263
 30
0.0
  0
SPLINE
  5
442
100
AcDbEntity
  8
0
100
AcDbSpline
 62
7
  6
BYLAYER
 70
0
 71
3
 72
12
 73
8
 74
0
 42
0.0000001
 43
0.0000001
 44
0.0000000001
 40
0.0
 40
0.0
 40
0.0
 40
0.0
 40
0.0994820878
 40
0.202621312
 40
0.4301379926
 40
0.6963897085
 40
1.0
 40
1.0
 40
1.0
 40
1.0
 10
67.5109547422
 20
154.064815266
 30
0.0
 10
67.5109175906
 20
153.9442781577
 30
0.0
 10
67.5412145928
 20
153.6978409843
 30
0.0
 10
67.7243124404
 20
153.2055527937
 30
0.0
 10
68.1906915477
 20
152.6291526351
 30
0.0
 10
69.0029205975
 20
152.0892823391
 30
0.0
 10
69.6527817188
 20
151.8403491881
 30
0.0
 10
70.0063514965
 20
151.7387838802
 30
0.0
  0
SPLINE
  5
443
100
AcDbEntity
  8
0
100
AcDbSpline
 62
7
  6
BYLAYER
 70
0
 71
3
 72
13
 73
9
 74
0
 42
0.0000001
 43
0.0000001
 44
0.0000000001
 40
0.0
 40
0.0
 40
0.0
 40
0.0
 40
0.0986109658
 40
0.201060657
 40
0.310506411
 40
0.4290332023
 40
0.6958104269
 40
1.0
 40
1.0
 40
1.0
 40
1.0
 10
65.843536239
 20
151.3108990762
 30
0.0
 10
65.5806199554
 20
151.4627445296
 30
0.0
 10
65.0030248596
 20
151.7053852893
 30
0.0
 10
64.050921131
 20
151.8559108021
 30
0.0
 10
63.0284274229
 20
151.796882496
 30
0.0
 10
61.5425426912
 20
151.4310517999
 30
0.0
 10
59.6339780814
 20
150.4388560016
 30
0.0
 10
58.2839758783
 20
149.2943701375
 30
0.0
 10
57.6244128252
 20
148.6294281251
 30
0.0
  0
SPLINE
  5
444
100
AcDbEntity
  8
0
100
AcDbSpline
 62
7
  6
BYLAYER
 70
0
 71
3
 72
11
 73
7
 74
0
 42
0.0000001
 43
0.0000001
 44
0.0000000001
 40
0.0
 40
0.0
 40
0.0
 40
0.0
 40
0.2897743511
 40
0.5490675719
 40
0.7822265364
 40
1.0
 40
1.0
 40
1.0
 40
1.0
 10
97.7851324629
 20
46.7647376548
 30
0.0
 10
97.2584594047
 20
46.460664638
 30
0.0
 10
96.2111144524
 20
45.962153104
 30
0.0
 10
94.6010533247
 20
45.5736849753
 30
0.0
 10
93.0905675477
 20
45.6117545904
 30
0.0
 10
92.1810845294
 20
45.941954489
 30
0.0
 10
91.7852752225
 20
46.1704739821
 30
0.0
  0
SPLINE
  5
445
100
AcDbEntity
  8
0
100
AcDbSpline
 62
7
  6
BYLAYER
 70
0
 71
3
 72
9
 73
5
 74
0
 42
0.0000001
 43
0.0000001
 44
0.0000000001
 40
0.0
 40
0.0
 40
0.0
 40
0.0
 40
0.3155306858
 40
1.0
 40
1.0
 40
1.0
 40
1.0
 10
83.8033813308
 20
155.92198104
 30
0.0
 10
83.7734871536
 20
155.9174814427
 30
0.0
 10
83.6838667465
 20
155.9131988152
 30
0.0
 10
83.5517267898
 20
155.9681696422
 30
0.0
 10
83.5517000031
 20
156.0337484676
 30
0.0
  0
SPLINE
  5
446
100
AcDbEntity
  8
0
100
AcDbSpline
 62
7
  6
BYLAYER
 70
0
 71
3
 72
9
 73
5
 74
0
 42
0.0000001
 43
0.0000001
 44
0.0000000001
 40
0.0
 40
0.0
 40
0.0
 40
0.0
 40
0.2450609114
 40
1.0
 40
1.0
 40
1.0
 40
1.0
 10
78.8346925127
 20
80.7312574385
 30
0.0
 10
78.8346925127
 20
80.6975973395
 30
0.0
 10
78.8362762137
 20
80.560245994
 30
0.0
 10
78.8440252035
 20
80.4229812712
 30
0.0
 10
78.8529729753
 20
80.3196741337
 30
0.0
  0
SPLINE
  5
447
100
AcDbEntity
  8
0
100
AcDbSpline
 62
7
  6
BYLAYER
 70
0
 71
3
 72
9
 73
5
 74
0
 42
0.0000001
 43
0.0000001
 44
0.0000000001
 40
0.0
 40
0.0
 40
0.0
 40
0.0
 40
0.2452746285
 40
1.0
 40
1.0
 40
1.0
 40
1.0
 10
78.8529729753
 20
80.3196741337
 30
0.0
 10
78.8565154386
 20
80.2787743719
 30
0.0
 10
78.8729466028
 20
80.1121995412
 30
0.0
 10
78.8971370428
 20
79.9464075316
 30
0.0
 10
78.9193280205
 20
79.8220496429
 30
0.0
  0
SPLINE
  5
448
100
AcDbEntity
  8
0
100
AcDbSpline
 62
7
  6
BYLAYER
 70
0
 71
3
 72
9
 73
5
 74
0
 42
0.0000001
 43
0.0000001
 44
0.0000000001
 40
0.0
 40
0.0
 40
0.0
 40
0.0
 40
0.2549057107
 40
1.0
 40
1.0
 40
1.0
 40
1.0
 10
81.8107583149
 20
75.1966171093
 30
0.0
 10
81.839459915
 20
75.1765570277
 30
0.0
 10
81.952852864
 20
75.0990097183
 30
0.0
 10
82.0694654309
 20
75.0261413126
 30
0.0
 10
82.1581082209
 20
74.9749645317
 30
0.0
  0
SPLINE
  5
449
100
AcDbEntity
  8
0
100
AcDbSpline
 62
7
  6
BYLAYER
 70
0
 71
3
 72
11
 73
7
 74
0
 42
0.0000001
 43
0.0000001
 44
0.0000000001
 40
0.0
 40
0.0
 40
0.0
 40
0.0
 40
0.2895453772
 40
0.5491366158
 40
0.7822776227
 40
1.0
 40
1.0
 40
1.0
 40
1.0
 10
84.102659965
 20
77.6898638173
 30
0.0
 10
84.102659965
 20
77.5506042952
 30
0.0
 10
84.0813958707
 20
77.2856142309
 30
0.0
 10
83.9742718764
 20
76.9214666487
 30
0.0
 10
83.7935552702
 20
76.6259163874
 30
0.0
 10
83.6237311159
 20
76.4834096674
 30
0.0
 10
83.533045582
 20
76.4310504451
 30
0.0
  0
SPLINE
  5
44A
100
AcDbEntity
  8
0
100
AcDbSpline
 62
7
  6
BYLAYER
 70
0
 71
3
 72
9
 73
5
 74
0
 42
0.0000001
 43
0.0000001
 44
0.0000000001
 40
0.0
 40
0.0
 40
0.0
 40
0.0
 40
0.288216611
 40
1.0
 40
1.0
 40
1.0
 40
1.0
 10
89.1228911316
 20
157.4775469379
 30
0.0
 10
89.1316518067
 20
157.4826048858
 30
0.0
 10
89.1604150801
 20
157.5022233039
 30
0.0
 10
89.1814959194
 20
157.5370345996
 30
0.0
 10
89.1814955767
 20
157.5620170561
 30
0.0
  0
SPLINE
  5
44B
100
AcDbEntity
  8
0
100
AcDbSpline
 62
7
  6
BYLAYER
 70
0
 71
3
 72
11
 73
7
 74
0
 42
0.0000001
 43
0.0000001
 44
0.0000000001
 40
0.0
 40
0.0
 40
0.0
 40
0.0
 40
0.2336622451
 40
0.4926453455
 40
0.7553914648
 40
1.0
 40
1.0
 40
1.0
 40
1.0
 10
77.4409882139
 20
79.9266066895
 30
0.0
 10
77.4409882139
 20
79.3836572212
 30
0.0
 10
77.6701048059
 20
78.2374895954
 30
0.0
 10
78.4771000856
 20
76.6595787871
 30
0.0
 10
79.65957407
 20
75.305073604
 30
0.0
 10
80.6566738761
 20
74.6377851234
 30
0.0
 10
81.1766927798
 20
74.4083474449
 30
0.0
  0
SPLINE
  5
44C
100
AcDbEntity
  8
0
100
AcDbSpline
 62
7
  6
BYLAYER
 70
0
 71
3
 72
21
 73
17
 74
0
 42
0.0000001
 43
0.0000001
 44
0.0000000001
 40
0.0
 40
0.0
 40
0.0
 40
0.0
 40
0.0442110782
 40
0.0910741498
 40
0.1425299089
 40
0.1995578041
 40
0.2622700054
 40
0.3301133317
 40
0.476539417
 40
0.6277785143
 40
0.701307662
 40
0.7713846172
 40
0.8368080614
 40
0.8967541373
 40
0.9509931618
 40
1.0
 40
1.0
 40
1.0
 40
1.0
 10
101.3758410256
 20
130.7968718329
 30
0.0
 10
101.0447003446
 20
130.9880390782
 30
0.0
 10
100.2948632893
 20
131.2739177827
 30
0.0
 10
99.0501643966
 20
131.3561528889
 30
0.0
 10
97.7178681369
 20
131.1096278466
 30
0.0
 10
96.338142013
 20
130.5508302571
 30
0.0
 10
94.9490088454
 20
129.700987209
 30
0.0
 10
93.0928985088
 20
128.1770535566
 30
0.0
 10
91.0359974337
 20
125.7403136425
 30
0.0
 10
89.4877463958
 20
122.9015126164
 30
0.0
 10
88.6337144174
 20
120.4940180642
 30
0.0
 10
88.2267441865
 20
118.7280086938
 30
0.0
 10
88.0603568842
 20
117.0406330118
 30
0.0
 10
88.1405813295
 20
115.482187562
 30
0.0
 10
88.4678906524
 20
114.1003839776
 30
0.0
 10
88.8670718959
 20
113.2892665594
 30
0.0
 10
89.106175231
 20
112.9393143072
 30
0.0
  0
SPLINE
  5
44D
100
AcDbEntity
  8
0
100
AcDbSpline
 62
7
  6
BYLAYER
 70
0
 71
3
 72
11
 73
7
 74
0
 42
0.0000001
 43
0.0000001
 44
0.0000000001
 40
0.0
 40
0.0
 40
0.0
 40
0.0
 40
0.1957335892
 40
0.4227428218
 40
0.6927946987
 40
1.0
 40
1.0
 40
1.0
 40
1.0
 10
166.2231542037
 20
109.2112824963
 30
0.0
 10
166.3616077919
 20
109.1313439944
 30
0.0
 10
166.6109767746
 20
108.8666523762
 30
0.0
 10
166.7744759833
 20
108.3111245767
 30
0.0
 10
166.7620338629
 20
107.6475129435
 30
0.0
 10
166.6460820113
 20
107.1864349186
 30
0.0
 10
166.5632231977
 20
106.9495876215
 30
0.0
  0
SPLINE
  5
44E
100
AcDbEntity
  8
0
100
AcDbSpline
 62
7
  6
BYLAYER
 70
0
 71
3
 72
9
 73
5
 74
0
 42
0.0000001
 43
0.0000001
 44
0.0000000001
 40
0.0
 40
0.0
 40
0.0
 40
0.0
 40
0.2467878212
 40
1.0
 40
1.0
 40
1.0
 40
1.0
 10
166.5632231977
 20
106.9495876215
 30
0.0
 10
166.5461109985
 20
106.9006733544
 30
0.0
 10
166.4729582474
 20
106.7038193315
 30
0.0
 10
166.3851804063
 20
106.5124400839
 30
0.0
 10
166.3117909084
 20
106.3723364075
 30
0.0
  0
SPLINE
  5
44F
100
AcDbEntity
  8
0
100
AcDbSpline
 62
7
  6
BYLAYER
 70
0
 71
3
 72
9
 73
5
 74
0
 42
0.0000001
 43
0.0000001
 44
0.0000000001
 40
0.0
 40
0.0
 40
0.0
 40
0.0
 40
0.2526527961
 40
1.0
 40
1.0
 40
1.0
 40
1.0
 10
166.1266123773
 20
106.0518172058
 30
0.0
 10
166.0989209137
 20
106.0081596801
 30
0.0
 10
165.9863352546
 20
105.837280028
 30
0.0
 10
165.8619669099
 20
105.6741097361
 30
0.0
 10
165.7625921941
 20
105.557872819
 30
0.0
  0
SPLINE
  5
450
100
AcDbEntity
  8
0
100
AcDbSpline
 62
7
  6
BYLAYER
 70
0
 71
3
 72
11
 73
7
 74
0
 42
0.0000001
 43
0.0000001
 44
0.0000000001
 40
0.0
 40
0.0
 40
0.0
 40
0.0
 40
0.3072906413
 40
0.5774696996
 40
0.8044650337
 40
1.0
 40
1.0
 40
1.0
 40
1.0
 10
165.7625921941
 20
105.557872819
 30
0.0
 10
165.5986014285
 20
105.3660556061
 30
0.0
 10
165.2563100733
 20
105.0320942606
 30
0.0
 10
164.6855921117
 20
104.6858909042
 30
0.0
 10
164.120075785
 20
104.5474175879
 30
0.0
 10
163.7641568664
 20
104.6309829757
 30
0.0
 10
163.6250888092
 20
104.7112762516
 30
0.0
  0
SPLINE
  5
451
100
AcDbEntity
  8
0
100
AcDbSpline
 62
7
  6
BYLAYER
 70
0
 71
3
 72
10
 73
6
 74
0
 42
0.0000001
 43
0.0000001
 44
0.0000000001
 40
0.0
 40
0.0
 40
0.0
 40
0.0
 40
0.2925231885
 40
0.5605897687
 40
1.0
 40
1.0
 40
1.0
 40
1.0
 10
162.1710925612
 20
108.5507677511
 30
0.0
 10
162.3379305631
 20
108.0933575276
 30
0.0
 10
162.5947200344
 20
107.1889024809
 30
0.0
 10
162.7804614196
 20
105.5401133902
 30
0.0
 10
162.5609997626
 20
104.3011425295
 30
0.0
 10
162.1710925612
 20
103.682372089
 30
0.0
  0
SPLINE
  5
452
100
AcDbEntity
  8
0
100
AcDbSpline
 62
7
  6
BYLAYER
 70
0
 71
3
 72
10
 73
6
 74
0
 42
0.0000001
 43
0.0000001
 44
0.0000000001
 40
0.0
 40
0.0
 40
0.0
 40
0.0
 40
0.4394072004
 40
0.7074745691
 40
1.0
 40
1.0
 40
1.0
 40
1.0
 10
166.3871991906
 20
110.9849235186
 30
0.0
 10
166.0462923519
 20
110.3378795198
 30
0.0
 10
165.0830524621
 20
109.5283507149
 30
0.0
 10
163.5623071145
 20
108.8648259467
 30
0.0
 10
162.6506378977
 20
108.6349869077
 30
0.0
 10
162.1710925612
 20
108.5507677511
 30
0.0
  0
SPLINE
  5
453
100
AcDbEntity
  8
0
100
AcDbSpline
 62
7
  6
BYLAYER
 70
0
 71
3
 72
19
 73
15
 74
0
 42
0.0000001
 43
0.0000001
 44
0.0000000001
 40
0.0
 40
0.0
 40
0.0
 40
0.0
 40
0.0453955336
 40
0.0940835222
 40
0.1481593819
 40
0.2086075515
 40
0.3468429292
 40
0.4999848744
 40
0.6531279492
 40
0.791373363
 40
0.8518283501
 40
0.9059111491
 40
0.9546034872
 40
1.0
 40
1.0
 40
1.0
 40
1.0
 10
166.2231542037
 20
109.2112824963
 30
0.0
 10
166.1375215921
 20
109.2607239213
 30
0.0
 10
165.940514733
 20
109.3320185886
 30
0.0
 10
165.6135324771
 20
109.3405720332
 30
0.0
 10
165.2647379036
 20
109.256352225
 30
0.0
 10
164.7651118178
 20
109.0180646321
 30
0.0
 10
164.170049416
 20
108.5166737827
 30
0.0
 10
163.5936350571
 20
107.7295556028
 30
0.0
 10
163.2001445014
 20
106.8367982432
 30
0.0
 10
163.0634218687
 20
106.0707310524
 30
0.0
 10
163.1068455791
 20
105.5188443762
 30
0.0
 10
163.2083002896
 20
105.1746254582
 30
0.0
 10
163.3792050204
 20
104.8956992988
 30
0.0
 10
163.5394543504
 20
104.760718743
 30
0.0
 10
163.6250888092
 20
104.7112762516
 30
0.0
  0
SPLINE
  5
454
100
AcDbEntity
  8
0
100
AcDbSpline
 62
7
  6
BYLAYER
 70
0
 71
3
 72
15
 73
11
 74
0
 42
0.0000001
 43
0.0000001
 44
0.0000000001
 40
0.0
 40
0.0
 40
0.0
 40
0.0
 40
0.1288248732
 40
0.2705977602
 40
0.4178979
 40
0.5623932695
 40
0.696206034
 40
0.8135977194
 40
0.9130663632
 40
1.0
 40
1.0
 40
1.0
 40
1.0
 10
82.6884522906
 20
76.8733755095
 30
0.0
 10
82.6884522906
 20
77.1084221262
 30
0.0
 10
82.6226432621
 20
77.6026958146
 30
0.0
 10
82.3772798329
 20
78.3284064293
 30
0.0
 10
81.9989479347
 20
79.0274713707
 30
0.0
 10
81.518590986
 20
79.6424514113
 30
0.0
 10
80.9744097655
 20
80.1242941759
 30
0.0
 10
80.4069151435
 20
80.4342575506
 30
0.0
 10
79.8514213993
 20
80.5455555346
 30
0.0
 10
79.5063338133
 20
80.4568083081
 30
0.0
 10
79.3689666084
 20
80.3775068399
 30
0.0
  0
SPLINE
  5
455
100
AcDbEntity
  8
0
100
AcDbSpline
 62
7
  6
BYLAYER
 70
0
 71
3
 72
10
 73
6
 74
0
 42
0.0000001
 43
0.0000001
 44
0.0000000001
 40
0.0
 40
0.0
 40
0.0
 40
0.0
 40
0.5017090474
 40
0.7593646367
 40
1.0
 40
1.0
 40
1.0
 40
1.0
 10
79.7221330834
 20
88.1235675347
 30
0.0
 10
79.4895747846
 20
88.3104819597
 30
0.0
 10
79.1999130174
 20
88.6764033199
 30
0.0
 10
78.9591783139
 20
89.2209984343
 30
0.0
 10
78.8878086381
 20
89.5116789221
 30
0.0
 10
78.8724252737
 20
89.6539538228
 30
0.0
  0
SPLINE
  5
456
100
AcDbEntity
  8
0
100
AcDbSpline
 62
7
  6
BYLAYER
 70
0
 71
3
 72
9
 73
5
 74
0
 42
0.0000001
 43
0.0000001
 44
0.0000000001
 40
0.0
 40
0.0
 40
0.0
 40
0.0
 40
0.255754418
 40
1.0
 40
1.0
 40
1.0
 40
1.0
 10
86.5793045395
 20
82.2376409824
 30
0.0
 10
86.5373871369
 20
82.2877659677
 30
0.0
 10
86.3700551089
 20
82.4808384359
 30
0.0
 10
86.1888831751
 20
82.6620579032
 30
0.0
 10
86.0464356522
 20
82.7880101927
 30
0.0
  0
SPLINE
  5
457
100
AcDbEntity
  8
0
100
AcDbSpline
 62
7
  6
BYLAYER
 70
0
 71
3
 72
10
 73
6
 74
0
 42
0.0000001
 43
0.0000001
 44
0.0000000001
 40
0.0
 40
0.0
 40
0.0
 40
0.0
 40
0.4924737874
 40
0.7535102588
 40
1.0
 40
1.0
 40
1.0
 40
1.0
 10
78.8724252737
 20
89.6539538228
 30
0.0
 10
78.8936258034
 20
89.3528131754
 30
0.0
 10
79.0460535925
 20
88.8979842246
 30
0.0
 10
79.3841340064
 20
88.3856782382
 30
0.0
 10
79.6032732758
 20
88.1604907271
 30
0.0
 10
79.7209193191
 20
88.0656750564
 30
0.0
  0
SPLINE
  5
458
100
AcDbEntity
  8
0
100
AcDbSpline
 62
7
  6
BYLAYER
 70
0
 71
3
 72
9
 73
5
 74
0
 42
0.0000001
 43
0.0000001
 44
0.0000000001
 40
0.0
 40
0.0
 40
0.0
 40
0.0
 40
0.485003931
 40
1.0
 40
1.0
 40
1.0
 40
1.0
 10
79.0131406894
 20
90.6285899077
 30
0.0
 10
78.8253793415
 20
92.6768620451
 30
0.0
 10
78.1239040455
 20
96.8742540704
 30
0.0
 10
76.9096122604
 20
100.9486178916
 30
0.0
 10
76.1714201556
 20
103.0041384235
 30
0.0
  0
SPLINE
  5
459
100
AcDbEntity
  8
0
100
AcDbSpline
 62
7
  6
BYLAYER
 70
0
 71
3
 72
10
 73
6
 74
0
 42
0.0000001
 43
0.0000001
 44
0.0000000001
 40
0.0
 40
0.0
 40
0.0
 40
0.0
 40
0.2925247917
 40
0.5605917125
 40
1.0
 40
1.0
 40
1.0
 40
1.0
 10
98.3497239929
 20
228.6449232754
 30
0.0
 10
98.662431589
 20
229.0181121322
 30
0.0
 10
99.3173119961
 20
229.692720707
 30
0.0
 10
100.6523184135
 20
230.6779595942
 30
0.0
 10
101.8350185195
 20
231.1073745553
 30
0.0
 10
102.5658306223
 20
231.0790790429
 30
0.0
  0
SPLINE
  5
45A
100
AcDbEntity
  8
0
100
AcDbSpline
 62
7
  6
BYLAYER
 70
0
 71
3
 72
10
 73
6
 74
0
 42
0.0000001
 43
0.0000001
 44
0.0000000001
 40
0.0
 40
0.0
 40
0.0
 40
0.0
 40
0.439409273
 40
0.7074759374
 40
1.0
 40
1.0
 40
1.0
 40
1.0
 10
94.1335822567
 20
231.0790587743
 30
0.0
 10
94.8643989143
 20
231.1073577408
 30
0.0
 10
96.0471078086
 20
230.6779502336
 30
0.0
 10
97.3821271905
 20
229.6927167348
 30
0.0
 10
98.0370136046
 20
229.0181108536
 30
0.0
 10
98.3497239929
 20
228.6449232754
 30
0.0
  0
SPLINE
  5
45B
100
AcDbEntity
  8
0
100
AcDbSpline
 62
7
  6
BYLAYER
 70
0
 71
3
 72
19
 73
15
 74
0
 42
0.0000001
 43
0.0000001
 44
0.0000000001
 40
0.0
 40
0.0
 40
0.0
 40
0.0
 40
0.0453951565
 40
0.0940831326
 40
0.1481593
 40
0.2086079974
 40
0.346844698
 40
0.4999877496
 40
0.6531312507
 40
0.7913761685
 40
0.8518305689
 40
0.9059126193
 40
0.9546041598
 40
1.0
 40
1.0
 40
1.0
 40
1.0
 10
95.7516302281
 20
231.8238185941
 30
0.0
 10
95.7516309412
 20
231.7249392029
 30
0.0
 10
95.7883958607
 20
231.5186816278
 30
0.0
 10
95.9444853082
 20
231.2312353751
 30
0.0
 10
96.1918239869
 20
230.9712852594
 30
0.0
 10
96.6480060732
 20
230.6577458489
 30
0.0
 10
97.3797582643
 20
230.3931071268
 30
0.0
 10
98.3496308233
 20
230.287478238
 30
0.0
 10
99.3195237993
 20
230.3930816498
 30
0.0
 10
100.0513147539
 20
230.6577049433
 30
0.0
 10
100.5075458511
 20
230.9712494339
 30
0.0
 10
100.7549160799
 20
231.2312168814
 30
0.0
 10
100.9110156086
 20
231.518683414
 30
0.0
 10
100.9477833639
 20
231.7249502037
 30
0.0
 10
100.9477826508
 20
231.8238310841
 30
0.0
  0
SPLINE
  5
45C
100
AcDbEntity
  8
0
100
AcDbSpline
 62
7
  6
BYLAYER
 70
0
 71
3
 72
11
 73
7
 74
0
 42
0.0000001
 43
0.0000001
 44
0.0000000001
 40
0.0
 40
0.0
 40
0.0
 40
0.0
 40
0.1957648596
 40
0.4227735918
 40
0.6928022173
 40
1.0
 40
1.0
 40
1.0
 40
1.0
 10
100.9477826508
 20
231.8238310841
 30
0.0
 10
100.9477814986
 20
231.9836127974
 30
0.0
 10
100.843357643
 20
232.3316883247
 30
0.0
 10
100.4444395463
 20
232.750868669
 30
0.0
 10
99.864081663
 20
233.0718652541
 30
0.0
 10
99.4072144792
 20
233.2020666555
 30
0.0
 10
99.1608764455
 20
233.2488031147
 30
0.0
  0
SPLINE
  5
45D
100
AcDbEntity
  8
0
100
AcDbSpline
 62
7
  6
BYLAYER
 70
0
 71
3
 72
9
 73
5
 74
0
 42
0.0000001
 43
0.0000001
 44
0.0000000001
 40
0.0
 40
0.0
 40
0.0
 40
0.0
 40
0.2467776007
 40
1.0
 40
1.0
 40
1.0
 40
1.0
 10
99.1608764455
 20
233.2488031147
 30
0.0
 10
99.109950708
 20
233.2584649953
 30
0.0
 10
98.9028477229
 20
233.2936364362
 30
0.0
 10
98.6931649138
 20
233.3133917985
 30
0.0
 10
98.5350907303
 20
233.3199444153
 30
0.0
  0
SPLINE
  5
45E
100
AcDbEntity
  8
0
100
AcDbSpline
 62
7
  6
BYLAYER
 70
0
 71
3
 72
9
 73
5
 74
0
 42
0.0000001
 43
0.0000001
 44
0.0000000001
 40
0.0
 40
0.0
 40
0.0
 40
0.0
 40
0.2526202337
 40
1.0
 40
1.0
 40
1.0
 40
1.0
 10
98.1648411482
 20
233.3199627821
 30
0.0
 10
98.1134871754
 20
233.3178400459
 30
0.0
 10
97.9103672108
 20
233.3059366046
 30
0.0
 10
97.7080180439
 20
233.28013593
 30
0.0
 10
97.5584829408
 20
233.2525349779
 30
0.0
  0
SPLINE
  5
45F
100
AcDbEntity
  8
0
100
AcDbSpline
 62
7
  6
BYLAYER
 70
0
 71
3
 72
11
 73
7
 74
0
 42
0.0000001
 43
0.0000001
 44
0.0000000001
 40
0.0
 40
0.0
 40
0.0
 40
0.0
 40
0.3073093675
 40
0.5775360175
 40
0.8045339703
 40
1.0
 40
1.0
 40
1.0
 40
1.0
 10
97.5584829408
 20
233.2525349779
 30
0.0
 10
97.3097998498
 20
233.2066334475
 30
0.0
 10
96.8483055301
 20
233.0774380884
 30
0.0
 10
96.2615489477
 20
232.7562585347
 30
0.0
 10
95.8576199113
 20
232.3353235173
 30
0.0
 10
95.7516290682
 20
231.9846669214
 30
0.0
 10
95.7516302281
 20
231.8238185941
 30
0.0
  0
SPLINE
  5
460
100
AcDbEntity
  8
0
100
AcDbSpline
 62
7
  6
BYLAYER
 70
0
 71
3
 72
9
 73
5
 74
0
 42
0.0000001
 43
0.0000001
 44
0.0000000001
 40
0.0
 40
0.0
 40
0.0
 40
0.0
 40
0.4776852998
 40
1.0
 40
1.0
 40
1.0
 40
1.0
 10
94.1830212154
 20
163.4059475026
 30
0.0
 10
94.9043750282
 20
163.1387859971
 30
0.0
 10
96.3610440901
 20
162.4311045077
 30
0.0
 10
97.6895505061
 20
161.5111772397
 30
0.0
 10
98.3497239929
 20
160.9899950511
 30
0.0
  0
SPLINE
  5
461
100
AcDbEntity
  8
0
100
AcDbSpline
 62
7
  6
BYLAYER
 70
0
 71
3
 72
11
 73
7
 74
0
 42
0.0000001
 43
0.0000001
 44
0.0000000001
 40
0.0
 40
0.0
 40
0.0
 40
0.0
 40
0.2177227832
 40
0.4508712161
 40
0.7104668615
 40
1.0
 40
1.0
 40
1.0
 40
1.0
 10
74.7609110468
 20
137.7514466555
 30
0.0
 10
74.76091509
 20
137.6467348756
 30
0.0
 10
74.7224078915
 20
137.4284135437
 30
0.0
 10
74.5568151247
 20
137.1241406992
 30
0.0
 10
74.2950192394
 20
136.8493115138
 30
0.0
 10
74.0761757042
 20
136.6984086243
 30
0.0
 10
73.9555829477
 20
136.6287847794
 30
0.0
  0
SPLINE
  5
462
100
AcDbEntity
  8
0
100
AcDbSpline
 62
7
  6
BYLAYER
 70
0
 71
3
 72
11
 73
7
 74
0
 42
0.0000001
 43
0.0000001
 44
0.0000000001
 40
0.0
 40
0.0
 40
0.0
 40
0.0
 40
0.2019753478
 40
0.4298883248
 40
0.6962780655
 40
1.0
 40
1.0
 40
1.0
 40
1.0
 10
69.2611308299
 20
138.59632183
 30
0.0
 10
69.2611237932
 20
138.4486037448
 30
0.0
 10
69.3427980801
 20
138.1312848872
 30
0.0
 10
69.6692808112
 20
137.7268238129
 30
0.0
 10
70.157945748
 20
137.3968222721
 30
0.0
 10
70.5494652337
 20
137.2443668103
 30
0.0
 10
70.7625675307
 20
137.1816761988
 30
0.0
  0
SPLINE
  5
463
100
AcDbEntity
  8
0
100
AcDbSpline
 62
7
  6
BYLAYER
 70
0
 71
3
 72
9
 73
5
 74
0
 42
0.0000001
 43
0.0000001
 44
0.0000000001
 40
0.0
 40
0.0
 40
0.0
 40
0.0
 40
0.4996799582
 40
1.0
 40
1.0
 40
1.0
 40
1.0
 10
70.9130093286
 20
137.1406964681
 30
0.0
 10
71.2658836418
 20
137.0520262856
 30
0.0
 10
71.9968908651
 20
136.9675907526
 30
0.0
 10
72.7283393782
 20
137.0476286267
 30
0.0
 10
73.0822556586
 20
137.1340307502
 30
0.0
  0
SPLINE
  5
464
100
AcDbEntity
  8
0
100
AcDbSpline
 62
7
  6
BYLAYER
 70
0
 71
3
 72
9
 73
5
 74
0
 42
0.0000001
 43
0.0000001
 44
0.0000000001
 40
0.0
 40
0.0
 40
0.0
 40
0.0
 40
0.2639569973
 40
1.0
 40
1.0
 40
1.0
 40
1.0
 10
73.0822556586
 20
137.1340307502
 30
0.0
 10
73.1624931039
 20
137.1536192406
 30
0.0
 10
73.4639648555
 20
137.2371620833
 30
0.0
 10
73.7561258946
 20
137.3585038608
 30
0.0
 10
73.9555829477
 20
137.4736597566
 30
0.0
  0
SPLINE
  5
465
100
AcDbEntity
  8
0
100
AcDbSpline
 62
7
  6
BYLAYER
 70
0
 71
3
 72
12
 73
8
 74
0
 42
0.0000001
 43
0.0000001
 44
0.0000000001
 40
0.0
 40
0.0
 40
0.0
 40
0.0
 40
0.2605308056
 40
0.5188546737
 40
0.6461847278
 40
0.7707330277
 40
1.0
 40
1.0
 40
1.0
 40
1.0
 10
76.5110397215
 20
134.0817046513
 30
0.0
 10
76.5110384525
 20
133.7235368136
 30
0.0
 10
76.4696306675
 20
133.009529522
 30
0.0
 10
76.3032788995
 20
132.1334679609
 30
0.0
 10
76.0781232798
 20
131.4667656592
 30
0.0
 10
75.7949724807
 20
130.8713985945
 30
0.0
 10
75.4659295662
 20
130.4758111871
 30
0.0
 10
75.1929687688
 20
130.3182181379
 30
0.0
  0
ELLIPSE
  5
466
100
AcDbEntity
  8
0
100
AcDbEllipse
 62
7
  6
BYLAYER
 10
81.8397157203
 20
140.6415924384
 30
0.0
 11
32.5521629701
 21
6.0937778787
 31
0.0
 40
0.4107576527
 41
1.4940533452
 42
1.6455207069
  0
ELLIPSE
  5
467
100
AcDbEntity
  8
0
100
AcDbEllipse
 62
7
  6
BYLAYER
 10
-155.2277230093
 20
3.7714598763
 30
0.0
 11
1336.9679623307
 21
785.3086041979
 31
0.0
 40
0.0075569583
 41
-1.3805906988
 42
-1.3772535126
  0
ELLIPSE
  5
468
100
AcDbEntity
  8
0
100
AcDbEllipse
 62
7
  6
BYLAYER
 10
83.4687751826
 20
141.5821247433
 30
0.0
 11
7.6354164754
 21
24.1404856953
 31
0.0
 40
0.2019075627
 41
0.8303677273
 42
0.9927496562
  0
ELLIPSE
  5
469
100
AcDbEntity
  8
0
100
AcDbEllipse
 62
7
  6
BYLAYER
 10
81.8397157203
 20
140.6415924384
 30
0.0
 11
7.3736307677
 21
23.3128119
 31
0.0
 40
0.2019075627
 41
7.2858325582
 42
7.4372999199
  0
ELLIPSE
  5
46A
100
AcDbEntity
  8
0
100
AcDbEllipse
 62
7
  6
BYLAYER
 10
81.8397157203
 20
140.6415924384
 30
0.0
 11
6.9373212548
 21
21.9333555746
 31
0.0
 40
0.2019075627
 41
7.2858325582
 42
7.4469068872
  0
ELLIPSE
  5
46B
100
AcDbEntity
  8
0
100
AcDbEllipse
 62
7
  6
BYLAYER
 10
83.4687751826
 20
141.5821247433
 30
0.0
 11
33.7078610637
 21
6.3101250223
 31
0.0
 40
0.4107576527
 41
1.3217738215
 42
1.4841557504
  0
ELLIPSE
  5
46C
100
AcDbEntity
  8
0
100
AcDbEllipse
 62
7
  6
BYLAYER
 10
83.4687751826
 20
141.5821247433
 30
0.0
 11
31.7816975743
 21
5.9495464496
 31
0.0
 40
0.4107576527
 41
1.3112182082
 42
1.4835558748
  0
ENDSEC
  0
SECTION
  2
OBJECTS
  0
DICTIONARY
  5
C
100
AcDbDictionary
280
0
281
1
  3
ACAD_GROUP
350
D
  3
ACAD_MLINESTYLE
350
17
  3
ACAD_LAYOUT
350
1A
  3
ACAD_PLOTSETTINGS
350
19
  3
ACAD_PLOTSTYLENAME
350
E
  0
DICTIONARY
  5
D
102
{ACAD_REACTORS
330
C
102
}
100
AcDbDictionary
280
0
281
1
  0
ACDBDICTIONARYWDFLT
  5
E
102
{ACAD_REACTORS
330
C
102
}
100
AcDbDictionary
281
1
  3
Normal
350
F
100
AcDbDictionaryWithDefault
340
F
  0
DICTIONARY
  5
17
102
{ACAD_REACTORS
330
C
102
}
100
AcDbDictionary
280
0
281
1
  3
Standard
350
18
  0
DICTIONARY
  5
19
102
{ACAD_REACTORS
330
C
102
}
100
AcDbDictionary
281
1
  0
DICTIONARY
  5
1A
102
{ACAD_REACTORS
330
C
102
}
100
AcDbDictionary
281
1
  3
Model
350
46D
  3
Layout1
350
46E
  0
ACDBPLACEHOLDER
  5
F
102
{ACAD_REACTORS
330
E
102
}
  0
MLINESTYLE
  5
18
102
{ACAD_REACTORS
330
17
102
}
100
AcDbMlineStyle
  2
STANDARD
 70
0
  3

 62
256
 51
90.0
 52
90.0
 71
2
 49
0.5
 62
256
  6
BYLAYER
 49
-0.5
 62
256
  6
BYLAYER
  0
LAYOUT
  5
46D
102
{ACAD_REACTORS
330
1A
102
}
100
AcDbPlotSettings
  1

  2
none_device
  4

  6

 40
0.0
 41
0.0
 42
0.0
 43
0.0
 44
210.0
 45
297.0
 46
0.0
 47
0.0
 48
0.0
 49
0.0
140
0.0
141
0.0
142
1.0
143
1.0
 70
1024
 72
1
 73
0
 74
0
  7

 75
0
147
1.0
148
0.0
149
0.0
100
AcDbLayout
  1
Model
 70
0
 71
0
 10
0.0
 20
0.0
 11
210.0
 21
297.0
 12
0.0
 22
0.0
 32
0.0
 14
0.0
 24
0.0
 34
0.0
 15
0.0
 25
0.0
 35
0.0
146
0.0
 13
0.0
 23
0.0
 33
0.0
 16
1.0
 26
0.0
 36
0.0
 17
0.0
 27
1.0
 37
0.0
 76
0
330
210
345
0
346
0
  0
LAYOUT
  5
46E
102
{ACAD_REACTORS
330
1A
102
}
100
AcDbPlotSettings
  1

  2
none_device
  4

  6

 40
0.0
 41
0.0
 42
0.0
 43
0.0
 44
210.0
 45
297.0
 46
0.0
 47
0.0
 48
0.0
 49
0.0
140
0.0
141
0.0
142
1.0
143
1.0
 70
0
 72
1
 73
0
 74
0
  7

 75
0
147
1.0
148
0.0
149
0.0
100
AcDbLayout
  1
Layout1
 70
0
 71
1
 10
0.0
 20
0.0
 11
210.0
 21
297.0
 12
0.0
 22
0.0
 32
0.0
 14
0.0
 24
0.0
 34
0.0
 15
0.0
 25
0.0
 35
0.0
146
0.0
 13
0.0
 23
0.0
 33
0.0
 16
1.0
 26
0.0
 36
0.0
 17
0.0
 27
1.0
 37
0.0
 76
0
330
211
345
0
346
0
  0
ENDSEC
  0
EOF
