999
DXF file: C:\Users\sesa63760\Dev\_Creo\CAD\MCADID0003475_3D-CAD\drw0001_5.dxf
999
Pro/ENGINEER 2019471 by Parametric Technology Corporation
  0
SECTION
  2
HEADER
  9
$ACADVER
  1
AC1024
  9
$DWGCODEPAGE
  3
ANSI_1252
  9
$EXTMAX
 10
169.9767661555
 20
240.3957121342
 30
0.0
  9
$EXTMIN
 10
0.0
 20
0.0
 30
0.0
  9
$LIMMIN
 10
0.0
 20
0.0
  9
$LIMMAX
 10
169.9767661555
 20
240.3957121342
  9
$VIEWCTR
 10
84.9883830777
 20
120.1978560671
  9
$VIEWSIZE
 40
240.3957121342
  9
$CLAYER
  8
0
  9
$LTSCALE
 40
15.6702390132
  9
$CELTYPE
  6
BYLAYER
  9
$DIMSCALE
 40
1.0
  9
$DIMASZ
 40
2.0235329304
  9
$DIMEXO
 40
1.0
  9
$DIMDLI
 40
10.8267105909
  9
$DIMEXE
 40
1.0
  9
$DIMCEN
 40
2.5642209294
  9
$DIMLFAC
 40
1.0
  9
$DIMBLK
  1
_FILLED
  9
$DIMALT
 70
0
  9
$DIMALTF
 40
0.0393700787
  9
$DIMTXT
 40
2.8329461026
  9
$DIMTOL
 70
1
  9
$DIMLIM
 70
0
  9
$DIMTFAC
 40
1.0
  9
$DIMTP
 40
0.01
  9
$DIMTM
 40
0.01
  9
$DIMGAP
 40
0.625
  9
$DIMDSEP
 70
46
  9
$AUNITS
 70
0
  9
$PDMODE
 70
3
  9
$PDSIZE
 40
0.3125
  9
$HANDSEED
  5
30C
  9
$TILEMODE
 70
1
  9
$MEASUREMENT
 70
1
  9
$INSUNITS
 70
4
  0
ENDSEC
  0
SECTION
  2
CLASSES
  0
CLASS
  1
ACDBDICTIONARYWDFLT
  2
AcDbDictionaryWithDefault
  3
AutoCAD 2000
 90
0
 91
1
280
0
281
0
  0
CLASS
  1
ACDBPLACEHOLDER
  2
AcDbPlaceHolder
  3
AutoCAD 2000
 90
0
 91
1
280
0
281
0
  0
CLASS
  1
LAYOUT
  2
AcDbLayout
  3
AutoCAD 2000
 90
0
 91
0
280
0
281
0
  0
ENDSEC
  0
SECTION
  2
TABLES
  0
TABLE
  2
VPORT
  5
8
100
AcDbSymbolTable
 70
2
  0
VPORT
  5
1F4
100
AcDbSymbolTableRecord
100
AcDbViewportTableRecord
  2
*ACTIVE
 70
0
 10
0.0
 20
0.0
 11
1.0
 21
1.0
 12
84.9883830777
 22
120.1978560671
 13
0.0
 23
0.0
 14
1.0
 24
1.0
 15
0.0
 25
0.0
 16
0.0
 26
0.0
 36
1.0
 17
0.0
 27
0.0
 37
0.0
 40
240.3957121342
 41
0.7070707071
 42
50.0
 43
0.0
 44
0.0
 50
0.0
 51
0.0
 71
0
 72
100
 73
1
 74
1
 75
0
 76
0
 77
0
 78
0
  0
ENDTAB
  0
TABLE
  2
LTYPE
  5
5
100
AcDbSymbolTable
 70
6
  0
LTYPE
  5
14
100
AcDbSymbolTableRecord
100
AcDbLinetypeTableRecord
  2
BYBLOCK
 70
0
  3

 72
65
 73
0
 40
0.0
  0
LTYPE
  5
15
100
AcDbSymbolTableRecord
100
AcDbLinetypeTableRecord
  2
BYLAYER
 70
0
  3

 72
65
 73
0
 40
0.0
  0
LTYPE
  5
16
100
AcDbSymbolTableRecord
100
AcDbLinetypeTableRecord
  2
CONTINUOUS
 70
64
  3
Solid line
 72
65
 73
0
 40
0.0
  0
LTYPE
  5
1F5
100
AcDbSymbolTableRecord
100
AcDbLinetypeTableRecord
  2
CENTER
 70
64
  3
____ _ ____ _ ____ _ ____ _ ____ _ ____ _ ____
 72
65
 73
4
 40
0.6
 49
0.375
 74
0
 49
-0.075
 74
0
 49
0.075
 74
0
 49
-0.075
 74
0
  0
LTYPE
  5
1F6
100
AcDbSymbolTableRecord
100
AcDbLinetypeTableRecord
  2
HIDDEN
 70
64
  3
- - - - - - - - - - - - - - - - - - - -
 72
65
 73
2
 40
0.2
 49
0.1
 74
0
 49
-0.1
 74
0
  0
LTYPE
  5
1F7
100
AcDbSymbolTableRecord
100
AcDbLinetypeTableRecord
  2
PHANTOM
 70
64
  3
_____ _ _ _____ _ _ _____ _ _ _____
 72
65
 73
6
 40
0.8
 49
0.45
 74
0
 49
-0.05
 74
0
 49
0.1
 74
0
 49
-0.05
 74
0
 49
0.1
 74
0
 49
-0.05
 74
0
  0
LTYPE
  5
1F8
100
AcDbSymbolTableRecord
100
AcDbLinetypeTableRecord
  2
DOT
 70
64
  3
. . . . . . . . . . . . . . . . . . . .
 72
65
 73
2
 40
0.2
 49
0.1
 74
0
 49
-0.1
 74
0
  0
LTYPE
  5
1F9
100
AcDbSymbolTableRecord
100
AcDbLinetypeTableRecord
  2
DASHED
 70
64
  3
- - - - - - - - - - - - - - - - - - - -
 72
65
 73
2
 40
0.2
 49
0.1
 74
0
 49
-0.1
 74
0
  0
ENDTAB
  0
TABLE
  2
LAYER
  5
2
100
AcDbSymbolTable
 70
36
  0
LAYER
  5
10
100
AcDbSymbolTableRecord
100
AcDbLayerTableRecord
  2
0
 70
0
 62
7
  6
CONTINUOUS
370
-3
390
F
  0
LAYER
  5
1FA
100
AcDbSymbolTableRecord
100
AcDbLayerTableRecord
  2
DEFAULT_1
 70
0
 62
7
  6
CENTER
370
-3
390
F
  0
LAYER
  5
1FB
100
AcDbSymbolTableRecord
100
AcDbLayerTableRecord
  2
DEFAULT_2
 70
0
 62
7
  6
HIDDEN
370
-3
390
F
  0
LAYER
  5
1FC
100
AcDbSymbolTableRecord
100
AcDbLayerTableRecord
  2
DEFAULT_3
 70
0
 62
7
  6
PHANTOM
370
-3
390
F
  0
LAYER
  5
1FD
100
AcDbSymbolTableRecord
100
AcDbLayerTableRecord
  2
00_COMPONENTS
 70
0
 62
7
  6
CONTINUOUS
370
-3
390
F
  0
LAYER
  5
1FE
100
AcDbSymbolTableRecord
100
AcDbLayerTableRecord
  2
01_1_DEFAULT_DATUMS
 70
0
 62
7
  6
CONTINUOUS
370
-3
390
F
  0
LAYER
  5
1FF
100
AcDbSymbolTableRecord
100
AcDbLayerTableRecord
  2
01_PLANES
 70
0
 62
7
  6
CONTINUOUS
370
-3
390
F
  0
LAYER
  5
200
100
AcDbSymbolTableRecord
100
AcDbLayerTableRecord
  2
02_COORD_SYS
 70
0
 62
7
  6
CONTINUOUS
370
-3
390
F
  0
LAYER
  5
201
100
AcDbSymbolTableRecord
100
AcDbLayerTableRecord
  2
03_AXES
 70
0
 62
7
  6
CONTINUOUS
370
-3
390
F
  0
LAYER
  5
202
100
AcDbSymbolTableRecord
100
AcDbLayerTableRecord
  2
04_POINTS
 70
0
 62
7
  6
CONTINUOUS
370
-3
390
F
  0
LAYER
  5
203
100
AcDbSymbolTableRecord
100
AcDbLayerTableRecord
  2
05_CURVES
 70
0
 62
7
  6
CONTINUOUS
370
-3
390
F
  0
LAYER
  5
204
100
AcDbSymbolTableRecord
100
AcDbLayerTableRecord
  2
06_SURFS
 70
0
 62
7
  6
CONTINUOUS
370
-3
390
F
  0
LAYER
  5
205
100
AcDbSymbolTableRecord
100
AcDbLayerTableRecord
  2
07_COSMETICS
 70
0
 62
7
  6
CONTINUOUS
370
-3
390
F
  0
LAYER
  5
206
100
AcDbSymbolTableRecord
100
AcDbLayerTableRecord
  2
10_NOTES
 70
0
 62
7
  6
CONTINUOUS
370
-3
390
F
  0
LAYER
  5
207
100
AcDbSymbolTableRecord
100
AcDbLayerTableRecord
  2
11_NOTES_PUB
 70
0
 62
7
  6
CONTINUOUS
370
-3
390
F
  0
LAYER
  5
208
100
AcDbSymbolTableRecord
100
AcDbLayerTableRecord
  2
13_REF_GTOL
 70
0
 62
7
  6
CONTINUOUS
370
-3
390
F
  0
LAYER
  5
209
100
AcDbSymbolTableRecord
100
AcDbLayerTableRecord
  2
16_MISC
 70
0
 62
7
  6
CONTINUOUS
370
-3
390
F
  0
LAYER
  5
20A
100
AcDbSymbolTableRecord
100
AcDbLayerTableRecord
  2
17_NO_PRINT
 70
0
 62
7
  6
CONTINUOUS
370
-3
390
F
  0
LAYER
  5
20B
100
AcDbSymbolTableRecord
100
AcDbLayerTableRecord
  2
18_DATUM_CAMS_JOINTS
 70
0
 62
7
  6
CONTINUOUS
370
-3
390
F
  0
LAYER
  5
20C
100
AcDbSymbolTableRecord
100
AcDbLayerTableRecord
  2
19_DATUM_FUNCTIONAL
 70
0
 62
7
  6
CONTINUOUS
370
-3
390
F
  0
LAYER
  5
20D
100
AcDbSymbolTableRecord
100
AcDbLayerTableRecord
  2
20_DATUM_KINEMATIC_SCHEME
 70
0
 62
7
  6
CONTINUOUS
370
-3
390
F
  0
ENDTAB
  0
TABLE
  2
STYLE
  5
3
100
AcDbSymbolTable
 70
1
  0
STYLE
  5
11
100
AcDbSymbolTableRecord
100
AcDbTextStyleTableRecord
  2
STANDARD
 70
0
 40
0.0
 41
1.0
 50
0.0
 71
0
 42
0.2
  3
ARIAL.TTF
  4

  0
STYLE
  5
20E
100
AcDbSymbolTableRecord
100
AcDbTextStyleTableRecord
  2
TEXTSTYLE_1
 70
0
 40
0.0
 41
0.8
 50
0.0
 71
0
 42
0.2
  3
gdt
  4

  0
ENDTAB
  0
TABLE
  2
VIEW
  5
6
100
AcDbSymbolTable
 70
0
  0
ENDTAB
  0
TABLE
  2
UCS
  5
7
100
AcDbSymbolTable
 70
0
  0
ENDTAB
  0
TABLE
  2
APPID
  5
9
100
AcDbSymbolTable
 70
1
  0
APPID
  5
20F
100
AcDbSymbolTableRecord
100
AcDbRegAppTableRecord
  2
ACAD
 70
0
  0
ENDTAB
  0
TABLE
  2
BLOCK_RECORD
  5
1
100
AcDbSymbolTable
 70
0
  0
BLOCK_RECORD
  5
210
100
AcDbSymbolTableRecord
100
AcDbBlockTableRecord
  2
*Model_Space
  0
BLOCK_RECORD
  5
211
100
AcDbSymbolTableRecord
100
AcDbBlockTableRecord
  2
*Paper_Space
  0
BLOCK_RECORD
  5
212
100
AcDbSymbolTableRecord
100
AcDbBlockTableRecord
  2
_FILLED
  0
ENDTAB
  0
TABLE
  2
DIMSTYLE
  5
A
100
AcDbSymbolTable
 70
1
100
AcDbDimStyleTable
 71
0
  0
DIMSTYLE
105
213
100
AcDbSymbolTableRecord
100
AcDbDimStyleTableRecord
  2
STANDARD
 70
0
  3

  4

 40
1.0
 41
2.0235329304
 42
1.0
 43
0.38
 44
1.0
 45
0.0
 46
0.0
 47
0.01
 48
0.01
140
2.8329461026
141
0.09
142
0.0
143
25.4
144
1.0
145
0.0
146
1.0
147
0.625
 71
1
 72
0
 73
0
 74
0
 75
0
 76
0
 77
1
 78
8
 79
2
170
0
171
1
172
0
173
0
174
0
175
0
176
0
177
0
178
0
270
2
179
2
271
2
272
2
273
2
274
2
275
0
280
0
281
0
282
0
283
1
284
8
285
0
286
0
287
3
288
0
340
11
278
46
341
212
342
212
343
212
344
212
  0
ENDTAB
  0
ENDSEC
  0
SECTION
  2
BLOCKS
  0
BLOCK
  5
20
100
AcDbEntity
  8
0
100
AcDbBlockBegin
  2
*Model_Space
 70
0
 10
0.0
 20
0.0
 30
0.0
  3
*Model_Space
  1

  0
ENDBLK
  5
21
100
AcDbEntity
  8
0
100
AcDbBlockEnd
  0
BLOCK
  5
1C
100
AcDbEntity
  8
0
100
AcDbBlockBegin
  2
*Paper_Space
 70
0
 10
0.0
 20
0.0
 30
0.0
  3
*Paper_Space
  1

  0
ENDBLK
  5
1D
100
AcDbEntity
  8
0
100
AcDbBlockEnd
  0
BLOCK
  5
214
100
AcDbEntity
  8
0
100
AcDbBlockBegin
  2
_FILLED
 70
64
 10
0.0
 20
0.0
  3
_FILLED
  1

  0
SOLID
  5
215
100
AcDbEntity
  8
0
  6
BYBLOCK
 62
0
100
AcDbTrace
 10
0.0
 20
0.0
 11
-1.0
 21
0.25
 12
-1.0
 22
-0.25
 13
-1.0
 23
-0.25
  0
ENDBLK
  5
216
100
AcDbEntity
  8
0
  6
BYBLOCK
 62
0
100
AcDbBlockEnd
  0
ENDSEC
  0
SECTION
  2
ENTITIES
  0
LINE
  5
217
100
AcDbEntity
  8
0
100
AcDbLine
 62
7
  6
BYLAYER
 10
57.8469209197
 20
221.2505079984
 11
58.2300947096
 21
221.4170928481
  0
LINE
  5
218
100
AcDbEntity
  8
0
100
AcDbLine
 62
7
  6
BYLAYER
 10
110.8768845094
 20
19.5670928481
 11
86.8769573301
 21
19.5670928481
  0
LINE
  5
219
100
AcDbEntity
  8
0
100
AcDbLine
 62
7
  6
BYLAYER
 10
84.1769209197
 20
20.8670928481
 11
120.5767143532
 21
20.8670928481
  0
LINE
  5
21A
100
AcDbEntity
  8
0
100
AcDbLine
 62
7
  6
BYLAYER
 10
63.4260137482
 20
21.4170928481
 11
58.2303281268
 21
21.4170928481
  0
LINE
  5
21B
100
AcDbEntity
  8
0
100
AcDbLine
 62
7
  6
BYLAYER
 10
83.5769209197
 20
21.8170928481
 11
84.1769209197
 21
21.8170928481
  0
LINE
  5
21C
100
AcDbEntity
  8
0
100
AcDbLine
 62
7
  6
BYLAYER
 10
57.8469209197
 20
21.5836776211
 11
58.2300947084
 21
21.4170928481
  0
LINE
  5
21D
100
AcDbEntity
  8
0
100
AcDbLine
 62
7
  6
BYLAYER
 10
118.9769209197
 20
22.9670928481
 11
116.9769209197
 21
22.9670928481
  0
LINE
  5
21E
100
AcDbEntity
  8
0
100
AcDbLine
 62
7
  6
BYLAYER
 10
118.9769209197
 20
28.4670928481
 11
116.9769209197
 21
28.4670928481
  0
LINE
  5
21F
100
AcDbEntity
  8
0
100
AcDbLine
 62
7
  6
BYLAYER
 10
83.5769209197
 20
29.6170928481
 11
84.1769209197
 21
29.6170928481
  0
LINE
  5
220
100
AcDbEntity
  8
0
100
AcDbLine
 62
7
  6
BYLAYER
 10
116.9769209197
 20
30.4170928481
 11
118.3648577254
 21
30.4170928481
  0
LINE
  5
221
100
AcDbEntity
  8
0
100
AcDbLine
 62
7
  6
BYLAYER
 10
83.5769209197
 20
32.9170928481
 11
84.1769209197
 21
32.9170928481
  0
LINE
  5
222
100
AcDbEntity
  8
0
100
AcDbLine
 62
7
  6
BYLAYER
 10
96.3769209197
 20
42.1670928481
 11
90.2480192886
 21
42.1670928481
  0
LWPOLYLINE
  5
223
100
AcDbEntity
  8
0
100
AcDbPolyline
 62
7
  6
BYLAYER
 90
3
 70
0
 10
99.8767894553
 20
34.6441497604
 10
94.882022413
 20
35.8790056882
 10
91.0381518334
 20
39.2777118747
  0
LINE
  5
224
100
AcDbEntity
  8
0
100
AcDbLine
 62
7
  6
BYLAYER
 10
89.8342058525
 20
43.6670928481
 11
96.3769209197
 21
43.6670928481
  0
LINE
  5
225
100
AcDbEntity
  8
0
100
AcDbLine
 62
7
  6
BYLAYER
 10
89.7002931446
 20
44.6670928481
 11
96.3769209197
 21
44.6670928481
  0
LINE
  5
226
100
AcDbEntity
  8
0
100
AcDbLine
 62
7
  6
BYLAYER
 10
96.3769209197
 20
46.1670928481
 11
89.7002931447
 21
46.1670928481
  0
LINE
  5
227
100
AcDbEntity
  8
0
100
AcDbLine
 62
7
  6
BYLAYER
 10
96.3769209197
 20
47.1670928481
 11
89.8342058525
 21
47.1670928481
  0
LINE
  5
228
100
AcDbEntity
  8
0
100
AcDbLine
 62
7
  6
BYLAYER
 10
90.2480132763
 20
48.6670928481
 11
96.3769209197
 21
48.6670928481
  0
LWPOLYLINE
  5
229
100
AcDbEntity
  8
0
100
AcDbPolyline
 62
7
  6
BYLAYER
 90
3
 70
0
 10
99.8770234881
 20
55.5094488347
 10
95.138508567
 20
54.4059772505
 10
91.4727180265
 20
51.2219714092
  0
LINE
  5
22A
100
AcDbEntity
  8
0
100
AcDbLine
 62
7
  6
BYLAYER
 10
83.5769209197
 20
57.9170928481
 11
84.1769209197
 21
57.9170928481
  0
LINE
  5
22B
100
AcDbEntity
  8
0
100
AcDbLine
 62
7
  6
BYLAYER
 10
83.5769209197
 20
66.5170928481
 11
84.1769209197
 21
66.5170928481
  0
LINE
  5
22C
100
AcDbEntity
  8
0
100
AcDbLine
 62
7
  6
BYLAYER
 10
116.9769209197
 20
74.0170928481
 11
118.3648577254
 21
74.0170928481
  0
LINE
  5
22D
100
AcDbEntity
  8
0
100
AcDbLine
 62
7
  6
BYLAYER
 10
118.9769209197
 20
75.9670928481
 11
116.9769209197
 21
75.9670928481
  0
LINE
  5
22E
100
AcDbEntity
  8
0
100
AcDbLine
 62
7
  6
BYLAYER
 10
111.9769209197
 20
79.852880387
 11
113.5769209197
 21
79.852880387
  0
LINE
  5
22F
100
AcDbEntity
  8
0
100
AcDbLine
 62
7
  6
BYLAYER
 10
118.9769209197
 20
81.4670928481
 11
116.9769209197
 21
81.4670928481
  0
LINE
  5
230
100
AcDbEntity
  8
0
100
AcDbLine
 62
7
  6
BYLAYER
 10
113.5769209197
 20
82.4170928481
 11
116.9769209197
 21
82.4170928481
  0
LINE
  5
231
100
AcDbEntity
  8
0
100
AcDbLine
 62
7
  6
BYLAYER
 10
113.8769209197
 20
82.9381992145
 11
113.5769209197
 21
82.9381992145
  0
LINE
  5
232
100
AcDbEntity
  8
0
100
AcDbLine
 62
7
  6
BYLAYER
 10
111.9769209197
 20
83.2354722775
 11
113.8769209197
 21
83.2354722775
  0
LINE
  5
233
100
AcDbEntity
  8
0
100
AcDbLine
 62
7
  6
BYLAYER
 10
116.9769209197
 20
84.8477693117
 11
118.9479246471
 21
84.8477693117
  0
LINE
  5
234
100
AcDbEntity
  8
0
100
AcDbLine
 62
7
  6
BYLAYER
 10
119.1524243714
 20
85.2265367132
 11
113.8769209197
 21
85.2265367132
  0
LINE
  5
235
100
AcDbEntity
  8
0
100
AcDbLine
 62
7
  6
BYLAYER
 10
111.9769209197
 20
85.2982979576
 11
113.8769209197
 21
85.2982979576
  0
LINE
  5
236
100
AcDbEntity
  8
0
100
AcDbLine
 62
7
  6
BYLAYER
 10
54.1969209197
 20
124.4171266466
 11
54.1969209197
 21
127.9170590497
  0
LINE
  5
237
100
AcDbEntity
  8
0
100
AcDbLine
 62
7
  6
BYLAYER
 10
54.1969209197
 20
129.2170928481
 11
54.1969209197
 21
137.4132452708
  0
LINE
  5
238
100
AcDbEntity
  8
0
100
AcDbLine
 62
7
  6
BYLAYER
 10
55.1969209197
 20
104.9177556266
 11
55.1969209197
 21
137.9164300697
  0
LINE
  5
239
100
AcDbEntity
  8
0
100
AcDbLine
 62
7
  6
BYLAYER
 10
57.8469209197
 20
221.2519034824
 11
57.8469209197
 21
137.645529262
  0
LINE
  5
23A
100
AcDbEntity
  8
0
100
AcDbLine
 62
7
  6
BYLAYER
 10
57.8469209197
 20
105.1976878036
 11
57.8469209197
 21
21.5836762552
  0
LINE
  5
23B
100
AcDbEntity
  8
0
100
AcDbLine
 62
7
  6
BYLAYER
 10
58.0969209197
 20
111.7071257134
 11
58.0969209197
 21
117.2070401581
  0
LINE
  5
23C
100
AcDbEntity
  8
0
100
AcDbLine
 62
7
  6
BYLAYER
 10
58.0969209197
 20
125.6271257134
 11
58.0969209197
 21
131.1270599829
  0
LINE
  5
23D
100
AcDbEntity
  8
0
100
AcDbLine
 62
7
  6
BYLAYER
 10
119.2782425022
 20
86.5713275203
 11
113.8769209197
 21
86.5713275203
  0
LINE
  5
23E
100
AcDbEntity
  8
0
100
AcDbLine
 62
7
  6
BYLAYER
 10
111.9769209197
 20
86.6324010116
 11
113.8769209197
 21
86.6324010116
  0
LINE
  5
23F
100
AcDbEntity
  8
0
100
AcDbLine
 62
7
  6
BYLAYER
 10
113.5769209197
 20
87.5649786094
 11
113.8769209197
 21
87.5649786094
  0
LINE
  5
240
100
AcDbEntity
  8
0
100
AcDbLine
 62
7
  6
BYLAYER
 10
60.0969209197
 20
111.4571287012
 11
60.0969209197
 21
117.4570569951
  0
LINE
  5
241
100
AcDbEntity
  8
0
100
AcDbLine
 62
7
  6
BYLAYER
 10
60.0969209197
 20
125.3771287012
 11
60.0969209197
 21
131.3770569951
  0
LINE
  5
242
100
AcDbEntity
  8
0
100
AcDbLine
 62
7
  6
BYLAYER
 10
60.6969209197
 20
105.6614589351
 11
60.6969209197
 21
137.1727267611
  0
LINE
  5
243
100
AcDbEntity
  8
0
100
AcDbLine
 62
7
  6
BYLAYER
 10
63.6969209197
 20
127.541129632
 11
63.6969209197
 21
126.6132452708
  0
LINE
  5
244
100
AcDbEntity
  8
0
100
AcDbLine
 62
7
  6
BYLAYER
 10
63.6969209197
 20
124.5216357718
 11
63.6969209197
 21
118.3125499244
  0
LINE
  5
245
100
AcDbEntity
  8
0
100
AcDbLine
 62
7
  6
BYLAYER
 10
63.6969209197
 20
116.2209404254
 11
63.6969209197
 21
115.2930560642
  0
LINE
  5
246
100
AcDbEntity
  8
0
100
AcDbLine
 62
7
  6
BYLAYER
 10
63.6969209197
 20
105.1886564343
 11
63.6969209197
 21
105.1976878036
  0
LINE
  5
247
100
AcDbEntity
  8
0
100
AcDbLine
 62
7
  6
BYLAYER
 10
63.6969209197
 20
137.6364978927
 11
63.6969209197
 21
137.645529262
  0
LINE
  5
248
100
AcDbEntity
  8
0
100
AcDbLine
 62
7
  6
BYLAYER
 10
63.8094209197
 20
124.5216357718
 11
63.8094209197
 21
124.3983428481
  0
LINE
  5
249
100
AcDbEntity
  8
0
100
AcDbLine
 62
7
  6
BYLAYER
 10
63.8094209197
 20
118.4358428481
 11
63.8094209197
 21
118.3125499244
  0
LINE
  5
24A
100
AcDbEntity
  8
0
100
AcDbLine
 62
7
  6
BYLAYER
 10
63.8094209197
 20
21.5822822138
 11
63.8094209197
 21
105.1886564343
  0
LINE
  5
24B
100
AcDbEntity
  8
0
100
AcDbLine
 62
7
  6
BYLAYER
 10
63.8094209197
 20
137.645529262
 11
63.8094209197
 21
221.250509441
  0
LWPOLYLINE
  5
24C
100
AcDbEntity
  8
0
100
AcDbPolyline
 62
7
  6
BYLAYER
 90
3
 70
0
 10
91.0381518334
 20
39.2777118747
 10
89.1994947029
 20
44.0917141953
 10
89.1924331811
 20
46.684208481
  0
LWPOLYLINE
  5
24D
100
AcDbEntity
  8
0
100
AcDbPolyline
 62
7
  6
BYLAYER
 90
4
 70
0
 10
89.9866582444
 20
43.4845391212
 10
91.4365241927
 20
39.6640451514
 10
95.1117598259
 20
36.441923054
 10
99.8770234665
 20
35.3247368081
  0
LINE
  5
24E
100
AcDbEntity
  8
0
100
AcDbLine
 62
7
  6
BYLAYER
 10
69.6594209197
 20
118.4358428481
 11
69.6594209197
 21
124.3983428481
  0
LINE
  5
24F
100
AcDbEntity
  8
0
100
AcDbLine
 62
7
  6
BYLAYER
 10
69.9469209197
 20
118.3670928481
 11
69.9469209197
 21
124.4670928481
  0
LINE
  5
250
100
AcDbEntity
  8
0
100
AcDbLine
 62
7
  6
BYLAYER
 10
119.6643882276
 20
100.7124198068
 11
113.5769209197
 21
100.7124198068
  0
LINE
  5
251
100
AcDbEntity
  8
0
100
AcDbLine
 62
7
  6
BYLAYER
 10
113.8769209197
 20
100.809117757
 11
113.5769209197
 21
100.809117757
  0
LINE
  5
252
100
AcDbEntity
  8
0
100
AcDbLine
 62
7
  6
BYLAYER
 10
83.5769209197
 20
101.5170928481
 11
120.5768708381
 21
101.5170928481
  0
LINE
  5
253
100
AcDbEntity
  8
0
100
AcDbLine
 62
7
  6
BYLAYER
 10
83.1769209197
 20
104.9170928481
 11
63.8094209197
 21
104.9170928481
  0
LINE
  5
254
100
AcDbEntity
  8
0
100
AcDbLine
 62
7
  6
BYLAYER
 10
57.8469209197
 20
104.9170928481
 11
55.1969209197
 21
104.9170928481
  0
LINE
  5
255
100
AcDbEntity
  8
0
100
AcDbLine
 62
7
  6
BYLAYER
 10
57.8469209197
 20
105.1976878036
 11
63.8094209197
 21
105.1886564343
  0
LINE
  5
256
100
AcDbEntity
  8
0
100
AcDbLine
 62
7
  6
BYLAYER
 10
111.9769209197
 20
105.4170928481
 11
105.5769209197
 21
105.4170928481
  0
LINE
  5
257
100
AcDbEntity
  8
0
100
AcDbLine
 62
7
  6
BYLAYER
 10
90.5769209197
 20
105.4170928481
 11
84.1769209197
 21
105.4170928481
  0
LINE
  5
258
100
AcDbEntity
  8
0
100
AcDbLine
 62
7
  6
BYLAYER
 10
60.6969209197
 20
105.6614589352
 11
55.1969209197
 21
105.6614589352
  0
LINE
  5
259
100
AcDbEntity
  8
0
100
AcDbLine
 62
7
  6
BYLAYER
 10
111.9769209197
 20
106.4170928481
 11
105.5769209197
 21
106.4170928481
  0
LINE
  5
25A
100
AcDbEntity
  8
0
100
AcDbLine
 62
7
  6
BYLAYER
 10
90.5769209197
 20
106.4170928481
 11
84.1769209197
 21
106.4170928481
  0
LINE
  5
25B
100
AcDbEntity
  8
0
100
AcDbLine
 62
7
  6
BYLAYER
 10
74.6769209197
 20
138.8987975705
 11
74.6769209197
 21
137.8976874976
  0
LINE
  5
25C
100
AcDbEntity
  8
0
100
AcDbLine
 62
7
  6
BYLAYER
 10
74.8769209197
 20
137.8867619401
 11
74.8769209197
 21
138.8884980578
  0
LINE
  5
25D
100
AcDbEntity
  8
0
100
AcDbLine
 62
7
  6
BYLAYER
 10
76.6769209197
 20
137.6420735877
 11
76.6769209197
 21
138.8884980578
  0
LINE
  5
25E
100
AcDbEntity
  8
0
100
AcDbLine
 62
7
  6
BYLAYER
 10
83.1769209197
 20
107.5170928481
 11
84.1769209197
 21
107.5170928481
  0
LINE
  5
25F
100
AcDbEntity
  8
0
100
AcDbLine
 62
7
  6
BYLAYER
 10
60.0969209197
 20
111.4570928481
 11
60.6969209197
 21
111.4570928481
  0
LINE
  5
260
100
AcDbEntity
  8
0
100
AcDbLine
 62
7
  6
BYLAYER
 10
58.0969209197
 20
111.7070928481
 11
60.0969209197
 21
111.7070928481
  0
LINE
  5
261
100
AcDbEntity
  8
0
100
AcDbLine
 62
7
  6
BYLAYER
 10
102.3613239468
 20
113.8582924176
 11
93.5864066979
 21
113.9772907714
  0
LINE
  5
262
100
AcDbEntity
  8
0
100
AcDbLine
 62
7
  6
BYLAYER
 10
81.5730733425
 20
138.9162356843
 11
81.5730733425
 21
137.9161837322
  0
LINE
  5
263
100
AcDbEntity
  8
0
100
AcDbLine
 62
7
  6
BYLAYER
 10
81.6730733425
 20
137.9170928481
 11
81.6730733425
 21
138.917092591
  0
LINE
  5
264
100
AcDbEntity
  8
0
100
AcDbLine
 62
7
  6
BYLAYER
 10
83.1769209197
 20
104.9179085974
 11
83.1769209197
 21
137.9162351278
  0
LINE
  5
265
100
AcDbEntity
  8
0
100
AcDbLine
 62
7
  6
BYLAYER
 10
83.5769209197
 20
101.5170928481
 11
83.5769209197
 21
66.5170928481
  0
LINE
  5
266
100
AcDbEntity
  8
0
100
AcDbLine
 62
7
  6
BYLAYER
 10
83.5769209197
 20
57.9170928481
 11
83.5769209197
 21
32.9170928481
  0
LINE
  5
267
100
AcDbEntity
  8
0
100
AcDbLine
 62
7
  6
BYLAYER
 10
83.5769209197
 20
21.8176139911
 11
83.5769209197
 21
29.6165717052
  0
LINE
  5
268
100
AcDbEntity
  8
0
100
AcDbLine
 62
7
  6
BYLAYER
 10
84.1769209197
 20
20.8670928481
 11
84.1769209197
 21
32.9170928481
  0
LINE
  5
269
100
AcDbEntity
  8
0
100
AcDbLine
 62
7
  6
BYLAYER
 10
84.1769209197
 20
57.9170928481
 11
84.1769209197
 21
66.5170928481
  0
LINE
  5
26A
100
AcDbEntity
  8
0
100
AcDbLine
 62
7
  6
BYLAYER
 10
84.1769209197
 20
101.5170928481
 11
84.1769209197
 21
138.3170928481
  0
LINE
  5
26B
100
AcDbEntity
  8
0
100
AcDbLine
 62
7
  6
BYLAYER
 10
85.3269209197
 20
105.4170928481
 11
85.3269209197
 21
106.4170928481
  0
LINE
  5
26C
100
AcDbEntity
  8
0
100
AcDbLine
 62
7
  6
BYLAYER
 10
85.3369209197
 20
135.8518417472
 11
85.3369209197
 21
134.8170928481
  0
LINE
  5
26D
100
AcDbEntity
  8
0
100
AcDbLine
 62
7
  6
BYLAYER
 10
86.8769209197
 20
20.8670928481
 11
86.8769209197
 21
19.5670928481
  0
LINE
  5
26E
100
AcDbEntity
  8
0
100
AcDbLine
 62
7
  6
BYLAYER
 10
63.6969209197
 20
118.3125499244
 11
69.9469209197
 21
118.3670928481
  0
LINE
  5
26F
100
AcDbEntity
  8
0
100
AcDbLine
 62
7
  6
BYLAYER
 10
63.6969209197
 20
115.2930560642
 11
83.1769209197
 21
115.2930560642
  0
LINE
  5
270
100
AcDbEntity
  8
0
100
AcDbLine
 62
7
  6
BYLAYER
 10
63.6969209197
 20
115.7602385986
 11
60.6969209197
 21
115.7602385986
  0
LINE
  5
271
100
AcDbEntity
  8
0
100
AcDbLine
 62
7
  6
BYLAYER
 10
83.1769209197
 20
116.2209404254
 11
63.6969209197
 21
116.2209404254
  0
LINE
  5
272
100
AcDbEntity
  8
0
100
AcDbLine
 62
7
  6
BYLAYER
 10
58.0969209197
 20
117.2070928481
 11
60.0969209197
 21
117.2070928481
  0
LINE
  5
273
100
AcDbEntity
  8
0
100
AcDbLine
 62
7
  6
BYLAYER
 10
60.0969209197
 20
117.4570928481
 11
60.6969209197
 21
117.4570928481
  0
LINE
  5
274
100
AcDbEntity
  8
0
100
AcDbLine
 62
7
  6
BYLAYER
 10
63.6969209197
 20
118.4358428481
 11
69.6594209197
 21
118.4358428481
  0
LINE
  5
275
100
AcDbEntity
  8
0
100
AcDbLine
 62
7
  6
BYLAYER
 10
84.1769209197
 20
121.4170928481
 11
87.1851731541
 21
121.4170928481
  0
LINE
  5
276
100
AcDbEntity
  8
0
100
AcDbLine
 62
7
  6
BYLAYER
 10
108.9350198659
 20
121.4170928481
 11
111.9769209197
 21
121.4170928481
  0
LINE
  5
277
100
AcDbEntity
  8
0
100
AcDbLine
 62
7
  6
BYLAYER
 10
88.5936880026
 20
138.1236002483
 11
88.5936880051
 21
137.1112761498
  0
LINE
  5
278
100
AcDbEntity
  8
0
100
AcDbLine
 62
7
  6
BYLAYER
 10
89.3269209197
 20
138.3170928481
 11
89.3269209197
 21
137.3170928481
  0
LINE
  5
279
100
AcDbEntity
  8
0
100
AcDbLine
 62
7
  6
BYLAYER
 10
90.1045209156
 20
138.2797267398
 11
90.1045209156
 21
137.2773709592
  0
LINE
  5
27A
100
AcDbEntity
  8
0
100
AcDbLine
 62
7
  6
BYLAYER
 10
90.5769209197
 20
105.4170928481
 11
90.5769209197
 21
106.4170928481
  0
LINE
  5
27B
100
AcDbEntity
  8
0
100
AcDbLine
 62
7
  6
BYLAYER
 10
90.8369209197
 20
135.8518417472
 11
90.8369209197
 21
134.8170928481
  0
LINE
  5
27C
100
AcDbEntity
  8
0
100
AcDbLine
 62
7
  6
BYLAYER
 10
92.0493209248
 20
138.2797267398
 11
92.0493209248
 21
137.2773709592
  0
LINE
  5
27D
100
AcDbEntity
  8
0
100
AcDbLine
 62
7
  6
BYLAYER
 10
92.5869209197
 20
134.8170928481
 11
92.5869209197
 21
133.7868099023
  0
LINE
  5
27E
100
AcDbEntity
  8
0
100
AcDbLine
 62
7
  6
BYLAYER
 10
92.8269209197
 20
138.3170928481
 11
92.8269209197
 21
137.3170928481
  0
LINE
  5
27F
100
AcDbEntity
  8
0
100
AcDbLine
 62
7
  6
BYLAYER
 10
89.3020036708
 20
121.6360912019
 11
93.7925178927
 21
129.1758932787
  0
LINE
  5
280
100
AcDbEntity
  8
0
100
AcDbLine
 62
7
  6
BYLAYER
 10
69.6594209197
 20
124.3983428481
 11
63.6969209197
 21
124.3983428481
  0
LINE
  5
281
100
AcDbEntity
  8
0
100
AcDbLine
 62
7
  6
BYLAYER
 10
54.1969209197
 20
124.4170928481
 11
55.1969209197
 21
124.4170928481
  0
LINE
  5
282
100
AcDbEntity
  8
0
100
AcDbLine
 62
7
  6
BYLAYER
 10
54.1969209197
 20
125.1946928481
 11
55.1969209197
 21
125.1946928481
  0
LINE
  5
283
100
AcDbEntity
  8
0
100
AcDbLine
 62
7
  6
BYLAYER
 10
60.0969209197
 20
125.3770928481
 11
60.6969209197
 21
125.3770928481
  0
LINE
  5
284
100
AcDbEntity
  8
0
100
AcDbLine
 62
7
  6
BYLAYER
 10
58.0969209197
 20
125.6270928481
 11
60.0969209197
 21
125.6270928481
  0
LINE
  5
285
100
AcDbEntity
  8
0
100
AcDbLine
 62
7
  6
BYLAYER
 10
63.6969209197
 20
126.6132452708
 11
83.1769209197
 21
126.6132452708
  0
LINE
  5
286
100
AcDbEntity
  8
0
100
AcDbLine
 62
7
  6
BYLAYER
 10
60.6969209197
 20
127.0739470976
 11
63.6969209197
 21
127.0739470976
  0
LINE
  5
287
100
AcDbEntity
  8
0
100
AcDbLine
 62
7
  6
BYLAYER
 10
54.1969209197
 20
127.1394928481
 11
55.1969209197
 21
127.1394928481
  0
LINE
  5
288
100
AcDbEntity
  8
0
100
AcDbLine
 62
7
  6
BYLAYER
 10
63.6969209197
 20
127.541129632
 11
83.1769209197
 21
127.541129632
  0
LINE
  5
289
100
AcDbEntity
  8
0
100
AcDbLine
 62
7
  6
BYLAYER
 10
54.1969209197
 20
127.9170928481
 11
55.1969209197
 21
127.9170928481
  0
LINE
  5
28A
100
AcDbEntity
  8
0
100
AcDbLine
 62
7
  6
BYLAYER
 10
63.6969209197
 20
124.5216357718
 11
69.9469209197
 21
124.4670928481
  0
LINE
  5
28B
100
AcDbEntity
  8
0
100
AcDbLine
 62
7
  6
BYLAYER
 10
93.5864066979
 20
113.9772907714
 11
89.3020036708
 21
121.6360912019
  0
LINE
  5
28C
100
AcDbEntity
  8
0
100
AcDbLine
 62
7
  6
BYLAYER
 10
96.3769209197
 20
48.6670928481
 11
96.3769209197
 21
47.1670928481
  0
LINE
  5
28D
100
AcDbEntity
  8
0
100
AcDbLine
 62
7
  6
BYLAYER
 10
96.3769209197
 20
46.1670928481
 11
96.3769209197
 21
44.6670928481
  0
LINE
  5
28E
100
AcDbEntity
  8
0
100
AcDbLine
 62
7
  6
BYLAYER
 10
96.3769209197
 20
43.6670928481
 11
96.3769209197
 21
42.1670928481
  0
LINE
  5
28F
100
AcDbEntity
  8
0
100
AcDbLine
 62
7
  6
BYLAYER
 10
54.1969209197
 20
129.2170928481
 11
55.1969209197
 21
129.2170928481
  0
LINE
  5
290
100
AcDbEntity
  8
0
100
AcDbLine
 62
7
  6
BYLAYER
 10
58.0969209197
 20
131.1270928481
 11
60.0969209197
 21
131.1270928481
  0
LINE
  5
291
100
AcDbEntity
  8
0
100
AcDbLine
 62
7
  6
BYLAYER
 10
60.0969209197
 20
131.3770928481
 11
60.6969209197
 21
131.3770928481
  0
LINE
  5
292
100
AcDbEntity
  8
0
100
AcDbLine
 62
7
  6
BYLAYER
 10
54.1969209197
 20
132.2170928481
 11
55.1969209197
 21
132.2170928481
  0
LINE
  5
293
100
AcDbEntity
  8
0
100
AcDbLine
 62
7
  6
BYLAYER
 10
84.1769209197
 20
134.8170928481
 11
92.5868346754
 21
134.8170928481
  0
LINE
  5
294
100
AcDbEntity
  8
0
100
AcDbLine
 62
7
  6
BYLAYER
 10
103.5670071641
 20
134.8170928481
 11
111.9769209197
 21
134.8170928481
  0
LINE
  5
295
100
AcDbEntity
  8
0
100
AcDbLine
 62
7
  6
BYLAYER
 10
83.1769209197
 20
135.3170928481
 11
84.1769209197
 21
135.3170928481
  0
LINE
  5
296
100
AcDbEntity
  8
0
100
AcDbLine
 62
7
  6
BYLAYER
 10
93.7925178927
 20
129.1758932787
 11
102.5674351416
 21
129.0568949249
  0
LINE
  5
297
100
AcDbEntity
  8
0
100
AcDbLine
 62
7
  6
BYLAYER
 10
103.5669209197
 20
134.8170928481
 11
103.5669209197
 21
133.7868099023
  0
LINE
  5
298
100
AcDbEntity
  8
0
100
AcDbLine
 62
7
  6
BYLAYER
 10
105.3169209197
 20
135.8518417472
 11
105.3169209197
 21
134.8170928481
  0
LINE
  5
299
100
AcDbEntity
  8
0
100
AcDbLine
 62
7
  6
BYLAYER
 10
105.5769209197
 20
105.4170928481
 11
105.5769209197
 21
106.4170928481
  0
LINE
  5
29A
100
AcDbEntity
  8
0
100
AcDbLine
 62
7
  6
BYLAYER
 10
106.8518381687
 20
121.3980944944
 11
102.3613239468
 21
113.8582924176
  0
LINE
  5
29B
100
AcDbEntity
  8
0
100
AcDbLine
 62
7
  6
BYLAYER
 10
92.1263088065
 20
138.3170928481
 11
92.1123862156
 21
138.3166691611
  0
LINE
  5
29C
100
AcDbEntity
  8
0
100
AcDbLine
 62
7
  6
BYLAYER
 10
81.5730733425
 20
137.9161837322
 11
81.6730733425
 21
137.9170926585
  0
LINE
  5
29D
100
AcDbEntity
  8
0
100
AcDbLine
 62
7
  6
BYLAYER
 10
81.6730733425
 20
138.9170925828
 11
81.5730733425
 21
138.9162356843
  0
LINE
  5
29E
100
AcDbEntity
  8
0
100
AcDbLine
 62
7
  6
BYLAYER
 10
85.3369209197
 20
135.8518417472
 11
90.8369209197
 21
135.8518417472
  0
LINE
  5
29F
100
AcDbEntity
  8
0
100
AcDbLine
 62
7
  6
BYLAYER
 10
105.3169209197
 20
135.8518417472
 11
110.8169209197
 21
135.8518417472
  0
LINE
  5
2A0
100
AcDbEntity
  8
0
100
AcDbLine
 62
7
  6
BYLAYER
 10
55.1969209197
 20
137.1727267611
 11
60.6969209197
 21
137.1727267611
  0
LINE
  5
2A1
100
AcDbEntity
  8
0
100
AcDbLine
 62
7
  6
BYLAYER
 10
111.9769209197
 20
137.3170928481
 11
92.8269209197
 21
137.3170928481
  0
LINE
  5
2A2
100
AcDbEntity
  8
0
100
AcDbLine
 62
7
  6
BYLAYER
 10
89.3269209197
 20
137.3170928481
 11
88.5936880051
 21
137.3170928481
  0
LINE
  5
2A3
100
AcDbEntity
  8
0
100
AcDbLine
 62
7
  6
BYLAYER
 10
54.1969209197
 20
137.4132452708
 11
55.1969209197
 21
137.4132452708
  0
LINE
  5
2A4
100
AcDbEntity
  8
0
100
AcDbLine
 62
7
  6
BYLAYER
 10
63.8094209197
 20
137.645529262
 11
57.8469209197
 21
137.6364978927
  0
LINE
  5
2A5
100
AcDbEntity
  8
0
100
AcDbLine
 62
7
  6
BYLAYER
 10
76.6769209197
 20
137.8867619401
 11
74.8769209197
 21
137.8867619401
  0
LINE
  5
2A6
100
AcDbEntity
  8
0
100
AcDbLine
 62
7
  6
BYLAYER
 10
83.1769209197
 20
137.9170928481
 11
81.6730733425
 21
137.9170928481
  0
LINE
  5
2A7
100
AcDbEntity
  8
0
100
AcDbLine
 62
7
  6
BYLAYER
 10
74.6769209197
 20
137.9170928481
 11
63.8094209197
 21
137.9170928481
  0
LINE
  5
2A8
100
AcDbEntity
  8
0
100
AcDbLine
 62
7
  6
BYLAYER
 10
57.8469209197
 20
137.9170928481
 11
55.1969209197
 21
137.9170928481
  0
LINE
  5
2A9
100
AcDbEntity
  8
0
100
AcDbLine
 62
7
  6
BYLAYER
 10
87.3269209197
 20
138.3170928481
 11
84.1769209197
 21
138.3170928481
  0
LINE
  5
2AA
100
AcDbEntity
  8
0
100
AcDbLine
 62
7
  6
BYLAYER
 10
74.8769209197
 20
138.8884980578
 11
76.6769209197
 21
138.8884980578
  0
LINE
  5
2AB
100
AcDbEntity
  8
0
100
AcDbLine
 62
7
  6
BYLAYER
 10
76.6769209197
 20
138.9170928481
 11
81.5730733425
 21
138.9170928481
  0
LINE
  5
2AC
100
AcDbEntity
  8
0
100
AcDbLine
 62
7
  6
BYLAYER
 10
90.0414551994
 20
138.3166691676
 11
90.0270487264
 21
138.317082084
  0
LINE
  5
2AD
100
AcDbEntity
  8
0
100
AcDbLine
 62
7
  6
BYLAYER
 10
87.3268511571
 20
138.3170928479
 11
87.4751330851
 21
138.2896469225
  0
LINE
  5
2AE
100
AcDbEntity
  8
0
100
AcDbLine
 62
7
  6
BYLAYER
 10
102.5674351416
 20
129.0568949249
 11
106.8518381687
 21
121.3980944944
  0
LINE
  5
2AF
100
AcDbEntity
  8
0
100
AcDbLine
 62
7
  6
BYLAYER
 10
110.8169209197
 20
135.8518417472
 11
110.8169209197
 21
134.8170928481
  0
LINE
  5
2B0
100
AcDbEntity
  8
0
100
AcDbLine
 62
7
  6
BYLAYER
 10
110.8269209197
 20
105.4170928481
 11
110.8269209197
 21
106.4170928481
  0
LINE
  5
2B1
100
AcDbEntity
  8
0
100
AcDbLine
 62
7
  6
BYLAYER
 10
110.8769209197
 20
20.8670928481
 11
110.8769209197
 21
19.5670928481
  0
LINE
  5
2B2
100
AcDbEntity
  8
0
100
AcDbLine
 62
7
  6
BYLAYER
 10
111.9769209197
 20
79.852880387
 11
111.9769209197
 21
137.3164184738
  0
LINE
  5
2B3
100
AcDbEntity
  8
0
100
AcDbLine
 62
7
  6
BYLAYER
 10
113.5769209197
 20
100.809117757
 11
113.5769209197
 21
87.5649786094
  0
LINE
  5
2B4
100
AcDbEntity
  8
0
100
AcDbLine
 62
7
  6
BYLAYER
 10
113.5769209197
 20
79.852880387
 11
113.5769209197
 21
82.9381992145
  0
LINE
  5
2B5
100
AcDbEntity
  8
0
100
AcDbLine
 62
7
  6
BYLAYER
 10
113.8769209197
 20
101.5170928481
 11
113.8769209197
 21
100.809117757
  0
LINE
  5
2B6
100
AcDbEntity
  8
0
100
AcDbLine
 62
7
  6
BYLAYER
 10
113.8769209197
 20
82.9381992145
 11
113.8769209197
 21
87.5649786094
  0
LWPOLYLINE
  5
2B7
100
AcDbEntity
  8
0
100
AcDbPolyline
 62
7
  6
BYLAYER
 90
4
 70
0
 10
89.1924331811
 20
46.684208481
 10
91.001609976
 20
51.503443469
 10
94.8545285136
 20
54.9406908024
 10
99.8767860095
 20
56.1900362819
  0
LINE
  5
2B8
100
AcDbEntity
  8
0
100
AcDbLine
 62
7
  6
BYLAYER
 10
91.4727180265
 20
51.2219714092
 11
89.9789179452
 21
47.3559544092
  0
LINE
  5
2B9
100
AcDbEntity
  8
0
100
AcDbLine
 62
7
  6
BYLAYER
 10
116.9769209197
 20
20.8670928481
 11
116.9769209197
 21
30.4170928481
  0
LINE
  5
2BA
100
AcDbEntity
  8
0
100
AcDbLine
 62
7
  6
BYLAYER
 10
116.9769209197
 20
74.0170928481
 11
116.9769209197
 21
84.8477693117
  0
LINE
  5
2BB
100
AcDbEntity
  8
0
100
AcDbLine
 62
7
  6
BYLAYER
 10
117.6453338626
 20
74.0170928481
 11
117.6453338626
 21
30.4170928481
  0
LINE
  5
2BC
100
AcDbEntity
  8
0
100
AcDbLine
 62
7
  6
BYLAYER
 10
118.9479246471
 20
84.8477693117
 11
118.9479246471
 21
81.4670599829
  0
LINE
  5
2BD
100
AcDbEntity
  8
0
100
AcDbLine
 62
7
  6
BYLAYER
 10
118.9479246471
 20
22.9670928481
 11
118.9479246471
 21
20.8670928481
  0
LINE
  5
2BE
100
AcDbEntity
  8
0
100
AcDbLine
 62
7
  6
BYLAYER
 10
118.9769209197
 20
81.4670599829
 11
118.9769209197
 21
75.9671257134
  0
LINE
  5
2BF
100
AcDbEntity
  8
0
100
AcDbLine
 62
7
  6
BYLAYER
 10
118.9769209197
 20
28.4670599829
 11
118.9769209197
 21
22.9671257134
  0
LINE
  5
2C0
100
AcDbEntity
  8
0
100
AcDbLine
 62
7
  6
BYLAYER
 10
120.5769209197
 20
20.8670928481
 11
120.5769209197
 21
101.5170928481
  0
LINE
  5
2C1
100
AcDbEntity
  8
0
100
AcDbLine
 62
7
  6
BYLAYER
 10
63.8094209197
 20
21.5836776978
 11
63.4262471299
 21
21.4170928481
  0
LINE
  5
2C2
100
AcDbEntity
  8
0
100
AcDbLine
 62
7
  6
BYLAYER
 10
63.8094209197
 20
221.2505080751
 11
63.4262471311
 21
221.4170928481
  0
LINE
  5
2C3
100
AcDbEntity
  8
0
100
AcDbLine
 62
7
  6
BYLAYER
 10
58.2303280913
 20
221.4170928481
 11
63.4260137127
 21
221.4170928481
  0
CIRCLE
  5
2C4
100
AcDbEntity
  8
0
100
AcDbCircle
 62
7
  6
BYLAYER
 10
99.8769209197
 20
45.4170928481
 40
12.0
  0
CIRCLE
  5
2C5
100
AcDbEntity
  8
0
100
AcDbCircle
 62
7
  6
BYLAYER
 10
99.8769209197
 20
45.4170928481
 40
10.8626767255
  0
ARC
  5
2C6
100
AcDbEntity
  8
0
100
AcDbCircle
 62
7
  6
BYLAYER
 10
99.8912840772
 20
45.4170930234
 40
10.7730898757
100
AcDbArc
 50
269.9229105605
 51
90.077107766
  0
ARC
  5
2C7
100
AcDbEntity
  8
0
100
AcDbCircle
 62
7
  6
BYLAYER
 10
99.7604710852
 20
45.4170460221
 40
10.1238065437
100
AcDbArc
 50
175.7203462005
 51
184.2672643137
  0
ARC
  5
2C8
100
AcDbEntity
  8
0
100
AcDbCircle
 62
7
  6
BYLAYER
 10
99.7392518302
 20
45.419853179
 40
10.1030079357
100
AcDbArc
 50
189.9518133484
 51
191.2241241571
  0
ARC
  5
2C9
100
AcDbEntity
  8
0
100
AcDbCircle
 62
7
  6
BYLAYER
 10
99.7360435752
 20
45.4148787558
 40
10.0997596948
100
AcDbArc
 50
168.7484141133
 51
170.0386759165
  0
ARC
  5
2CA
100
AcDbEntity
  8
0
100
AcDbCircle
 62
7
  6
BYLAYER
 10
99.7327226833
 20
45.4170928217
 40
10.0935195455
100
AcDbArc
 50
270.8191608094
 51
89.180839068
  0
ARC
  5
2CB
100
AcDbEntity
  8
0
100
AcDbCircle
 62
7
  6
BYLAYER
 10
99.7130410699
 20
45.4150310128
 40
10.0763581933
100
AcDbArc
 50
184.2759061135
 51
189.950563139
  0
ARC
  5
2CC
100
AcDbEntity
  8
0
100
AcDbCircle
 62
7
  6
BYLAYER
 10
99.7127486834
 20
45.4193213156
 40
10.0760474965
100
AcDbArc
 50
170.0406431506
 51
175.712997656
  0
ARC
  5
2CD
100
AcDbEntity
  8
0
100
AcDbCircle
 62
7
  6
BYLAYER
 10
99.8769209197
 20
45.4170928481
 40
9.5705771366
100
AcDbArc
 50
169.4640699395
 51
175.505397594
  0
ARC
  5
2CE
100
AcDbEntity
  8
0
100
AcDbCircle
 62
7
  6
BYLAYER
 10
99.8769209197
 20
45.4170928481
 40
9.5705771366
100
AcDbArc
 50
199.8514365138
 51
160.1485634862
  0
ARC
  5
2CF
100
AcDbEntity
  8
0
100
AcDbCircle
 62
7
  6
BYLAYER
 10
99.8769209197
 20
45.4170928481
 40
9.5705771366
100
AcDbArc
 50
184.494602406
 51
190.5359300605
  0
ARC
  5
2D0
100
AcDbEntity
  8
0
100
AcDbCircle
 62
7
  6
BYLAYER
 10
60.8281709197
 20
27.9170928481
 40
6.333415227
100
AcDbArc
 50
241.9191125689
 51
298.0808874311
  0
ARC
  5
2D1
100
AcDbEntity
  8
0
100
AcDbCircle
 62
7
  6
BYLAYER
 10
91.1270503795
 20
210.1836988868
 40
71.8772776783
100
AcDbArc
 50
269.3813053165
 51
269.9600401293
  0
ARC
  5
2D2
100
AcDbEntity
  8
0
100
AcDbCircle
 62
7
  6
BYLAYER
 10
91.0267914705
 20
210.1836959657
 40
71.8772747574
100
AcDbArc
 50
270.0399598639
 51
270.6186946911
  0
ARC
  5
2D3
100
AcDbEntity
  8
0
100
AcDbCircle
 62
7
  6
BYLAYER
 10
91.0662449274
 20
203.3197235763
 40
65.0132857635
100
AcDbArc
 50
270.0094086814
 51
270.6492459793
  0
ARC
  5
2D4
100
AcDbEntity
  8
0
100
AcDbCircle
 62
7
  6
BYLAYER
 10
91.0875969107
 20
203.3197222584
 40
65.0132844458
100
AcDbArc
 50
269.3507540189
 51
269.9905913196
  0
ARC
  5
2D5
100
AcDbEntity
  8
0
100
AcDbCircle
 62
7
  6
BYLAYER
 10
91.2033674626
 20
182.057473486
 40
43.7915354139
100
AcDbArc
 50
268.5621450017
 51
268.9762175214
  0
ARC
  5
2D6
100
AcDbEntity
  8
0
100
AcDbCircle
 62
7
  6
BYLAYER
 10
90.9775431372
 20
180.7936239711
 40
42.5274046782
100
AcDbArc
 50
271.0180024321
 51
271.4441398875
  0
ARC
  5
2D7
100
AcDbEntity
  8
0
100
AcDbCircle
 62
7
  6
BYLAYER
 10
91.0569773487
 20
176.3203397298
 40
38.0534152175
100
AcDbArc
 50
270.5276298249
 51
271.0180825285
  0
ARC
  5
2D8
100
AcDbEntity
  8
0
100
AcDbCircle
 62
7
  6
BYLAYER
 10
91.0969455884
 20
176.3186392612
 40
38.0517160206
100
AcDbArc
 50
268.9820397443
 51
269.4725034871
  0
ARC
  5
2D9
100
AcDbEntity
  8
0
100
AcDbCircle
 62
7
  6
BYLAYER
 10
91.0489330512
 20
174.2755941711
 40
37.0117453889
100
AcDbArc
 50
270.0433264328
 51
271.548832245
  0
ARC
  5
2DA
100
AcDbEntity
  8
0
100
AcDbCircle
 62
7
  6
BYLAYER
 10
91.0761258305
 20
174.3797121993
 40
36.1126936614
100
AcDbArc
 50
269.4747922658
 51
270.525603884
  0
ARC
  5
2DB
100
AcDbEntity
  8
0
100
AcDbCircle
 62
7
  6
BYLAYER
 10
91.083182745
 20
172.7120182252
 40
35.448159414
100
AcDbArc
 50
268.4179624746
 51
269.9898788494
  0
ARC
  5
2DC
100
AcDbEntity
  8
0
100
AcDbCircle
 62
7
  6
BYLAYER
 10
90.5316693224
 20
155.4526596902
 40
17.1430009356
100
AcDbArc
 50
268.3613703534
 51
269.3958702001
  0
ARC
  5
2DD
100
AcDbEntity
  8
0
100
AcDbCircle
 62
7
  6
BYLAYER
 10
91.622172542
 20
155.4526586969
 40
17.1429999419
100
AcDbArc
 50
270.6041297903
 51
271.6386296584
  0
ARC
  5
2DE
100
AcDbEntity
  8
0
100
AcDbCircle
 62
7
  6
BYLAYER
 10
91.6327096428
 20
154.914347791
 40
16.60460857
100
AcDbArc
 50
270.5873574713
 51
271.6554131598
  0
ARC
  5
2DF
100
AcDbEntity
  8
0
100
AcDbCircle
 62
7
  6
BYLAYER
 10
90.5211321737
 20
154.9143468967
 40
16.6046076754
100
AcDbArc
 50
268.3445868302
 51
269.4126425366
  0
ARC
  5
2E0
100
AcDbEntity
  8
0
100
AcDbCircle
 62
7
  6
BYLAYER
 10
90.5165216049
 20
154.7108594865
 40
16.4362972688
100
AcDbArc
 50
268.2319481239
 51
268.5636440629
  0
ARC
  5
2E1
100
AcDbEntity
  8
0
100
AcDbCircle
 62
7
  6
BYLAYER
 10
91.6373531798
 20
154.7101254459
 40
16.4355624344
100
AcDbArc
 50
271.4363463849
 51
271.7680186556
  0
ARC
  5
2E2
100
AcDbEntity
  8
0
100
AcDbCircle
 62
7
  6
BYLAYER
 10
90.5164611958
 20
152.729144269
 40
15.4572634451
100
AcDbArc
 50
268.1163508108
 51
268.4728710499
  0
ARC
  5
2E3
100
AcDbEntity
  8
0
100
AcDbCircle
 62
7
  6
BYLAYER
 10
91.6373910986
 20
152.7287518658
 40
15.4568709026
100
AcDbArc
 50
271.5271289809
 51
271.8836693713
  0
CIRCLE
  5
2E4
100
AcDbEntity
  8
0
100
AcDbCircle
 62
7
  6
BYLAYER
 10
98.0769209197
 20
121.5170928481
 40
11.0
  0
ARC
  5
2E5
100
AcDbEntity
  8
0
100
AcDbCircle
 62
7
  6
BYLAYER
 10
60.8281709197
 20
214.9170928481
 40
6.333415227
100
AcDbArc
 50
61.9191125689
 51
118.0808874311
  0
ARC
  5
2E6
100
AcDbEntity
  8
0
100
AcDbCircle
 62
7
  6
BYLAYER
 10
89.2100245708
 20
131.1927334695
 40
5.0369359679
100
AcDbArc
 50
70.5971671078
 51
74.1224848837
  0
ARC
  5
2E7
100
AcDbEntity
  8
0
100
AcDbCircle
 62
7
  6
BYLAYER
 10
86.8380914407
 20
131.5581293826
 40
4.650593259
100
AcDbArc
 50
108.7179249691
 51
110.1198298231
  0
ARC
  5
2E8
100
AcDbEntity
  8
0
100
AcDbCircle
 62
7
  6
BYLAYER
 10
109.329856091
 20
131.5974055479
 40
4.6088582262
100
AcDbArc
 50
69.8578817545
 51
70.9496750776
  0
ARC
  5
2E9
100
AcDbEntity
  8
0
100
AcDbCircle
 62
7
  6
BYLAYER
 10
88.0869209197
 20
132.4170928481
 40
4.4
100
AcDbArc
 50
51.3178125465
 51
128.6821874535
  0
ARC
  5
2EA
100
AcDbEntity
  8
0
100
AcDbCircle
 62
7
  6
BYLAYER
 10
108.0669209197
 20
132.4170928481
 40
4.4
100
AcDbArc
 50
51.3178125465
 51
128.6821874535
  0
CIRCLE
  5
2EB
100
AcDbEntity
  8
0
100
AcDbCircle
 62
7
  6
BYLAYER
 10
66.6781709197
 20
121.4170928481
 40
2.5980762114
  0
ARC
  5
2EC
100
AcDbEntity
  8
0
100
AcDbCircle
 62
7
  6
BYLAYER
 10
516.4230645733
 20
82.8025200398
 40
397.1627042004
100
AcDbArc
 50
177.415346921
 51
179.4562933502
  0
SPLINE
  5
2ED
100
AcDbEntity
  8
0
100
AcDbSpline
 62
7
  6
BYLAYER
 70
0
 71
3
 72
19
 73
15
 74
0
 42
0.0000001
 43
0.0000001
 44
0.0000000001
 40
0.0
 40
0.0
 40
0.0
 40
0.0
 40
0.2196370804
 40
0.4173185487
 40
0.589807747
 40
0.7343756827
 40
0.849163376
 40
0.8948310252
 40
0.932425274
 40
0.9618391336
 40
0.9829728354
 40
0.9904034124
 40
0.9957264735
 40
1.0
 40
1.0
 40
1.0
 40
1.0
 10
88.5936880026
 20
138.1236002483
 30
0.0
 10
88.5004666843
 20
138.1343875731
 30
0.0
 10
88.3235090998
 20
138.1563491731
 30
0.0
 10
88.0739149558
 20
138.1911843317
 30
0.0
 10
87.8565138246
 20
138.2244616756
 30
0.0
 10
87.674439668
 20
138.254422766
 30
0.0
 10
87.5460757046
 20
138.276868743
 30
0.0
 10
87.4627659021
 20
138.2918399953
 30
0.0
 10
87.4154741583
 20
138.3005705928
 30
0.0
 10
87.3782658566
 20
138.307203551
 30
0.0
 10
87.35428633
 20
138.3122203842
 30
0.0
 10
87.3395614474
 20
138.3142976419
 30
0.0
 10
87.3332939244
 20
138.3167438304
 30
0.0
 10
87.327561622
 20
138.3154108062
 30
0.0
 10
87.3268511571
 20
138.3170928479
 30
0.0
  0
LINE
  5
2EE
100
AcDbEntity
  8
0
100
AcDbLine
 62
7
  6
BYLAYER
 10
119.1524243714
 20
85.2265367132
 11
118.9479246471
 21
84.8477693117
  0
SPLINE
  5
2EF
100
AcDbEntity
  8
0
100
AcDbSpline
 62
7
  6
BYLAYER
 70
0
 71
3
 72
13
 73
9
 74
0
 42
0.0000001
 43
0.0000001
 44
0.0000000001
 40
0.0
 40
0.0
 40
0.0
 40
0.0
 40
0.3457021928
 40
0.6460817303
 40
0.7694903782
 40
0.8710124228
 40
0.9482541326
 40
1.0
 40
1.0
 40
1.0
 40
1.0
 10
119.2782425022
 20
86.5713275203
 30
0.0
 10
119.2768908953
 20
86.4151342174
 30
0.0
 10
119.2697198606
 20
86.1232636183
 30
0.0
 10
119.2485892625
 20
85.7760427239
 30
0.0
 10
119.2234012684
 20
85.5400393011
 30
0.0
 10
119.2035051796
 20
85.4048040206
 30
0.0
 10
119.181607215
 20
85.3031261711
 30
0.0
 10
119.1635406532
 20
85.2471054287
 30
0.0
 10
119.1524243714
 20
85.2265367132
 30
0.0
  0
SPLINE
  5
2F0
100
AcDbEntity
  8
0
100
AcDbSpline
 62
7
  6
BYLAYER
 70
0
 71
3
 72
13
 73
9
 74
0
 42
0.0000001
 43
0.0000001
 44
0.0000000001
 40
0.0
 40
0.0
 40
0.0
 40
0.0
 40
0.026142604
 40
0.0801384992
 40
0.1650835132
 40
0.2804574426
 40
0.5947145807
 40
1.0
 40
1.0
 40
1.0
 40
1.0
 10
119.7745097118
 20
101.5170928481
 30
0.0
 10
119.7673638838
 20
101.5170928481
 30
0.0
 10
119.7516856602
 20
101.4955218863
 30
0.0
 10
119.7393297817
 20
101.4550012904
 30
0.0
 10
119.7233711977
 20
101.3858080549
 30
0.0
 10
119.7025949355
 20
101.2474353754
 30
0.0
 10
119.6806452301
 20
101.0195979911
 30
0.0
 10
119.6693505696
 20
100.8234043887
 30
0.0
 10
119.6644000979
 20
100.7127342048
 30
0.0
  0
SPLINE
  5
2F1
100
AcDbEntity
  8
0
100
AcDbSpline
 62
7
  6
BYLAYER
 70
0
 71
3
 72
17
 73
13
 74
0
 42
0.0000001
 43
0.0000001
 44
0.0000000001
 40
0.0
 40
0.0
 40
0.0
 40
0.0
 40
0.0737033314
 40
0.1465263351
 40
0.218081212
 40
0.2883098622
 40
0.4246555025
 40
0.5552848414
 40
0.6792713395
 40
0.7954243695
 40
0.9025334005
 40
1.0
 40
1.0
 40
1.0
 40
1.0
 10
108.0669205742
 20
127.9633332737
 30
0.0
 10
107.8738929665
 20
127.9633332737
 30
0.0
 10
107.48834367
 20
128.0196620764
 30
0.0
 10
106.9581101716
 20
128.2427740112
 30
0.0
 10
106.485125214
 20
128.5501974778
 30
0.0
 10
105.9280678828
 20
129.0214987794
 30
0.0
 10
105.3337512198
 20
129.6794828488
 30
0.0
 10
104.7388884579
 20
130.5147444963
 30
0.0
 10
104.2545552526
 20
131.3581382951
 30
0.0
 10
103.8827895217
 20
132.1902087763
 30
0.0
 10
103.635985025
 20
132.9954989886
 30
0.0
 10
103.5669190282
 20
133.5315455614
 30
0.0
 10
103.5669208082
 20
133.7868087114
 30
0.0
  0
SPLINE
  5
2F2
100
AcDbEntity
  8
0
100
AcDbSpline
 62
7
  6
BYLAYER
 70
0
 71
3
 72
13
 73
9
 74
0
 42
0.0000001
 43
0.0000001
 44
0.0000000001
 40
0.0
 40
0.0
 40
0.0
 40
0.0
 40
0.228243025
 40
0.4724757912
 40
0.5998189262
 40
0.7303682752
 40
0.8640200262
 40
1.0
 40
1.0
 40
1.0
 40
1.0
 10
111.9769209197
 20
131.5926471479
 30
0.0
 10
111.7953773439
 20
131.2100347331
 30
0.0
 10
111.3630059852
 20
130.4444051177
 30
0.0
 10
110.695947955
 20
129.5483064842
 30
0.0
 10
110.047567574
 20
128.8771829099
 30
0.0
 10
109.4808508826
 20
128.4185568535
 30
0.0
 10
108.8224458986
 20
128.0617782483
 30
0.0
 10
108.3192271261
 20
127.9633332737
 30
0.0
 10
108.0669205742
 20
127.9633332737
 30
0.0
  0
SPLINE
  5
2F3
100
AcDbEntity
  8
0
100
AcDbSpline
 62
7
  6
BYLAYER
 70
0
 71
3
 72
16
 73
12
 74
0
 42
0.0000001
 43
0.0000001
 44
0.0000000001
 40
0.0
 40
0.0
 40
0.0
 40
0.0
 40
0.0043981803
 40
0.0175014431
 40
0.0391730576
 40
0.0692763564
 40
0.1542309904
 40
0.270905666
 40
0.4168649447
 40
0.5895109382
 40
1.0
 40
1.0
 40
1.0
 40
1.0
 10
92.8269106776
 20
137.3170928481
 30
0.0
 10
92.8260624433
 20
137.3165621451
 30
0.0
 10
92.8217306898
 20
137.3173535871
 30
0.0
 10
92.8131917961
 20
137.3156259436
 30
0.0
 10
92.7982779834
 20
137.3151216194
 30
0.0
 10
92.7673714799
 20
137.3125069506
 30
0.0
 10
92.7146972225
 20
137.3090672295
 30
0.0
 10
92.6358371089
 20
137.3036830641
 30
0.0
 10
92.5369789397
 20
137.2977169922
 30
0.0
 10
92.3713572786
 20
137.2887905882
 30
0.0
 10
92.2387979481
 20
137.2833005285
 30
0.0
 10
92.1454632447
 20
137.2802334645
 30
0.0
  0
SPLINE
  5
2F4
100
AcDbEntity
  8
0
100
AcDbSpline
 62
7
  6
BYLAYER
 70
0
 71
3
 72
13
 73
9
 74
0
 42
0.0000001
 43
0.0000001
 44
0.0000000001
 40
0.0
 40
0.0
 40
0.0
 40
0.0
 40
0.1359803269
 40
0.269632119
 40
0.4001814068
 40
0.5275244447
 40
0.7717570892
 40
1.0
 40
1.0
 40
1.0
 40
1.0
 10
88.0869207503
 20
127.9633010547
 30
0.0
 10
87.8346132993
 20
127.9633010547
 30
0.0
 10
87.3314012814
 20
128.0617903578
 30
0.0
 10
86.6729921092
 20
128.4185524312
 30
0.0
 10
86.1062755126
 20
128.8771828233
 30
0.0
 10
85.4578944437
 20
129.5483051412
 30
0.0
 10
84.7908361975
 20
130.4444047586
 30
0.0
 10
84.3584645803
 20
131.2100345546
 30
0.0
 10
84.1769209197
 20
131.5926471479
 30
0.0
  0
SPLINE
  5
2F5
100
AcDbEntity
  8
0
100
AcDbSpline
 62
7
  6
BYLAYER
 70
0
 71
3
 72
16
 73
12
 74
0
 42
0.0000001
 43
0.0000001
 44
0.0000000001
 40
0.0
 40
0.0
 40
0.0
 40
0.0
 40
0.4104918028
 40
0.5831381535
 40
0.7290963132
 40
0.8457694328
 40
0.9307233093
 40
0.9608266409
 40
0.9824984034
 40
0.9956018073
 40
1.0
 40
1.0
 40
1.0
 40
1.0
 10
90.0083815885
 20
137.2802333584
 30
0.0
 10
89.9150458507
 20
137.2833004235
 30
0.0
 10
89.7824515216
 20
137.288811548
 30
0.0
 10
89.6169062781
 20
137.2976894187
 30
0.0
 10
89.5178771132
 20
137.3037625725
 30
0.0
 10
89.4394751954
 20
137.3088603635
 30
0.0
 10
89.3858284397
 20
137.3129087043
 30
0.0
 10
89.3562497635
 20
137.3146926565
 30
0.0
 10
89.3391210049
 20
137.3165826853
 30
0.0
 10
89.3345285715
 20
137.3158412079
 30
0.0
 10
89.3260829217
 20
137.3176235552
 30
0.0
 10
89.3269311619
 20
137.3170928481
 30
0.0
  0
SPLINE
  5
2F6
100
AcDbEntity
  8
0
100
AcDbSpline
 62
7
  6
BYLAYER
 70
0
 71
3
 72
13
 73
9
 74
0
 42
0.0000001
 43
0.0000001
 44
0.0000000001
 40
0.0
 40
0.0
 40
0.0
 40
0.0
 40
0.3810180444
 40
0.7050514807
 40
0.8290937471
 40
0.9213021224
 40
0.9786506549
 40
1.0
 40
1.0
 40
1.0
 40
1.0
 10
74.8769209197
 20
138.8884980578
 30
0.0
 10
74.8514259148
 20
138.8884980578
 30
0.0
 10
74.8043916589
 20
138.8890536909
 30
0.0
 10
74.7484810314
 20
138.8907801027
 30
0.0
 10
74.7130712115
 20
138.893202233
 30
0.0
 10
74.6936250639
 20
138.8945230987
 30
0.0
 10
74.6845400991
 20
138.8966961591
 30
0.0
 10
74.6769209197
 20
138.8973690249
 30
0.0
 10
74.6769209197
 20
138.8987975705
 30
0.0
  0
SPLINE
  5
2F7
100
AcDbEntity
  8
0
100
AcDbSpline
 62
7
  6
BYLAYER
 70
0
 71
3
 72
13
 73
9
 74
0
 42
0.0000001
 43
0.0000001
 44
0.0000000001
 40
0.0
 40
0.0
 40
0.0
 40
0.0
 40
0.021580522
 40
0.0789887765
 40
0.1712007848
 40
0.2952132635
 40
0.6191280787
 40
1.0
 40
1.0
 40
1.0
 40
1.0
 10
74.6769209197
 20
137.8976874976
 30
0.0
 10
74.6769209197
 20
137.8962428248
 30
0.0
 10
74.6844759255
 20
137.8953704216
 30
0.0
 10
74.6936441476
 20
137.8931968886
 30
0.0
 10
74.7130511386
 20
137.8917197501
 30
0.0
 10
74.7484831854
 20
137.889200704
 30
0.0
 10
74.8043810689
 20
137.8873476312
 30
0.0
 10
74.851424071
 20
137.8867619401
 30
0.0
 10
74.8769209197
 20
137.8867619401
 30
0.0
  0
SPLINE
  5
2F8
100
AcDbEntity
  8
0
100
AcDbSpline
 62
7
  6
BYLAYER
 70
0
 71
3
 72
15
 73
11
 74
0
 42
0.0000001
 43
0.0000001
 44
0.0000000001
 40
0.0
 40
0.0
 40
0.0
 40
0.0
 40
0.0392466697
 40
0.0656728199
 40
0.0981486863
 40
0.1830470583
 40
0.2954276582
 40
0.4348887861
 40
0.6001406327
 40
1.0
 40
1.0
 40
1.0
 40
1.0
 10
118.3648577254
 20
74.0170928481
 30
0.0
 10
118.3911486884
 20
74.0170928481
 30
0.0
 10
118.4339316423
 20
74.0407604771
 30
0.0
 10
118.475933223
 20
74.0907784065
 30
0.0
 10
118.5266850914
 20
74.1733034866
 30
0.0
 10
118.5836198262
 20
74.3169869822
 30
0.0
 10
118.6449478626
 20
74.5342170646
 30
0.0
 10
118.702079355
 20
74.8079135878
 30
0.0
 10
118.77696607
 20
75.2740099145
 30
0.0
 10
118.8169092898
 20
75.6507500018
 30
0.0
 10
118.8403109003
 20
75.9175877173
 30
0.0
  0
SPLINE
  5
2F9
100
AcDbEntity
  8
0
100
AcDbSpline
 62
7
  6
BYLAYER
 70
0
 71
3
 72
9
 73
5
 74
0
 42
0.0000001
 43
0.0000001
 44
0.0000000001
 40
0.0
 40
0.0
 40
0.0
 40
0.0
 40
0.2281335297
 40
1.0
 40
1.0
 40
1.0
 40
1.0
 10
111.9769209197
 20
135.2934790741
 30
0.0
 10
111.9096880634
 20
135.359496372
 30
0.0
 10
111.5949351465
 20
135.6286439298
 30
0.0
 10
111.21621274
 20
135.8145854312
 30
0.0
 10
110.9169161068
 20
135.9243923349
 30
0.0
  0
SPLINE
  5
2FA
100
AcDbEntity
  8
0
100
AcDbSpline
 62
7
  6
BYLAYER
 70
0
 71
3
 72
9
 73
5
 74
0
 42
0.0000001
 43
0.0000001
 44
0.0000000001
 40
0.0
 40
0.0
 40
0.0
 40
0.0
 40
0.254665527
 40
1.0
 40
1.0
 40
1.0
 40
1.0
 10
105.57134923
 20
136.0390848094
 30
0.0
 10
105.54553102
 20
136.0317301602
 30
0.0
 10
105.444359189
 20
136.0021251749
 30
0.0
 10
105.344049567
 20
135.9695468228
 30
0.0
 10
105.2699598137
 20
135.9433982522
 30
0.0
  0
SPLINE
  5
2FB
100
AcDbEntity
  8
0
100
AcDbSpline
 62
7
  6
BYLAYER
 70
0
 71
3
 72
11
 73
7
 74
0
 42
0.0000001
 43
0.0000001
 44
0.0000000001
 40
0.0
 40
0.0
 40
0.0
 40
0.0
 40
0.2851830574
 40
0.5427277793
 40
0.7781866647
 40
1.0
 40
1.0
 40
1.0
 40
1.0
 10
105.2699598137
 20
135.9433982522
 30
0.0
 10
105.1002056823
 20
135.8834867572
 30
0.0
 10
104.7831239267
 20
135.7505790904
 30
0.0
 10
104.3629485238
 20
135.4912748372
 30
0.0
 10
104.0301802471
 20
135.1818024286
 30
0.0
 10
103.8657525925
 20
134.9410469237
 30
0.0
 10
103.800639722
 20
134.8170928481
 30
0.0
  0
SPLINE
  5
2FC
100
AcDbEntity
  8
0
100
AcDbSpline
 62
7
  6
BYLAYER
 70
0
 71
3
 72
15
 73
11
 74
0
 42
0.0000001
 43
0.0000001
 44
0.0000000001
 40
0.0
 40
0.0
 40
0.0
 40
0.0
 40
0.3998565246
 40
0.5651089411
 40
0.7045713473
 40
0.8169540113
 40
0.9018535565
 40
0.9343296363
 40
0.9607556251
 40
1.0
 40
1.0
 40
1.0
 40
1.0
 10
118.8403464021
 20
28.5161909214
 30
0.0
 10
118.816945747
 20
28.7830813241
 30
0.0
 10
118.7770029744
 20
29.1598971074
 30
0.0
 10
118.7021135774
 20
29.6260892739
 30
0.0
 10
118.6449780768
 20
29.8998454758
 30
0.0
 10
118.5836454833
 20
30.1171249901
 30
0.0
 10
118.5267047295
 20
30.2608421185
 30
0.0
 10
118.4759466227
 20
30.3433874912
 30
0.0
 10
118.4339413221
 20
30.3934171069
 30
0.0
 10
118.3911524811
 20
30.4170928481
 30
0.0
 10
118.3648577254
 20
30.4170928481
 30
0.0
  0
SPLINE
  5
2FD
100
AcDbEntity
  8
0
100
AcDbSpline
 62
7
  6
BYLAYER
 70
0
 71
3
 72
13
 73
9
 74
0
 42
0.0000001
 43
0.0000001
 44
0.0000000001
 40
0.0
 40
0.0
 40
0.0
 40
0.0
 40
0.0175019732
 40
0.0692775289
 40
0.1542303575
 40
0.2709032786
 40
0.5895139195
 40
1.0
 40
1.0
 40
1.0
 40
1.0
 10
89.3269261731
 20
138.3170928481
 30
0.0
 10
89.3230314787
 20
138.3179456325
 30
0.0
 10
89.357779132
 20
138.3140577251
 30
0.0
 10
89.3747169942
 20
138.3142730337
 30
0.0
 10
89.4423786454
 20
138.3089985633
 30
0.0
 10
89.554782674
 20
138.3024315201
 30
0.0
 10
89.7513913263
 20
138.2915268446
 30
0.0
 10
89.9159408327
 20
138.2852699651
 30
0.0
 10
90.0094054673
 20
138.2823872163
 30
0.0
  0
SPLINE
  5
2FE
100
AcDbEntity
  8
0
100
AcDbSpline
 62
7
  6
BYLAYER
 70
0
 71
3
 72
9
 73
5
 74
0
 42
0.0000001
 43
0.0000001
 44
0.0000000001
 40
0.0
 40
0.0
 40
0.0
 40
0.0
 40
0.2567020584
 40
1.0
 40
1.0
 40
1.0
 40
1.0
 10
85.8108397419
 20
136.0970631697
 30
0.0
 10
85.7705845883
 20
136.0872403844
 30
0.0
 10
85.6141516074
 20
136.0474373977
 30
0.0
 10
85.4593027697
 20
136.0012722947
 30
0.0
 10
85.3456727698
 20
135.9627524279
 30
0.0
  0
SPLINE
  5
2FF
100
AcDbEntity
  8
0
100
AcDbSpline
 62
7
  6
BYLAYER
 70
0
 71
3
 72
9
 73
5
 74
0
 42
0.0000001
 43
0.0000001
 44
0.0000000001
 40
0.0
 40
0.0
 40
0.0
 40
0.0
 40
0.2748566533
 40
1.0
 40
1.0
 40
1.0
 40
1.0
 10
85.2383585579
 20
135.9249213818
 30
0.0
 10
85.1316953301
 20
135.8858284371
 30
0.0
 10
84.7497110247
 20
135.729438429
 30
0.0
 10
84.3907725063
 20
135.503464261
 30
0.0
 10
84.1769209197
 20
135.2934790741
 30
0.0
  0
SPLINE
  5
300
100
AcDbEntity
  8
0
100
AcDbSpline
 62
7
  6
BYLAYER
 70
0
 71
3
 72
11
 73
7
 74
0
 42
0.0000001
 43
0.0000001
 44
0.0000000001
 40
0.0
 40
0.0
 40
0.0
 40
0.0
 40
0.2217909222
 40
0.4572427478
 40
0.7148039453
 40
1.0
 40
1.0
 40
1.0
 40
1.0
 10
92.3532021175
 20
134.8170928481
 30
0.0
 10
92.288075745
 20
134.9410726271
 30
0.0
 10
92.1236025671
 20
135.1818842672
 30
0.0
 10
91.7907140356
 20
135.4914246161
 30
0.0
 10
91.370361598
 20
135.7507581643
 30
0.0
 10
91.0531568323
 20
135.8836950488
 30
0.0
 10
90.8833338238
 20
135.9436028729
 30
0.0
  0
SPLINE
  5
301
100
AcDbEntity
  8
0
100
AcDbSpline
 62
7
  6
BYLAYER
 70
0
 71
3
 72
13
 73
9
 74
0
 42
0.0000001
 43
0.0000001
 44
0.0000000001
 40
0.0
 40
0.0
 40
0.0
 40
0.0
 40
0.410486948
 40
0.7290975621
 40
0.8457701562
 40
0.9307226955
 40
0.9824978883
 40
1.0
 40
1.0
 40
1.0
 40
1.0
 10
92.1444371203
 20
138.2823873662
 30
0.0
 10
92.237901851
 20
138.2852700638
 30
0.0
 10
92.4038589606
 20
138.2918351185
 30
0.0
 10
92.5962999236
 20
138.3018272024
 30
0.0
 10
92.7145168152
 20
138.3096670945
 30
0.0
 10
92.7722199836
 20
138.3127611728
 30
0.0
 10
92.8070826152
 20
138.3164705856
 30
0.0
 10
92.8230209429
 20
138.3162400697
 30
0.0
 10
92.8269156664
 20
138.3170928481
 30
0.0
  0
SPLINE
  5
302
100
AcDbEntity
  8
0
100
AcDbSpline
 62
7
  6
BYLAYER
 70
0
 71
3
 72
11
 73
7
 74
0
 42
0.0000001
 43
0.0000001
 44
0.0000000001
 40
0.0
 40
0.0
 40
0.0
 40
0.0
 40
0.2145461659
 40
0.4548611398
 40
0.7180406872
 40
1.0
 40
1.0
 40
1.0
 40
1.0
 10
92.5869211318
 20
133.7868067284
 30
0.0
 10
92.5869222748
 20
133.4682982432
 30
0.0
 10
92.479210148
 20
132.7932460675
 30
0.0
 10
92.1141905073
 20
131.7882949389
 30
0.0
 10
91.5719573499
 20
130.7527071577
 30
0.0
 10
91.1133145493
 20
130.0828495267
 30
0.0
 10
90.8538570429
 20
129.7543717493
 30
0.0
  0
ELLIPSE
  5
303
100
AcDbEntity
  8
0
100
AcDbEllipse
 62
7
  6
BYLAYER
 10
84.1769209197
 20
121.4170928481
 30
0.0
 11
29.2716586479
 21
-0.0
 31
0.0
 40
0.5773502692
 41
7.7025142723
 42
7.853981634
  0
ELLIPSE
  5
304
100
AcDbEntity
  8
0
100
AcDbEllipse
 62
7
  6
BYLAYER
 10
81.8730733425
 20
121.4170928481
 30
0.0
 11
28.5788383249
 21
-0.0
 31
0.0
 40
0.5773502692
 41
1.5812937972
 42
1.7536314638
  0
ELLIPSE
  5
305
100
AcDbEntity
  8
0
100
AcDbEllipse
 62
7
  6
BYLAYER
 10
81.8730733425
 20
121.4170928481
 30
0.0
 11
30.3108891325
 21
-0.0
 31
0.0
 40
0.5773502692
 41
1.5806939216
 42
1.7430758505
  0
ELLIPSE
  5
306
100
AcDbEntity
  8
0
100
AcDbEllipse
 62
7
  6
BYLAYER
 10
99.1559312124
 20
45.4170928481
 30
0.0
 11
9.4855078923
 21
-0.0
 31
0.0
 40
0.9971070855
 41
2.7908216065
 42
2.9554930788
  0
ELLIPSE
  5
307
100
AcDbEntity
  8
0
100
AcDbEllipse
 62
7
  6
BYLAYER
 10
84.1769209197
 20
121.4170928481
 30
0.0
 11
27.5396078403
 21
0.0
 31
0.0
 40
0.5773502692
 41
7.6929073052
 42
7.853981634
  0
ELLIPSE
  5
308
100
AcDbEntity
  8
0
100
AcDbEllipse
 62
7
  6
BYLAYER
 10
99.1559312124
 20
45.4170928481
 30
0.0
 11
9.4855078923
 21
0.0
 31
0.0
 40
0.9971070855
 41
3.0622119269
 42
3.2209733803
  0
ELLIPSE
  5
309
100
AcDbEntity
  8
0
100
AcDbEllipse
 62
7
  6
BYLAYER
 10
99.1559312124
 20
45.4170928481
 30
0.0
 11
9.4855078923
 21
0.0
 31
0.0
 40
0.9971070855
 41
-2.9554930788
 42
-2.7908216065
  0
ENDSEC
  0
SECTION
  2
OBJECTS
  0
DICTIONARY
  5
C
100
AcDbDictionary
280
0
281
1
  3
ACAD_GROUP
350
D
  3
ACAD_MLINESTYLE
350
17
  3
ACAD_LAYOUT
350
1A
  3
ACAD_PLOTSETTINGS
350
19
  3
ACAD_PLOTSTYLENAME
350
E
  0
DICTIONARY
  5
D
102
{ACAD_REACTORS
330
C
102
}
100
AcDbDictionary
280
0
281
1
  0
ACDBDICTIONARYWDFLT
  5
E
102
{ACAD_REACTORS
330
C
102
}
100
AcDbDictionary
281
1
  3
Normal
350
F
100
AcDbDictionaryWithDefault
340
F
  0
DICTIONARY
  5
17
102
{ACAD_REACTORS
330
C
102
}
100
AcDbDictionary
280
0
281
1
  3
Standard
350
18
  0
DICTIONARY
  5
19
102
{ACAD_REACTORS
330
C
102
}
100
AcDbDictionary
281
1
  0
DICTIONARY
  5
1A
102
{ACAD_REACTORS
330
C
102
}
100
AcDbDictionary
281
1
  3
Model
350
30A
  3
Layout1
350
30B
  0
ACDBPLACEHOLDER
  5
F
102
{ACAD_REACTORS
330
E
102
}
  0
MLINESTYLE
  5
18
102
{ACAD_REACTORS
330
17
102
}
100
AcDbMlineStyle
  2
STANDARD
 70
0
  3

 62
256
 51
90.0
 52
90.0
 71
2
 49
0.5
 62
256
  6
BYLAYER
 49
-0.5
 62
256
  6
BYLAYER
  0
LAYOUT
  5
30A
102
{ACAD_REACTORS
330
1A
102
}
100
AcDbPlotSettings
  1

  2
none_device
  4

  6

 40
0.0
 41
0.0
 42
0.0
 43
0.0
 44
210.0
 45
297.0
 46
0.0
 47
0.0
 48
0.0
 49
0.0
140
0.0
141
0.0
142
1.0
143
1.0
 70
1024
 72
1
 73
0
 74
0
  7

 75
0
147
1.0
148
0.0
149
0.0
100
AcDbLayout
  1
Model
 70
0
 71
0
 10
0.0
 20
0.0
 11
210.0
 21
297.0
 12
0.0
 22
0.0
 32
0.0
 14
0.0
 24
0.0
 34
0.0
 15
0.0
 25
0.0
 35
0.0
146
0.0
 13
0.0
 23
0.0
 33
0.0
 16
1.0
 26
0.0
 36
0.0
 17
0.0
 27
1.0
 37
0.0
 76
0
330
210
345
0
346
0
  0
LAYOUT
  5
30B
102
{ACAD_REACTORS
330
1A
102
}
100
AcDbPlotSettings
  1

  2
none_device
  4

  6

 40
0.0
 41
0.0
 42
0.0
 43
0.0
 44
210.0
 45
297.0
 46
0.0
 47
0.0
 48
0.0
 49
0.0
140
0.0
141
0.0
142
1.0
143
1.0
 70
0
 72
1
 73
0
 74
0
  7

 75
0
147
1.0
148
0.0
149
0.0
100
AcDbLayout
  1
Layout1
 70
0
 71
1
 10
0.0
 20
0.0
 11
210.0
 21
297.0
 12
0.0
 22
0.0
 32
0.0
 14
0.0
 24
0.0
 34
0.0
 15
0.0
 25
0.0
 35
0.0
146
0.0
 13
0.0
 23
0.0
 33
0.0
 16
1.0
 26
0.0
 36
0.0
 17
0.0
 27
1.0
 37
0.0
 76
0
330
211
345
0
346
0
  0
ENDSEC
  0
EOF
