999
DXF file: C:\Users\sesa63760\Dev\_Creo\CAD\MCADID0003485_3D-CAD\drw0001_7.dxf
999
Pro/ENGINEER 2019471 by Parametric Technology Corporation
  0
SECTION
  2
HEADER
  9
$ACADVER
  1
AC1024
  9
$DWGCODEPAGE
  3
ANSI_1252
  9
$EXTMAX
 10
37.9218884689
 20
53.6323851204
 30
0.0
  9
$EXTMIN
 10
0.0
 20
0.0
 30
0.0
  9
$LIMMIN
 10
0.0
 20
0.0
  9
$LIMMAX
 10
37.9218884689
 20
53.6323851204
  9
$VIEWCTR
 10
18.9609442345
 20
26.8161925602
  9
$VIEWSIZE
 40
53.6323851204
  9
$CLAYER
  8
0
  9
$LTSCALE
 40
3.496036956
  9
$CELTYPE
  6
BYLAYER
  9
$DIMSCALE
 40
1.0
  9
$DIMASZ
 40
0.4514510532
  9
$DIMEXO
 40
1.0
  9
$DIMDLI
 40
2.415443715
  9
$DIMEXE
 40
1.0
  9
$DIMCEN
 40
0.5720787746
  9
$DIMLFAC
 40
1.0
  9
$DIMBLK
  1
_FILLED
  9
$DIMALT
 70
0
  9
$DIMALTF
 40
0.0393700787
  9
$DIMTXT
 40
0.6320314745
  9
$DIMTOL
 70
1
  9
$DIMLIM
 70
0
  9
$DIMTFAC
 40
1.0
  9
$DIMTP
 40
0.01
  9
$DIMTM
 40
0.01
  9
$DIMGAP
 40
0.625
  9
$DIMDSEP
 70
46
  9
$AUNITS
 70
0
  9
$PDMODE
 70
3
  9
$PDSIZE
 40
0.3125
  9
$HANDSEED
  5
258
  9
$TILEMODE
 70
1
  9
$MEASUREMENT
 70
1
  9
$INSUNITS
 70
4
  0
ENDSEC
  0
SECTION
  2
CLASSES
  0
CLASS
  1
ACDBDICTIONARYWDFLT
  2
AcDbDictionaryWithDefault
  3
AutoCAD 2000
 90
0
 91
1
280
0
281
0
  0
CLASS
  1
ACDBPLACEHOLDER
  2
AcDbPlaceHolder
  3
AutoCAD 2000
 90
0
 91
1
280
0
281
0
  0
CLASS
  1
LAYOUT
  2
AcDbLayout
  3
AutoCAD 2000
 90
0
 91
0
280
0
281
0
  0
ENDSEC
  0
SECTION
  2
TABLES
  0
TABLE
  2
VPORT
  5
8
100
AcDbSymbolTable
 70
2
  0
VPORT
  5
1F4
100
AcDbSymbolTableRecord
100
AcDbViewportTableRecord
  2
*ACTIVE
 70
0
 10
0.0
 20
0.0
 11
1.0
 21
1.0
 12
18.9609442345
 22
26.8161925602
 13
0.0
 23
0.0
 14
1.0
 24
1.0
 15
0.0
 25
0.0
 16
0.0
 26
0.0
 36
1.0
 17
0.0
 27
0.0
 37
0.0
 40
53.6323851204
 41
0.7070707071
 42
50.0
 43
0.0
 44
0.0
 50
0.0
 51
0.0
 71
0
 72
100
 73
1
 74
1
 75
0
 76
0
 77
0
 78
0
  0
ENDTAB
  0
TABLE
  2
LTYPE
  5
5
100
AcDbSymbolTable
 70
6
  0
LTYPE
  5
14
100
AcDbSymbolTableRecord
100
AcDbLinetypeTableRecord
  2
BYBLOCK
 70
0
  3

 72
65
 73
0
 40
0.0
  0
LTYPE
  5
15
100
AcDbSymbolTableRecord
100
AcDbLinetypeTableRecord
  2
BYLAYER
 70
0
  3

 72
65
 73
0
 40
0.0
  0
LTYPE
  5
16
100
AcDbSymbolTableRecord
100
AcDbLinetypeTableRecord
  2
CONTINUOUS
 70
64
  3
Solid line
 72
65
 73
0
 40
0.0
  0
LTYPE
  5
1F5
100
AcDbSymbolTableRecord
100
AcDbLinetypeTableRecord
  2
CENTER
 70
64
  3
____ _ ____ _ ____ _ ____ _ ____ _ ____ _ ____
 72
65
 73
4
 40
0.6
 49
0.375
 74
0
 49
-0.075
 74
0
 49
0.075
 74
0
 49
-0.075
 74
0
  0
LTYPE
  5
1F6
100
AcDbSymbolTableRecord
100
AcDbLinetypeTableRecord
  2
HIDDEN
 70
64
  3
- - - - - - - - - - - - - - - - - - - -
 72
65
 73
2
 40
0.2
 49
0.1
 74
0
 49
-0.1
 74
0
  0
LTYPE
  5
1F7
100
AcDbSymbolTableRecord
100
AcDbLinetypeTableRecord
  2
PHANTOM
 70
64
  3
_____ _ _ _____ _ _ _____ _ _ _____
 72
65
 73
6
 40
0.8
 49
0.45
 74
0
 49
-0.05
 74
0
 49
0.1
 74
0
 49
-0.05
 74
0
 49
0.1
 74
0
 49
-0.05
 74
0
  0
LTYPE
  5
1F8
100
AcDbSymbolTableRecord
100
AcDbLinetypeTableRecord
  2
DOT
 70
64
  3
. . . . . . . . . . . . . . . . . . . .
 72
65
 73
2
 40
0.2
 49
0.1
 74
0
 49
-0.1
 74
0
  0
LTYPE
  5
1F9
100
AcDbSymbolTableRecord
100
AcDbLinetypeTableRecord
  2
DASHED
 70
64
  3
- - - - - - - - - - - - - - - - - - - -
 72
65
 73
2
 40
0.2
 49
0.1
 74
0
 49
-0.1
 74
0
  0
ENDTAB
  0
TABLE
  2
LAYER
  5
2
100
AcDbSymbolTable
 70
36
  0
LAYER
  5
10
100
AcDbSymbolTableRecord
100
AcDbLayerTableRecord
  2
0
 70
0
 62
7
  6
CONTINUOUS
370
-3
390
F
  0
LAYER
  5
1FA
100
AcDbSymbolTableRecord
100
AcDbLayerTableRecord
  2
DEFAULT_1
 70
0
 62
7
  6
CENTER
370
-3
390
F
  0
LAYER
  5
1FB
100
AcDbSymbolTableRecord
100
AcDbLayerTableRecord
  2
DEFAULT_2
 70
0
 62
7
  6
HIDDEN
370
-3
390
F
  0
LAYER
  5
1FC
100
AcDbSymbolTableRecord
100
AcDbLayerTableRecord
  2
DEFAULT_3
 70
0
 62
7
  6
PHANTOM
370
-3
390
F
  0
LAYER
  5
1FD
100
AcDbSymbolTableRecord
100
AcDbLayerTableRecord
  2
00_COMPONENTS
 70
0
 62
7
  6
CONTINUOUS
370
-3
390
F
  0
LAYER
  5
1FE
100
AcDbSymbolTableRecord
100
AcDbLayerTableRecord
  2
01_1_DEFAULT_DATUMS
 70
0
 62
7
  6
CONTINUOUS
370
-3
390
F
  0
LAYER
  5
1FF
100
AcDbSymbolTableRecord
100
AcDbLayerTableRecord
  2
01_PLANES
 70
0
 62
7
  6
CONTINUOUS
370
-3
390
F
  0
LAYER
  5
200
100
AcDbSymbolTableRecord
100
AcDbLayerTableRecord
  2
02_COORD_SYS
 70
0
 62
7
  6
CONTINUOUS
370
-3
390
F
  0
LAYER
  5
201
100
AcDbSymbolTableRecord
100
AcDbLayerTableRecord
  2
03_AXES
 70
0
 62
7
  6
CONTINUOUS
370
-3
390
F
  0
LAYER
  5
202
100
AcDbSymbolTableRecord
100
AcDbLayerTableRecord
  2
04_POINTS
 70
0
 62
7
  6
CONTINUOUS
370
-3
390
F
  0
LAYER
  5
203
100
AcDbSymbolTableRecord
100
AcDbLayerTableRecord
  2
05_CURVES
 70
0
 62
7
  6
CONTINUOUS
370
-3
390
F
  0
LAYER
  5
204
100
AcDbSymbolTableRecord
100
AcDbLayerTableRecord
  2
06_SURFS
 70
0
 62
7
  6
CONTINUOUS
370
-3
390
F
  0
LAYER
  5
205
100
AcDbSymbolTableRecord
100
AcDbLayerTableRecord
  2
07_COSMETICS
 70
0
 62
7
  6
CONTINUOUS
370
-3
390
F
  0
LAYER
  5
206
100
AcDbSymbolTableRecord
100
AcDbLayerTableRecord
  2
10_NOTES
 70
0
 62
7
  6
CONTINUOUS
370
-3
390
F
  0
LAYER
  5
207
100
AcDbSymbolTableRecord
100
AcDbLayerTableRecord
  2
11_NOTES_PUB
 70
0
 62
7
  6
CONTINUOUS
370
-3
390
F
  0
LAYER
  5
208
100
AcDbSymbolTableRecord
100
AcDbLayerTableRecord
  2
13_REF_GTOL
 70
0
 62
7
  6
CONTINUOUS
370
-3
390
F
  0
LAYER
  5
209
100
AcDbSymbolTableRecord
100
AcDbLayerTableRecord
  2
16_MISC
 70
0
 62
7
  6
CONTINUOUS
370
-3
390
F
  0
LAYER
  5
20A
100
AcDbSymbolTableRecord
100
AcDbLayerTableRecord
  2
17_NO_PRINT
 70
0
 62
7
  6
CONTINUOUS
370
-3
390
F
  0
LAYER
  5
20B
100
AcDbSymbolTableRecord
100
AcDbLayerTableRecord
  2
18_DATUM_CAMS_JOINTS
 70
0
 62
7
  6
CONTINUOUS
370
-3
390
F
  0
LAYER
  5
20C
100
AcDbSymbolTableRecord
100
AcDbLayerTableRecord
  2
19_DATUM_FUNCTIONAL
 70
0
 62
7
  6
CONTINUOUS
370
-3
390
F
  0
LAYER
  5
20D
100
AcDbSymbolTableRecord
100
AcDbLayerTableRecord
  2
20_DATUM_KINEMATIC_SCHEME
 70
0
 62
7
  6
CONTINUOUS
370
-3
390
F
  0
ENDTAB
  0
TABLE
  2
STYLE
  5
3
100
AcDbSymbolTable
 70
1
  0
STYLE
  5
11
100
AcDbSymbolTableRecord
100
AcDbTextStyleTableRecord
  2
STANDARD
 70
0
 40
0.0
 41
1.0
 50
0.0
 71
0
 42
0.2
  3
ARIAL.TTF
  4

  0
STYLE
  5
20E
100
AcDbSymbolTableRecord
100
AcDbTextStyleTableRecord
  2
TEXTSTYLE_1
 70
0
 40
0.0
 41
0.8
 50
0.0
 71
0
 42
0.2
  3
gdt
  4

  0
ENDTAB
  0
TABLE
  2
VIEW
  5
6
100
AcDbSymbolTable
 70
0
  0
ENDTAB
  0
TABLE
  2
UCS
  5
7
100
AcDbSymbolTable
 70
0
  0
ENDTAB
  0
TABLE
  2
APPID
  5
9
100
AcDbSymbolTable
 70
1
  0
APPID
  5
20F
100
AcDbSymbolTableRecord
100
AcDbRegAppTableRecord
  2
ACAD
 70
0
  0
ENDTAB
  0
TABLE
  2
BLOCK_RECORD
  5
1
100
AcDbSymbolTable
 70
0
  0
BLOCK_RECORD
  5
210
100
AcDbSymbolTableRecord
100
AcDbBlockTableRecord
  2
*Model_Space
  0
BLOCK_RECORD
  5
211
100
AcDbSymbolTableRecord
100
AcDbBlockTableRecord
  2
*Paper_Space
  0
BLOCK_RECORD
  5
212
100
AcDbSymbolTableRecord
100
AcDbBlockTableRecord
  2
_FILLED
  0
ENDTAB
  0
TABLE
  2
DIMSTYLE
  5
A
100
AcDbSymbolTable
 70
1
100
AcDbDimStyleTable
 71
0
  0
DIMSTYLE
105
213
100
AcDbSymbolTableRecord
100
AcDbDimStyleTableRecord
  2
STANDARD
 70
0
  3

  4

 40
1.0
 41
0.4514510532
 42
1.0
 43
0.38
 44
1.0
 45
0.0
 46
0.0
 47
0.01
 48
0.01
140
0.6320314745
141
0.09
142
0.0
143
25.4
144
1.0
145
0.0
146
1.0
147
0.625
 71
1
 72
0
 73
0
 74
0
 75
0
 76
0
 77
1
 78
8
 79
2
170
0
171
1
172
0
173
0
174
0
175
0
176
0
177
0
178
0
270
2
179
2
271
2
272
2
273
2
274
2
275
0
280
0
281
0
282
0
283
1
284
8
285
0
286
0
287
3
288
0
340
11
278
46
341
212
342
212
343
212
344
212
  0
ENDTAB
  0
ENDSEC
  0
SECTION
  2
BLOCKS
  0
BLOCK
  5
20
100
AcDbEntity
  8
0
100
AcDbBlockBegin
  2
*Model_Space
 70
0
 10
0.0
 20
0.0
 30
0.0
  3
*Model_Space
  1

  0
ENDBLK
  5
21
100
AcDbEntity
  8
0
100
AcDbBlockEnd
  0
BLOCK
  5
1C
100
AcDbEntity
  8
0
100
AcDbBlockBegin
  2
*Paper_Space
 70
0
 10
0.0
 20
0.0
 30
0.0
  3
*Paper_Space
  1

  0
ENDBLK
  5
1D
100
AcDbEntity
  8
0
100
AcDbBlockEnd
  0
BLOCK
  5
214
100
AcDbEntity
  8
0
100
AcDbBlockBegin
  2
_FILLED
 70
64
 10
0.0
 20
0.0
  3
_FILLED
  1

  0
SOLID
  5
215
100
AcDbEntity
  8
0
  6
BYBLOCK
 62
0
100
AcDbTrace
 10
0.0
 20
0.0
 11
-1.0
 21
0.25
 12
-1.0
 22
-0.25
 13
-1.0
 23
-0.25
  0
ENDBLK
  5
216
100
AcDbEntity
  8
0
  6
BYBLOCK
 62
0
100
AcDbBlockEnd
  0
ENDSEC
  0
SECTION
  2
ENTITIES
  0
LINE
  5
217
100
AcDbEntity
  8
0
100
AcDbLine
 62
7
  6
BYLAYER
 10
4.0265897487
 20
11.9755663976
 11
4.0265897487
 21
41.9755663976
  0
LINE
  5
218
100
AcDbEntity
  8
0
100
AcDbLine
 62
7
  6
BYLAYER
 10
9.6377353912
 20
11.964945277
 11
18.4463515339
 21
11.964945277
  0
LINE
  5
219
100
AcDbEntity
  8
0
100
AcDbLine
 62
7
  6
BYLAYER
 10
19.6078624055
 20
11.964945277
 11
28.5445288677
 21
11.964945277
  0
LINE
  5
21A
100
AcDbEntity
  8
0
100
AcDbLine
 62
7
  6
BYLAYER
 10
34.0265897487
 20
11.9755663976
 11
32.3956415803
 21
11.9755663976
  0
LINE
  5
21B
100
AcDbEntity
  8
0
100
AcDbLine
 62
7
  6
BYLAYER
 10
5.8665426829
 20
11.9755663976
 11
4.0265897487
 21
11.9755663976
  0
LINE
  5
21C
100
AcDbEntity
  8
0
100
AcDbLine
 62
7
  6
BYLAYER
 10
21.1322931006
 20
12.4886923033
 11
16.9208863968
 21
12.4886923033
  0
LINE
  5
21D
100
AcDbEntity
  8
0
100
AcDbLine
 62
7
  6
BYLAYER
 10
21.3995713462
 20
12.8837752338
 11
16.6536081511
 21
12.8837752338
  0
LINE
  5
21E
100
AcDbEntity
  8
0
100
AcDbLine
 62
7
  6
BYLAYER
 10
5.8665426829
 20
15.6755663976
 11
5.8665426829
 21
16.9755663976
  0
LINE
  5
21F
100
AcDbEntity
  8
0
100
AcDbLine
 62
7
  6
BYLAYER
 10
20.0193460778
 20
13.4755663976
 11
18.0338334252
 21
13.4755663976
  0
LINE
  5
220
100
AcDbEntity
  8
0
100
AcDbLine
 62
7
  6
BYLAYER
 10
20.5112796603
 20
14.3242106917
 11
17.6413342677
 21
14.3242106917
  0
LINE
  5
221
100
AcDbEntity
  8
0
100
AcDbLine
 62
7
  6
BYLAYER
 10
6.5265897487
 20
41.9755663976
 11
6.5265897487
 21
16.9755663976
  0
LINE
  5
222
100
AcDbEntity
  8
0
100
AcDbLine
 62
7
  6
BYLAYER
 10
4.0265897487
 20
15.6755663976
 11
5.8665426829
 21
15.6755663976
  0
LINE
  5
223
100
AcDbEntity
  8
0
100
AcDbLine
 62
7
  6
BYLAYER
 10
32.3956415803
 20
15.6755663976
 11
34.0265897487
 21
15.6755663976
  0
LINE
  5
224
100
AcDbEntity
  8
0
100
AcDbLine
 62
7
  6
BYLAYER
 10
34.0265897487
 20
15.7755663976
 11
32.3956415803
 21
15.7755663976
  0
LINE
  5
225
100
AcDbEntity
  8
0
100
AcDbLine
 62
7
  6
BYLAYER
 10
5.8665426829
 20
15.7755663976
 11
4.0265897487
 21
15.7755663976
  0
LINE
  5
226
100
AcDbEntity
  8
0
100
AcDbLine
 62
7
  6
BYLAYER
 10
4.0265897487
 20
16.9755663976
 11
34.0265897487
 21
16.9755663976
  0
LINE
  5
227
100
AcDbEntity
  8
0
100
AcDbLine
 62
7
  6
BYLAYER
 10
9.6377370233
 20
16.9755663976
 11
9.6377370233
 21
11.9659016803
  0
LINE
  5
228
100
AcDbEntity
  8
0
100
AcDbLine
 62
7
  6
BYLAYER
 10
13.2499729982
 20
12.1563512479
 11
13.2499729982
 21
16.9755663976
  0
LINE
  5
229
100
AcDbEntity
  8
0
100
AcDbLine
 62
7
  6
BYLAYER
 10
14.9335072265
 20
16.9755663976
 11
14.9335072265
 21
13.1130387517
  0
LINE
  5
22A
100
AcDbEntity
  8
0
100
AcDbLine
 62
7
  6
BYLAYER
 10
16.6536864187
 20
12.8829075432
 11
16.6463558973
 21
12.9641628777
  0
LINE
  5
22B
100
AcDbEntity
  8
0
100
AcDbLine
 62
7
  6
BYLAYER
 10
17.5013143925
 20
14.2733772751
 11
17.5013143925
 21
16.9755663976
  0
LINE
  5
22C
100
AcDbEntity
  8
0
100
AcDbLine
 62
7
  6
BYLAYER
 10
20.6512995356
 20
14.2733769271
 11
20.6512995356
 21
16.9755663976
  0
LINE
  5
22D
100
AcDbEntity
  8
0
100
AcDbLine
 62
7
  6
BYLAYER
 10
23.2191067016
 20
13.1130387517
 11
23.2191067016
 21
16.9755663976
  0
LINE
  5
22E
100
AcDbEntity
  8
0
100
AcDbLine
 62
7
  6
BYLAYER
 10
21.4068200514
 20
12.9641358867
 11
21.3994930785
 21
12.8829075413
  0
LINE
  5
22F
100
AcDbEntity
  8
0
100
AcDbLine
 62
7
  6
BYLAYER
 10
24.9011228647
 20
16.9755663976
 11
24.9011228647
 21
12.1563512479
  0
LINE
  5
230
100
AcDbEntity
  8
0
100
AcDbLine
 62
7
  6
BYLAYER
 10
28.5445276855
 20
11.9659016803
 11
28.5445276855
 21
16.9755663976
  0
LINE
  5
231
100
AcDbEntity
  8
0
100
AcDbLine
 62
7
  6
BYLAYER
 10
31.5265897487
 20
41.9755663976
 11
31.5265897487
 21
16.9755663976
  0
LINE
  5
232
100
AcDbEntity
  8
0
100
AcDbLine
 62
7
  6
BYLAYER
 10
32.3956415803
 20
15.6755663976
 11
32.3956415803
 21
16.9755663976
  0
LINE
  5
233
100
AcDbEntity
  8
0
100
AcDbLine
 62
7
  6
BYLAYER
 10
34.0265897487
 20
11.9755663976
 11
34.0265897487
 21
41.9755663976
  0
LINE
  5
234
100
AcDbEntity
  8
0
100
AcDbLine
 62
7
  6
BYLAYER
 10
4.0265897487
 20
41.9755663976
 11
34.0265897487
 21
41.9755663976
  0
ARC
  5
235
100
AcDbEntity
  8
0
100
AcDbCircle
 62
7
  6
BYLAYER
 10
18.8485758854
 20
7.8531667269
 40
5.6811810173
100
AcDbArc
 50
98.2529135373
 51
101.2664962489
  0
ARC
  5
236
100
AcDbEntity
  8
0
100
AcDbCircle
 62
7
  6
BYLAYER
 10
19.2176432691
 20
7.9290974074
 40
5.6041656012
100
AcDbArc
 50
78.7125924147
 51
81.7675845433
  0
CIRCLE
  5
237
100
AcDbEntity
  8
0
100
AcDbCircle
 62
7
  6
BYLAYER
 10
19.0265897487
 20
29.4755663976
 40
4.0
  0
ARC
  5
238
100
AcDbEntity
  8
0
100
AcDbCircle
 62
7
  6
BYLAYER
 10
18.630190791
 20
11.3821999312
 40
3.1037500767
100
AcDbArc
 50
108.578313991
 51
111.3277770251
  0
ARC
  5
239
100
AcDbEntity
  8
0
100
AcDbCircle
 62
7
  6
BYLAYER
 10
19.5448552918
 20
11.4439748054
 40
3.0380478635
100
AcDbArc
 50
68.6420479908
 51
71.451515641
  0
SPLINE
  5
23A
100
AcDbEntity
  8
0
100
AcDbSpline
 62
7
  6
BYLAYER
 70
0
 71
3
 72
12
 73
8
 74
0
 42
0.0000001
 43
0.0000001
 44
0.0000000001
 40
0.0
 40
0.0
 40
0.0
 40
0.0
 40
0.3034365233
 40
0.5738933082
 40
0.8069153553
 40
0.9085645787
 40
1.0
 40
1.0
 40
1.0
 40
1.0
 10
17.7386224563
 20
13.4248688046
 30
0.0
 10
17.6344175086
 20
13.4047224708
 30
0.0
 10
17.4383374155
 20
13.3609927804
 30
0.0
 10
17.1674120699
 20
13.2811411214
 30
0.0
 10
16.9695188531
 20
13.2050324656
 30
0.0
 10
16.8353017871
 20
13.1400623961
 30
0.0
 10
16.7764797068
 20
13.106734198
 30
0.0
 10
16.749340229
 20
13.0898141832
 30
0.0
  0
SPLINE
  5
23B
100
AcDbEntity
  8
0
100
AcDbSpline
 62
7
  6
BYLAYER
 70
0
 71
3
 72
9
 73
5
 74
0
 42
0.0000001
 43
0.0000001
 44
0.0000000001
 40
0.0
 40
0.0
 40
0.0
 40
0.0
 40
0.5445566581
 40
1.0
 40
1.0
 40
1.0
 40
1.0
 10
16.749340229
 20
13.0898141832
 30
0.0
 10
16.7182115588
 20
13.07040712
 30
0.0
 10
16.6626768684
 20
13.0320286019
 30
0.0
 10
16.6129279594
 20
12.9859920857
 30
0.0
 10
16.5928997618
 20
12.9627514515
 30
0.0
  0
SPLINE
  5
23C
100
AcDbEntity
  8
0
100
AcDbSpline
 62
7
  6
BYLAYER
 70
0
 71
3
 72
9
 73
5
 74
0
 42
0.0000001
 43
0.0000001
 44
0.0000000001
 40
0.0
 40
0.0
 40
0.0
 40
0.0
 40
0.2633344295
 40
1.0
 40
1.0
 40
1.0
 40
1.0
 10
16.5928997618
 20
12.9627514515
 30
0.0
 10
16.5896514495
 20
12.9589821238
 30
0.0
 10
16.5775909784
 20
12.9444376714
 30
0.0
 10
16.5666767099
 20
12.928912985
 30
0.0
 10
16.5595991133
 20
12.9169268265
 30
0.0
  0
SPLINE
  5
23D
100
AcDbEntity
  8
0
100
AcDbSpline
 62
7
  6
BYLAYER
 70
0
 71
3
 72
9
 73
5
 74
0
 42
0.0000001
 43
0.0000001
 44
0.0000000001
 40
0.0
 40
0.0
 40
0.0
 40
0.0
 40
0.5251674016
 40
1.0
 40
1.0
 40
1.0
 40
1.0
 10
16.5595991133
 20
12.9169268265
 30
0.0
 10
16.5508933589
 20
12.9021833254
 30
0.0
 10
16.536953246
 20
12.8723376672
 30
0.0
 10
16.5315897487
 20
12.839614811
 30
0.0
 10
16.5315897487
 20
12.8241339236
 30
0.0
  0
SPLINE
  5
23E
100
AcDbEntity
  8
0
100
AcDbSpline
 62
7
  6
BYLAYER
 70
0
 71
3
 72
9
 73
5
 74
0
 42
0.0000001
 43
0.0000001
 44
0.0000000001
 40
0.0
 40
0.0
 40
0.0
 40
0.0
 40
0.4748341272
 40
1.0
 40
1.0
 40
1.0
 40
1.0
 10
21.5215897487
 20
12.8241339236
 30
0.0
 10
21.5215897487
 20
12.8396140786
 30
0.0
 10
21.5162267648
 20
12.8723352755
 30
0.0
 10
21.5022878841
 20
12.9021796492
 30
0.0
 10
21.4935828778
 20
12.9169225295
 30
0.0
  0
SPLINE
  5
23F
100
AcDbEntity
  8
0
100
AcDbSpline
 62
7
  6
BYLAYER
 70
0
 71
3
 72
9
 73
5
 74
0
 42
0.0000001
 43
0.0000001
 44
0.0000000001
 40
0.0
 40
0.0
 40
0.0
 40
0.0
 40
0.237325274
 40
1.0
 40
1.0
 40
1.0
 40
1.0
 10
21.4935828778
 20
12.9169225295
 30
0.0
 10
21.4913040118
 20
12.9207820384
 30
0.0
 10
21.4812822874
 20
12.9367963717
 30
0.0
 10
21.4697060241
 20
12.9518111093
 30
0.0
 10
21.4603041497
 20
12.9627231288
 30
0.0
  0
SPLINE
  5
240
100
AcDbEntity
  8
0
100
AcDbSpline
 62
7
  6
BYLAYER
 70
0
 71
3
 72
9
 73
5
 74
0
 42
0.0000001
 43
0.0000001
 44
0.0000000001
 40
0.0
 40
0.0
 40
0.0
 40
0.0
 40
0.4554141411
 40
1.0
 40
1.0
 40
1.0
 40
1.0
 10
21.4603041497
 20
12.9627231288
 30
0.0
 10
21.4402646238
 20
12.9859814374
 30
0.0
 10
21.3904781644
 20
13.0320523182
 30
0.0
 10
21.3348989334
 20
13.0704545952
 30
0.0
 10
21.3037435278
 20
13.089873917
 30
0.0
  0
SPLINE
  5
241
100
AcDbEntity
  8
0
100
AcDbSpline
 62
7
  6
BYLAYER
 70
0
 71
3
 72
12
 73
8
 74
0
 42
0.0000001
 43
0.0000001
 44
0.0000000001
 40
0.0
 40
0.0
 40
0.0
 40
0.0
 40
0.0914429836
 40
0.1930976034
 40
0.4261238758
 40
0.6965758332
 40
1.0
 40
1.0
 40
1.0
 40
1.0
 10
21.3037435278
 20
13.089873917
 30
0.0
 10
21.2766029944
 20
13.1067907486
 30
0.0
 10
21.2177805229
 20
13.1401126264
 30
0.0
 10
21.083568579
 20
13.205070204
 30
0.0
 10
20.8856931364
 20
13.2811657012
 30
0.0
 10
20.6148001195
 20
13.361003778
 30
0.0
 10
20.4187465609
 20
13.4047254576
 30
0.0
 10
20.3145570411
 20
13.4248688046
 30
0.0
  0
SPLINE
  5
242
100
AcDbEntity
  8
0
100
AcDbSpline
 62
7
  6
BYLAYER
 70
0
 71
3
 72
11
 73
7
 74
0
 42
0.0000001
 43
0.0000001
 44
0.0000000001
 40
0.0
 40
0.0
 40
0.0
 40
0.0
 40
0.249915852
 40
0.5000098655
 40
0.7501231016
 40
1.0
 40
1.0
 40
1.0
 40
1.0
 10
16.9214527796
 20
12.488309166
 30
0.0
 10
16.8848913679
 20
12.5075430056
 30
0.0
 10
16.8160355115
 20
12.5549211393
 30
0.0
 10
16.732974419
 20
12.6486474499
 30
0.0
 10
16.6757753811
 20
12.7600829738
 30
0.0
 10
16.6573988103
 20
12.8417691965
 30
0.0
 10
16.6536864187
 20
12.8829075432
 30
0.0
  0
SPLINE
  5
243
100
AcDbEntity
  8
0
100
AcDbSpline
 62
7
  6
BYLAYER
 70
0
 71
3
 72
11
 73
7
 74
0
 42
0.0000001
 43
0.0000001
 44
0.0000000001
 40
0.0
 40
0.0
 40
0.0
 40
0.0
 40
0.2498769128
 40
0.4999901701
 40
0.750084165
 40
1.0
 40
1.0
 40
1.0
 40
1.0
 10
21.3994930785
 20
12.8829075413
 30
0.0
 10
21.3957806897
 20
12.8417692259
 30
0.0
 10
21.3774041353
 20
12.7600830659
 30
0.0
 10
21.3202051847
 20
12.648647613
 30
0.0
 10
21.2371442072
 20
12.5549213402
 30
0.0
 10
21.1682884192
 20
12.5075432332
 30
0.0
 10
21.13172704
 20
12.4883094108
 30
0.0
  0
SPLINE
  5
244
100
AcDbEntity
  8
0
100
AcDbSpline
 62
7
  6
BYLAYER
 70
0
 71
3
 72
31
 73
27
 74
0
 42
0.0000001
 43
0.0000001
 44
0.0000000001
 40
0.0
 40
0.0
 40
0.0
 40
0.0
 40
0.1249467985
 40
0.1874521683
 40
0.2187068791
 40
0.2499604966
 40
0.2812186892
 40
0.3124766004
 40
0.3437261311
 40
0.3749793793
 40
0.4062408848
 40
0.4374940167
 40
0.4687410237
 40
0.4999999006
 40
0.5312584502
 40
0.5625052557
 40
0.5937587893
 40
0.6250203426
 40
0.6562733004
 40
0.6875228878
 40
0.7187810368
 40
0.7500392439
 40
0.7812927817
 40
0.8125475082
 40
0.8750530628
 40
1.0
 40
1.0
 40
1.0
 40
1.0
 10
16.9214527796
 20
12.488309166
 30
0.0
 10
17.0801440069
 20
12.395684672
 30
0.0
 10
17.3277917965
 20
12.2722296491
 30
0.0
 10
17.6285726234
 20
12.1578334218
 30
0.0
 10
17.8035120398
 20
12.1011915864
 30
0.0
 10
17.936081121
 20
12.0631627401
 30
0.0
 10
18.0697530388
 20
12.0292147057
 30
0.0
 10
18.2043699367
 20
11.9992323871
 30
0.0
 10
18.3400308386
 20
11.9743595485
 30
0.0
 10
18.4765661079
 20
11.9549031502
 30
0.0
 10
18.6135494165
 20
11.9390008227
 30
0.0
 10
18.7509171396
 20
11.9267285149
 30
0.0
 10
18.8886940568
 20
11.9203843541
 30
0.0
 10
19.0265890782
 20
11.9189180239
 30
0.0
 10
19.1644851619
 20
11.9203419114
 30
0.0
 10
19.302259844
 20
11.9267416287
 30
0.0
 10
19.4396254562
 20
11.9390302816
 30
0.0
 10
19.5766151085
 20
11.9548792103
 30
0.0
 10
19.713151483
 20
11.9743314908
 30
0.0
 10
19.8488047596
 20
11.9992465638
 30
0.0
 10
19.9834187544
 20
12.0292415864
 30
0.0
 10
20.1170958682
 20
12.0631696296
 30
0.0
 10
20.2496698718
 20
12.1011816666
 30
0.0
 10
20.4246092521
 20
12.1578249273
 30
0.0
 10
20.725384034
 20
12.2722378526
 30
0.0
 10
20.9730356365
 20
12.3956848139
 30
0.0
 10
21.13172704
 20
12.4883094108
 30
0.0
  0
SPLINE
  5
245
100
AcDbEntity
  8
0
100
AcDbSpline
 62
7
  6
BYLAYER
 70
0
 71
3
 72
22
 73
18
 74
0
 42
0.0000001
 43
0.0000001
 44
0.0000000001
 40
0.0
 40
0.0
 40
0.0
 40
0.0
 40
0.0549859859
 40
0.1130512515
 40
0.1736474808
 40
0.2362722468
 40
0.3005543473
 40
0.3662616037
 40
0.4329731177
 40
0.5000831186
 40
0.6337593104
 40
0.6994781994
 40
0.7637580307
 40
0.8263685937
 40
0.8869533804
 40
0.9450145356
 40
1.0
 40
1.0
 40
1.0
 40
1.0
 10
20.511271881
 20
14.3242106917
 30
0.0
 10
20.459713816
 20
14.3415502681
 30
0.0
 10
20.3541124725
 20
14.3783875449
 30
0.0
 10
20.1921640144
 20
14.4356735003
 30
0.0
 10
20.0225019905
 20
14.4938135723
 30
0.0
 10
19.8456191629
 20
14.5497649025
 30
0.0
 10
19.6616096839
 20
14.5995659877
 30
0.0
 10
19.4709273491
 20
14.6390856536
 30
0.0
 10
19.2750514633
 20
14.6650298895
 30
0.0
 10
19.0104029632
 20
14.6779840954
 30
0.0
 10
18.7464356294
 20
14.6524849414
 30
0.0
 10
18.4909510918
 20
14.5995142706
 30
0.0
 10
18.3069152151
 20
14.5497418912
 30
0.0
 10
18.1300592228
 20
14.4938154377
 30
0.0
 10
17.9604294635
 20
14.4356672763
 30
0.0
 10
17.7984967067
 20
14.3783858964
 30
0.0
 10
17.6928996026
 20
14.3415501037
 30
0.0
 10
17.6413420266
 20
14.3242106917
 30
0.0
  0
SPLINE
  5
246
100
AcDbEntity
  8
0
100
AcDbSpline
 62
7
  6
BYLAYER
 70
0
 71
3
 72
11
 73
7
 74
0
 42
0.0000001
 43
0.0000001
 44
0.0000000001
 40
0.0
 40
0.0
 40
0.0
 40
0.0
 40
0.240866392
 40
0.4895081243
 40
0.743442474
 40
1.0
 40
1.0
 40
1.0
 40
1.0
 10
20.0193460778
 20
13.4755663976
 30
0.0
 10
19.9401783156
 20
13.4867604716
 30
0.0
 10
19.7788645529
 20
13.5066364218
 30
0.0
 10
19.5329317588
 20
13.5277478237
 30
0.0
 10
19.2812220629
 20
13.5405919005
 30
0.0
 10
19.111753647
 20
13.5436706597
 30
0.0
 10
19.0265897487
 20
13.5436706597
 30
0.0
  0
SPLINE
  5
247
100
AcDbEntity
  8
0
100
AcDbSpline
 62
7
  6
BYLAYER
 70
0
 71
3
 72
11
 73
7
 74
0
 42
0.0000001
 43
0.0000001
 44
0.0000000001
 40
0.0
 40
0.0
 40
0.0
 40
0.0
 40
0.2277748898
 40
0.4634536034
 40
0.7179541047
 40
1.0
 40
1.0
 40
1.0
 40
1.0
 10
16.5315897487
 20
12.8241339236
 30
0.0
 10
16.5315897487
 20
12.8126502277
 30
0.0
 10
16.534426392
 20
12.7891880343
 30
0.0
 10
16.5472466063
 20
12.7550208493
 30
0.0
 10
16.5683716986
 20
12.7220350423
 30
0.0
 10
16.5867855343
 20
12.7020454658
 30
0.0
 10
16.5970906388
 20
12.6922470212
 30
0.0
  0
SPLINE
  5
248
100
AcDbEntity
  8
0
100
AcDbSpline
 62
7
  6
BYLAYER
 70
0
 71
3
 72
9
 73
5
 74
0
 42
0.0000001
 43
0.0000001
 44
0.0000000001
 40
0.0
 40
0.0
 40
0.0
 40
0.0
 40
0.4627115866
 40
1.0
 40
1.0
 40
1.0
 40
1.0
 10
16.5970906388
 20
12.6922470212
 30
0.0
 10
16.6126702402
 20
12.6774334052
 30
0.0
 10
16.6495314024
 20
12.648760266
 30
0.0
 10
16.689788643
 20
12.6253695667
 30
0.0
 10
16.7119310903
 20
12.6138429429
 30
0.0
  0
SPLINE
  5
249
100
AcDbEntity
  8
0
100
AcDbSpline
 62
7
  6
BYLAYER
 70
0
 71
3
 72
10
 73
6
 74
0
 42
0.0000001
 43
0.0000001
 44
0.0000000001
 40
0.0
 40
0.0
 40
0.0
 40
0.0
 40
0.25000014
 40
0.6249999887
 40
1.0
 40
1.0
 40
1.0
 40
1.0
 10
9.6377370233
 20
11.9659016803
 30
0.0
 10
9.5651950465
 20
11.9657422725
 30
0.0
 10
9.3838407371
 20
11.9650532206
 30
0.0
 10
9.0936717316
 20
11.9653934776
 30
0.0
 10
8.8760457299
 20
11.964945277
 30
0.0
 10
8.7672325597
 20
11.964945277
 30
0.0
  0
SPLINE
  5
24A
100
AcDbEntity
  8
0
100
AcDbSpline
 62
7
  6
BYLAYER
 70
0
 71
3
 72
16
 73
12
 74
0
 42
0.0000001
 43
0.0000001
 44
0.0000000001
 40
0.0
 40
0.0
 40
0.0
 40
0.0
 40
0.0329465611
 40
0.070555252
 40
0.1127752245
 40
0.1595163932
 40
0.265989023
 40
0.3886132006
 40
0.5255380566
 40
0.6746593405
 40
1.0
 40
1.0
 40
1.0
 40
1.0
 10
13.2500840854
 20
12.1563876093
 30
0.0
 10
13.212070196
 20
12.1445641074
 30
0.0
 10
13.1295850798
 20
12.1226925191
 30
0.0
 10
12.9960303001
 20
12.0953955409
 30
0.0
 10
12.8449523264
 20
12.0713568852
 30
0.0
 10
12.6105623578
 20
12.0423172015
 30
0.0
 10
12.2782615644
 20
12.0149791468
 30
0.0
 10
11.8364899874
 20
11.9931655982
 30
0.0
 10
11.3428522259
 20
11.9792620724
 30
0.0
 10
10.6041677484
 20
11.9683416685
 30
0.0
 10
10.0308523731
 20
11.9665896371
 30
0.0
 10
9.6377353912
 20
11.9659017386
 30
0.0
  0
SPLINE
  5
24B
100
AcDbEntity
  8
0
100
AcDbSpline
 62
7
  6
BYLAYER
 70
0
 71
3
 72
11
 73
7
 74
0
 42
0.0000001
 43
0.0000001
 44
0.0000000001
 40
0.0
 40
0.0
 40
0.0
 40
0.0
 40
0.285785348
 40
0.5491157194
 40
0.7878946932
 40
1.0
 40
1.0
 40
1.0
 40
1.0
 10
17.5013479736
 20
14.2733897264
 30
0.0
 10
17.2500336341
 20
14.1785175143
 30
0.0
 10
16.7701607908
 20
13.9881287832
 30
0.0
 10
16.0911131206
 20
13.6922318371
 30
0.0
 10
15.4847953346
 20
13.4037517169
 30
0.0
 10
15.1085093259
 20
13.2085054733
 30
0.0
 10
14.9334902598
 20
13.1130249674
 30
0.0
  0
SPLINE
  5
24C
100
AcDbEntity
  8
0
100
AcDbSpline
 62
7
  6
BYLAYER
 70
0
 71
3
 72
11
 73
7
 74
0
 42
0.0000001
 43
0.0000001
 44
0.0000000001
 40
0.0
 40
0.0
 40
0.0
 40
0.0
 40
0.2123347165
 40
0.45117523
 40
0.7144193996
 40
1.0
 40
1.0
 40
1.0
 40
1.0
 10
23.2191119455
 20
13.1130344874
 30
0.0
 10
23.0437981366
 20
13.2084103728
 30
0.0
 10
22.6671259054
 20
13.4034657915
 30
0.0
 10
22.0605961933
 20
13.691886158
 30
0.0
 10
21.3818380293
 20
13.9878365195
 30
0.0
 10
20.9023464114
 20
14.1783894135
 30
0.0
 10
20.651292293
 20
14.2733796869
 30
0.0
  0
SPLINE
  5
24D
100
AcDbEntity
  8
0
100
AcDbSpline
 62
7
  6
BYLAYER
 70
0
 71
3
 72
16
 73
12
 74
0
 42
0.0000001
 43
0.0000001
 44
0.0000000001
 40
0.0
 40
0.0
 40
0.0
 40
0.0
 40
0.3245928402
 40
0.4735208226
 40
0.6103800977
 40
0.7330690143
 40
0.8397365995
 40
0.8866226251
 40
0.9290173942
 40
0.9668280797
 40
1.0
 40
1.0
 40
1.0
 40
1.0
 10
28.5445288677
 20
11.9659017233
 30
0.0
 10
28.1489592444
 20
11.9665810317
 30
0.0
 10
27.5718851109
 20
11.9683107543
 30
0.0
 10
26.8281043648
 20
11.9791584253
 30
0.0
 10
26.3304749017
 20
11.9930088363
 30
0.0
 10
25.8846756712
 20
12.014783816
 30
0.0
 10
25.5490192481
 20
12.0421133798
 30
0.0
 10
25.3119637213
 20
12.0711688946
 30
0.0
 10
25.1589241159
 20
12.0952479572
 30
0.0
 10
25.0234443101
 20
12.1226092668
 30
0.0
 10
24.9396809987
 20
12.1445305489
 30
0.0
 10
24.9010315151
 20
12.1563811755
 30
0.0
  0
SPLINE
  5
24E
100
AcDbEntity
  8
0
100
AcDbSpline
 62
7
  6
BYLAYER
 70
0
 71
3
 72
10
 73
6
 74
0
 42
0.0000001
 43
0.0000001
 44
0.0000000001
 40
0.0
 40
0.0
 40
0.0
 40
0.0
 40
0.2499999963
 40
0.6250000182
 40
1.0
 40
1.0
 40
1.0
 40
1.0
 10
29.4334799729
 20
11.964945277
 30
0.0
 10
29.3594005436
 20
11.964945277
 30
0.0
 10
29.1742021738
 20
11.9653354522
 30
0.0
 10
28.8778840693
 20
11.9649155115
 30
0.0
 10
28.6556465684
 20
11.9656625707
 30
0.0
 10
28.5445276855
 20
11.9659016803
 30
0.0
  0
SPLINE
  5
24F
100
AcDbEntity
  8
0
100
AcDbSpline
 62
7
  6
BYLAYER
 70
0
 71
3
 72
9
 73
5
 74
0
 42
0.0000001
 43
0.0000001
 44
0.0000000001
 40
0.0
 40
0.0
 40
0.0
 40
0.0
 40
0.5378164855
 40
1.0
 40
1.0
 40
1.0
 40
1.0
 10
21.3412115146
 20
12.6138230416
 30
0.0
 10
21.3636351426
 20
12.6254949231
 30
0.0
 10
21.404353041
 20
12.6491807128
 30
0.0
 10
21.4415711303
 20
12.678299156
 30
0.0
 10
21.4572398402
 20
12.6933471601
 30
0.0
  0
SPLINE
  5
250
100
AcDbEntity
  8
0
100
AcDbSpline
 62
7
  6
BYLAYER
 70
0
 71
3
 72
11
 73
7
 74
0
 42
0.0000001
 43
0.0000001
 44
0.0000000001
 40
0.0
 40
0.0
 40
0.0
 40
0.0
 40
0.2815537418
 40
0.5359563465
 40
0.7718479051
 40
1.0
 40
1.0
 40
1.0
 40
1.0
 10
21.4572398402
 20
12.6933471601
 30
0.0
 10
21.4673706578
 20
12.7030766519
 30
0.0
 10
21.4854722821
 20
12.7229251421
 30
0.0
 10
21.5062197289
 20
12.7556396065
 30
0.0
 10
21.5188058144
 20
12.7895076239
 30
0.0
 10
21.5215897487
 20
12.8127518125
 30
0.0
 10
21.5215897487
 20
12.8241339236
 30
0.0
  0
SPLINE
  5
251
100
AcDbEntity
  8
0
100
AcDbSpline
 62
7
  6
BYLAYER
 70
0
 71
3
 72
11
 73
7
 74
0
 42
0.0000001
 43
0.0000001
 44
0.0000000001
 40
0.0
 40
0.0
 40
0.0
 40
0.0
 40
0.2565575148
 40
0.5104918504
 40
0.7591335966
 40
1.0
 40
1.0
 40
1.0
 40
1.0
 10
19.0265897487
 20
13.5436706597
 30
0.0
 10
18.9414258546
 20
13.5436706597
 30
0.0
 10
18.7719574483
 20
13.5405918946
 30
0.0
 10
18.5202477567
 20
13.5277478338
 30
0.0
 10
18.2743149621
 20
13.506636412
 30
0.0
 10
18.1130011909
 20
13.4867604709
 30
0.0
 10
18.0338334252
 20
13.4755663976
 30
0.0
  0
ELLIPSE
  5
252
100
AcDbEntity
  8
0
100
AcDbEllipse
 62
7
  6
BYLAYER
 10
29.4334799729
 20
42.5162779724
 30
0.0
 11
112.3469820618
 21
-0.0
 31
0.0
 40
0.2719372798
 41
-1.5707963268
 42
-1.5444270834
  0
ELLIPSE
  5
253
100
AcDbEntity
  8
0
100
AcDbEllipse
 62
7
  6
BYLAYER
 10
8.7672325597
 20
42.5162779724
 30
0.0
 11
110.0155213505
 21
-0.0
 31
0.0
 40
0.2777002038
 41
-1.5971655702
 42
-1.5707963268
  0
ELLIPSE
  5
254
100
AcDbEntity
  8
0
100
AcDbEllipse
 62
7
  6
BYLAYER
 10
12.0725241848
 20
42.5162779724
 30
0.0
 11
-0.0
 21
30.5513326953
 31
0.0
 40
0.3448383085
 41
-3.0295960997
 42
-2.8665766
  0
ELLIPSE
  5
255
100
AcDbEntity
  8
0
100
AcDbEllipse
 62
7
  6
BYLAYER
 10
26.077509957
 20
42.5162779724
 30
0.0
 11
-0.0
 21
30.5513326953
 31
0.0
 40
0.3445273632
 41
-3.4166087072
 42
-3.2535892075
  0
ENDSEC
  0
SECTION
  2
OBJECTS
  0
DICTIONARY
  5
C
100
AcDbDictionary
280
0
281
1
  3
ACAD_GROUP
350
D
  3
ACAD_MLINESTYLE
350
17
  3
ACAD_LAYOUT
350
1A
  3
ACAD_PLOTSETTINGS
350
19
  3
ACAD_PLOTSTYLENAME
350
E
  0
DICTIONARY
  5
D
102
{ACAD_REACTORS
330
C
102
}
100
AcDbDictionary
280
0
281
1
  0
ACDBDICTIONARYWDFLT
  5
E
102
{ACAD_REACTORS
330
C
102
}
100
AcDbDictionary
281
1
  3
Normal
350
F
100
AcDbDictionaryWithDefault
340
F
  0
DICTIONARY
  5
17
102
{ACAD_REACTORS
330
C
102
}
100
AcDbDictionary
280
0
281
1
  3
Standard
350
18
  0
DICTIONARY
  5
19
102
{ACAD_REACTORS
330
C
102
}
100
AcDbDictionary
281
1
  0
DICTIONARY
  5
1A
102
{ACAD_REACTORS
330
C
102
}
100
AcDbDictionary
281
1
  3
Model
350
256
  3
Layout1
350
257
  0
ACDBPLACEHOLDER
  5
F
102
{ACAD_REACTORS
330
E
102
}
  0
MLINESTYLE
  5
18
102
{ACAD_REACTORS
330
17
102
}
100
AcDbMlineStyle
  2
STANDARD
 70
0
  3

 62
256
 51
90.0
 52
90.0
 71
2
 49
0.5
 62
256
  6
BYLAYER
 49
-0.5
 62
256
  6
BYLAYER
  0
LAYOUT
  5
256
102
{ACAD_REACTORS
330
1A
102
}
100
AcDbPlotSettings
  1

  2
none_device
  4

  6

 40
0.0
 41
0.0
 42
0.0
 43
0.0
 44
210.0
 45
297.0
 46
0.0
 47
0.0
 48
0.0
 49
0.0
140
0.0
141
0.0
142
1.0
143
1.0
 70
1024
 72
1
 73
0
 74
0
  7

 75
0
147
1.0
148
0.0
149
0.0
100
AcDbLayout
  1
Model
 70
0
 71
0
 10
0.0
 20
0.0
 11
210.0
 21
297.0
 12
0.0
 22
0.0
 32
0.0
 14
0.0
 24
0.0
 34
0.0
 15
0.0
 25
0.0
 35
0.0
146
0.0
 13
0.0
 23
0.0
 33
0.0
 16
1.0
 26
0.0
 36
0.0
 17
0.0
 27
1.0
 37
0.0
 76
0
330
210
345
0
346
0
  0
LAYOUT
  5
257
102
{ACAD_REACTORS
330
1A
102
}
100
AcDbPlotSettings
  1

  2
none_device
  4

  6

 40
0.0
 41
0.0
 42
0.0
 43
0.0
 44
210.0
 45
297.0
 46
0.0
 47
0.0
 48
0.0
 49
0.0
140
0.0
141
0.0
142
1.0
143
1.0
 70
0
 72
1
 73
0
 74
0
  7

 75
0
147
1.0
148
0.0
149
0.0
100
AcDbLayout
  1
Layout1
 70
0
 71
1
 10
0.0
 20
0.0
 11
210.0
 21
297.0
 12
0.0
 22
0.0
 32
0.0
 14
0.0
 24
0.0
 34
0.0
 15
0.0
 25
0.0
 35
0.0
146
0.0
 13
0.0
 23
0.0
 33
0.0
 16
1.0
 26
0.0
 36
0.0
 17
0.0
 27
1.0
 37
0.0
 76
0
330
211
345
0
346
0
  0
ENDSEC
  0
EOF
