999
DXF file: C:\Users\sesa63760\Dev\_Creo\CAD\MCADID0003437_3D-CAD\drw0001_1.dxf
999
Pro/ENGINEER 2019471 by Parametric Technology Corporation
  0
SECTION
  2
HEADER
  9
$ACADVER
  1
AC1024
  9
$DWGCODEPAGE
  3
ANSI_1252
  9
$EXTMAX
 10
99.0285896661
 20
140.0547196706
 30
0.0
  9
$EXTMIN
 10
0.0
 20
0.0
 30
0.0
  9
$LIMMIN
 10
0.0
 20
0.0
  9
$LIMMAX
 10
99.0285896661
 20
140.0547196706
  9
$VIEWCTR
 10
49.514294833
 20
70.0273598353
  9
$VIEWSIZE
 40
140.0547196706
  9
$CLAYER
  8
0
  9
$LTSCALE
 40
9.1294928378
  9
$CELTYPE
  6
BYLAYER
  9
$DIMSCALE
 40
1.0
  9
$DIMASZ
 40
1.1789117817
  9
$DIMEXO
 40
1.0
  9
$DIMDLI
 40
6.307649597
  9
$DIMEXE
 40
1.0
  9
$DIMCEN
 40
1.4939170098
  9
$DIMLFAC
 40
1.0
  9
$DIMBLK
  1
_FILLED
  9
$DIMALT
 70
0
  9
$DIMALTF
 40
0.0393700787
  9
$DIMTXT
 40
1.6504764944
  9
$DIMTOL
 70
1
  9
$DIMLIM
 70
0
  9
$DIMTFAC
 40
1.0
  9
$DIMTP
 40
0.01
  9
$DIMTM
 40
0.01
  9
$DIMGAP
 40
0.625
  9
$DIMDSEP
 70
46
  9
$AUNITS
 70
0
  9
$PDMODE
 70
3
  9
$PDSIZE
 40
0.3125
  9
$HANDSEED
  5
30D
  9
$TILEMODE
 70
1
  9
$MEASUREMENT
 70
1
  9
$INSUNITS
 70
4
  0
ENDSEC
  0
SECTION
  2
CLASSES
  0
CLASS
  1
ACDBDICTIONARYWDFLT
  2
AcDbDictionaryWithDefault
  3
AutoCAD 2000
 90
0
 91
1
280
0
281
0
  0
CLASS
  1
ACDBPLACEHOLDER
  2
AcDbPlaceHolder
  3
AutoCAD 2000
 90
0
 91
1
280
0
281
0
  0
CLASS
  1
LAYOUT
  2
AcDbLayout
  3
AutoCAD 2000
 90
0
 91
0
280
0
281
0
  0
ENDSEC
  0
SECTION
  2
TABLES
  0
TABLE
  2
VPORT
  5
8
100
AcDbSymbolTable
 70
2
  0
VPORT
  5
1F4
100
AcDbSymbolTableRecord
100
AcDbViewportTableRecord
  2
*ACTIVE
 70
0
 10
0.0
 20
0.0
 11
1.0
 21
1.0
 12
49.514294833
 22
70.0273598353
 13
0.0
 23
0.0
 14
1.0
 24
1.0
 15
0.0
 25
0.0
 16
0.0
 26
0.0
 36
1.0
 17
0.0
 27
0.0
 37
0.0
 40
140.0547196706
 41
0.7070707071
 42
50.0
 43
0.0
 44
0.0
 50
0.0
 51
0.0
 71
0
 72
100
 73
1
 74
1
 75
0
 76
0
 77
0
 78
0
  0
ENDTAB
  0
TABLE
  2
LTYPE
  5
5
100
AcDbSymbolTable
 70
6
  0
LTYPE
  5
14
100
AcDbSymbolTableRecord
100
AcDbLinetypeTableRecord
  2
BYBLOCK
 70
0
  3

 72
65
 73
0
 40
0.0
  0
LTYPE
  5
15
100
AcDbSymbolTableRecord
100
AcDbLinetypeTableRecord
  2
BYLAYER
 70
0
  3

 72
65
 73
0
 40
0.0
  0
LTYPE
  5
16
100
AcDbSymbolTableRecord
100
AcDbLinetypeTableRecord
  2
CONTINUOUS
 70
64
  3
Solid line
 72
65
 73
0
 40
0.0
  0
LTYPE
  5
1F5
100
AcDbSymbolTableRecord
100
AcDbLinetypeTableRecord
  2
CENTER
 70
64
  3
____ _ ____ _ ____ _ ____ _ ____ _ ____ _ ____
 72
65
 73
4
 40
0.6
 49
0.375
 74
0
 49
-0.075
 74
0
 49
0.075
 74
0
 49
-0.075
 74
0
  0
LTYPE
  5
1F6
100
AcDbSymbolTableRecord
100
AcDbLinetypeTableRecord
  2
HIDDEN
 70
64
  3
- - - - - - - - - - - - - - - - - - - -
 72
65
 73
2
 40
0.2
 49
0.1
 74
0
 49
-0.1
 74
0
  0
LTYPE
  5
1F7
100
AcDbSymbolTableRecord
100
AcDbLinetypeTableRecord
  2
PHANTOM
 70
64
  3
_____ _ _ _____ _ _ _____ _ _ _____
 72
65
 73
6
 40
0.8
 49
0.45
 74
0
 49
-0.05
 74
0
 49
0.1
 74
0
 49
-0.05
 74
0
 49
0.1
 74
0
 49
-0.05
 74
0
  0
LTYPE
  5
1F8
100
AcDbSymbolTableRecord
100
AcDbLinetypeTableRecord
  2
DOT
 70
64
  3
. . . . . . . . . . . . . . . . . . . .
 72
65
 73
2
 40
0.2
 49
0.1
 74
0
 49
-0.1
 74
0
  0
LTYPE
  5
1F9
100
AcDbSymbolTableRecord
100
AcDbLinetypeTableRecord
  2
DASHED
 70
64
  3
- - - - - - - - - - - - - - - - - - - -
 72
65
 73
2
 40
0.2
 49
0.1
 74
0
 49
-0.1
 74
0
  0
ENDTAB
  0
TABLE
  2
LAYER
  5
2
100
AcDbSymbolTable
 70
36
  0
LAYER
  5
10
100
AcDbSymbolTableRecord
100
AcDbLayerTableRecord
  2
0
 70
0
 62
7
  6
CONTINUOUS
370
-3
390
F
  0
LAYER
  5
1FA
100
AcDbSymbolTableRecord
100
AcDbLayerTableRecord
  2
DEFAULT_1
 70
0
 62
7
  6
CENTER
370
-3
390
F
  0
LAYER
  5
1FB
100
AcDbSymbolTableRecord
100
AcDbLayerTableRecord
  2
DEFAULT_2
 70
0
 62
7
  6
HIDDEN
370
-3
390
F
  0
LAYER
  5
1FC
100
AcDbSymbolTableRecord
100
AcDbLayerTableRecord
  2
DEFAULT_3
 70
0
 62
7
  6
PHANTOM
370
-3
390
F
  0
LAYER
  5
1FD
100
AcDbSymbolTableRecord
100
AcDbLayerTableRecord
  2
00_COMPONENTS
 70
0
 62
7
  6
CONTINUOUS
370
-3
390
F
  0
LAYER
  5
1FE
100
AcDbSymbolTableRecord
100
AcDbLayerTableRecord
  2
01_1_DEFAULT_DATUMS
 70
0
 62
7
  6
CONTINUOUS
370
-3
390
F
  0
LAYER
  5
1FF
100
AcDbSymbolTableRecord
100
AcDbLayerTableRecord
  2
01_PLANES
 70
0
 62
7
  6
CONTINUOUS
370
-3
390
F
  0
LAYER
  5
200
100
AcDbSymbolTableRecord
100
AcDbLayerTableRecord
  2
02_COORD_SYS
 70
0
 62
7
  6
CONTINUOUS
370
-3
390
F
  0
LAYER
  5
201
100
AcDbSymbolTableRecord
100
AcDbLayerTableRecord
  2
03_AXES
 70
0
 62
7
  6
CONTINUOUS
370
-3
390
F
  0
LAYER
  5
202
100
AcDbSymbolTableRecord
100
AcDbLayerTableRecord
  2
04_POINTS
 70
0
 62
7
  6
CONTINUOUS
370
-3
390
F
  0
LAYER
  5
203
100
AcDbSymbolTableRecord
100
AcDbLayerTableRecord
  2
05_CURVES
 70
0
 62
7
  6
CONTINUOUS
370
-3
390
F
  0
LAYER
  5
204
100
AcDbSymbolTableRecord
100
AcDbLayerTableRecord
  2
06_SURFS
 70
0
 62
7
  6
CONTINUOUS
370
-3
390
F
  0
LAYER
  5
205
100
AcDbSymbolTableRecord
100
AcDbLayerTableRecord
  2
07_COSMETICS
 70
0
 62
7
  6
CONTINUOUS
370
-3
390
F
  0
LAYER
  5
206
100
AcDbSymbolTableRecord
100
AcDbLayerTableRecord
  2
10_NOTES
 70
0
 62
7
  6
CONTINUOUS
370
-3
390
F
  0
LAYER
  5
207
100
AcDbSymbolTableRecord
100
AcDbLayerTableRecord
  2
11_NOTES_PUB
 70
0
 62
7
  6
CONTINUOUS
370
-3
390
F
  0
LAYER
  5
208
100
AcDbSymbolTableRecord
100
AcDbLayerTableRecord
  2
13_REF_GTOL
 70
0
 62
7
  6
CONTINUOUS
370
-3
390
F
  0
LAYER
  5
209
100
AcDbSymbolTableRecord
100
AcDbLayerTableRecord
  2
16_MISC
 70
0
 62
7
  6
CONTINUOUS
370
-3
390
F
  0
LAYER
  5
20A
100
AcDbSymbolTableRecord
100
AcDbLayerTableRecord
  2
17_NO_PRINT
 70
0
 62
7
  6
CONTINUOUS
370
-3
390
F
  0
LAYER
  5
20B
100
AcDbSymbolTableRecord
100
AcDbLayerTableRecord
  2
18_DATUM_CAMS_JOINTS
 70
0
 62
7
  6
CONTINUOUS
370
-3
390
F
  0
LAYER
  5
20C
100
AcDbSymbolTableRecord
100
AcDbLayerTableRecord
  2
19_DATUM_FUNCTIONAL
 70
0
 62
7
  6
CONTINUOUS
370
-3
390
F
  0
LAYER
  5
20D
100
AcDbSymbolTableRecord
100
AcDbLayerTableRecord
  2
20_DATUM_KINEMATIC_SCHEME
 70
0
 62
7
  6
CONTINUOUS
370
-3
390
F
  0
ENDTAB
  0
TABLE
  2
STYLE
  5
3
100
AcDbSymbolTable
 70
1
  0
STYLE
  5
11
100
AcDbSymbolTableRecord
100
AcDbTextStyleTableRecord
  2
STANDARD
 70
0
 40
0.0
 41
1.0
 50
0.0
 71
0
 42
0.2
  3
ARIAL.TTF
  4

  0
STYLE
  5
20E
100
AcDbSymbolTableRecord
100
AcDbTextStyleTableRecord
  2
TEXTSTYLE_1
 70
0
 40
0.0
 41
0.8
 50
0.0
 71
0
 42
0.2
  3
gdt
  4

  0
ENDTAB
  0
TABLE
  2
VIEW
  5
6
100
AcDbSymbolTable
 70
0
  0
ENDTAB
  0
TABLE
  2
UCS
  5
7
100
AcDbSymbolTable
 70
0
  0
ENDTAB
  0
TABLE
  2
APPID
  5
9
100
AcDbSymbolTable
 70
1
  0
APPID
  5
20F
100
AcDbSymbolTableRecord
100
AcDbRegAppTableRecord
  2
ACAD
 70
0
  0
ENDTAB
  0
TABLE
  2
BLOCK_RECORD
  5
1
100
AcDbSymbolTable
 70
0
  0
BLOCK_RECORD
  5
210
100
AcDbSymbolTableRecord
100
AcDbBlockTableRecord
  2
*Model_Space
  0
BLOCK_RECORD
  5
211
100
AcDbSymbolTableRecord
100
AcDbBlockTableRecord
  2
*Paper_Space
  0
BLOCK_RECORD
  5
212
100
AcDbSymbolTableRecord
100
AcDbBlockTableRecord
  2
_FILLED
  0
ENDTAB
  0
TABLE
  2
DIMSTYLE
  5
A
100
AcDbSymbolTable
 70
1
100
AcDbDimStyleTable
 71
0
  0
DIMSTYLE
105
213
100
AcDbSymbolTableRecord
100
AcDbDimStyleTableRecord
  2
STANDARD
 70
0
  3

  4

 40
1.0
 41
1.1789117817
 42
1.0
 43
0.38
 44
1.0
 45
0.0
 46
0.0
 47
0.01
 48
0.01
140
1.6504764944
141
0.09
142
0.0
143
25.4
144
1.0
145
0.0
146
1.0
147
0.625
 71
1
 72
0
 73
0
 74
0
 75
0
 76
0
 77
1
 78
8
 79
2
170
0
171
1
172
0
173
0
174
0
175
0
176
0
177
0
178
0
270
2
179
2
271
2
272
2
273
2
274
2
275
0
280
0
281
0
282
0
283
1
284
8
285
0
286
0
287
3
288
0
340
11
278
46
341
212
342
212
343
212
344
212
  0
ENDTAB
  0
ENDSEC
  0
SECTION
  2
BLOCKS
  0
BLOCK
  5
20
100
AcDbEntity
  8
0
100
AcDbBlockBegin
  2
*Model_Space
 70
0
 10
0.0
 20
0.0
 30
0.0
  3
*Model_Space
  1

  0
ENDBLK
  5
21
100
AcDbEntity
  8
0
100
AcDbBlockEnd
  0
BLOCK
  5
1C
100
AcDbEntity
  8
0
100
AcDbBlockBegin
  2
*Paper_Space
 70
0
 10
0.0
 20
0.0
 30
0.0
  3
*Paper_Space
  1

  0
ENDBLK
  5
1D
100
AcDbEntity
  8
0
100
AcDbBlockEnd
  0
BLOCK
  5
214
100
AcDbEntity
  8
0
100
AcDbBlockBegin
  2
_FILLED
 70
64
 10
0.0
 20
0.0
  3
_FILLED
  1

  0
SOLID
  5
215
100
AcDbEntity
  8
0
  6
BYBLOCK
 62
0
100
AcDbTrace
 10
0.0
 20
0.0
 11
-1.0
 21
0.25
 12
-1.0
 22
-0.25
 13
-1.0
 23
-0.25
  0
ENDBLK
  5
216
100
AcDbEntity
  8
0
  6
BYBLOCK
 62
0
100
AcDbBlockEnd
  0
ENDSEC
  0
SECTION
  2
ENTITIES
  0
LINE
  5
217
100
AcDbEntity
  8
0
100
AcDbLine
 62
7
  6
BYLAYER
 10
23.8364604692
 20
126.8743172338
 11
20.3009412831
 21
124.8330964644
  0
LINE
  5
218
100
AcDbEntity
  8
0
100
AcDbLine
 62
7
  6
BYLAYER
 10
56.6635126641
 20
10.8567311313
 11
56.9135061217
 21
10.8319783851
  0
LINE
  5
219
100
AcDbEntity
  8
0
100
AcDbLine
 62
7
  6
BYLAYER
 10
19.6844352016
 20
119.0520851886
 11
21.8057467132
 21
120.2768176502
  0
LINE
  5
21A
100
AcDbEntity
  8
0
100
AcDbLine
 62
7
  6
BYLAYER
 10
32.7710941957
 20
126.2592055533
 11
30.8714349381
 21
125.1624433164
  0
LINE
  5
21B
100
AcDbEntity
  8
0
100
AcDbLine
 62
7
  6
BYLAYER
 10
23.6796051487
 20
119.4089795059
 11
25.8009166603
 21
120.6337119675
  0
LINE
  5
21C
100
AcDbEntity
  8
0
100
AcDbLine
 62
7
  6
BYLAYER
 10
36.7314586318
 20
125.2002164531
 11
37.1145780557
 21
125.4214092353
  0
LINE
  5
21D
100
AcDbEntity
  8
0
100
AcDbLine
 62
7
  6
BYLAYER
 10
39.2349044662
 20
121.7515673991
 11
39.8015950113
 21
122.0787443849
  0
LINE
  5
21E
100
AcDbEntity
  8
0
100
AcDbLine
 62
7
  6
BYLAYER
 10
27.6747750957
 20
114.4389646625
 11
29.7960866074
 21
115.6636971241
  0
LINE
  5
21F
100
AcDbEntity
  8
0
100
AcDbLine
 62
7
  6
BYLAYER
 10
39.8015950113
 20
120.7046742897
 11
55.1862093643
 21
129.5869325079
  0
LINE
  5
220
100
AcDbEntity
  8
0
100
AcDbLine
 62
7
  6
BYLAYER
 10
36.6465030094
 20
116.104431032
 11
39.6280047147
 21
117.825791569
  0
LINE
  5
221
100
AcDbEntity
  8
0
100
AcDbLine
 62
7
  6
BYLAYER
 10
27.6747750957
 20
109.1120555019
 11
29.7960866074
 21
110.3367879635
  0
LINE
  5
222
100
AcDbEntity
  8
0
100
AcDbLine
 62
7
  6
BYLAYER
 10
56.6635126641
 20
10.8567311313
 11
27.3227039916
 21
27.796271693
  0
LINE
  5
223
100
AcDbEntity
  8
0
100
AcDbLine
 62
7
  6
BYLAYER
 10
26.8078968109
 20
105.9270447114
 11
26.3072424307
 21
105.6379934956
  0
LINE
  5
224
100
AcDbEntity
  8
0
100
AcDbLine
 62
7
  6
BYLAYER
 10
27.1794860655
 20
104.018688434
 11
28.3815625887
 21
104.7127034955
  0
LINE
  5
225
100
AcDbEntity
  8
0
100
AcDbLine
 62
7
  6
BYLAYER
 10
34.8364112235
 20
107.8217299186
 11
31.3008920375
 21
105.7805091493
  0
LINE
  5
226
100
AcDbEntity
  8
0
100
AcDbLine
 62
7
  6
BYLAYER
 10
27.4853141752
 20
98.8035255888
 11
28.5518688241
 21
99.5140316784
  0
LINE
  5
227
100
AcDbEntity
  8
0
100
AcDbLine
 62
7
  6
BYLAYER
 10
28.6218916075
 20
99.4727491984
 11
28.4752595473
 21
99.3750674042
  0
LINE
  5
228
100
AcDbEntity
  8
0
100
AcDbLine
 62
7
  6
BYLAYER
 10
26.4249270883
 20
102.1416394758
 11
24.5157467278
 21
101.0393802603
  0
LINE
  5
229
100
AcDbEntity
  8
0
100
AcDbLine
 62
7
  6
BYLAYER
 10
27.4853141752
 20
98.8035255888
 11
28.4752595473
 21
99.3750674042
  0
LINE
  5
22A
100
AcDbEntity
  8
0
100
AcDbLine
 62
7
  6
BYLAYER
 10
25.0141724867
 20
97.2941568542
 11
26.0041178588
 21
97.8656986696
  0
LINE
  5
22B
100
AcDbEntity
  8
0
100
AcDbLine
 62
7
  6
BYLAYER
 10
25.6052773615
 20
97.2348820345
 11
27.8632010618
 21
98.5384871093
  0
LINE
  5
22C
100
AcDbEntity
  8
0
100
AcDbLine
 62
7
  6
BYLAYER
 10
24.8969209917
 20
99.2116950967
 11
25.9236030689
 21
99.7796366282
  0
LINE
  5
22D
100
AcDbEntity
  8
0
100
AcDbLine
 62
7
  6
BYLAYER
 10
26.9691491291
 20
38.1884843664
 11
31.1839421242
 21
35.755127546
  0
LINE
  5
22E
100
AcDbEntity
  8
0
100
AcDbLine
 62
7
  6
BYLAYER
 10
52.8022745316
 20
23.2740598706
 11
57.0170675267
 21
20.8407030502
  0
LINE
  5
22F
100
AcDbEntity
  8
0
100
AcDbLine
 62
7
  6
BYLAYER
 10
33.8705743856
 20
37.3062461464
 11
29.6557813905
 21
39.7396029668
  0
LINE
  5
230
100
AcDbEntity
  8
0
100
AcDbLine
 62
7
  6
BYLAYER
 10
56.004401406
 20
24.5275642504
 11
59.7036997881
 21
22.3918216506
  0
LINE
  5
231
100
AcDbEntity
  8
0
100
AcDbLine
 62
7
  6
BYLAYER
 10
23.8089425725
 20
95.1269536034
 11
24.0419034845
 21
95.2614528458
  0
LINE
  5
232
100
AcDbEntity
  8
0
100
AcDbLine
 62
7
  6
BYLAYER
 10
36.0471492158
 20
99.9115107979
 11
35.1703255808
 21
99.405279458
  0
LINE
  5
233
100
AcDbEntity
  8
0
100
AcDbLine
 62
7
  6
BYLAYER
 10
29.7490147616
 20
94.8425482529
 11
32.006938462
 21
96.1461533277
  0
LINE
  5
234
100
AcDbEntity
  8
0
100
AcDbLine
 62
7
  6
BYLAYER
 10
23.82425938
 20
96.7892643243
 11
25.0141724867
 21
97.2941568542
  0
LINE
  5
235
100
AcDbEntity
  8
0
100
AcDbLine
 62
7
  6
BYLAYER
 10
57.0170675267
 20
29.0102112895
 11
52.8022745316
 21
31.4435681099
  0
LINE
  5
236
100
AcDbEntity
  8
0
100
AcDbLine
 62
7
  6
BYLAYER
 10
31.1839421242
 20
43.9246357853
 11
26.9691491291
 21
46.3579926057
  0
LINE
  5
237
100
AcDbEntity
  8
0
100
AcDbLine
 62
7
  6
BYLAYER
 10
19.6844352016
 20
119.0520851886
 11
19.6844352016
 21
113.725176028
  0
LINE
  5
238
100
AcDbEntity
  8
0
100
AcDbLine
 62
7
  6
BYLAYER
 10
23.8089425725
 20
95.1269536034
 11
23.82425938
 21
96.7892643243
  0
LINE
  5
239
100
AcDbEntity
  8
0
100
AcDbLine
 62
7
  6
BYLAYER
 10
26.3072424307
 20
105.6379934956
 11
26.3510621809
 21
106.1062124812
  0
LINE
  5
23A
100
AcDbEntity
  8
0
100
AcDbLine
 62
7
  6
BYLAYER
 10
25.4649184861
 20
106.5830595803
 11
24.8791865623
 21
101.2492110941
  0
LINE
  5
23B
100
AcDbEntity
  8
0
100
AcDbLine
 62
7
  6
BYLAYER
 10
25.0141724867
 20
97.2941568542
 11
24.8969209917
 21
99.2116950967
  0
LINE
  5
23C
100
AcDbEntity
  8
0
100
AcDbLine
 62
7
  6
BYLAYER
 10
25.888281281
 20
99.7600972685
 11
26.0041178588
 21
97.8656986696
  0
LINE
  5
23D
100
AcDbEntity
  8
0
100
AcDbLine
 62
7
  6
BYLAYER
 10
25.0522559958
 20
92.3870173464
 11
25.0522528089
 21
92.8289361231
  0
LINE
  5
23E
100
AcDbEntity
  8
0
100
AcDbLine
 62
7
  6
BYLAYER
 10
26.9691491291
 20
28.4086432788
 11
26.9691491291
 21
38.1884843664
  0
LINE
  5
23F
100
AcDbEntity
  8
0
100
AcDbLine
 62
7
  6
BYLAYER
 10
26.9691491291
 20
46.3579926057
 11
26.9691491291
 21
85.9373548219
  0
LINE
  5
240
100
AcDbEntity
  8
0
100
AcDbLine
 62
7
  6
BYLAYER
 10
27.6747750957
 20
109.1120555019
 11
27.6747750957
 21
114.4389646625
  0
LINE
  5
241
100
AcDbEntity
  8
0
100
AcDbLine
 62
7
  6
BYLAYER
 10
24.8128033483
 20
97.2087138306
 11
24.8044296961
 21
96.2999336041
  0
LINE
  5
242
100
AcDbEntity
  8
0
100
AcDbLine
 62
7
  6
BYLAYER
 10
31.0084783517
 20
86.897920456
 11
29.9795643306
 21
86.0877493288
  0
LINE
  5
243
100
AcDbEntity
  8
0
100
AcDbLine
 62
7
  6
BYLAYER
 10
31.8208834617
 20
89.5026315952
 11
34.078807162
 21
90.8062366699
  0
LINE
  5
244
100
AcDbEntity
  8
0
100
AcDbLine
 62
7
  6
BYLAYER
 10
78.6168548048
 20
116.0595490858
 11
55.7195600518
 21
102.8398687073
  0
LINE
  5
245
100
AcDbEntity
  8
0
100
AcDbLine
 62
7
  6
BYLAYER
 10
41.8743449998
 20
94.7761595487
 11
37.6317219765
 21
92.3266946255
  0
LINE
  5
246
100
AcDbEntity
  8
0
100
AcDbLine
 62
7
  6
BYLAYER
 10
28.5419218721
 20
86.9353226923
 11
28.60331899
 21
86.9707701233
  0
LINE
  5
247
100
AcDbEntity
  8
0
100
AcDbLine
 62
7
  6
BYLAYER
 10
29.7490147616
 20
86.5550487191
 11
32.006938462
 21
87.8586537938
  0
LINE
  5
248
100
AcDbEntity
  8
0
100
AcDbLine
 62
7
  6
BYLAYER
 10
33.4886263724
 20
88.3355883071
 11
34.4785717445
 21
88.9071301225
  0
LINE
  5
249
100
AcDbEntity
  8
0
100
AcDbLine
 62
7
  6
BYLAYER
 10
31.0084783517
 20
86.897920456
 11
31.9984237238
 21
87.4694622715
  0
LINE
  5
24A
100
AcDbEntity
  8
0
100
AcDbLine
 62
7
  6
BYLAYER
 10
32.5793983464
 20
85.8720916629
 11
33.5693437185
 21
86.4436334784
  0
LINE
  5
24B
100
AcDbEntity
  8
0
100
AcDbLine
 62
7
  6
BYLAYER
 10
26.9691491291
 20
85.9373548219
 11
27.6487328249
 21
86.3261140066
  0
LINE
  5
24C
100
AcDbEntity
  8
0
100
AcDbLine
 62
7
  6
BYLAYER
 10
33.5693437185
 20
86.4436334784
 11
33.6134645892
 21
86.4675769321
  0
LINE
  5
24D
100
AcDbEntity
  8
0
100
AcDbLine
 62
7
  6
BYLAYER
 10
33.6156778818
 20
86.4344584224
 11
32.5793983464
 21
85.8720916629
  0
LINE
  5
24E
100
AcDbEntity
  8
0
100
AcDbLine
 62
7
  6
BYLAYER
 10
34.4785717445
 20
88.9071301225
 11
34.6799581031
 21
88.9944420323
  0
LINE
  5
24F
100
AcDbEntity
  8
0
100
AcDbLine
 62
7
  6
BYLAYER
 10
34.6786412353
 20
88.8515242978
 11
33.4886263724
 21
88.3355883071
  0
LINE
  5
250
100
AcDbEntity
  8
0
100
AcDbLine
 62
7
  6
BYLAYER
 10
29.6557813905
 20
44.8068998367
 11
29.6557813905
 21
39.7396029668
  0
LINE
  5
251
100
AcDbEntity
  8
0
100
AcDbLine
 62
7
  6
BYLAYER
 10
29.7960866074
 20
110.3367879635
 11
29.7960866074
 21
115.6636971241
  0
LINE
  5
252
100
AcDbEntity
  8
0
100
AcDbLine
 62
7
  6
BYLAYER
 10
33.5807362602
 20
94.147392388
 11
33.4777563012
 21
92.3818793559
  0
LINE
  5
253
100
AcDbEntity
  8
0
100
AcDbLine
 62
7
  6
BYLAYER
 10
42.0766879417
 20
89.2388563877
 11
34.0157041975
 21
84.5848730336
  0
LINE
  5
254
100
AcDbEntity
  8
0
100
AcDbLine
 62
7
  6
BYLAYER
 10
46.7728624359
 20
91.7192380486
 11
48.8496266886
 21
92.9182512919
  0
LINE
  5
255
100
AcDbEntity
  8
0
100
AcDbLine
 62
7
  6
BYLAYER
 10
46.3154098563
 20
91.5008261736
 11
46.7728624359
 21
91.7192380486
  0
LINE
  5
256
100
AcDbEntity
  8
0
100
AcDbLine
 62
7
  6
BYLAYER
 10
43.1489463574
 20
90.2802111127
 11
46.3154098563
 21
91.5008261736
  0
LINE
  5
257
100
AcDbEntity
  8
0
100
AcDbLine
 62
7
  6
BYLAYER
 10
54.9368564845
 20
23.9112205816
 11
50.6604500169
 21
31.3181327398
  0
LINE
  5
258
100
AcDbEntity
  8
0
100
AcDbLine
 62
7
  6
BYLAYER
 10
51.1104518904
 20
31.577948871
 11
55.386858358
 21
24.1710367127
  0
LINE
  5
259
100
AcDbEntity
  8
0
100
AcDbLine
 62
7
  6
BYLAYER
 10
33.4886263724
 20
88.3355883071
 11
33.6156778818
 21
86.4344584224
  0
LINE
  5
25A
100
AcDbEntity
  8
0
100
AcDbLine
 62
7
  6
BYLAYER
 10
34.6939570865
 20
90.5137312268
 11
34.6786412353
 21
88.8515242978
  0
LINE
  5
25B
100
AcDbEntity
  8
0
100
AcDbLine
 62
7
  6
BYLAYER
 10
37.6317219765
 20
92.3266946255
 11
36.0007772036
 21
109.0617712785
  0
LINE
  5
25C
100
AcDbEntity
  8
0
100
AcDbLine
 62
7
  6
BYLAYER
 10
35.3497650855
 20
108.22008079
 11
36.0425692155
 21
100.01742711
  0
LINE
  5
25D
100
AcDbEntity
  8
0
100
AcDbLine
 62
7
  6
BYLAYER
 10
39.8015950113
 20
122.0787443849
 11
39.8015950113
 21
120.0405467598
  0
LINE
  5
25E
100
AcDbEntity
  8
0
100
AcDbLine
 62
7
  6
BYLAYER
 10
51.2759491781
 20
83.2145918638
 11
51.2956066024
 21
83.2259410153
  0
LINE
  5
25F
100
AcDbEntity
  8
0
100
AcDbLine
 62
7
  6
BYLAYER
 10
23.8853106684
 20
95.0056479361
 11
23.8089425725
 21
95.1269536034
  0
LINE
  5
260
100
AcDbEntity
  8
0
100
AcDbLine
 62
7
  6
BYLAYER
 10
28.5419218721
 20
86.9353226923
 11
28.5003651828
 21
87.0141309486
  0
LINE
  5
261
100
AcDbEntity
  8
0
100
AcDbLine
 62
7
  6
BYLAYER
 10
39.6280047147
 20
117.825791569
 11
41.8743449998
 21
94.7761595487
  0
LINE
  5
262
100
AcDbEntity
  8
0
100
AcDbLine
 62
7
  6
BYLAYER
 10
53.7946965717
 20
81.8647736314
 11
53.7239843773
 21
81.8239481706
  0
LINE
  5
263
100
AcDbEntity
  8
0
100
AcDbLine
 62
7
  6
BYLAYER
 10
54.6186462753
 20
81.38907681
 11
51.2759491781
 21
79.459181261
  0
LINE
  5
264
100
AcDbEntity
  8
0
100
AcDbLine
 62
7
  6
BYLAYER
 10
55.989532014
 20
80.9093457785
 11
55.7195600518
 21
80.7534783239
  0
LINE
  5
265
100
AcDbEntity
  8
0
100
AcDbLine
 62
7
  6
BYLAYER
 10
62.6363080838
 20
84.6703816337
 11
55.989532014
 21
80.8328865873
  0
LINE
  5
266
100
AcDbEntity
  8
0
100
AcDbLine
 62
7
  6
BYLAYER
 10
62.6363080838
 20
84.6670140238
 11
78.6168548048
 21
93.8899642914
  0
LINE
  5
267
100
AcDbEntity
  8
0
100
AcDbLine
 62
7
  6
BYLAYER
 10
82.5440038104
 20
43.1651912417
 11
81.9209023534
 21
43.5249308972
  0
LINE
  5
268
100
AcDbEntity
  8
0
100
AcDbLine
 62
7
  6
BYLAYER
 10
29.9895112826
 20
98.6664583149
 11
31.0312433363
 21
96.6908927503
  0
LINE
  5
269
100
AcDbEntity
  8
0
100
AcDbLine
 62
7
  6
BYLAYER
 10
81.2137926282
 20
92.3906554588
 11
65.2332459072
 21
83.1643375813
  0
LINE
  5
26A
100
AcDbEntity
  8
0
100
AcDbLine
 62
7
  6
BYLAYER
 10
65.9403556324
 20
81.9395944097
 11
81.9209023534
 21
91.1659122872
  0
LINE
  5
26B
100
AcDbEntity
  8
0
100
AcDbLine
 62
7
  6
BYLAYER
 10
82.5440038104
 20
90.8922855777
 11
81.9209023534
 21
90.5325399312
  0
LINE
  5
26C
100
AcDbEntity
  8
0
100
AcDbLine
 62
7
  6
BYLAYER
 10
54.6135070808
 20
73.6783934908
 11
61.5302551128
 21
77.6717559918
  0
LINE
  5
26D
100
AcDbEntity
  8
0
100
AcDbLine
 62
7
  6
BYLAYER
 10
33.4777563012
 20
92.3818793559
 11
34.6939570865
 21
90.5137312268
  0
LINE
  5
26E
100
AcDbEntity
  8
0
100
AcDbLine
 62
7
  6
BYLAYER
 10
32.5755580404
 20
95.9132330604
 11
33.5807362602
 21
94.147392388
  0
LINE
  5
26F
100
AcDbEntity
  8
0
100
AcDbLine
 62
7
  6
BYLAYER
 10
51.2759173191
 20
83.2309402641
 11
51.2759491781
 21
79.459181261
  0
LINE
  5
270
100
AcDbEntity
  8
0
100
AcDbLine
 62
7
  6
BYLAYER
 10
59.0236076003
 20
71.1322783695
 11
65.9403556324
 21
75.1256408705
  0
LINE
  5
271
100
AcDbEntity
  8
0
100
AcDbLine
 62
7
  6
BYLAYER
 10
59.0236076003
 20
69.7374245915
 11
57.0170675267
 21
68.5895735057
  0
LINE
  5
272
100
AcDbEntity
  8
0
100
AcDbLine
 62
7
  6
BYLAYER
 10
57.0170675267
 20
68.5895735057
 11
26.9691491291
 21
85.9373548219
  0
LINE
  5
273
100
AcDbEntity
  8
0
100
AcDbLine
 62
7
  6
BYLAYER
 10
59.0236076003
 20
69.7374245915
 11
33.5672408235
 21
84.4343323142
  0
LINE
  5
274
100
AcDbEntity
  8
0
100
AcDbLine
 62
7
  6
BYLAYER
 10
26.7908620324
 20
89.3756967903
 11
27.1735819843
 21
89.1547270053
  0
LINE
  5
275
100
AcDbEntity
  8
0
100
AcDbLine
 62
7
  6
BYLAYER
 10
29.9795643306
 20
86.0877493288
 11
28.5419218721
 21
86.9353226923
  0
LINE
  5
276
100
AcDbEntity
  8
0
100
AcDbLine
 62
7
  6
BYLAYER
 10
30.4549805579
 20
86.9626358286
 11
30.8184922837
 21
86.7483246456
  0
LINE
  5
277
100
AcDbEntity
  8
0
100
AcDbLine
 62
7
  6
BYLAYER
 10
32.5793983464
 20
85.8720916629
 11
31.0084783517
 21
86.897920456
  0
LINE
  5
278
100
AcDbEntity
  8
0
100
AcDbLine
 62
7
  6
BYLAYER
 10
31.9984237238
 20
87.4694622715
 11
33.5693437185
 21
86.4436334784
  0
LINE
  5
279
100
AcDbEntity
  8
0
100
AcDbLine
 62
7
  6
BYLAYER
 10
19.6844352016
 20
113.725176028
 11
23.6796051487
 21
108.7551611846
  0
LINE
  5
27A
100
AcDbEntity
  8
0
100
AcDbLine
 62
7
  6
BYLAYER
 10
55.7195600518
 20
102.8398687073
 11
55.7195600518
 21
80.7534783239
  0
LINE
  5
27B
100
AcDbEntity
  8
0
100
AcDbLine
 62
7
  6
BYLAYER
 10
55.989532014
 20
80.8328865873
 11
55.989532014
 21
80.9093457785
  0
LINE
  5
27C
100
AcDbEntity
  8
0
100
AcDbLine
 62
7
  6
BYLAYER
 10
57.0170675267
 20
68.5895735057
 11
57.0170675267
 21
29.0102112895
  0
LINE
  5
27D
100
AcDbEntity
  8
0
100
AcDbLine
 62
7
  6
BYLAYER
 10
57.0170675267
 20
20.8407030502
 11
57.0170675267
 21
11.0608619626
  0
LINE
  5
27E
100
AcDbEntity
  8
0
100
AcDbLine
 62
7
  6
BYLAYER
 10
59.0236076003
 20
71.1322783695
 11
59.0236076003
 21
69.7374245915
  0
LINE
  5
27F
100
AcDbEntity
  8
0
100
AcDbLine
 62
7
  6
BYLAYER
 10
59.7036997881
 20
22.3918216506
 11
59.7036997881
 21
30.5613298899
  0
LINE
  5
280
100
AcDbEntity
  8
0
100
AcDbLine
 62
7
  6
BYLAYER
 10
81.9209023534
 20
80.9574972458
 11
82.5440038104
 21
81.3172428924
  0
LINE
  5
281
100
AcDbEntity
  8
0
100
AcDbLine
 62
7
  6
BYLAYER
 10
54.6135070808
 20
73.6783934908
 11
59.0236076003
 21
71.1322783695
  0
LINE
  5
282
100
AcDbEntity
  8
0
100
AcDbLine
 62
7
  6
BYLAYER
 10
55.989532014
 20
80.8328865873
 11
55.9231659555
 21
80.8710295455
  0
LINE
  5
283
100
AcDbEntity
  8
0
100
AcDbLine
 62
7
  6
BYLAYER
 10
41.4786969824
 20
88.8936082072
 11
53.7239843773
 21
81.8239481706
  0
LINE
  5
284
100
AcDbEntity
  8
0
100
AcDbLine
 62
7
  6
BYLAYER
 10
55.7195600518
 20
80.7534783239
 11
41.5494091769
 21
88.934433668
  0
LINE
  5
285
100
AcDbEntity
  8
0
100
AcDbLine
 62
7
  6
BYLAYER
 10
65.9403556324
 20
75.1256408705
 11
61.5302551128
 21
77.6717559918
  0
LINE
  5
286
100
AcDbEntity
  8
0
100
AcDbLine
 62
7
  6
BYLAYER
 10
25.9236030689
 20
99.7796366282
 11
27.4853141752
 21
98.8035255888
  0
LINE
  5
287
100
AcDbEntity
  8
0
100
AcDbLine
 62
7
  6
BYLAYER
 10
27.6747750957
 20
114.4389646625
 11
23.6796051487
 21
119.4089795059
  0
LINE
  5
288
100
AcDbEntity
  8
0
100
AcDbLine
 62
7
  6
BYLAYER
 10
25.8009166603
 20
120.6337119675
 11
29.7960866074
 21
115.6636971241
  0
LINE
  5
289
100
AcDbEntity
  8
0
100
AcDbLine
 62
7
  6
BYLAYER
 10
65.9403556324
 20
75.1256408705
 11
65.9403556324
 21
81.9395944097
  0
LINE
  5
28A
100
AcDbEntity
  8
0
100
AcDbLine
 62
7
  6
BYLAYER
 10
29.6557813905
 20
39.7396029668
 11
26.9691491291
 21
38.1884843664
  0
LINE
  5
28B
100
AcDbEntity
  8
0
100
AcDbLine
 62
7
  6
BYLAYER
 10
31.0312433363
 20
96.6908927503
 11
32.5755580404
 21
95.9132330604
  0
LINE
  5
28C
100
AcDbEntity
  8
0
100
AcDbLine
 62
7
  6
BYLAYER
 10
27.1794860655
 20
104.018688434
 11
35.1703255808
 21
99.405279458
  0
LINE
  5
28D
100
AcDbEntity
  8
0
100
AcDbLine
 62
7
  6
BYLAYER
 10
28.5518688241
 20
99.5140316784
 11
29.9895112826
 21
98.6664583149
  0
LINE
  5
28E
100
AcDbEntity
  8
0
100
AcDbLine
 62
7
  6
BYLAYER
 10
33.8705743856
 20
37.3062461464
 11
31.1839421242
 21
35.755127546
  0
LINE
  5
28F
100
AcDbEntity
  8
0
100
AcDbLine
 62
7
  6
BYLAYER
 10
28.3815625887
 20
104.7127034955
 11
36.0183922201
 21
100.3036775976
  0
LINE
  5
290
100
AcDbEntity
  8
0
100
AcDbLine
 62
7
  6
BYLAYER
 10
65.2332459072
 20
83.1643375813
 11
62.6363080838
 21
84.6670140238
  0
LINE
  5
291
100
AcDbEntity
  8
0
100
AcDbLine
 62
7
  6
BYLAYER
 10
37.1145780557
 20
125.4214092353
 11
39.8015950113
 21
122.0787443849
  0
LINE
  5
292
100
AcDbEntity
  8
0
100
AcDbLine
 62
7
  6
BYLAYER
 10
78.6168548048
 20
93.8899642914
 11
78.6168548048
 21
116.0595490858
  0
LINE
  5
293
100
AcDbEntity
  8
0
100
AcDbLine
 62
7
  6
BYLAYER
 10
81.9209023534
 20
25.4390118776
 11
81.9209023534
 21
35.9072272103
  0
LINE
  5
294
100
AcDbEntity
  8
0
100
AcDbLine
 62
7
  6
BYLAYER
 10
81.9209023534
 20
42.8054455952
 11
81.9209023534
 21
80.9574972458
  0
LINE
  5
295
100
AcDbEntity
  8
0
100
AcDbLine
 62
7
  6
BYLAYER
 10
81.9209023534
 20
90.5325399312
 11
81.9209023534
 21
91.1659122872
  0
LINE
  5
296
100
AcDbEntity
  8
0
100
AcDbLine
 62
7
  6
BYLAYER
 10
56.9135061217
 20
10.8319783851
 11
57.0170675267
 21
11.0608619626
  0
LINE
  5
297
100
AcDbEntity
  8
0
100
AcDbLine
 62
7
  6
BYLAYER
 10
55.7195600518
 20
102.8398687073
 11
40.2161795139
 21
111.7905471428
  0
LINE
  5
298
100
AcDbEntity
  8
0
100
AcDbLine
 62
7
  6
BYLAYER
 10
82.5440038104
 20
36.2669728568
 11
82.5440038104
 21
43.1651912417
  0
LINE
  5
299
100
AcDbEntity
  8
0
100
AcDbLine
 62
7
  6
BYLAYER
 10
82.5440038104
 20
81.3172428924
 11
82.5440038104
 21
90.8922855777
  0
LINE
  5
29A
100
AcDbEntity
  8
0
100
AcDbLine
 62
7
  6
BYLAYER
 10
50.6604500169
 20
31.3181327398
 11
51.5071216378
 21
31.8069648894
  0
LINE
  5
29B
100
AcDbEntity
  8
0
100
AcDbLine
 62
7
  6
BYLAYER
 10
41.9228841488
 20
108.0397704474
 11
40.5346840494
 21
108.5223814116
  0
LINE
  5
29C
100
AcDbEntity
  8
0
100
AcDbLine
 62
7
  6
BYLAYER
 10
82.5440038104
 20
90.8922855777
 11
81.8966506917
 21
91.2660266199
  0
LINE
  5
29D
100
AcDbEntity
  8
0
100
AcDbLine
 62
7
  6
BYLAYER
 10
81.2137926282
 20
92.3906554588
 11
78.6168548048
 21
93.8899642914
  0
LINE
  5
29E
100
AcDbEntity
  8
0
100
AcDbLine
 62
7
  6
BYLAYER
 10
59.7036997881
 20
30.5613298899
 11
57.0170675267
 21
29.0102112895
  0
LINE
  5
29F
100
AcDbEntity
  8
0
100
AcDbLine
 62
7
  6
BYLAYER
 10
82.5440038104
 20
43.1651912417
 11
81.9209023534
 21
42.8054455952
  0
LWPOLYLINE
  5
2A0
100
AcDbEntity
  8
0
100
AcDbPolyline
 62
7
  6
BYLAYER
 90
3
 70
0
 10
40.3942675862
 20
109.963190637
 10
41.3607102133
 20
110.152679194
 10
43.9996484015
 20
109.2387836906
  0
LINE
  5
2A1
100
AcDbEntity
  8
0
100
AcDbLine
 62
7
  6
BYLAYER
 10
23.6796051487
 20
108.7551611846
 11
27.6747750957
 21
109.1120555019
  0
LINE
  5
2A2
100
AcDbEntity
  8
0
100
AcDbLine
 62
7
  6
BYLAYER
 10
52.8022745316
 20
23.2740598706
 11
53.9287916199
 21
23.9244509324
  0
LINE
  5
2A3
100
AcDbEntity
  8
0
100
AcDbLine
 62
7
  6
BYLAYER
 10
56.5747928045
 20
24.8568868912
 11
54.9368564845
 21
23.9112205816
  0
LINE
  5
2A4
100
AcDbEntity
  8
0
100
AcDbLine
 62
7
  6
BYLAYER
 10
57.4363768412
 20
25.3270512252
 11
56.5866003641
 21
24.836435476
  0
LINE
  5
2A5
100
AcDbEntity
  8
0
100
AcDbLine
 62
7
  6
BYLAYER
 10
81.9209023534
 20
35.9072272103
 11
82.5440038104
 21
36.2669728568
  0
LINE
  5
2A6
100
AcDbEntity
  8
0
100
AcDbLine
 62
7
  6
BYLAYER
 10
81.9209023534
 20
25.4390118776
 11
81.8173409484
 21
25.2101283001
  0
LINE
  5
2A7
100
AcDbEntity
  8
0
100
AcDbLine
 62
7
  6
BYLAYER
 10
57.0170675267
 20
20.8407030502
 11
59.7036997881
 21
22.3918216506
  0
LINE
  5
2A8
100
AcDbEntity
  8
0
100
AcDbLine
 62
7
  6
BYLAYER
 10
81.9209023534
 20
25.4390118776
 11
57.0170675267
 21
11.0608619626
  0
LINE
  5
2A9
100
AcDbEntity
  8
0
100
AcDbLine
 62
7
  6
BYLAYER
 10
23.6796051487
 20
119.4089795059
 11
19.6844352016
 21
119.0520851886
  0
LINE
  5
2AA
100
AcDbEntity
  8
0
100
AcDbLine
 62
7
  6
BYLAYER
 10
21.8057467132
 20
120.2768176502
 11
25.8009166603
 21
120.6337119675
  0
LINE
  5
2AB
100
AcDbEntity
  8
0
100
AcDbLine
 62
7
  6
BYLAYER
 10
78.6168548048
 20
116.0595490858
 11
55.1862093643
 21
129.5869325079
  0
LINE
  5
2AC
100
AcDbEntity
  8
0
100
AcDbLine
 62
7
  6
BYLAYER
 10
81.8173463716
 20
25.2101189068
 11
56.9135115449
 21
10.8319689918
  0
LINE
  5
2AD
100
AcDbEntity
  8
0
100
AcDbLine
 62
7
  6
BYLAYER
 10
36.5436112194
 20
125.3704039409
 11
37.1145780557
 21
125.4214092353
  0
ARC
  5
2AE
100
AcDbEntity
  8
0
100
AcDbCircle
 62
7
  6
BYLAYER
 10
23.0866292049
 20
89.6742417492
 40
11.0231626282
100
AcDbArc
 50
18.6055169526
 51
21.2044869557
  0
ARC
  5
2AF
100
AcDbEntity
  8
0
100
AcDbCircle
 62
7
  6
BYLAYER
 10
25.1115830696
 20
89.5550918829
 40
9.5387639113
100
AcDbArc
 50
43.7074549579
 51
44.6634392207
  0
ARC
  5
2B0
100
AcDbEntity
  8
0
100
AcDbCircle
 62
7
  6
BYLAYER
 10
26.2550931142
 20
90.5756407415
 40
8.0207127076
100
AcDbArc
 50
55.7684252716
 51
60.0806270845
  0
ARC
  5
2B1
100
AcDbEntity
  8
0
100
AcDbCircle
 62
7
  6
BYLAYER
 10
27.6330745468
 20
90.6469341912
 40
1.5142784598
100
AcDbArc
 50
253.3185452124
 51
256.6088696723
  0
ARC
  5
2B2
100
AcDbEntity
  8
0
100
AcDbCircle
 62
7
  6
BYLAYER
 10
55.6365366096
 20
25.9642506178
 40
1.4517482721
100
AcDbArc
 50
289.6529246331
 51
310.348466589
  0
SPLINE
  5
2B3
100
AcDbEntity
  8
0
100
AcDbSpline
 62
7
  6
BYLAYER
 70
0
 71
3
 72
15
 73
11
 74
0
 42
0.0000001
 43
0.0000001
 44
0.0000000001
 40
0.0
 40
0.0
 40
0.0
 40
0.0
 40
0.1485639566
 40
0.2895079098
 40
0.4227268643
 40
0.5486378107
 40
0.6680001269
 40
0.7819367838
 40
0.8919851837
 40
1.0
 40
1.0
 40
1.0
 40
1.0
 10
44.0442515958
 20
93.5878228331
 30
0.0
 10
44.0442515958
 20
93.3404471219
 30
0.0
 10
44.0242729966
 20
92.8580536731
 30
0.0
 10
43.9293664933
 20
92.1594765398
 30
0.0
 10
43.7707294153
 20
91.5110551292
 30
0.0
 10
43.5496494744
 20
90.9191463489
 30
0.0
 10
43.2679286181
 20
90.3893616729
 30
0.0
 10
42.9275859706
 20
89.9271938795
 30
0.0
 10
42.5319191247
 20
89.537750206
 30
0.0
 10
42.2324341469
 20
89.3288095017
 30
0.0
 10
42.0766792276
 20
89.2388712799
 30
0.0
  0
SPLINE
  5
2B4
100
AcDbEntity
  8
0
100
AcDbSpline
 62
7
  6
BYLAYER
 70
0
 71
3
 72
15
 73
11
 74
0
 42
0.0000001
 43
0.0000001
 44
0.0000000001
 40
0.0
 40
0.0
 40
0.0
 40
0.0
 40
0.1080137289
 40
0.2180613718
 40
0.3319970949
 40
0.4513580834
 40
0.5772718504
 40
0.7104887862
 40
0.8514265975
 40
1.0
 40
1.0
 40
1.0
 40
1.0
 10
20.3009436986
 20
124.833092281
 30
0.0
 10
20.120590864
 20
124.7289660412
 30
0.0
 10
19.7738567909
 20
124.4869857612
 30
0.0
 10
19.3156811608
 20
124.0360994103
 30
0.0
 10
18.9216251666
 20
123.5009420289
 30
0.0
 10
18.5954076829
 20
122.8875159291
 30
0.0
 10
18.3394245369
 20
122.2021453675
 30
0.0
 10
18.1557450825
 20
121.4513518115
 30
0.0
 10
18.0458317698
 20
120.6424727948
 30
0.0
 10
18.0227096837
 20
120.0839044601
 30
0.0
 10
18.0227096837
 20
119.7974511066
 30
0.0
  0
SPLINE
  5
2B5
100
AcDbEntity
  8
0
100
AcDbSpline
 62
7
  6
BYLAYER
 70
0
 71
3
 72
25
 73
21
 74
0
 42
0.0000001
 43
0.0000001
 44
0.0000000001
 40
0.0
 40
0.0
 40
0.0
 40
0.0
 40
0.0213325851
 40
0.042893416
 40
0.0648993207
 40
0.0875443358
 40
0.1353201646
 40
0.1872215053
 40
0.2436592658
 40
0.304606955
 40
0.3696942813
 40
0.4382910028
 40
0.5095769084
 40
0.5826007017
 40
0.6563321729
 40
0.7297087063
 40
0.8016843397
 40
0.8712759891
 40
0.9376170158
 40
1.0
 40
1.0
 40
1.0
 40
1.0
 10
23.8364629771
 20
126.8743128899
 30
0.0
 10
23.9716087292
 20
126.9523391903
 30
0.0
 10
24.25374493
 20
127.0919326763
 30
0.0
 10
24.7035376358
 20
127.2474629843
 30
0.0
 10
25.1784192262
 20
127.3487027859
 30
0.0
 10
25.8528866132
 20
127.4120327152
 30
0.0
 10
26.7521698885
 20
127.345988881
 30
0.0
 10
27.8609376037
 20
127.0512833515
 30
0.0
 10
28.9975911561
 20
126.5489703453
 30
0.0
 10
30.1390819291
 20
125.8505882632
 30
0.0
 10
31.2623527638
 20
124.971199699
 30
0.0
 10
32.344044323
 20
123.9294326164
 30
0.0
 10
33.3614043649
 20
122.7473692229
 30
0.0
 10
34.292850505
 20
121.4501360798
 30
0.0
 10
35.1185328225
 20
120.0653788766
 30
0.0
 10
35.8208510865
 20
118.6226403185
 30
0.0
 10
36.38479933
 20
117.1526981752
 30
0.0
 10
36.7984213516
 20
115.6866987705
 30
0.0
 10
37.0528110725
 20
114.2559951221
 30
0.0
 10
37.114642823
 20
113.313721266
 30
0.0
 10
37.114642823
 20
112.8573752765
 30
0.0
  0
SPLINE
  5
2B6
100
AcDbEntity
  8
0
100
AcDbSpline
 62
7
  6
BYLAYER
 70
0
 71
3
 72
24
 73
20
 74
0
 42
0.0000001
 43
0.0000001
 44
0.0000000001
 40
0.0
 40
0.0
 40
0.0
 40
0.0
 40
0.0213341493
 40
0.0428965241
 40
0.0874755316
 40
0.1352551827
 40
0.1871602743
 40
0.2436017692
 40
0.3045536902
 40
0.369646082
 40
0.4382480763
 40
0.5095390682
 40
0.5825683886
 40
0.6563051906
 40
0.7296861234
 40
0.8016689528
 40
0.8712621581
 40
0.9376179963
 40
1.0
 40
1.0
 40
1.0
 40
1.0
 10
32.7711026737
 20
126.2591906666
 30
0.0
 10
32.8448223908
 20
126.3017432617
 30
0.0
 10
32.998723151
 20
126.3778942915
 30
0.0
 10
33.3292792556
 20
126.4922665003
 30
0.0
 10
33.783533779
 20
126.5591124552
 30
0.0
 10
34.3613292916
 20
126.5164181656
 30
0.0
 10
34.9663093308
 20
126.3557323849
 30
0.0
 10
35.5862404734
 20
126.0817355136
 30
0.0
 10
36.2088922774
 20
125.7008153204
 30
0.0
 10
36.8215762432
 20
125.2211436057
 30
0.0
 10
37.4115855203
 20
124.6529031397
 30
0.0
 10
37.9665086226
 20
124.008143382
 30
0.0
 10
38.4745720764
 20
123.3005666501
 30
0.0
 10
38.9249485078
 20
122.5452545687
 30
0.0
 10
39.3080318717
 20
121.7583046546
 30
0.0
 10
39.6156128664
 20
120.9565229571
 30
0.0
 10
39.8412665788
 20
120.1568662132
 30
0.0
 10
39.9799885793
 20
119.3764749005
 30
0.0
 10
40.0137391159
 20
118.8624939028
 30
0.0
 10
40.0137391159
 20
118.6136008493
 30
0.0
  0
SPLINE
  5
2B7
100
AcDbEntity
  8
0
100
AcDbSpline
 62
7
  6
BYLAYER
 70
0
 71
3
 72
15
 73
11
 74
0
 42
0.0000001
 43
0.0000001
 44
0.0000000001
 40
0.0
 40
0.0
 40
0.0
 40
0.0
 40
0.1080133553
 40
0.2180605674
 40
0.3319963903
 40
0.451358125
 40
0.5772687053
 40
0.7104884905
 40
0.8514349776
 40
1.0
 40
1.0
 40
1.0
 40
1.0
 10
24.5157552992
 20
101.0393655979
 30
0.0
 10
24.360002422
 20
100.9494287197
 30
0.0
 10
24.0605210592
 20
100.7404906876
 30
0.0
 10
23.6648572551
 20
100.3510522764
 30
0.0
 10
23.3245162155
 20
99.8888888257
 30
0.0
 10
23.0427931946
 20
99.3591087016
 30
0.0
 10
22.8217117557
 20
98.7672007028
 30
0.0
 10
22.6630699459
 20
98.1187752606
 30
0.0
 10
22.5681640455
 20
97.4201905755
 30
0.0
 10
22.5481830738
 20
96.9377912902
 30
0.0
 10
22.5481830738
 20
96.6904138149
 30
0.0
  0
SPLINE
  5
2B8
100
AcDbEntity
  8
0
100
AcDbSpline
 62
7
  6
BYLAYER
 70
0
 71
3
 72
14
 73
10
 74
0
 42
0.0000001
 43
0.0000001
 44
0.0000000001
 40
0.0
 40
0.0
 40
0.0
 40
0.0
 40
0.2636163578
 40
0.3948866281
 40
0.5241488052
 40
0.6502653776
 40
0.7721808752
 40
0.8890287744
 40
1.0
 40
1.0
 40
1.0
 40
1.0
 10
41.2766074385
 20
101.4598318715
 30
0.0
 10
41.7055285134
 20
100.8521377615
 30
0.0
 10
42.2863108114
 20
99.8959145974
 30
0.0
 10
42.9221797935
 20
98.5598083266
 30
0.0
 10
43.3218226068
 20
97.5436121548
 30
0.0
 10
43.6391167384
 20
96.5264287816
 30
0.0
 10
43.8698305231
 20
95.5219271795
 30
0.0
 10
44.0106151898
 20
94.5440610397
 30
0.0
 10
44.0442515958
 20
93.9009384943
 30
0.0
 10
44.0442515958
 20
93.5878228331
 30
0.0
  0
SPLINE
  5
2B9
100
AcDbEntity
  8
0
100
AcDbSpline
 62
7
  6
BYLAYER
 70
0
 71
3
 72
9
 73
5
 74
0
 42
0.0000001
 43
0.0000001
 44
0.0000000001
 40
0.0
 40
0.0
 40
0.0
 40
0.0
 40
0.2545314834
 40
1.0
 40
1.0
 40
1.0
 40
1.0
 10
36.0425692155
 20
100.01742711
 30
0.0
 10
36.0433262533
 20
100.0084639435
 30
0.0
 10
36.0459487686
 20
99.9732211886
 30
0.0
 10
36.04714164
 20
99.9378685928
 30
0.0
 10
36.04714164
 20
99.9115239196
 30
0.0
  0
SPLINE
  5
2BA
100
AcDbEntity
  8
0
100
AcDbSpline
 62
7
  6
BYLAYER
 70
0
 71
3
 72
11
 73
7
 74
0
 42
0.0000001
 43
0.0000001
 44
0.0000000001
 40
0.0
 40
0.0
 40
0.0
 40
0.0
 40
0.2897033281
 40
0.5490895198
 40
0.7822165953
 40
1.0
 40
1.0
 40
1.0
 40
1.0
 10
36.04714164
 20
99.9115239196
 30
0.0
 10
36.04714164
 20
99.8486954206
 30
0.0
 10
36.0376159151
 20
99.7292089313
 30
0.0
 10
35.9892253205
 20
99.5650407565
 30
0.0
 10
35.9077516303
 20
99.4318275667
 30
0.0
 10
35.8312231055
 20
99.367490137
 30
0.0
 10
35.7903197114
 20
99.3438747105
 30
0.0
  0
SPLINE
  5
2BB
100
AcDbEntity
  8
0
100
AcDbSpline
 62
7
  6
BYLAYER
 70
0
 71
3
 72
14
 73
10
 74
0
 42
0.0000001
 43
0.0000001
 44
0.0000000001
 40
0.0
 40
0.0
 40
0.0
 40
0.0
 40
0.1109494124
 40
0.22781905
 40
0.3497878583
 40
0.4759676732
 40
0.6052799352
 40
0.7365639641
 40
1.0
 40
1.0
 40
1.0
 40
1.0
 10
22.5481830738
 20
96.6904138149
 30
0.0
 10
22.5481830738
 20
96.3743115882
 30
0.0
 10
22.5824653343
 20
95.724922798
 30
0.0
 10
22.7258734867
 20
94.7375449836
 30
0.0
 10
22.9608225812
 20
93.7232997281
 30
0.0
 10
23.2838424776
 20
92.696525638
 30
0.0
 10
23.6905591045
 20
91.6712852256
 30
0.0
 10
24.3372115358
 20
90.3247225542
 30
0.0
 10
24.9276313496
 20
89.3620729553
 30
0.0
 10
25.3635810803
 20
88.7511161562
 30
0.0
  0
SPLINE
  5
2BC
100
AcDbEntity
  8
0
100
AcDbSpline
 62
7
  6
BYLAYER
 70
0
 71
3
 72
19
 73
15
 74
0
 42
0.0000001
 43
0.0000001
 44
0.0000000001
 40
0.0
 40
0.0
 40
0.0
 40
0.0
 40
0.1567569279
 40
0.3073823277
 40
0.4492291346
 40
0.580316627
 40
0.6415192837
 40
0.6997597041
 40
0.7551242958
 40
0.8078143593
 40
0.8581476399
 40
0.906568364
 40
0.9536353889
 40
1.0
 40
1.0
 40
1.0
 40
1.0
 10
25.3635810803
 20
88.7511161562
 30
0.0
 10
25.6794181243
 20
88.3084899175
 30
0.0
 10
26.3433492342
 20
87.4712413113
 30
0.0
 10
27.4404580854
 20
86.3600206167
 30
0.0
 10
28.5931623652
 20
85.4429372999
 30
0.0
 10
29.5947920373
 20
84.8499115754
 30
0.0
 10
30.3932620318
 20
84.504353372
 30
0.0
 10
30.9702425212
 20
84.3148193388
 30
0.0
 10
31.5346706075
 20
84.1906867832
 30
0.0
 10
32.0823119953
 20
84.1329696922
 30
0.0
 10
32.60899563
 20
84.1425286507
 30
0.0
 10
33.1106025006
 20
84.2195327468
 30
0.0
 10
33.5828391612
 20
84.3637209775
 30
0.0
 10
33.8764186587
 20
84.5044645548
 30
0.0
 10
34.0156956261
 20
84.584887696
 30
0.0
  0
SPLINE
  5
2BD
100
AcDbEntity
  8
0
100
AcDbSpline
 62
7
  6
BYLAYER
 70
0
 71
3
 72
10
 73
6
 74
0
 42
0.0000001
 43
0.0000001
 44
0.0000000001
 40
0.0
 40
0.0
 40
0.0
 40
0.0
 40
0.2700679215
 40
0.5269378741
 40
1.0
 40
1.0
 40
1.0
 40
1.0
 10
40.0137391159
 20
118.6136008493
 30
0.0
 10
40.0137391159
 20
118.4633695345
 30
0.0
 10
40.0020108276
 20
118.1699710884
 30
0.0
 10
39.9302708949
 20
117.6180826208
 30
0.0
 10
39.8188988075
 20
117.2230128921
 30
0.0
 10
39.7153441077
 20
116.9810933375
 30
0.0
  0
SPLINE
  5
2BE
100
AcDbEntity
  8
0
100
AcDbSpline
 62
7
  6
BYLAYER
 70
0
 71
3
 72
15
 73
11
 74
0
 42
0.0000001
 43
0.0000001
 44
0.0000000001
 40
0.0
 40
0.0
 40
0.0
 40
0.0
 40
0.1485721404
 40
0.289507475
 40
0.422723791
 40
0.5486379649
 40
0.6679994757
 40
0.7819361113
 40
0.8919849071
 40
1.0
 40
1.0
 40
1.0
 40
1.0
 10
37.114642823
 20
112.8573752765
 30
0.0
 10
37.114642823
 20
112.5709243514
 30
0.0
 10
37.0915232742
 20
112.0123630819
 30
0.0
 10
36.9816096355
 20
111.2034926107
 30
0.0
 10
36.7979351338
 20
110.4527033207
 30
0.0
 10
36.5419546842
 20
109.7673310016
 30
0.0
 10
36.2157375555
 20
109.1539007379
 30
0.0
 10
35.8216813691
 20
108.6187371925
 30
0.0
 10
35.3635013725
 20
108.1678456663
 30
0.0
 10
35.0167636853
 20
107.9258620712
 30
0.0
 10
34.8364087157
 20
107.8217342625
 30
0.0
  0
SPLINE
  5
2BF
100
AcDbEntity
  8
0
100
AcDbSpline
 62
7
  6
BYLAYER
 70
0
 71
3
 72
11
 73
7
 74
0
 42
0.0000001
 43
0.0000001
 44
0.0000000001
 40
0.0
 40
0.0
 40
0.0
 40
0.0
 40
0.2301026608
 40
0.4756232044
 40
0.7335152908
 40
1.0
 40
1.0
 40
1.0
 40
1.0
 10
18.0227096837
 20
119.7974511066
 30
0.0
 10
18.0227096837
 20
119.3073330511
 30
0.0
 10
18.0940855403
 20
118.2935224439
 30
0.0
 10
18.3858590117
 20
116.7556343124
 30
0.0
 10
18.8587667056
 20
115.1826105283
 30
0.0
 10
19.2826238374
 20
114.1471595356
 30
0.0
 10
19.5213588024
 20
113.6321947958
 30
0.0
  0
SPLINE
  5
2C0
100
AcDbEntity
  8
0
100
AcDbSpline
 62
7
  6
BYLAYER
 70
0
 71
3
 72
21
 73
17
 74
0
 42
0.0000001
 43
0.0000001
 44
0.0000000001
 40
0.0
 40
0.0
 40
0.0
 40
0.0
 40
0.152075492
 40
0.3028137158
 40
0.3762849453
 40
0.4477562999
 40
0.5167557104
 40
0.5828803212
 40
0.6458161522
 40
0.7053572441
 40
0.7614323536
 40
0.8141340743
 40
0.8637439346
 40
0.9107551068
 40
0.9558767222
 40
1.0
 40
1.0
 40
1.0
 40
1.0
 10
19.5213588024
 20
113.6321947958
 30
0.0
 10
19.8530138226
 20
112.9167962734
 30
0.0
 10
20.6041054083
 20
111.5327037983
 30
0.0
 10
21.7415624537
 20
109.9407535719
 30
0.0
 10
22.7515569882
 20
108.7859532382
 30
0.0
 10
23.537949357
 20
108.0021910532
 30
0.0
 10
24.3504953772
 20
107.3025638131
 30
0.0
 10
25.1799627098
 20
106.6950778563
 30
0.0
 10
26.0169267161
 20
106.1866854961
 30
0.0
 10
26.8520113063
 20
105.7833000651
 30
0.0
 10
27.6759252425
 20
105.4897201945
 30
0.0
 10
28.4795530631
 20
105.3096171627
 30
0.0
 10
29.2539483882
 20
105.2457129213
 30
0.0
 10
29.9902665295
 20
105.2998127819
 30
0.0
 10
30.6791187415
 20
105.4721580012
 30
0.0
 10
31.1027544344
 20
105.6661204978
 30
0.0
 10
31.300889622
 20
105.7805133327
 30
0.0
  0
SPLINE
  5
2C1
100
AcDbEntity
  8
0
100
AcDbSpline
 62
7
  6
BYLAYER
 70
0
 71
3
 72
15
 73
11
 74
0
 42
0.0000001
 43
0.0000001
 44
0.0000000001
 40
0.0
 40
0.0
 40
0.0
 40
0.0
 40
0.1080133553
 40
0.2180605674
 40
0.3319963903
 40
0.451358125
 40
0.5772687053
 40
0.7104884905
 40
0.8514349776
 40
1.0
 40
1.0
 40
1.0
 40
1.0
 10
34.0156956261
 20
84.584887696
 30
0.0
 10
34.1714485033
 20
84.6748245742
 30
0.0
 10
34.4709298661
 20
84.8837626063
 30
0.0
 10
34.8665936702
 20
85.2732010175
 30
0.0
 10
35.2069347098
 20
85.7353644682
 30
0.0
 10
35.4886577307
 20
86.2651445922
 30
0.0
 10
35.7097391696
 20
86.8570525911
 30
0.0
 10
35.8683809794
 20
87.5054780333
 30
0.0
 10
35.9632868798
 20
88.2040627184
 30
0.0
 10
35.9832678515
 20
88.6864620037
 30
0.0
 10
35.9832678515
 20
88.933839479
 30
0.0
  0
SPLINE
  5
2C2
100
AcDbEntity
  8
0
100
AcDbSpline
 62
7
  6
BYLAYER
 70
0
 71
3
 72
15
 73
11
 74
0
 42
0.0000001
 43
0.0000001
 44
0.0000000001
 40
0.0
 40
0.0
 40
0.0
 40
0.0
 40
0.1141232787
 40
0.2373467935
 40
0.3669716251
 40
0.4999988493
 40
0.6330262331
 40
0.7626515288
 40
0.885875802
 40
1.0
 40
1.0
 40
1.0
 40
1.0
 10
27.1794860655
 20
104.018688434
 30
0.0
 10
27.1194777452
 20
104.0533334701
 30
0.0
 10
27.0009239602
 20
104.1364702453
 30
0.0
 10
26.837766338
 20
104.2890603867
 30
0.0
 10
26.6874414074
 20
104.4695040287
 30
0.0
 10
26.5555515436
 20
104.6709123866
 30
0.0
 10
26.4470705503
 20
104.8858362608
 30
0.0
 10
26.365962766
 20
105.1062436381
 30
0.0
 10
26.3153929674
 20
105.3238382919
 30
0.0
 10
26.3026700063
 20
105.4680781608
 30
0.0
 10
26.3026700063
 20
105.5373699668
 30
0.0
  0
SPLINE
  5
2C3
100
AcDbEntity
  8
0
100
AcDbSpline
 62
7
  6
BYLAYER
 70
0
 71
3
 72
9
 73
5
 74
0
 42
0.0000001
 43
0.0000001
 44
0.0000000001
 40
0.0
 40
0.0
 40
0.0
 40
0.0
 40
0.2550366619
 40
1.0
 40
1.0
 40
1.0
 40
1.0
 10
26.3026700063
 20
105.5373699668
 30
0.0
 10
26.3026700063
 20
105.5459347459
 30
0.0
 10
26.303039058
 20
105.5795157071
 30
0.0
 10
26.3049112515
 20
105.6130845815
 30
0.0
 10
26.3072424307
 20
105.6379934956
 30
0.0
  0
SPLINE
  5
2C4
100
AcDbEntity
  8
0
100
AcDbSpline
 62
7
  6
BYLAYER
 70
0
 71
3
 72
23
 73
19
 74
0
 42
0.0000001
 43
0.0000001
 44
0.0000000001
 40
0.0
 40
0.0
 40
0.0
 40
0.0
 40
0.0429198603
 40
0.087231636
 40
0.1341161349
 40
0.1844177789
 40
0.2386175876
 40
0.2968668663
 40
0.3590424821
 40
0.4248024254
 40
0.4936353554
 40
0.5649021942
 40
0.6378708959
 40
0.7117480174
 40
0.7857122888
 40
0.8589296476
 40
0.9306175991
 40
1.0
 40
1.0
 40
1.0
 40
1.0
 10
26.4249296293
 20
102.1416350689
 30
0.0
 10
26.631155749
 20
102.2606879585
 30
0.0
 10
27.0794677216
 20
102.4554164319
 30
0.0
 10
27.8154064378
 20
102.5964731336
 30
0.0
 10
28.6050541021
 20
102.5884931838
 30
0.0
 10
29.4342668598
 20
102.4337091038
 30
0.0
 10
30.2899372871
 20
102.1363828243
 30
0.0
 10
31.158635807
 20
101.7022029337
 30
0.0
 10
32.0266187406
 20
101.1386526981
 30
0.0
 10
32.8799209283
 20
100.4551343641
 30
0.0
 10
33.7046303078
 20
99.6629582588
 30
0.0
 10
34.4871724148
 20
98.7752296093
 30
0.0
 10
35.214587551
 20
97.8066678931
 30
0.0
 10
35.8748039822
 20
96.7733523862
 30
0.0
 10
36.4568004254
 20
95.6924915356
 30
0.0
 10
36.9510244738
 20
94.5819943341
 30
0.0
 10
37.3490605498
 20
93.4604692348
 30
0.0
 10
37.549952148
 20
92.7028497353
 30
0.0
 10
37.6317219765
 20
92.3266946255
 30
0.0
  0
SPLINE
  5
2C5
100
AcDbEntity
  8
0
100
AcDbSpline
 62
7
  6
BYLAYER
 70
0
 71
3
 72
25
 73
21
 74
0
 42
0.0000001
 43
0.0000001
 44
0.0000000001
 40
0.0
 40
0.0
 40
0.0
 40
0.0
 40
0.0623810044
 40
0.1287237594
 40
0.1983145985
 40
0.2702911254
 40
0.3436679509
 40
0.4174006512
 40
0.4904256046
 40
0.5617125845
 40
0.6303099951
 40
0.6953974348
 40
0.7563447101
 40
0.8127816881
 40
0.8646820547
 40
0.9124568978
 40
0.9351018777
 40
0.9571070913
 40
0.9786677644
 40
1.0
 40
1.0
 40
1.0
 40
1.0
 10
35.9832678515
 20
88.933839479
 30
0.0
 10
35.9832678515
 20
89.3279438526
 30
0.0
 10
35.9298616296
 20
90.1417231643
 30
0.0
 10
35.7101769035
 20
91.3773266907
 30
0.0
 10
35.3529405768
 20
92.6434238874
 30
0.0
 10
34.8659031633
 20
93.9129245225
 30
0.0
 10
34.2593446456
 20
95.1589375243
 30
0.0
 10
33.5462509363
 20
96.3548806174
 30
0.0
 10
32.7418076093
 20
97.4752360013
 30
0.0
 10
31.8631662657
 20
98.4961223181
 30
0.0
 10
30.928966518
 20
99.3958352533
 30
0.0
 10
29.9588606054
 20
100.1552998196
 30
0.0
 10
28.9730260776
 20
100.7584334725
 30
0.0
 10
27.9913778489
 20
101.1922250822
 30
0.0
 10
27.0338173298
 20
101.4467394447
 30
0.0
 10
26.2571813499
 20
101.5037271005
 30
0.0
 10
25.6746881384
 20
101.4491048955
 30
0.0
 10
25.2645837308
 20
101.3616042501
 30
0.0
 10
24.876115829
 20
101.2273413585
 30
0.0
 10
24.6324658996
 20
101.1067581702
 30
0.0
 10
24.5157552992
 20
101.0393655979
 30
0.0
  0
SPLINE
  5
2C6
100
AcDbEntity
  8
0
100
AcDbSpline
 62
7
  6
BYLAYER
 70
0
 71
3
 72
11
 73
7
 74
0
 42
0.0000001
 43
0.0000001
 44
0.0000000001
 40
0.0
 40
0.0
 40
0.0
 40
0.0
 40
0.2627491018
 40
0.5235865368
 40
0.7722522874
 40
1.0
 40
1.0
 40
1.0
 40
1.0
 10
27.6491642466
 20
105.5913750929
 30
0.0
 10
27.689255533
 20
105.497921525
 30
0.0
 10
27.7828970249
 20
105.3173067761
 30
0.0
 10
27.9568947808
 20
105.0730649032
 30
0.0
 10
28.1556486137
 20
104.8668661053
 30
0.0
 10
28.3052274264
 20
104.7567746251
 30
0.0
 10
28.3815625887
 20
104.7127034955
 30
0.0
  0
SPLINE
  5
2C7
100
AcDbEntity
  8
0
100
AcDbSpline
 62
7
  6
BYLAYER
 70
0
 71
3
 72
15
 73
11
 74
0
 42
0.0000001
 43
0.0000001
 44
0.0000000001
 40
0.0
 40
0.0
 40
0.0
 40
0.0
 40
0.1080137289
 40
0.2180613718
 40
0.3319970949
 40
0.4513580834
 40
0.5772718504
 40
0.7104887862
 40
0.8514265975
 40
1.0
 40
1.0
 40
1.0
 40
1.0
 10
31.300889622
 20
105.7805133327
 30
0.0
 10
31.4812424566
 20
105.8846395725
 30
0.0
 10
31.8279765297
 20
106.1266198525
 30
0.0
 10
32.2861521598
 20
106.5775062034
 30
0.0
 10
32.680208154
 20
107.1126635848
 30
0.0
 10
33.0064256377
 20
107.7260896846
 30
0.0
 10
33.2624087837
 20
108.4114602463
 30
0.0
 10
33.4460882381
 20
109.1622538023
 30
0.0
 10
33.5560015508
 20
109.9711328189
 30
0.0
 10
33.5791236369
 20
110.5297011537
 30
0.0
 10
33.5791236369
 20
110.8161545071
 30
0.0
  0
SPLINE
  5
2C8
100
AcDbEntity
  8
0
100
AcDbSpline
 62
7
  6
BYLAYER
 70
0
 71
3
 72
11
 73
7
 74
0
 42
0.0000001
 43
0.0000001
 44
0.0000000001
 40
0.0
 40
0.0
 40
0.0
 40
0.0
 40
0.2177843137
 40
0.4509117637
 40
0.7102976701
 40
1.0
 40
1.0
 40
1.0
 40
1.0
 10
35.7903197114
 20
99.3438747105
 30
0.0
 10
35.7494172402
 20
99.3202598168
 30
0.0
 10
35.6554374535
 20
99.2861537825
 30
0.0
 10
35.4993386293
 20
99.2822013903
 30
0.0
 10
35.3329738662
 20
99.3223755148
 30
0.0
 10
35.2247353226
 20
99.3738666896
 30
0.0
 10
35.1703255808
 20
99.405279458
 30
0.0
  0
SPLINE
  5
2C9
100
AcDbEntity
  8
0
100
AcDbSpline
 62
7
  6
BYLAYER
 70
0
 71
3
 72
25
 73
21
 74
0
 42
0.0000001
 43
0.0000001
 44
0.0000000001
 40
0.0
 40
0.0
 40
0.0
 40
0.0
 40
0.062382224
 40
0.1287225842
 40
0.1983143448
 40
0.2702904328
 40
0.343667818
 40
0.4174003537
 40
0.4904252209
 40
0.5617120183
 40
0.6303092871
 40
0.6953967554
 40
0.756344228
 40
0.8127814857
 40
0.8646821209
 40
0.9124571461
 40
0.9351017515
 40
0.9571072822
 40
0.9786677517
 40
1.0
 40
1.0
 40
1.0
 40
1.0
 10
33.5791236369
 20
110.8161545071
 30
0.0
 10
33.5791236369
 20
111.2724949624
 30
0.0
 10
33.517294492
 20
112.2147585204
 30
0.0
 10
33.2629075302
 20
113.6454529458
 30
0.0
 10
32.8492895535
 20
115.1114527976
 30
0.0
 10
32.2853386567
 20
116.581405229
 30
0.0
 10
31.5830131625
 20
118.0241597079
 30
0.0
 10
30.7573183121
 20
119.4089351151
 30
0.0
 10
29.8258565388
 20
120.7061845318
 30
0.0
 10
28.8084806269
 20
121.8882587466
 30
0.0
 10
27.726776075
 20
122.9300292489
 30
0.0
 10
26.6034974361
 20
123.8094137076
 30
0.0
 10
25.4620053743
 20
124.5077858196
 30
0.0
 10
24.3253572711
 20
125.0100856712
 30
0.0
 10
23.2166012168
 20
125.3047776092
 30
0.0
 10
22.3173314526
 20
125.370813346
 30
0.0
 10
21.6428762043
 20
125.3074785603
 30
0.0
 10
21.1680033352
 20
125.206238489
 30
0.0
 10
20.7182183116
 20
125.0507097625
 30
0.0
 10
20.4360874342
 20
124.911117165
 30
0.0
 10
20.3009436986
 20
124.833092281
 30
0.0
  0
SPLINE
  5
2CA
100
AcDbEntity
  8
0
100
AcDbSpline
 62
7
  6
BYLAYER
 70
0
 71
3
 72
11
 73
7
 74
0
 42
0.0000001
 43
0.0000001
 44
0.0000000001
 40
0.0
 40
0.0
 40
0.0
 40
0.0
 40
0.2372444228
 40
0.5000010918
 40
0.7627571666
 40
1.0
 40
1.0
 40
1.0
 40
1.0
 10
26.9691491291
 20
28.4086432788
 30
0.0
 10
26.9691491291
 20
28.3506827
 30
0.0
 10
26.9908945595
 20
28.2284506879
 30
0.0
 10
27.0666640122
 20
28.0566941735
 30
0.0
 10
27.1775252459
 20
27.9051984624
 30
0.0
 10
27.2725087104
 20
27.8252512965
 30
0.0
 10
27.3227039916
 20
27.796271693
 30
0.0
  0
SPLINE
  5
2CB
100
AcDbEntity
  8
0
100
AcDbSpline
 62
7
  6
BYLAYER
 70
0
 71
3
 72
12
 73
8
 74
0
 42
0.0000001
 43
0.0000001
 44
0.0000000001
 40
0.0
 40
0.0
 40
0.0
 40
0.0
 40
0.289556229
 40
0.5486533222
 40
0.7816321932
 40
0.8918390364
 40
1.0
 40
1.0
 40
1.0
 40
1.0
 10
34.7214324025
 20
37.7975569047
 30
0.0
 10
34.7214324025
 20
37.5440114666
 30
0.0
 10
34.6829663165
 20
37.061884847
 30
0.0
 10
34.4881111272
 20
36.399814469
 30
0.0
 10
34.2078477158
 20
35.943106282
 30
0.0
 10
33.9250374628
 20
35.6647857642
 30
0.0
 10
33.7673064227
 20
35.554756538
 30
0.0
 10
33.6852854888
 20
35.5074020096
 30
0.0
  0
SPLINE
  5
2CC
100
AcDbEntity
  8
0
100
AcDbSpline
 62
7
  6
BYLAYER
 70
0
 71
3
 72
15
 73
11
 74
0
 42
0.0000001
 43
0.0000001
 44
0.0000000001
 40
0.0
 40
0.0
 40
0.0
 40
0.0
 40
0.1141465952
 40
0.2373352439
 40
0.366975646
 40
0.4999989181
 40
0.6330223406
 40
0.7626631822
 40
0.8858525235
 40
1.0
 40
1.0
 40
1.0
 40
1.0
 10
31.1839421242
 20
43.9246357853
 30
0.0
 10
31.4260940707
 20
43.7848324565
 30
0.0
 10
31.9044202264
 20
43.4494958081
 30
0.0
 10
32.5626108639
 20
42.8337862287
 30
0.0
 10
33.1690933207
 20
42.1058663028
 30
0.0
 10
33.7011676071
 20
41.2932433892
 30
0.0
 10
34.1388871454
 20
40.4261432038
 30
0.0
 10
34.4660488121
 20
39.5369528188
 30
0.0
 10
34.670180312
 20
38.6590847426
 30
0.0
 10
34.7214324025
 20
38.0771704652
 30
0.0
 10
34.7214324025
 20
37.7975569047
 30
0.0
  0
SPLINE
  5
2CD
100
AcDbEntity
  8
0
100
AcDbSpline
 62
7
  6
BYLAYER
 70
0
 71
3
 72
15
 73
11
 74
0
 42
0.0000001
 43
0.0000001
 44
0.0000000001
 40
0.0
 40
0.0
 40
0.0
 40
0.0
 40
0.1083874673
 40
0.2280328881
 40
0.3564817942
 40
0.4902852433
 40
0.6254791845
 40
0.7579322103
 40
0.8838697057
 40
1.0
 40
1.0
 40
1.0
 40
1.0
 10
61.2548253481
 20
83.9380890431
 30
0.0
 10
61.3949083433
 20
83.8806033243
 30
0.0
 10
61.6762803454
 20
83.7262290936
 30
0.0
 10
62.0673435524
 20
83.414996612
 30
0.0
 10
62.4341035943
 20
83.0252182644
 30
0.0
 10
62.7602987478
 20
82.5741276592
 30
0.0
 10
63.0315446457
 20
82.0816609823
 30
0.0
 10
63.2359768852
 20
81.5695812878
 30
0.0
 10
63.3642603562
 20
81.0607315088
 30
0.0
 10
63.3968830824
 20
80.7222228301
 30
0.0
 10
63.3968830824
 20
80.5599864841
 30
0.0
  0
SPLINE
  5
2CE
100
AcDbEntity
  8
0
100
AcDbSpline
 62
7
  6
BYLAYER
 70
0
 71
3
 72
17
 73
13
 74
0
 42
0.0000001
 43
0.0000001
 44
0.0000000001
 40
0.0
 40
0.0
 40
0.0
 40
0.0
 40
0.1264847122
 40
0.2653790575
 40
0.4102021274
 40
0.5534312864
 40
0.6878195841
 40
0.8076846485
 40
0.8613541736
 40
0.9108518569
 40
0.9567549499
 40
1.0
 40
1.0
 40
1.0
 40
1.0
 10
49.9830823693
 20
29.5000199707
 30
0.0
 10
49.9830823693
 20
29.1496737142
 30
0.0
 10
50.0765692174
 20
28.4137634322
 30
0.0
 10
50.4286849288
 20
27.3282037641
 30
0.0
 10
50.9744128822
 20
26.2732263959
 30
0.0
 10
51.6734429616
 20
25.3282151477
 30
0.0
 10
52.4732696935
 20
24.5634974853
 30
0.0
 10
53.2039459794
 20
24.1060081992
 30
0.0
 10
53.7863103308
 20
23.8935500952
 30
0.0
 10
54.1940321495
 20
23.815774273
 30
0.0
 10
54.580572898
 20
23.8163080968
 30
0.0
 10
54.8240639688
 20
23.8708986353
 30
0.0
 10
54.9368564845
 20
23.9112205816
 30
0.0
  0
SPLINE
  5
2CF
100
AcDbEntity
  8
0
100
AcDbSpline
 62
7
  6
BYLAYER
 70
0
 71
3
 72
11
 73
7
 74
0
 42
0.0000001
 43
0.0000001
 44
0.0000000001
 40
0.0
 40
0.0
 40
0.0
 40
0.0
 40
0.2185626765
 40
0.4545689717
 40
0.7143030932
 40
1.0
 40
1.0
 40
1.0
 40
1.0
 10
50.6604500169
 20
31.3181327398
 30
0.0
 10
50.5495123089
 20
31.2239507051
 30
0.0
 10
50.3475107848
 20
30.9924410287
 30
0.0
 10
50.1351628355
 20
30.5622325612
 30
0.0
 10
50.0085272774
 20
30.0542735642
 30
0.0
 10
49.9830823693
 20
29.6902443488
 30
0.0
 10
49.9830823693
 20
29.5000199707
 30
0.0
  0
SPLINE
  5
2D0
100
AcDbEntity
  8
0
100
AcDbSpline
 62
7
  6
BYLAYER
 70
0
 71
3
 72
13
 73
9
 74
0
 42
0.0000001
 43
0.0000001
 44
0.0000000001
 40
0.0
 40
0.0
 40
0.0
 40
0.0
 40
0.1142491741
 40
0.2375285111
 40
0.4999847014
 40
0.7624270453
 40
0.8857944645
 40
1.0
 40
1.0
 40
1.0
 40
1.0
 10
25.0522988774
 20
92.3869925715
 30
0.0
 10
25.0522984319
 20
92.2495705378
 30
0.0
 10
25.0774364879
 20
91.9635737419
 30
0.0
 10
25.2141388691
 20
91.3764363524
 30
0.0
 10
25.5316585756
 20
90.6563216851
 30
0.0
 10
25.9965460379
 20
90.021123395
 30
0.0
 10
26.4368010431
 20
89.6092621622
 30
0.0
 10
26.6718958448
 20
89.4443803969
 30
0.0
 10
26.7908620324
 20
89.3756967903
 30
0.0
  0
SPLINE
  5
2D1
100
AcDbEntity
  8
0
100
AcDbSpline
 62
7
  6
BYLAYER
 70
0
 71
3
 72
11
 73
7
 74
0
 42
0.0000001
 43
0.0000001
 44
0.0000000001
 40
0.0
 40
0.0
 40
0.0
 40
0.0
 40
0.2177770773
 40
0.4509583744
 40
0.7102025308
 40
1.0
 40
1.0
 40
1.0
 40
1.0
 10
25.6735887001
 20
94.2023143442
 30
0.0
 10
25.5746260008
 20
94.1451873417
 30
0.0
 10
25.3894277498
 20
93.9895272133
 30
0.0
 10
25.1924478662
 20
93.6672090779
 30
0.0
 10
25.0752262743
 20
93.2700712386
 30
0.0
 10
25.0522517061
 20
92.9809929627
 30
0.0
 10
25.0522528089
 20
92.8289361231
 30
0.0
  0
SPLINE
  5
2D2
100
AcDbEntity
  8
0
100
AcDbSpline
 62
7
  6
BYLAYER
 70
0
 71
3
 72
11
 73
7
 74
0
 42
0.0000001
 43
0.0000001
 44
0.0000000001
 40
0.0
 40
0.0
 40
0.0
 40
0.0
 40
0.2372523758
 40
0.4999990758
 40
0.7627462798
 40
1.0
 40
1.0
 40
1.0
 40
1.0
 10
81.2137926282
 20
92.3906554588
 30
0.0
 10
81.3141872831
 20
92.3326938891
 30
0.0
 10
81.5041753042
 20
92.1728180895
 30
0.0
 10
81.7258325376
 20
91.8697871382
 30
0.0
 10
81.8774381588
 20
91.5263109115
 30
0.0
 10
81.9209023534
 20
91.2818380505
 30
0.0
 10
81.9209023534
 20
91.1659122872
 30
0.0
  0
SPLINE
  5
2D3
100
AcDbEntity
  8
0
100
AcDbSpline
 62
7
  6
BYLAYER
 70
0
 71
3
 72
11
 73
7
 74
0
 42
0.0000001
 43
0.0000001
 44
0.0000000001
 40
0.0
 40
0.0
 40
0.0
 40
0.0
 40
0.2897016594
 40
0.5490895814
 40
0.7822189142
 40
1.0
 40
1.0
 40
1.0
 40
1.0
 10
63.3968830824
 20
80.5599864841
 30
0.0
 10
63.3968830824
 20
80.4257163743
 30
0.0
 10
63.3765259019
 20
80.170361772
 30
0.0
 10
63.2731157613
 20
79.8195153435
 30
0.0
 10
63.0989947429
 20
79.5348235544
 30
0.0
 10
62.9354418041
 20
79.3973362202
 30
0.0
 10
62.8480318582
 20
79.3468615587
 30
0.0
  0
SPLINE
  5
2D4
100
AcDbEntity
  8
0
100
AcDbSpline
 62
7
  6
BYLAYER
 70
0
 71
3
 72
9
 73
5
 74
0
 42
0.0000001
 43
0.0000001
 44
0.0000000001
 40
0.0
 40
0.0
 40
0.0
 40
0.0
 40
0.4910767441
 40
1.0
 40
1.0
 40
1.0
 40
1.0
 10
50.300931167
 20
31.6912936463
 30
0.0
 10
50.4161584228
 20
31.7578197405
 30
0.0
 10
50.6680968731
 20
31.8651988458
 30
0.0
 10
50.9375788543
 20
31.9112500944
 30
0.0
 10
51.0751414007
 20
31.9207201339
 30
0.0
  0
SPLINE
  5
2D5
100
AcDbEntity
  8
0
100
AcDbSpline
 62
7
  6
BYLAYER
 70
0
 71
3
 72
10
 73
6
 74
0
 42
0.0000001
 43
0.0000001
 44
0.0000000001
 40
0.0
 40
0.0
 40
0.0
 40
0.0
 40
0.4632423664
 40
0.7223442548
 40
1.0
 40
1.0
 40
1.0
 40
1.0
 10
51.0751414007
 20
31.9207201339
 30
0.0
 10
51.3544501685
 20
31.9399482243
 30
0.0
 10
51.7978023538
 20
31.8798807668
 30
0.0
 10
52.3667175888
 20
31.6748660515
 30
0.0
 10
52.6569487329
 20
31.5274701007
 30
0.0
 10
52.8022745316
 20
31.4435681099
 30
0.0
  0
SPLINE
  5
2D6
100
AcDbEntity
  8
0
100
AcDbSpline
 62
7
  6
BYLAYER
 70
0
 71
3
 72
10
 73
6
 74
0
 42
0.0000001
 43
0.0000001
 44
0.0000000001
 40
0.0
 40
0.0
 40
0.0
 40
0.0
 40
0.2547825416
 40
0.5064033959
 40
1.0
 40
1.0
 40
1.0
 40
1.0
 10
33.3634738848
 20
93.6612930096
 30
0.0
 10
33.2763064544
 20
93.8859533918
 30
0.0
 10
33.0884055933
 20
94.3270173185
 30
0.0
 10
32.6573517391
 20
95.1696319991
 30
0.0
 10
32.275407171
 20
95.7642158731
 30
0.0
 10
32.0069385754
 20
96.1461533932
 30
0.0
  0
SPLINE
  5
2D7
100
AcDbEntity
  8
0
100
AcDbSpline
 62
7
  6
BYLAYER
 70
0
 71
3
 72
8
 73
4
 74
0
 42
0.0000001
 43
0.0000001
 44
0.0000000001
 40
0.0
 40
0.0
 40
0.0
 40
0.0
 40
1.0
 40
1.0
 40
1.0
 40
1.0
 10
34.078807162
 20
90.8062366699
 30
0.0
 10
34.0354125448
 20
91.1050799918
 30
0.0
 10
33.98562949
 20
91.4031381351
 30
0.0
 10
33.9266484612
 20
91.6992996823
 30
0.0
  0
SPLINE
  5
2D8
100
AcDbEntity
  8
0
100
AcDbSpline
 62
7
  6
BYLAYER
 70
0
 71
3
 72
10
 73
6
 74
0
 42
0.0000001
 43
0.0000001
 44
0.0000000001
 40
0.0
 40
0.0
 40
0.0
 40
0.0
 40
0.238026416
 40
0.4850551436
 40
1.0
 40
1.0
 40
1.0
 40
1.0
 10
30.2556708347
 20
97.5274182293
 30
0.0
 10
30.0768882155
 20
97.6306360875
 30
0.0
 10
29.7050576592
 20
97.8282531275
 30
0.0
 10
28.9133855649
 20
98.183657259
 30
0.0
 10
28.2887255368
 20
98.4028815112
 30
0.0
 10
27.8632011753
 20
98.5384871748
 30
0.0
  0
SPLINE
  5
2D9
100
AcDbEntity
  8
0
100
AcDbSpline
 62
7
  6
BYLAYER
 70
0
 71
3
 72
9
 73
5
 74
0
 42
0.0000001
 43
0.0000001
 44
0.0000000001
 40
0.0
 40
0.0
 40
0.0
 40
0.0
 40
0.4667380503
 40
1.0
 40
1.0
 40
1.0
 40
1.0
 10
24.2487420521
 20
95.5759926511
 30
0.0
 10
24.4405453077
 20
95.8488651511
 30
0.0
 10
24.8798515657
 20
96.4135549752
 30
0.0
 10
25.350622324
 20
96.9513844957
 30
0.0
 10
25.6052773615
 20
97.2348820345
 30
0.0
  0
SPLINE
  5
2DA
100
AcDbEntity
  8
0
100
AcDbSpline
 62
7
  6
BYLAYER
 70
0
 71
3
 72
9
 73
5
 74
0
 42
0.0000001
 43
0.0000001
 44
0.0000000001
 40
0.0
 40
0.0
 40
0.0
 40
0.0
 40
0.442947471
 40
1.0
 40
1.0
 40
1.0
 40
1.0
 10
23.5334087749
 20
94.2872992239
 30
0.0
 10
23.6122807367
 20
94.4905820242
 30
0.0
 10
23.822767554
 20
94.9374417347
 30
0.0
 10
24.0910517497
 20
95.351651584
 30
0.0
 10
24.2487420521
 20
95.5759926511
 30
0.0
  0
SPLINE
  5
2DB
100
AcDbEntity
  8
0
100
AcDbSpline
 62
7
  6
BYLAYER
 70
0
 71
3
 72
10
 73
6
 74
0
 42
0.0000001
 43
0.0000001
 44
0.0000000001
 40
0.0
 40
0.0
 40
0.0
 40
0.0
 40
0.2476791916
 40
0.4973789447
 40
1.0
 40
1.0
 40
1.0
 40
1.0
 10
24.2487420521
 20
91.4322428842
 30
0.0
 10
24.1606716891
 20
91.6592304334
 30
0.0
 10
23.9987892502
 20
92.1210599629
 30
0.0
 10
23.7366163679
 20
93.0691051429
 30
0.0
 10
23.6044098359
 20
93.7983392785
 30
0.0
 10
23.5334086614
 20
94.2872991584
 30
0.0
  0
SPLINE
  5
2DC
100
AcDbEntity
  8
0
100
AcDbSpline
 62
7
  6
BYLAYER
 70
0
 71
3
 72
10
 73
6
 74
0
 42
0.0000001
 43
0.0000001
 44
0.0000000001
 40
0.0
 40
0.0
 40
0.0
 40
0.0
 40
0.4935969631
 40
0.745217651
 40
1.0
 40
1.0
 40
1.0
 40
1.0
 10
25.6052774749
 20
88.9473825662
 30
0.0
 10
25.3368087047
 20
89.3293203812
 30
0.0
 10
24.9548647839
 20
89.923904801
 30
0.0
 10
24.5238092637
 20
90.7665186581
 30
0.0
 10
24.3359094171
 20
91.2075826708
 30
0.0
 10
24.2487420521
 20
91.4322428842
 30
0.0
  0
SPLINE
  5
2DD
100
AcDbEntity
  8
0
100
AcDbSpline
 62
7
  6
BYLAYER
 70
0
 71
3
 72
9
 73
5
 74
0
 42
0.0000001
 43
0.0000001
 44
0.0000000001
 40
0.0
 40
0.0
 40
0.0
 40
0.0
 40
0.5332622335
 40
1.0
 40
1.0
 40
1.0
 40
1.0
 10
32.006938462
 20
87.8586537938
 30
0.0
 10
32.2615936432
 20
88.1421515045
 30
0.0
 10
32.7323643443
 20
88.6799811234
 30
0.0
 10
33.1716707353
 20
89.2446708936
 30
0.0
 10
33.3634738848
 20
89.5175432427
 30
0.0
  0
SPLINE
  5
2DE
100
AcDbEntity
  8
0
100
AcDbSpline
 62
7
  6
BYLAYER
 70
0
 71
3
 72
9
 73
5
 74
0
 42
0.0000001
 43
0.0000001
 44
0.0000000001
 40
0.0
 40
0.0
 40
0.0
 40
0.0
 40
0.5570529946
 40
1.0
 40
1.0
 40
1.0
 40
1.0
 10
33.3634738848
 20
89.5175432427
 30
0.0
 10
33.5211643323
 20
89.7418845162
 30
0.0
 10
33.7894487253
 20
90.1560943008
 30
0.0
 10
33.9999353899
 20
90.6029541317
 30
0.0
 10
34.0788072755
 20
90.8062367355
 30
0.0
  0
SPLINE
  5
2DF
100
AcDbEntity
  8
0
100
AcDbSpline
 62
7
  6
BYLAYER
 70
0
 71
3
 72
11
 73
7
 74
0
 42
0.0000001
 43
0.0000001
 44
0.0000000001
 40
0.0
 40
0.0
 40
0.0
 40
0.0
 40
0.2657836286
 40
0.5202311747
 40
0.7642863267
 40
1.0
 40
1.0
 40
1.0
 40
1.0
 10
27.3565451022
 20
87.5661176646
 30
0.0
 10
27.1848324985
 20
87.6652537397
 30
0.0
 10
26.8550678337
 20
87.8706695903
 30
0.0
 10
26.3957277617
 20
88.2094313213
 30
0.0
 10
25.9811123568
 20
88.5680946155
 30
0.0
 10
25.7267950591
 20
88.8202829798
 30
0.0
 10
25.6052773615
 20
88.9473825007
 30
0.0
  0
SPLINE
  5
2E0
100
AcDbEntity
  8
0
100
AcDbSpline
 62
7
  6
BYLAYER
 70
0
 71
3
 72
10
 73
6
 74
0
 42
0.0000001
 43
0.0000001
 44
0.0000000001
 40
0.0
 40
0.0
 40
0.0
 40
0.0
 40
0.5149451725
 40
0.7619738915
 40
1.0
 40
1.0
 40
1.0
 40
1.0
 10
29.7490148751
 20
86.5550487846
 30
0.0
 10
29.3234902428
 20
86.6906545547
 30
0.0
 10
28.6988302412
 20
86.909879575
 30
0.0
 10
27.9071574562
 20
87.265282299
 30
0.0
 10
27.5353274969
 20
87.4628999359
 30
0.0
 10
27.3565451022
 20
87.5661176646
 30
0.0
  0
SPLINE
  5
2E1
100
AcDbEntity
  8
0
100
AcDbSpline
 62
7
  6
BYLAYER
 70
0
 71
3
 72
11
 73
7
 74
0
 42
0.0000001
 43
0.0000001
 44
0.0000000001
 40
0.0
 40
0.0
 40
0.0
 40
0.0
 40
0.2896993757
 40
0.5490834079
 40
0.7822137218
 40
1.0
 40
1.0
 40
1.0
 40
1.0
 10
27.1735819843
 20
89.1547270053
 30
0.0
 10
27.3052178168
 20
89.0787287413
 30
0.0
 10
27.5670830614
 20
88.95415177
 30
0.0
 10
27.9695774694
 20
88.8569482395
 30
0.0
 10
28.3472412719
 20
88.8665090239
 30
0.0
 10
28.5746124656
 20
88.9490271068
 30
0.0
 10
28.6735752685
 20
89.0061541691
 30
0.0
  0
SPLINE
  5
2E2
100
AcDbEntity
  8
0
100
AcDbSpline
 62
7
  6
BYLAYER
 70
0
 71
3
 72
11
 73
7
 74
0
 42
0.0000001
 43
0.0000001
 44
0.0000000001
 40
0.0
 40
0.0
 40
0.0
 40
0.0
 40
0.2177849011
 40
0.4509184398
 40
0.7103088704
 40
1.0
 40
1.0
 40
1.0
 40
1.0
 10
25.8565586851
 20
94.3079355563
 30
0.0
 10
25.9555244695
 20
94.3650551045
 30
0.0
 10
26.182886163
 20
94.4475926382
 30
0.0
 10
26.5605569771
 20
94.4571467409
 30
0.0
 10
26.9630490926
 20
94.3599452565
 30
0.0
 10
27.2249135369
 20
94.2353704833
 30
0.0
 10
27.3565451022
 20
94.1593746829
 30
0.0
  0
SPLINE
  5
2E3
100
AcDbEntity
  8
0
100
AcDbSpline
 62
7
  6
BYLAYER
 70
0
 71
3
 72
17
 73
13
 74
0
 42
0.0000001
 43
0.0000001
 44
0.0000000001
 40
0.0
 40
0.0
 40
0.0
 40
0.0
 40
0.0428592926
 40
0.087485474
 40
0.1353198781
 40
0.1872819044
 40
0.3045421965
 40
0.4382074305
 40
0.582548911
 40
0.7297129633
 40
0.8713059682
 40
1.0
 40
1.0
 40
1.0
 40
1.0
 10
62.8480318582
 20
79.3468615587
 30
0.0
 10
62.7827035424
 20
79.3091378809
 30
0.0
 10
62.6386755846
 20
79.2493323826
 30
0.0
 10
62.4009702313
 20
79.2144418541
 30
0.0
 10
62.1456820231
 20
79.2332508739
 30
0.0
 10
61.7747542533
 20
79.3319054438
 30
0.0
 10
61.3005806463
 20
79.5911864539
 30
0.0
 10
60.7766941536
 20
80.0551422049
 30
0.0
 10
60.3135799786
 20
80.6478847021
 30
0.0
 10
59.9491148273
 20
81.3215433235
 30
0.0
 10
59.7125659481
 20
82.0208603108
 30
0.0
 10
59.6492015391
 20
82.4971445769
 30
0.0
 10
59.6492015391
 20
82.7236624831
 30
0.0
  0
SPLINE
  5
2E4
100
AcDbEntity
  8
0
100
AcDbSpline
 62
7
  6
BYLAYER
 70
0
 71
3
 72
12
 73
8
 74
0
 42
0.0000001
 43
0.0000001
 44
0.0000000001
 40
0.0
 40
0.0
 40
0.0
 40
0.0
 40
0.2895261163
 40
0.5486616951
 40
0.7816280583
 40
0.8918377902
 40
1.0
 40
1.0
 40
1.0
 40
1.0
 10
58.3269582846
 20
27.2955307742
 30
0.0
 10
58.3269582846
 20
27.077624877
 30
0.0
 10
58.2938663438
 20
26.6632241602
 30
0.0
 10
58.1264338058
 20
26.0941472604
 30
0.0
 10
57.885508692
 20
25.7015801881
 30
0.0
 10
57.6424194647
 20
25.4623818622
 30
0.0
 10
57.5068711299
 20
25.3677636715
 30
0.0
 10
57.4363643666
 20
25.3270728299
 30
0.0
  0
SPLINE
  5
2E5
100
AcDbEntity
  8
0
100
AcDbSpline
 62
7
  6
BYLAYER
 70
0
 71
3
 72
15
 73
11
 74
0
 42
0.0000001
 43
0.0000001
 44
0.0000000001
 40
0.0
 40
0.0
 40
0.0
 40
0.0
 40
0.1032773856
 40
0.2195207909
 40
0.346632606
 40
0.4809891688
 40
0.6181247443
 40
0.7532435022
 40
0.8818276239
 40
1.0
 40
1.0
 40
1.0
 40
1.0
 10
34.5665771361
 20
38.9259445155
 30
0.0
 10
34.4191268197
 20
38.9645901452
 30
0.0
 10
34.1169045004
 20
39.0909217432
 30
0.0
 10
33.6922119805
 20
39.3805309211
 30
0.0
 10
33.2873569239
 20
39.7669953351
 30
0.0
 10
32.9226484835
 20
40.2309131667
 30
0.0
 10
32.6163053883
 20
40.7489483402
 30
0.0
 10
32.3837414226
 20
41.294938862
 30
0.0
 10
32.2369404456
 20
41.8410334369
 30
0.0
 10
32.1992539405
 20
42.2056120591
 30
0.0
 10
32.1992539405
 20
42.3800266537
 30
0.0
  0
SPLINE
  5
2E6
100
AcDbEntity
  8
0
100
AcDbSpline
 62
7
  6
BYLAYER
 70
0
 71
3
 72
17
 73
13
 74
0
 42
0.0000001
 43
0.0000001
 44
0.0000000001
 40
0.0
 40
0.0
 40
0.0
 40
0.0
 40
0.0428612795
 40
0.087489383
 40
0.1353252659
 40
0.1872889204
 40
0.3045549195
 40
0.4382258395
 40
0.5825707627
 40
0.729729838
 40
0.8713119594
 40
1.0
 40
1.0
 40
1.0
 40
1.0
 10
28.6735752685
 20
89.0061541691
 30
0.0
 10
28.7475421084
 20
89.0488521137
 30
0.0
 10
28.887707135
 20
89.1562132009
 30
0.0
 10
29.056477019
 20
89.3695191505
 30
0.0
 10
29.1825374367
 20
89.6304678184
 30
0.0
 10
29.2957769355
 20
90.0499917748
 30
0.0
 10
29.3099620763
 20
90.661671172
 30
0.0
 10
29.1516128442
 20
91.4379426221
 30
0.0
 10
28.8325957876
 20
92.2275042407
 30
0.0
 10
28.3784299008
 20
92.9661201934
 30
0.0
 10
27.8267222705
 20
93.5938368184
 30
0.0
 10
27.3956547046
 20
93.9255306637
 30
0.0
 10
27.1735819843
 20
94.0537415081
 30
0.0
  0
SPLINE
  5
2E7
100
AcDbEntity
  8
0
100
AcDbSpline
 62
7
  6
BYLAYER
 70
0
 71
3
 72
9
 73
5
 74
0
 42
0.0000001
 43
0.0000001
 44
0.0000000001
 40
0.0
 40
0.0
 40
0.0
 40
0.0
 40
0.2609568092
 40
1.0
 40
1.0
 40
1.0
 40
1.0
 10
33.8705743856
 20
37.3062461464
 30
0.0
 10
33.9338520083
 20
37.2697136204
 30
0.0
 10
34.1795364086
 20
37.1354525545
 30
0.0
 10
34.4385296664
 20
37.024654895
 30
0.0
 10
34.6355100564
 20
36.9612693718
 30
0.0
  0
SPLINE
  5
2E8
100
AcDbEntity
  8
0
100
AcDbSpline
 62
7
  6
BYLAYER
 70
0
 71
3
 72
9
 73
5
 74
0
 42
0.0000001
 43
0.0000001
 44
0.0000000001
 40
0.0
 40
0.0
 40
0.0
 40
0.0
 40
0.2664332616
 40
1.0
 40
1.0
 40
1.0
 40
1.0
 10
32.1992539405
 20
42.3800266537
 30
0.0
 10
32.1992539405
 20
42.4354100323
 30
0.0
 10
32.20623347
 20
42.6430748878
 30
0.0
 10
32.2423236379
 20
42.8508572932
 30
0.0
 10
32.2908611867
 20
42.9954123262
 30
0.0
  0
SPLINE
  5
2E9
100
AcDbEntity
  8
0
100
AcDbSpline
 62
7
  6
BYLAYER
 70
0
 71
3
 72
23
 73
19
 74
0
 42
0.0000001
 43
0.0000001
 44
0.0000000001
 40
0.0
 40
0.0
 40
0.0
 40
0.0
 40
0.0623830806
 40
0.1287484222
 40
0.1983455533
 40
0.2703349859
 40
0.3437230599
 40
0.4174657637
 40
0.4905026754
 40
0.5618016988
 40
0.630410154
 40
0.6955077153
 40
0.7564651023
 40
0.8129119647
 40
0.8648206691
 40
0.9126030626
 40
0.9571852767
 40
1.0
 40
1.0
 40
1.0
 40
1.0
 10
43.9996484015
 20
109.2387836906
 30
0.0
 10
44.3480977313
 20
109.0376109274
 30
0.0
 10
45.040421522
 20
108.5748764861
 30
0.0
 10
46.0209147394
 20
107.7498759693
 30
0.0
 10
46.9581074579
 20
106.7875373761
 30
0.0
 10
47.832046039
 20
105.7087983462
 30
0.0
 10
48.6241720005
 20
104.5363135225
 30
0.0
 10
49.3176134404
 20
103.2951872147
 30
0.0
 10
49.8976232041
 20
102.0118881909
 30
0.0
 10
50.3518003267
 20
100.7137458152
 30
0.0
 10
50.6704239736
 20
99.4283291557
 30
0.0
 10
50.846715015
 20
98.1827754869
 30
0.0
 10
50.8767492896
 20
97.0031035168
 30
0.0
 10
50.7592544456
 20
95.9136429297
 30
0.0
 10
50.4952748614
 20
94.9368053415
 30
0.0
 10
50.0876087631
 20
94.093178134
 30
0.0
 10
49.5420799007
 20
93.4033363909
 30
0.0
 10
49.0887665835
 20
93.0563333551
 30
0.0
 10
48.8496208815
 20
92.9182613484
 30
0.0
  0
SPLINE
  5
2EA
100
AcDbEntity
  8
0
100
AcDbSpline
 62
7
  6
BYLAYER
 70
0
 71
3
 72
9
 73
5
 74
0
 42
0.0000001
 43
0.0000001
 44
0.0000000001
 40
0.0
 40
0.0
 40
0.0
 40
0.0
 40
0.5235358876
 40
1.0
 40
1.0
 40
1.0
 40
1.0
 10
57.8450616463
 20
29.4704188854
 30
0.0
 10
57.9966077432
 20
29.1104002494
 30
0.0
 10
58.2308123974
 20
28.3978206729
 30
0.0
 10
58.3269582846
 20
27.6510245715
 30
0.0
 10
58.3269582846
 20
27.2955307742
 30
0.0
  0
SPLINE
  5
2EB
100
AcDbEntity
  8
0
100
AcDbSpline
 62
7
  6
BYLAYER
 70
0
 71
3
 72
12
 73
8
 74
0
 42
0.0000001
 43
0.0000001
 44
0.0000000001
 40
0.0
 40
0.0
 40
0.0
 40
0.0
 40
0.1081614689
 40
0.2183687405
 40
0.4513480154
 40
0.7104447573
 40
1.0
 40
1.0
 40
1.0
 40
1.0
 10
33.6852854888
 20
35.5074020096
 30
0.0
 10
33.6032663667
 20
35.4600485271
 30
0.0
 10
33.4291164332
 20
35.3784664755
 30
0.0
 10
33.0466878719
 20
35.2727082857
 30
0.0
 10
32.511049529
 20
35.2583447694
 30
0.0
 10
31.840269668
 20
35.420620335
 30
0.0
 10
31.4035135323
 20
35.6283608022
 30
0.0
 10
31.1839421242
 20
35.755127546
 30
0.0
  0
SPLINE
  5
2EC
100
AcDbEntity
  8
0
100
AcDbSpline
 62
7
  6
BYLAYER
 70
0
 71
3
 72
12
 73
8
 74
0
 42
0.0000001
 43
0.0000001
 44
0.0000000001
 40
0.0
 40
0.0
 40
0.0
 40
0.0
 40
0.289556229
 40
0.5486533222
 40
0.7816321932
 40
0.8918390364
 40
1.0
 40
1.0
 40
1.0
 40
1.0
 10
49.2647842533
 20
29.4011387511
 30
0.0
 10
49.2647842533
 20
29.6546841893
 30
0.0
 10
49.3032503393
 20
30.1368108089
 30
0.0
 10
49.4981055286
 20
30.7988811868
 30
0.0
 10
49.77836894
 20
31.2555893739
 30
0.0
 10
50.061179193
 20
31.5339098917
 30
0.0
 10
50.2189102331
 20
31.6439391178
 30
0.0
 10
50.300931167
 20
31.6912936463
 30
0.0
  0
SPLINE
  5
2ED
100
AcDbEntity
  8
0
100
AcDbSpline
 62
7
  6
BYLAYER
 70
0
 71
3
 72
15
 73
11
 74
0
 42
0.0000001
 43
0.0000001
 44
0.0000000001
 40
0.0
 40
0.0
 40
0.0
 40
0.0
 40
0.1141465952
 40
0.2373352439
 40
0.366975646
 40
0.4999989181
 40
0.6330223406
 40
0.7626631822
 40
0.8858525235
 40
1.0
 40
1.0
 40
1.0
 40
1.0
 10
52.8022745316
 20
23.2740598706
 30
0.0
 10
52.5601225851
 20
23.4138631994
 30
0.0
 10
52.0817964294
 20
23.7491998477
 30
0.0
 10
51.4236057918
 20
24.3649094271
 30
0.0
 10
50.8171233351
 20
25.092829353
 30
0.0
 10
50.2850490487
 20
25.9054522667
 30
0.0
 10
49.8473295104
 20
26.7725524521
 30
0.0
 10
49.5201678436
 20
27.6617428371
 30
0.0
 10
49.3160363438
 20
28.5396109133
 30
0.0
 10
49.2647842533
 20
29.1215251906
 30
0.0
 10
49.2647842533
 20
29.4011387511
 30
0.0
  0
SPLINE
  5
2EE
100
AcDbEntity
  8
0
100
AcDbSpline
 62
7
  6
BYLAYER
 70
0
 71
3
 72
10
 73
6
 74
0
 42
0.0000001
 43
0.0000001
 44
0.0000000001
 40
0.0
 40
0.0
 40
0.0
 40
0.0
 40
0.2547825416
 40
0.5064033961
 40
1.0
 40
1.0
 40
1.0
 40
1.0
 10
30.4643481523
 20
91.9874919788
 30
0.0
 10
30.5515155827
 20
91.7628315966
 30
0.0
 10
30.7394164451
 20
91.3217676705
 30
0.0
 10
31.1704702934
 20
90.4791529863
 30
0.0
 10
31.5524148771
 20
89.8845691229
 30
0.0
 10
31.8208834617
 20
89.5026315952
 30
0.0
  0
SPLINE
  5
2EF
100
AcDbEntity
  8
0
100
AcDbSpline
 62
7
  6
BYLAYER
 70
0
 71
3
 72
10
 73
6
 74
0
 42
0.0000001
 43
0.0000001
 44
0.0000000001
 40
0.0
 40
0.0
 40
0.0
 40
0.0
 40
0.5026213967
 40
0.7523210502
 40
1.0
 40
1.0
 40
1.0
 40
1.0
 10
29.7490148751
 20
94.8425483184
 30
0.0
 10
29.8200161112
 20
94.3535880995
 30
0.0
 10
29.9522235175
 20
93.6243539403
 30
0.0
 10
30.2143946422
 20
92.676308233
 30
0.0
 10
30.3762778737
 20
92.2144793103
 30
0.0
 10
30.4643481523
 20
91.9874919788
 30
0.0
  0
SPLINE
  5
2F0
100
AcDbEntity
  8
0
100
AcDbSpline
 62
7
  6
BYLAYER
 70
0
 71
3
 72
15
 73
11
 74
0
 42
0.0000001
 43
0.0000001
 44
0.0000000001
 40
0.0
 40
0.0
 40
0.0
 40
0.0
 40
0.1154405389
 40
0.2403984955
 40
0.3718904793
 40
0.5063469234
 40
0.6399047634
 40
0.7687916271
 40
0.8896617164
 40
1.0
 40
1.0
 40
1.0
 40
1.0
 10
56.0642260056
 20
25.9891494818
 30
0.0
 10
56.0642260056
 20
26.24484171
 30
0.0
 10
56.0143610335
 20
26.7778293808
 30
0.0
 10
55.8172344848
 20
27.5800253274
 30
0.0
 10
55.5026555501
 20
28.3891586496
 30
0.0
 10
55.0839329885
 20
29.1710629986
 30
0.0
 10
54.5786048003
 20
29.8930118986
 30
0.0
 10
54.0077502993
 20
30.5247688806
 30
0.0
 10
53.3954131997
 20
31.0398256266
 30
0.0
 10
52.9532363426
 20
31.3046298827
 30
0.0
 10
52.7317068401
 20
31.4078369312
 30
0.0
  0
SPLINE
  5
2F1
100
AcDbEntity
  8
0
100
AcDbSpline
 62
7
  6
BYLAYER
 70
0
 71
3
 72
11
 73
7
 74
0
 42
0.0000001
 43
0.0000001
 44
0.0000000001
 40
0.0
 40
0.0
 40
0.0
 40
0.0
 40
0.2803550644
 40
0.5381275206
 40
0.7763045909
 40
1.0
 40
1.0
 40
1.0
 40
1.0
 10
52.7317068401
 20
31.4078369312
 30
0.0
 10
52.5902970316
 20
31.4737174969
 30
0.0
 10
52.3098782403
 20
31.5823913919
 30
0.0
 10
51.8847750908
 20
31.6710551743
 30
0.0
 10
51.4815586808
 20
31.6754889259
 30
0.0
 10
51.2276623766
 20
31.6198501877
 30
0.0
 10
51.1104518904
 20
31.577948871
 30
0.0
  0
SPLINE
  5
2F2
100
AcDbEntity
  8
0
100
AcDbSpline
 62
7
  6
BYLAYER
 70
0
 71
3
 72
10
 73
6
 74
0
 42
0.0000001
 43
0.0000001
 44
0.0000000001
 40
0.0
 40
0.0
 40
0.0
 40
0.0
 40
0.238026416
 40
0.4850551436
 40
1.0
 40
1.0
 40
1.0
 40
1.0
 10
27.3565451022
 20
95.8536171984
 30
0.0
 10
27.5353277214
 20
95.7503993402
 30
0.0
 10
27.9071582777
 20
95.5527823002
 30
0.0
 10
28.698830372
 20
95.1973781688
 30
0.0
 10
29.3234904001
 20
94.9781539165
 30
0.0
 10
29.7490147616
 20
94.8425482529
 30
0.0
  0
SPLINE
  5
2F3
100
AcDbEntity
  8
0
100
AcDbSpline
 62
7
  6
BYLAYER
 70
0
 71
3
 72
11
 73
7
 74
0
 42
0.0000001
 43
0.0000001
 44
0.0000000001
 40
0.0
 40
0.0
 40
0.0
 40
0.0
 40
0.2357138586
 40
0.4797692129
 40
0.7342164868
 40
1.0
 40
1.0
 40
1.0
 40
1.0
 10
25.6052774749
 20
97.2348821
 30
0.0
 10
25.7267952765
 20
97.1077824895
 30
0.0
 10
25.9811125604
 20
96.8555936796
 30
0.0
 10
26.3957285721
 20
96.496931004
 30
0.0
 10
26.8550676463
 20
96.1581681549
 30
0.0
 10
27.1848325747
 20
95.9527532296
 30
0.0
 10
27.3565451022
 20
95.8536171984
 30
0.0
  0
SPLINE
  5
2F4
100
AcDbEntity
  8
0
100
AcDbSpline
 62
7
  6
BYLAYER
 70
0
 71
3
 72
12
 73
8
 74
0
 42
0.0000001
 43
0.0000001
 44
0.0000000001
 40
0.0
 40
0.0
 40
0.0
 40
0.0
 40
0.2530826971
 40
0.5153179786
 40
0.7693367447
 40
0.8884627263
 40
1.0
 40
1.0
 40
1.0
 40
1.0
 10
58.3419693231
 20
82.2266959284
 30
0.0
 10
58.4505952959
 20
81.7588540221
 30
0.0
 10
58.7766652603
 20
80.8288112821
 30
0.0
 10
59.5039311055
 20
79.5550913072
 30
0.0
 10
60.2857151054
 20
78.6256729017
 30
0.0
 10
60.9830937134
 20
78.0235606172
 30
0.0
 10
61.3469428423
 20
77.7775889863
 30
0.0
 10
61.5302551128
 20
77.6717559918
 30
0.0
  0
SPLINE
  5
2F5
100
AcDbEntity
  8
0
100
AcDbSpline
 62
7
  6
BYLAYER
 70
0
 71
3
 72
11
 73
7
 74
0
 42
0.0000001
 43
0.0000001
 44
0.0000000001
 40
0.0
 40
0.0
 40
0.0
 40
0.0
 40
0.2372539654
 40
0.5000012591
 40
0.7627478695
 40
1.0
 40
1.0
 40
1.0
 40
1.0
 10
65.9403556324
 20
81.9395944097
 30
0.0
 10
65.9403556324
 20
82.0555202928
 30
0.0
 10
65.8968913667
 20
82.2999933174
 30
0.0
 10
65.7452856115
 20
82.6434696158
 30
0.0
 10
65.5236283733
 20
82.9465004152
 30
0.0
 10
65.3336404583
 20
83.1063760715
 30
0.0
 10
65.2332459072
 20
83.1643375813
 30
0.0
  0
SPLINE
  5
2F6
100
AcDbEntity
  8
0
100
AcDbSpline
 62
7
  6
BYLAYER
 70
0
 71
3
 72
9
 73
5
 74
0
 42
0.0000001
 43
0.0000001
 44
0.0000000001
 40
0.0
 40
0.0
 40
0.0
 40
0.0
 40
0.256915175
 40
1.0
 40
1.0
 40
1.0
 40
1.0
 10
59.6492015391
 20
82.7236624831
 30
0.0
 10
59.6492015391
 20
82.749497601
 30
0.0
 10
59.650779739
 20
82.850045525
 30
0.0
 10
59.658786344
 20
82.9505300769
 30
0.0
 10
59.6688716715
 20
83.0245701736
 30
0.0
  0
SPLINE
  5
2F7
100
AcDbEntity
  8
0
100
AcDbSpline
 62
7
  6
BYLAYER
 70
0
 71
3
 72
10
 73
6
 74
0
 42
0.0000001
 43
0.0000001
 44
0.0000000001
 40
0.0
 40
0.0
 40
0.0
 40
0.0
 40
0.4623303262
 40
0.7214722774
 40
1.0
 40
1.0
 40
1.0
 40
1.0
 10
30.4643481523
 20
87.8437422118
 30
0.0
 10
30.6310642137
 20
88.0809239443
 30
0.0
 10
30.8124403675
 20
88.5085299981
 30
0.0
 10
30.926574069
 20
89.1255115055
 30
0.0
 10
30.9451269573
 20
89.4633896442
 30
0.0
 10
30.9451269573
 20
89.6380456023
 30
0.0
  0
SPLINE
  5
2F8
100
AcDbEntity
  8
0
100
AcDbSpline
 62
7
  6
BYLAYER
 70
0
 71
3
 72
15
 73
11
 74
0
 42
0.0000001
 43
0.0000001
 44
0.0000000001
 40
0.0
 40
0.0
 40
0.0
 40
0.0
 40
0.1518553747
 40
0.2932303107
 40
0.4242711941
 40
0.5463123289
 40
0.661572379
 40
0.7731468829
 40
0.8847842351
 40
1.0
 40
1.0
 40
1.0
 40
1.0
 10
27.3565451022
 20
87.5661176646
 30
0.0
 10
27.5077619055
 20
87.4788145775
 30
0.0
 10
27.809370116
 20
87.325992771
 30
0.0
 10
28.2707100323
 20
87.1627765432
 30
0.0
 10
28.7181306429
 20
87.076991916
 30
0.0
 10
29.1441108081
 20
87.0710288545
 30
0.0
 10
29.5412570413
 20
87.1459635834
 30
0.0
 10
29.9015476139
 20
87.3019406903
 30
0.0
 10
30.2165255792
 20
87.5359321039
 30
0.0
 10
30.3881650265
 20
87.7353588587
 30
0.0
 10
30.4643481523
 20
87.8437422118
 30
0.0
  0
SPLINE
  5
2F9
100
AcDbEntity
  8
0
100
AcDbSpline
 62
7
  6
BYLAYER
 70
0
 71
3
 72
11
 73
7
 74
0
 42
0.0000001
 43
0.0000001
 44
0.0000000001
 40
0.0
 40
0.0
 40
0.0
 40
0.0
 40
0.261243591
 40
0.522455953
 40
0.772015242
 40
1.0
 40
1.0
 40
1.0
 40
1.0
 10
24.2487420521
 20
91.4322428842
 30
0.0
 10
24.4075830514
 20
91.0228551185
 30
0.0
 10
24.7908056526
 20
90.2282508127
 30
0.0
 10
25.5239806803
 20
89.1517644946
 30
0.0
 10
26.376140701
 20
88.2416536602
 30
0.0
 10
27.0246665307
 20
87.7577235124
 30
0.0
 10
27.3565451022
 20
87.5661176646
 30
0.0
  0
SPLINE
  5
2FA
100
AcDbEntity
  8
0
100
AcDbSpline
 62
7
  6
BYLAYER
 70
0
 71
3
 72
9
 73
5
 74
0
 42
0.0000001
 43
0.0000001
 44
0.0000000001
 40
0.0
 40
0.0
 40
0.0
 40
0.0
 40
0.4773852748
 40
1.0
 40
1.0
 40
1.0
 40
1.0
 10
23.767963247
 20
93.7816892607
 30
0.0
 10
23.767963247
 20
93.3984904258
 30
0.0
 10
23.8627303742
 20
92.5950362057
 30
0.0
 10
24.0969973777
 20
91.8233409854
 30
0.0
 10
24.2487420521
 20
91.4322428842
 30
0.0
  0
SPLINE
  5
2FB
100
AcDbEntity
  8
0
100
AcDbSpline
 62
7
  6
BYLAYER
 70
0
 71
3
 72
10
 73
6
 74
0
 42
0.0000001
 43
0.0000001
 44
0.0000000001
 40
0.0
 40
0.0
 40
0.0
 40
0.0
 40
0.4623303262
 40
0.7214722774
 40
1.0
 40
1.0
 40
1.0
 40
1.0
 10
24.2487420521
 20
95.5759926511
 30
0.0
 10
24.0820259907
 20
95.3388109187
 30
0.0
 10
23.9006498368
 20
94.9112048649
 30
0.0
 10
23.7865161354
 20
94.2942233575
 30
0.0
 10
23.767963247
 20
93.9563452187
 30
0.0
 10
23.767963247
 20
93.7816892607
 30
0.0
  0
SPLINE
  5
2FC
100
AcDbEntity
  8
0
100
AcDbSpline
 62
7
  6
BYLAYER
 70
0
 71
3
 72
15
 73
11
 74
0
 42
0.0000001
 43
0.0000001
 44
0.0000000001
 40
0.0
 40
0.0
 40
0.0
 40
0.0
 40
0.1518553747
 40
0.2932303107
 40
0.4242711941
 40
0.5463123289
 40
0.661572379
 40
0.7731468829
 40
0.8847842351
 40
1.0
 40
1.0
 40
1.0
 40
1.0
 10
27.3565451022
 20
95.8536171984
 30
0.0
 10
27.2053282988
 20
95.9409202855
 30
0.0
 10
26.9037200883
 20
96.0937420919
 30
0.0
 10
26.442380172
 20
96.2569583198
 30
0.0
 10
25.9949595614
 20
96.342742947
 30
0.0
 10
25.5689793963
 20
96.3487060085
 30
0.0
 10
25.1718331631
 20
96.2737712796
 30
0.0
 10
24.8115425905
 20
96.1177941726
 30
0.0
 10
24.4965646252
 20
95.8838027591
 30
0.0
 10
24.3249251779
 20
95.6843760043
 30
0.0
 10
24.2487420521
 20
95.5759926511
 30
0.0
  0
SPLINE
  5
2FD
100
AcDbEntity
  8
0
100
AcDbSpline
 62
7
  6
BYLAYER
 70
0
 71
3
 72
11
 73
7
 74
0
 42
0.0000001
 43
0.0000001
 44
0.0000000001
 40
0.0
 40
0.0
 40
0.0
 40
0.0
 40
0.261243591
 40
0.522455953
 40
0.772015242
 40
1.0
 40
1.0
 40
1.0
 40
1.0
 10
30.4643481523
 20
91.9874919788
 30
0.0
 10
30.305507153
 20
92.3968797445
 30
0.0
 10
29.9222845518
 20
93.1914840503
 30
0.0
 10
29.189109524
 20
94.2679703684
 30
0.0
 10
28.3369495034
 20
95.1780812028
 30
0.0
 10
27.6884236736
 20
95.6620113506
 30
0.0
 10
27.3565451022
 20
95.8536171984
 30
0.0
  0
SPLINE
  5
2FE
100
AcDbEntity
  8
0
100
AcDbSpline
 62
7
  6
BYLAYER
 70
0
 71
3
 72
9
 73
5
 74
0
 42
0.0000001
 43
0.0000001
 44
0.0000000001
 40
0.0
 40
0.0
 40
0.0
 40
0.0
 40
0.4773852748
 40
1.0
 40
1.0
 40
1.0
 40
1.0
 10
30.9451269573
 20
89.6380456023
 30
0.0
 10
30.9451269573
 20
90.0212444372
 30
0.0
 10
30.8503598302
 20
90.8246986573
 30
0.0
 10
30.6160928267
 20
91.5963938775
 30
0.0
 10
30.4643481523
 20
91.9874919788
 30
0.0
  0
SPLINE
  5
2FF
100
AcDbEntity
  8
0
100
AcDbSpline
 62
7
  6
BYLAYER
 70
0
 71
3
 72
15
 73
11
 74
0
 42
0.0000001
 43
0.0000001
 44
0.0000000001
 40
0.0
 40
0.0
 40
0.0
 40
0.0
 40
0.1141232787
 40
0.2373467935
 40
0.3669716251
 40
0.4999988493
 40
0.6330262331
 40
0.7626515288
 40
0.885875802
 40
1.0
 40
1.0
 40
1.0
 40
1.0
 10
27.3565451022
 20
94.1593746829
 30
0.0
 10
27.5017265222
 20
94.0755560472
 30
0.0
 10
27.7885501956
 20
93.8744186877
 30
0.0
 10
28.1832863784
 20
93.5052489907
 30
0.0
 10
28.5469757266
 20
93.0686917925
 30
0.0
 10
28.8660641066
 20
92.5814135071
 30
0.0
 10
29.1285181228
 20
92.0614363923
 30
0.0
 10
29.3247466331
 20
91.5281927374
 30
0.0
 10
29.44709292
 20
91.0017540588
 30
0.0
 10
29.4778742776
 20
90.6527866341
 30
0.0
 10
29.4778742776
 20
90.4851451679
 30
0.0
  0
SPLINE
  5
300
100
AcDbEntity
  8
0
100
AcDbSpline
 62
7
  6
BYLAYER
 70
0
 71
3
 72
11
 73
7
 74
0
 42
0.0000001
 43
0.0000001
 44
0.0000000001
 40
0.0
 40
0.0
 40
0.0
 40
0.0
 40
0.2897033281
 40
0.5490895198
 40
0.7822165953
 40
1.0
 40
1.0
 40
1.0
 40
1.0
 10
29.4778742776
 20
90.4851451679
 30
0.0
 10
29.4778742776
 20
90.3331407348
 30
0.0
 10
29.4548281692
 20
90.0440605187
 30
0.0
 10
29.3377541499
 20
89.6468794508
 30
0.0
 10
29.1406403833
 20
89.3245894753
 30
0.0
 10
28.9554907264
 20
89.1689344036
 30
0.0
 10
28.8565309021
 20
89.1118003071
 30
0.0
  0
SPLINE
  5
301
100
AcDbEntity
  8
0
100
AcDbSpline
 62
7
  6
BYLAYER
 70
0
 71
3
 72
11
 73
7
 74
0
 42
0.0000001
 43
0.0000001
 44
0.0000000001
 40
0.0
 40
0.0
 40
0.0
 40
0.0
 40
0.2185626765
 40
0.4545689717
 40
0.7143030932
 40
1.0
 40
1.0
 40
1.0
 40
1.0
 10
55.386858358
 20
24.1710367127
 30
0.0
 10
55.497796066
 20
24.2652187475
 30
0.0
 10
55.6997975901
 20
24.4967284239
 30
0.0
 10
55.9121455393
 20
24.9269368914
 30
0.0
 10
56.0387810975
 20
25.4348958883
 30
0.0
 10
56.0642260056
 20
25.7989251038
 30
0.0
 10
56.0642260056
 20
25.9891494818
 30
0.0
  0
SPLINE
  5
302
100
AcDbEntity
  8
0
100
AcDbSpline
 62
7
  6
BYLAYER
 70
0
 71
3
 72
9
 73
5
 74
0
 42
0.0000001
 43
0.0000001
 44
0.0000000001
 40
0.0
 40
0.0
 40
0.0
 40
0.0
 40
0.5570529938
 40
1.0
 40
1.0
 40
1.0
 40
1.0
 10
30.4643481523
 20
87.8437422118
 30
0.0
 10
30.306657705
 20
87.6194009386
 30
0.0
 10
30.0383733184
 20
87.2051911514
 30
0.0
 10
29.8278866387
 20
86.7583313265
 30
0.0
 10
29.7490147616
 20
86.5550487191
 30
0.0
  0
SPLINE
  5
303
100
AcDbEntity
  8
0
100
AcDbSpline
 62
7
  6
BYLAYER
 70
0
 71
3
 72
9
 73
5
 74
0
 42
0.0000001
 43
0.0000001
 44
0.0000000001
 40
0.0
 40
0.0
 40
0.0
 40
0.0
 40
0.5332622332
 40
1.0
 40
1.0
 40
1.0
 40
1.0
 10
31.8208835751
 20
89.5026316607
 30
0.0
 10
31.5662283911
 20
89.2191339529
 30
0.0
 10
31.0954576948
 20
88.6813043296
 30
0.0
 10
30.656151302
 20
88.1166145611
 30
0.0
 10
30.4643481523
 20
87.8437422118
 30
0.0
  0
SPLINE
  5
304
100
AcDbEntity
  8
0
100
AcDbSpline
 62
7
  6
BYLAYER
 70
0
 71
3
 72
15
 73
11
 74
0
 42
0.0000001
 43
0.0000001
 44
0.0000000001
 40
0.0
 40
0.0
 40
0.0
 40
0.0
 40
0.1141465952
 40
0.2373352439
 40
0.366975646
 40
0.4999989181
 40
0.6330223406
 40
0.7626631822
 40
0.8858525235
 40
1.0
 40
1.0
 40
1.0
 40
1.0
 10
54.6135070808
 20
73.6783934908
 30
0.0
 10
54.3850411121
 20
73.8102953953
 30
0.0
 10
53.9337490618
 20
74.1266794395
 30
0.0
 10
53.3127581357
 20
74.7075902579
 30
0.0
 10
52.7405529402
 20
75.3943695025
 30
0.0
 10
52.2385505036
 20
76.1610644794
 30
0.0
 10
51.8255700599
 20
76.979157774
 30
0.0
 10
51.5168989626
 20
77.8180927711
 30
0.0
 10
51.3243045957
 20
78.6463453753
 30
0.0
 10
51.2759491781
 20
79.1953709392
 30
0.0
 10
51.2759491781
 20
79.459181261
 30
0.0
  0
SPLINE
  5
305
100
AcDbEntity
  8
0
100
AcDbSpline
 62
7
  6
BYLAYER
 70
0
 71
3
 72
11
 73
7
 74
0
 42
0.0000001
 43
0.0000001
 44
0.0000000001
 40
0.0
 40
0.0
 40
0.0
 40
0.0
 40
0.2896993757
 40
0.5490834079
 40
0.7822137218
 40
1.0
 40
1.0
 40
1.0
 40
1.0
 10
27.1735819843
 20
94.0537415081
 30
0.0
 10
27.0419461518
 20
94.1297397721
 30
0.0
 10
26.7800809072
 20
94.2543167433
 30
0.0
 10
26.3775864992
 20
94.3515202738
 30
0.0
 10
25.9999226967
 20
94.3419594895
 30
0.0
 10
25.772551503
 20
94.2594414065
 30
0.0
 10
25.6735887001
 20
94.2023143442
 30
0.0
  0
SPLINE
  5
306
100
AcDbEntity
  8
0
100
AcDbSpline
 62
7
  6
BYLAYER
 70
0
 71
3
 72
9
 73
5
 74
0
 42
0.0000001
 43
0.0000001
 44
0.0000000001
 40
0.0
 40
0.0
 40
0.0
 40
0.0
 40
0.2618098937
 40
1.0
 40
1.0
 40
1.0
 40
1.0
 10
26.7908620324
 20
89.3756967903
 30
0.0
 10
26.824553767
 20
89.3562452983
 30
0.0
 10
26.9550847908
 20
89.2852657901
 30
0.0
 10
27.0933179937
 20
89.2278465863
 30
0.0
 10
27.1984001856
 20
89.1963834497
 30
0.0
  0
SPLINE
  5
307
100
AcDbEntity
  8
0
100
AcDbSpline
 62
7
  6
BYLAYER
 70
0
 71
3
 72
21
 73
17
 74
0
 42
0.0000001
 43
0.0000001
 44
0.0000000001
 40
0.0
 40
0.0
 40
0.0
 40
0.0
 40
0.0513132934
 40
0.0982905357
 40
0.1431182062
 40
0.1885181058
 40
0.2370624922
 40
0.290535764
 40
0.3497366404
 40
0.4146364072
 40
0.4845878637
 40
0.558479022
 40
0.7121371056
 40
0.8631875603
 40
0.9340724724
 40
1.0
 40
1.0
 40
1.0
 40
1.0
 10
27.2823717287
 20
89.1738263244
 30
0.0
 10
27.376544654
 20
89.1514762678
 30
0.0
 10
27.5622582632
 20
89.1266354242
 30
0.0
 10
27.8335329665
 20
89.1610730249
 30
0.0
 10
28.072791554
 20
89.2705400817
 30
0.0
 10
28.2679816309
 20
89.4510288354
 30
0.0
 10
28.4120011931
 20
89.6926282422
 30
0.0
 10
28.5022380703
 20
89.985452175
 30
0.0
 10
28.5379311907
 20
90.3201731173
 30
0.0
 10
28.5189959531
 20
90.6869793247
 30
0.0
 10
28.4461735248
 20
91.0749849777
 30
0.0
 10
28.2784048469
 20
91.6115769875
 30
0.0
 10
27.9560720438
 20
92.2546978032
 30
0.0
 10
27.516211304
 20
92.8175072572
 30
0.0
 10
27.111885678
 20
93.1815983537
 30
0.0
 10
26.8985568816
 20
93.3286711829
 30
0.0
 10
26.7908620324
 20
93.3908474265
 30
0.0
  0
SPLINE
  5
308
100
AcDbEntity
  8
0
100
AcDbSpline
 62
7
  6
BYLAYER
 70
0
 71
3
 72
15
 73
11
 74
0
 42
0.0000001
 43
0.0000001
 44
0.0000000001
 40
0.0
 40
0.0
 40
0.0
 40
0.0
 40
0.1496455568
 40
0.286089912
 40
0.4100743843
 40
0.5248860865
 40
0.6356160357
 40
0.7482829301
 40
0.8684431438
 40
1.0
 40
1.0
 40
1.0
 40
1.0
 10
26.7908620324
 20
93.3908474265
 30
0.0
 10
26.6980028119
 20
93.4444585096
 30
0.0
 10
26.5129385922
 20
93.5348413091
 30
0.0
 10
26.2292175771
 20
93.6175164576
 30
0.0
 10
25.9586582699
 20
93.6373341936
 30
0.0
 10
25.7092302711
 20
93.5918459441
 30
0.0
 10
25.4898221256
 20
93.4808422519
 30
0.0
 10
25.3098040835
 20
93.3080506755
 30
0.0
 10
25.1746099112
 20
93.081683333
 30
0.0
 10
25.1187635822
 20
92.9086569884
 30
0.0
 10
25.0977342215
 20
92.816769593
 30
0.0
  0
SPLINE
  5
309
100
AcDbEntity
  8
0
100
AcDbSpline
 62
7
  6
BYLAYER
 70
0
 71
3
 72
9
 73
5
 74
0
 42
0.0000001
 43
0.0000001
 44
0.0000000001
 40
0.0
 40
0.0
 40
0.0
 40
0.0
 40
0.2383899447
 40
1.0
 40
1.0
 40
1.0
 40
1.0
 10
25.0977342215
 20
92.816769593
 30
0.0
 10
25.0900634718
 20
92.7832523969
 30
0.0
 10
25.0624305041
 20
92.6416208083
 30
0.0
 10
25.0522992334
 20
92.4968420707
 30
0.0
 10
25.0522988774
 20
92.3869925715
 30
0.0
  0
SPLINE
  5
30A
100
AcDbEntity
  8
0
100
AcDbSpline
 62
7
  6
BYLAYER
 70
0
 71
3
 72
23
 73
19
 74
0
 42
0.0000001
 43
0.0000001
 44
0.0000000001
 40
0.0
 40
0.0
 40
0.0
 40
0.0
 40
0.0428147452
 40
0.0873969745
 40
0.1351796187
 40
0.1870887444
 40
0.2435362
 40
0.3044941378
 40
0.369591932
 40
0.4382001608
 40
0.5094985314
 40
0.5825345471
 40
0.6562773538
 40
0.7296665417
 40
0.801655683
 40
0.8712521223
 40
0.9376170698
 40
1.0
 40
1.0
 40
1.0
 40
1.0
 10
46.7728624362
 20
91.7192380482
 30
0.0
 10
47.0120080002
 20
91.8573111802
 30
0.0
 10
47.4653267989
 20
92.2043082543
 30
0.0
 10
48.0108543396
 20
92.8941557759
 30
0.0
 10
48.4185239738
 20
93.7377867071
 30
0.0
 10
48.6825063372
 20
94.7146335247
 30
0.0
 10
48.7999995207
 20
95.8041057582
 30
0.0
 10
48.7699607943
 20
96.983787802
 30
0.0
 10
48.593665793
 20
98.2293459228
 30
0.0
 10
48.27503835
 20
99.5147588731
 30
0.0
 10
47.8208609971
 20
100.8128904675
 30
0.0
 10
47.2408545202
 20
102.0961824906
 30
0.0
 10
46.5474062847
 20
103.3373091321
 30
0.0
 10
45.7552767184
 20
104.5098005486
 30
0.0
 10
44.8813337077
 20
105.5885391685
 30
0.0
 10
43.9441438891
 20
106.5508701157
 30
0.0
 10
42.9636548005
 20
107.3758652456
 30
0.0
 10
42.2713330193
 20
107.8385979494
 30
0.0
 10
41.9228841488
 20
108.0397704474
 30
0.0
  0
ENDSEC
  0
SECTION
  2
OBJECTS
  0
DICTIONARY
  5
C
100
AcDbDictionary
280
0
281
1
  3
ACAD_GROUP
350
D
  3
ACAD_MLINESTYLE
350
17
  3
ACAD_LAYOUT
350
1A
  3
ACAD_PLOTSETTINGS
350
19
  3
ACAD_PLOTSTYLENAME
350
E
  0
DICTIONARY
  5
D
102
{ACAD_REACTORS
330
C
102
}
100
AcDbDictionary
280
0
281
1
  0
ACDBDICTIONARYWDFLT
  5
E
102
{ACAD_REACTORS
330
C
102
}
100
AcDbDictionary
281
1
  3
Normal
350
F
100
AcDbDictionaryWithDefault
340
F
  0
DICTIONARY
  5
17
102
{ACAD_REACTORS
330
C
102
}
100
AcDbDictionary
280
0
281
1
  3
Standard
350
18
  0
DICTIONARY
  5
19
102
{ACAD_REACTORS
330
C
102
}
100
AcDbDictionary
281
1
  0
DICTIONARY
  5
1A
102
{ACAD_REACTORS
330
C
102
}
100
AcDbDictionary
281
1
  3
Model
350
30B
  3
Layout1
350
30C
  0
ACDBPLACEHOLDER
  5
F
102
{ACAD_REACTORS
330
E
102
}
  0
MLINESTYLE
  5
18
102
{ACAD_REACTORS
330
17
102
}
100
AcDbMlineStyle
  2
STANDARD
 70
0
  3

 62
256
 51
90.0
 52
90.0
 71
2
 49
0.5
 62
256
  6
BYLAYER
 49
-0.5
 62
256
  6
BYLAYER
  0
LAYOUT
  5
30B
102
{ACAD_REACTORS
330
1A
102
}
100
AcDbPlotSettings
  1

  2
none_device
  4

  6

 40
0.0
 41
0.0
 42
0.0
 43
0.0
 44
210.0
 45
297.0
 46
0.0
 47
0.0
 48
0.0
 49
0.0
140
0.0
141
0.0
142
1.0
143
1.0
 70
1024
 72
1
 73
0
 74
0
  7

 75
0
147
1.0
148
0.0
149
0.0
100
AcDbLayout
  1
Model
 70
0
 71
0
 10
0.0
 20
0.0
 11
210.0
 21
297.0
 12
0.0
 22
0.0
 32
0.0
 14
0.0
 24
0.0
 34
0.0
 15
0.0
 25
0.0
 35
0.0
146
0.0
 13
0.0
 23
0.0
 33
0.0
 16
1.0
 26
0.0
 36
0.0
 17
0.0
 27
1.0
 37
0.0
 76
0
330
210
345
0
346
0
  0
LAYOUT
  5
30C
102
{ACAD_REACTORS
330
1A
102
}
100
AcDbPlotSettings
  1

  2
none_device
  4

  6

 40
0.0
 41
0.0
 42
0.0
 43
0.0
 44
210.0
 45
297.0
 46
0.0
 47
0.0
 48
0.0
 49
0.0
140
0.0
141
0.0
142
1.0
143
1.0
 70
0
 72
1
 73
0
 74
0
  7

 75
0
147
1.0
148
0.0
149
0.0
100
AcDbLayout
  1
Layout1
 70
0
 71
1
 10
0.0
 20
0.0
 11
210.0
 21
297.0
 12
0.0
 22
0.0
 32
0.0
 14
0.0
 24
0.0
 34
0.0
 15
0.0
 25
0.0
 35
0.0
146
0.0
 13
0.0
 23
0.0
 33
0.0
 16
1.0
 26
0.0
 36
0.0
 17
0.0
 27
1.0
 37
0.0
 76
0
330
211
345
0
346
0
  0
ENDSEC
  0
EOF
