  0
SECTION
  2
HEADER
  9
$ACADVER
  1
AC1006
  9
$EXTMIN
 10
-2.285728
 20
-4.357850
  9
$EXTMAX
 10
2.281000
 20
4.363000
  9
$LTSCALE
 40
0.000394
  9
$PDMODE
 70
    35
  9
$PDSIZE
 40
0.000315
  0
ENDSEC
  0
SECTION
  2
TABLES
  0
TABLE
  2
LTYPE
 70
     9
  0
LTYPE
  2
CONTINUOUS
 70
    64
  3
Solid line
 72
    65
 73
     0
 40
0.000000
  0
LTYPE
  2
DASHED
 70
    64
  3
__ __ __ __ __ __ __ __ __ __ __ __ __ __ __
 72
    65
 73
     2
 40
0.000003
 49
0.000002
 49
-0.000001
  0
LTYPE
  2
HIDDEN
 70
    64
  3
 _ _ _ _ _ _ _ _ _ _ _ _ _ _ _ _ _ _ _ _ _ _
 72
    65
 73
     2
 40
0.000001
 49
0.000001
 49
-0.000000
  0
LTYPE
  2
CENTER
 70
    64
  3
____ _ ____ _ ____ _ ____ _ ____ _ ____ _ ____
 72
    65
 73
     4
 40
0.000008
 49
0.000005
 49
-0.000001
 49
0.000001
 49
-0.000001
  0
LTYPE
  2
PHANTOM
 70
    64
  3
_____ _ _ _____ _ _ _____ _ _ _____ _ _ ____
 72
    65
 73
     6
 40
0.000010
 49
0.000005
 49
-0.000001
 49
0.000001
 49
-0.000001
 49
0.000001
 49
-0.000001
  0
LTYPE
  2
DOT
 70
    64
  3
...............................................
 72
    65
 73
     2
 40
0.000001
 49
0.000000
 49
-0.000001
  0
LTYPE
  2
DASHDOT
 70
    64
  3
__ . __ . __ . __ . __ . __ . __ . __ . __ . __
 72
    65
 73
     4
 40
0.000004
 49
0.000002
 49
-0.000001
 49
0.000000
 49
-0.000001
  0
LTYPE
  2
BORDER
 70
    64
  3
__ __ . __ __ . __ __ . __ __ . __ __ . __ __
 72
    65
 73
     6
 40
0.000007
 49
0.000002
 49
-0.000001
 49
0.000002
 49
-0.000001
 49
0.000000
 49
-0.000001
  0
LTYPE
  2
DIVIDE
 70
    64
  3
__ . . __ . . __ . . __ . . __ . . __ . . __
 72
    65
 73
     6
 40
0.000005
 49
0.000002
 49
-0.000001
 49
0.000000
 49
-0.000001
 49
0.000000
 49
-0.000001
  0
LTYPE
  2
DOTDOT
 70
    64
  3
 . .  . .  . .  . .  . .  . . 
 72
    65
 73
     5
 40
0.000002
 49
-0.000001
 49
0.000000
 49
-0.000001
 49
0.000000
 49
-0.000001
  0
ENDTAB
  0
TABLE
  2
STYLE
 70
     0
  0
ENDTAB
  0
TABLE
  2
LAYER
 70
     3
  0
LAYER
  2
FOREGROUND
 70
    64
 62
     7
  6
CONTINUOUS
  0
LAYER
  2
BACKGROUND
 70
    65
 62
    -7
  6
CONTINUOUS
  0
LAYER
  2
PLAN_1
 70
    64
 62
     7
  6
CONTINUOUS
  0
ENDTAB
  0
ENDSEC
  0
SECTION
  2
ENTITIES
  0
POLYLINE
  8
PLAN_1
  6
CONTINUOUS
 66
     1
 40
0.003000
 41
0.003000
  0
VERTEX
  8
PLAN_1
  6
CONTINUOUS
 10
0.340610
 20
-4.352398
  0
VERTEX
  8
PLAN_1
  6
CONTINUOUS
 10
0.306819
 20
-4.352398
  0
VERTEX
  8
PLAN_1
  6
CONTINUOUS
 10
0.253402
 20
-4.270642
  0
VERTEX
  8
PLAN_1
  6
CONTINUOUS
 10
0.198350
 20
-4.352398
  0
VERTEX
  8
PLAN_1
  6
CONTINUOUS
 10
0.165650
 20
-4.352398
  0
VERTEX
  8
PLAN_1
  6
CONTINUOUS
 10
0.237051
 20
-4.250472
  0
VERTEX
  8
PLAN_1
  6
CONTINUOUS
 10
0.170008
 20
-4.153457
  0
VERTEX
  8
PLAN_1
  6
CONTINUOUS
 10
0.204346
 20
-4.153457
  0
VERTEX
  8
PLAN_1
  6
CONTINUOUS
 10
0.254492
 20
-4.229764
  0
VERTEX
  8
PLAN_1
  6
CONTINUOUS
 10
0.305181
 20
-4.153457
  0
VERTEX
  8
PLAN_1
  6
CONTINUOUS
 10
0.337343
 20
-4.153457
  0
VERTEX
  8
PLAN_1
  6
CONTINUOUS
 10
0.270299
 20
-4.250472
  0
VERTEX
  8
PLAN_1
  6
CONTINUOUS
 10
0.340610
 20
-4.352398
  0
SEQEND
  8
0
  0
POLYLINE
  8
PLAN_1
  6
CONTINUOUS
 66
     1
 40
0.003000
 41
0.003000
  0
VERTEX
  8
PLAN_1
  6
CONTINUOUS
 10
0.506850
 20
-4.213409
  0
VERTEX
  8
PLAN_1
  6
CONTINUOUS
 10
0.505217
 20
-4.206870
  0
VERTEX
  8
PLAN_1
  6
CONTINUOUS
 10
0.503035
 20
-4.201421
  0
VERTEX
  8
PLAN_1
  6
CONTINUOUS
 10
0.500311
 20
-4.196516
  0
VERTEX
  8
PLAN_1
  6
CONTINUOUS
 10
0.497587
 20
-4.192154
  0
VERTEX
  8
PLAN_1
  6
CONTINUOUS
 10
0.494315
 20
-4.188339
  0
VERTEX
  8
PLAN_1
  6
CONTINUOUS
 10
0.491047
 20
-4.185067
  0
VERTEX
  8
PLAN_1
  6
CONTINUOUS
 10
0.487228
 20
-4.181799
  0
VERTEX
  8
PLAN_1
  6
CONTINUOUS
 10
0.483413
 20
-4.179618
  0
VERTEX
  8
PLAN_1
  6
CONTINUOUS
 10
0.479055
 20
-4.177437
  0
VERTEX
  8
PLAN_1
  6
CONTINUOUS
 10
0.475240
 20
-4.175803
  0
VERTEX
  8
PLAN_1
  6
CONTINUOUS
 10
0.470878
 20
-4.174713
  0
VERTEX
  8
PLAN_1
  6
CONTINUOUS
 10
0.466520
 20
-4.173622
  0
VERTEX
  8
PLAN_1
  6
CONTINUOUS
 10
0.458343
 20
-4.171988
  0
VERTEX
  8
PLAN_1
  6
CONTINUOUS
 10
0.450713
 20
-4.171988
  0
VERTEX
  8
PLAN_1
  6
CONTINUOUS
 10
0.444169
 20
-4.171988
  0
VERTEX
  8
PLAN_1
  6
CONTINUOUS
 10
0.437630
 20
-4.173075
  0
VERTEX
  8
PLAN_1
  6
CONTINUOUS
 10
0.431634
 20
-4.174713
  0
VERTEX
  8
PLAN_1
  6
CONTINUOUS
 10
0.425638
 20
-4.176894
  0
VERTEX
  8
PLAN_1
  6
CONTINUOUS
 10
0.419642
 20
-4.179618
  0
VERTEX
  8
PLAN_1
  6
CONTINUOUS
 10
0.414193
 20
-4.182886
  0
VERTEX
  8
PLAN_1
  6
CONTINUOUS
 10
0.409287
 20
-4.187248
  0
VERTEX
  8
PLAN_1
  6
CONTINUOUS
 10
0.404929
 20
-4.191610
  0
VERTEX
  8
PLAN_1
  6
CONTINUOUS
 10
0.400567
 20
-4.197059
  0
VERTEX
  8
PLAN_1
  6
CONTINUOUS
 10
0.396752
 20
-4.203055
  0
VERTEX
  8
PLAN_1
  6
CONTINUOUS
 10
0.393480
 20
-4.209594
  0
VERTEX
  8
PLAN_1
  6
CONTINUOUS
 10
0.390756
 20
-4.216681
  0
VERTEX
  8
PLAN_1
  6
CONTINUOUS
 10
0.388575
 20
-4.224311
  0
VERTEX
  8
PLAN_1
  6
CONTINUOUS
 10
0.386941
 20
-4.232488
  0
VERTEX
  8
PLAN_1
  6
CONTINUOUS
 10
0.385850
 20
-4.241209
  0
VERTEX
  8
PLAN_1
  6
CONTINUOUS
 10
0.385850
 20
-4.251020
  0
VERTEX
  8
PLAN_1
  6
CONTINUOUS
 10
0.385850
 20
-4.259740
  0
VERTEX
  8
PLAN_1
  6
CONTINUOUS
 10
0.386394
 20
-4.267917
  0
VERTEX
  8
PLAN_1
  6
CONTINUOUS
 10
0.387484
 20
-4.276091
  0
VERTEX
  8
PLAN_1
  6
CONTINUOUS
 10
0.389122
 20
-4.283724
  0
VERTEX
  8
PLAN_1
  6
CONTINUOUS
 10
0.391299
 20
-4.290807
  0
VERTEX
  8
PLAN_1
  6
CONTINUOUS
 10
0.393480
 20
-4.297894
  0
VERTEX
  8
PLAN_1
  6
CONTINUOUS
 10
0.396752
 20
-4.304433
  0
VERTEX
  8
PLAN_1
  6
CONTINUOUS
 10
0.400024
 20
-4.309886
  0
VERTEX
  8
PLAN_1
  6
CONTINUOUS
 10
0.404382
 20
-4.315335
  0
VERTEX
  8
PLAN_1
  6
CONTINUOUS
 10
0.409287
 20
-4.320240
  0
VERTEX
  8
PLAN_1
  6
CONTINUOUS
 10
0.414736
 20
-4.324055
  0
VERTEX
  8
PLAN_1
  6
CONTINUOUS
 10
0.420732
 20
-4.327870
  0
VERTEX
  8
PLAN_1
  6
CONTINUOUS
 10
0.427276
 20
-4.330598
  0
VERTEX
  8
PLAN_1
  6
CONTINUOUS
 10
0.434906
 20
-4.332232
  0
VERTEX
  8
PLAN_1
  6
CONTINUOUS
 10
0.443083
 20
-4.333323
  0
VERTEX
  8
PLAN_1
  6
CONTINUOUS
 10
0.451803
 20
-4.333866
  0
VERTEX
  8
PLAN_1
  6
CONTINUOUS
 10
0.458886
 20
-4.333323
  0
VERTEX
  8
PLAN_1
  6
CONTINUOUS
 10
0.466520
 20
-4.331689
  0
VERTEX
  8
PLAN_1
  6
CONTINUOUS
 10
0.470878
 20
-4.330598
  0
VERTEX
  8
PLAN_1
  6
CONTINUOUS
 10
0.475240
 20
-4.328961
  0
VERTEX
  8
PLAN_1
  6
CONTINUOUS
 10
0.479055
 20
-4.326783
  0
VERTEX
  8
PLAN_1
  6
CONTINUOUS
 10
0.483413
 20
-4.324055
  0
VERTEX
  8
PLAN_1
  6
CONTINUOUS
 10
0.487228
 20
-4.320787
  0
VERTEX
  8
PLAN_1
  6
CONTINUOUS
 10
0.491047
 20
-4.316972
  0
VERTEX
  8
PLAN_1
  6
CONTINUOUS
 10
0.494862
 20
-4.312610
  0
VERTEX
  8
PLAN_1
  6
CONTINUOUS
 10
0.498130
 20
-4.307161
  0
VERTEX
  8
PLAN_1
  6
CONTINUOUS
 10
0.501402
 20
-4.301709
  0
VERTEX
  8
PLAN_1
  6
CONTINUOUS
 10
0.504126
 20
-4.295169
  0
VERTEX
  8
PLAN_1
  6
CONTINUOUS
 10
0.506850
 20
-4.287539
  0
VERTEX
  8
PLAN_1
  6
CONTINUOUS
 10
0.508488
 20
-4.279362
  0
VERTEX
  8
PLAN_1
  6
CONTINUOUS
 10
0.534650
 20
-4.279362
  0
VERTEX
  8
PLAN_1
  6
CONTINUOUS
 10
0.533559
 20
-4.285902
  0
VERTEX
  8
PLAN_1
  6
CONTINUOUS
 10
0.531925
 20
-4.292445
  0
VERTEX
  8
PLAN_1
  6
CONTINUOUS
 10
0.530291
 20
-4.298437
  0
VERTEX
  8
PLAN_1
  6
CONTINUOUS
 10
0.528654
 20
-4.304433
  0
VERTEX
  8
PLAN_1
  6
CONTINUOUS
 10
0.526472
 20
-4.309339
  0
VERTEX
  8
PLAN_1
  6
CONTINUOUS
 10
0.523748
 20
-4.314244
  0
VERTEX
  8
PLAN_1
  6
CONTINUOUS
 10
0.521024
 20
-4.319150
  0
VERTEX
  8
PLAN_1
  6
CONTINUOUS
 10
0.518299
 20
-4.323512
  0
VERTEX
  8
PLAN_1
  6
CONTINUOUS
 10
0.515575
 20
-4.327327
  0
VERTEX
  8
PLAN_1
  6
CONTINUOUS
 10
0.512846
 20
-4.330598
  0
VERTEX
  8
PLAN_1
  6
CONTINUOUS
 10
0.509579
 20
-4.334413
  0
VERTEX
  8
PLAN_1
  6
CONTINUOUS
 10
0.506307
 20
-4.337138
  0
VERTEX
  8
PLAN_1
  6
CONTINUOUS
 10
0.499768
 20
-4.342587
  0
VERTEX
  8
PLAN_1
  6
CONTINUOUS
 10
0.492681
 20
-4.346949
  0
VERTEX
  8
PLAN_1
  6
CONTINUOUS
 10
0.485594
 20
-4.350220
  0
VERTEX
  8
PLAN_1
  6
CONTINUOUS
 10
0.479055
 20
-4.352945
  0
VERTEX
  8
PLAN_1
  6
CONTINUOUS
 10
0.471969
 20
-4.354579
  0
VERTEX
  8
PLAN_1
  6
CONTINUOUS
 10
0.465972
 20
-4.356217
  0
VERTEX
  8
PLAN_1
  6
CONTINUOUS
 10
0.455071
 20
-4.357303
  0
VERTEX
  8
PLAN_1
  6
CONTINUOUS
 10
0.447441
 20
-4.357850
  0
VERTEX
  8
PLAN_1
  6
CONTINUOUS
 10
0.439264
 20
-4.357303
  0
VERTEX
  8
PLAN_1
  6
CONTINUOUS
 10
0.430543
 20
-4.356217
  0
VERTEX
  8
PLAN_1
  6
CONTINUOUS
 10
0.422370
 20
-4.354579
  0
VERTEX
  8
PLAN_1
  6
CONTINUOUS
 10
0.414736
 20
-4.351854
  0
VERTEX
  8
PLAN_1
  6
CONTINUOUS
 10
0.406563
 20
-4.348583
  0
VERTEX
  8
PLAN_1
  6
CONTINUOUS
 10
0.399476
 20
-4.344768
  0
VERTEX
  8
PLAN_1
  6
CONTINUOUS
 10
0.392390
 20
-4.339319
  0
VERTEX
  8
PLAN_1
  6
CONTINUOUS
 10
0.385850
 20
-4.333323
  0
VERTEX
  8
PLAN_1
  6
CONTINUOUS
 10
0.379854
 20
-4.326783
  0
VERTEX
  8
PLAN_1
  6
CONTINUOUS
 10
0.374406
 20
-4.319150
  0
VERTEX
  8
PLAN_1
  6
CONTINUOUS
 10
0.369500
 20
-4.310429
  0
VERTEX
  8
PLAN_1
  6
CONTINUOUS
 10
0.365685
 20
-4.300618
  0
VERTEX
  8
PLAN_1
  6
CONTINUOUS
 10
0.362413
 20
-4.290264
  0
VERTEX
  8
PLAN_1
  6
CONTINUOUS
 10
0.359689
 20
-4.278272
  0
VERTEX
  8
PLAN_1
  6
CONTINUOUS
 10
0.358598
 20
-4.265736
  0
VERTEX
  8
PLAN_1
  6
CONTINUOUS
 10
0.358051
 20
-4.251563
  0
VERTEX
  8
PLAN_1
  6
CONTINUOUS
 10
0.358598
 20
-4.240661
  0
VERTEX
  8
PLAN_1
  6
CONTINUOUS
 10
0.359689
 20
-4.229764
  0
VERTEX
  8
PLAN_1
  6
CONTINUOUS
 10
0.361323
 20
-4.219406
  0
VERTEX
  8
PLAN_1
  6
CONTINUOUS
 10
0.364594
 20
-4.209594
  0
VERTEX
  8
PLAN_1
  6
CONTINUOUS
 10
0.367862
 20
-4.200331
  0
VERTEX
  8
PLAN_1
  6
CONTINUOUS
 10
0.372224
 20
-4.192154
  0
VERTEX
  8
PLAN_1
  6
CONTINUOUS
 10
0.377130
 20
-4.183976
  0
VERTEX
  8
PLAN_1
  6
CONTINUOUS
 10
0.382579
 20
-4.176894
  0
VERTEX
  8
PLAN_1
  6
CONTINUOUS
 10
0.389122
 20
-4.170350
  0
VERTEX
  8
PLAN_1
  6
CONTINUOUS
 10
0.396205
 20
-4.164902
  0
VERTEX
  8
PLAN_1
  6
CONTINUOUS
 10
0.403839
 20
-4.159996
  0
VERTEX
  8
PLAN_1
  6
CONTINUOUS
 10
0.412012
 20
-4.155634
  0
VERTEX
  8
PLAN_1
  6
CONTINUOUS
 10
0.420732
 20
-4.152366
  0
VERTEX
  8
PLAN_1
  6
CONTINUOUS
 10
0.430543
 20
-4.150185
  0
VERTEX
  8
PLAN_1
  6
CONTINUOUS
 10
0.440354
 20
-4.148551
  0
VERTEX
  8
PLAN_1
  6
CONTINUOUS
 10
0.450713
 20
-4.148004
  0
VERTEX
  8
PLAN_1
  6
CONTINUOUS
 10
0.460524
 20
-4.148551
  0
VERTEX
  8
PLAN_1
  6
CONTINUOUS
 10
0.469244
 20
-4.149638
  0
VERTEX
  8
PLAN_1
  6
CONTINUOUS
 10
0.477417
 20
-4.151276
  0
VERTEX
  8
PLAN_1
  6
CONTINUOUS
 10
0.485051
 20
-4.153457
  0
VERTEX
  8
PLAN_1
  6
CONTINUOUS
 10
0.492134
 20
-4.156181
  0
VERTEX
  8
PLAN_1
  6
CONTINUOUS
 10
0.498130
 20
-4.159996
  0
VERTEX
  8
PLAN_1
  6
CONTINUOUS
 10
0.504126
 20
-4.163811
  0
VERTEX
  8
PLAN_1
  6
CONTINUOUS
 10
0.509579
 20
-4.168173
  0
VERTEX
  8
PLAN_1
  6
CONTINUOUS
 10
0.514484
 20
-4.173075
  0
VERTEX
  8
PLAN_1
  6
CONTINUOUS
 10
0.518843
 20
-4.177980
  0
VERTEX
  8
PLAN_1
  6
CONTINUOUS
 10
0.522657
 20
-4.183433
  0
VERTEX
  8
PLAN_1
  6
CONTINUOUS
 10
0.525386
 20
-4.188882
  0
VERTEX
  8
PLAN_1
  6
CONTINUOUS
 10
0.528110
 20
-4.194878
  0
VERTEX
  8
PLAN_1
  6
CONTINUOUS
 10
0.530291
 20
-4.200874
  0
VERTEX
  8
PLAN_1
  6
CONTINUOUS
 10
0.531925
 20
-4.206870
  0
VERTEX
  8
PLAN_1
  6
CONTINUOUS
 10
0.533016
 20
-4.213409
  0
VERTEX
  8
PLAN_1
  6
CONTINUOUS
 10
0.506850
 20
-4.213409
  0
SEQEND
  8
0
  0
POLYLINE
  8
PLAN_1
  6
CONTINUOUS
 66
     1
 40
0.003000
 41
0.003000
  0
VERTEX
  8
PLAN_1
  6
CONTINUOUS
 10
0.594059
 20
-4.352398
  0
VERTEX
  8
PLAN_1
  6
CONTINUOUS
 10
0.567354
 20
-4.352398
  0
VERTEX
  8
PLAN_1
  6
CONTINUOUS
 10
0.567354
 20
-4.153457
  0
VERTEX
  8
PLAN_1
  6
CONTINUOUS
 10
0.594059
 20
-4.153457
  0
VERTEX
  8
PLAN_1
  6
CONTINUOUS
 10
0.594059
 20
-4.249929
  0
VERTEX
  8
PLAN_1
  6
CONTINUOUS
 10
0.691079
 20
-4.153457
  0
VERTEX
  8
PLAN_1
  6
CONTINUOUS
 10
0.728142
 20
-4.153457
  0
VERTEX
  8
PLAN_1
  6
CONTINUOUS
 10
0.644752
 20
-4.233579
  0
VERTEX
  8
PLAN_1
  6
CONTINUOUS
 10
0.730323
 20
-4.352398
  0
VERTEX
  8
PLAN_1
  6
CONTINUOUS
 10
0.695441
 20
-4.352398
  0
VERTEX
  8
PLAN_1
  6
CONTINUOUS
 10
0.625673
 20
-4.252654
  0
VERTEX
  8
PLAN_1
  6
CONTINUOUS
 10
0.594059
 20
-4.282634
  0
VERTEX
  8
PLAN_1
  6
CONTINUOUS
 10
0.594059
 20
-4.352398
  0
SEQEND
  8
0
  0
POLYLINE
  8
PLAN_1
  6
CONTINUOUS
 66
     1
 40
0.003000
 41
0.003000
  0
VERTEX
  8
PLAN_1
  6
CONTINUOUS
 10
0.761394
 20
-4.288630
  0
VERTEX
  8
PLAN_1
  6
CONTINUOUS
 10
0.761394
 20
-4.302256
  0
VERTEX
  8
PLAN_1
  6
CONTINUOUS
 10
0.761394
 20
-4.306614
  0
VERTEX
  8
PLAN_1
  6
CONTINUOUS
 10
0.761937
 20
-4.310429
  0
VERTEX
  8
PLAN_1
  6
CONTINUOUS
 10
0.762480
 20
-4.314244
  0
VERTEX
  8
PLAN_1
  6
CONTINUOUS
 10
0.763571
 20
-4.317516
  0
VERTEX
  8
PLAN_1
  6
CONTINUOUS
 10
0.764661
 20
-4.320240
  0
VERTEX
  8
PLAN_1
  6
CONTINUOUS
 10
0.765752
 20
-4.322965
  0
VERTEX
  8
PLAN_1
  6
CONTINUOUS
 10
0.767386
 20
-4.325693
  0
VERTEX
  8
PLAN_1
  6
CONTINUOUS
 10
0.769567
 20
-4.327327
  0
VERTEX
  8
PLAN_1
  6
CONTINUOUS
 10
0.771205
 20
-4.329508
  0
VERTEX
  8
PLAN_1
  6
CONTINUOUS
 10
0.773929
 20
-4.330598
  0
VERTEX
  8
PLAN_1
  6
CONTINUOUS
 10
0.776110
 20
-4.332232
  0
VERTEX
  8
PLAN_1
  6
CONTINUOUS
 10
0.778835
 20
-4.333323
  0
VERTEX
  8
PLAN_1
  6
CONTINUOUS
 10
0.784831
 20
-4.334413
  0
VERTEX
  8
PLAN_1
  6
CONTINUOUS
 10
0.791370
 20
-4.334957
  0
VERTEX
  8
PLAN_1
  6
CONTINUOUS
 10
0.795728
 20
-4.334413
  0
VERTEX
  8
PLAN_1
  6
CONTINUOUS
 10
0.800091
 20
-4.333866
  0
VERTEX
  8
PLAN_1
  6
CONTINUOUS
 10
0.803362
 20
-4.333323
  0
VERTEX
  8
PLAN_1
  6
CONTINUOUS
 10
0.807177
 20
-4.332232
  0
VERTEX
  8
PLAN_1
  6
CONTINUOUS
 10
0.809902
 20
-4.330598
  0
VERTEX
  8
PLAN_1
  6
CONTINUOUS
 10
0.812626
 20
-4.328961
  0
VERTEX
  8
PLAN_1
  6
CONTINUOUS
 10
0.814807
 20
-4.327327
  0
VERTEX
  8
PLAN_1
  6
CONTINUOUS
 10
0.816441
 20
-4.325146
  0
VERTEX
  8
PLAN_1
  6
CONTINUOUS
 10
0.818622
 20
-4.322421
  0
VERTEX
  8
PLAN_1
  6
CONTINUOUS
 10
0.819713
 20
-4.319697
  0
VERTEX
  8
PLAN_1
  6
CONTINUOUS
 10
0.820803
 20
-4.316972
  0
VERTEX
  8
PLAN_1
  6
CONTINUOUS
 10
0.821894
 20
-4.313701
  0
VERTEX
  8
PLAN_1
  6
CONTINUOUS
 10
0.822984
 20
-4.307705
  0
VERTEX
  8
PLAN_1
  6
CONTINUOUS
 10
0.823528
 20
-4.300618
  0
VERTEX
  8
PLAN_1
  6
CONTINUOUS
 10
0.823528
 20
-4.153457
  0
VERTEX
  8
PLAN_1
  6
CONTINUOUS
 10
0.850236
 20
-4.153457
  0
VERTEX
  8
PLAN_1
  6
CONTINUOUS
 10
0.850236
 20
-4.298984
  0
VERTEX
  8
PLAN_1
  6
CONTINUOUS
 10
0.849689
 20
-4.307161
  0
VERTEX
  8
PLAN_1
  6
CONTINUOUS
 10
0.848602
 20
-4.314791
  0
VERTEX
  8
PLAN_1
  6
CONTINUOUS
 10
0.846965
 20
-4.321331
  0
VERTEX
  8
PLAN_1
  6
CONTINUOUS
 10
0.844783
 20
-4.327870
  0
VERTEX
  8
PLAN_1
  6
CONTINUOUS
 10
0.842059
 20
-4.333323
  0
VERTEX
  8
PLAN_1
  6
CONTINUOUS
 10
0.839335
 20
-4.337681
  0
VERTEX
  8
PLAN_1
  6
CONTINUOUS
 10
0.835520
 20
-4.342043
  0
VERTEX
  8
PLAN_1
  6
CONTINUOUS
 10
0.831705
 20
-4.345858
  0
VERTEX
  8
PLAN_1
  6
CONTINUOUS
 10
0.827343
 20
-4.349130
  0
VERTEX
  8
PLAN_1
  6
CONTINUOUS
 10
0.822984
 20
-4.351311
  0
VERTEX
  8
PLAN_1
  6
CONTINUOUS
 10
0.818079
 20
-4.353488
  0
VERTEX
  8
PLAN_1
  6
CONTINUOUS
 10
0.813173
 20
-4.355126
  0
VERTEX
  8
PLAN_1
  6
CONTINUOUS
 10
0.808268
 20
-4.356217
  0
VERTEX
  8
PLAN_1
  6
CONTINUOUS
 10
0.802815
 20
-4.357303
  0
VERTEX
  8
PLAN_1
  6
CONTINUOUS
 10
0.797909
 20
-4.357850
  0
VERTEX
  8
PLAN_1
  6
CONTINUOUS
 10
0.793004
 20
-4.357850
  0
VERTEX
  8
PLAN_1
  6
CONTINUOUS
 10
0.784283
 20
-4.357303
  0
VERTEX
  8
PLAN_1
  6
CONTINUOUS
 10
0.777197
 20
-4.356217
  0
VERTEX
  8
PLAN_1
  6
CONTINUOUS
 10
0.770114
 20
-4.355126
  0
VERTEX
  8
PLAN_1
  6
CONTINUOUS
 10
0.764118
 20
-4.352945
  0
VERTEX
  8
PLAN_1
  6
CONTINUOUS
 10
0.759213
 20
-4.350220
  0
VERTEX
  8
PLAN_1
  6
CONTINUOUS
 10
0.754307
 20
-4.346949
  0
VERTEX
  8
PLAN_1
  6
CONTINUOUS
 10
0.750492
 20
-4.343677
  0
VERTEX
  8
PLAN_1
  6
CONTINUOUS
 10
0.747220
 20
-4.339862
  0
VERTEX
  8
PLAN_1
  6
CONTINUOUS
 10
0.743949
 20
-4.336047
  0
VERTEX
  8
PLAN_1
  6
CONTINUOUS
 10
0.741772
 20
-4.332232
  0
VERTEX
  8
PLAN_1
  6
CONTINUOUS
 10
0.740134
 20
-4.327870
  0
VERTEX
  8
PLAN_1
  6
CONTINUOUS
 10
0.738500
 20
-4.323512
  0
VERTEX
  8
PLAN_1
  6
CONTINUOUS
 10
0.737409
 20
-4.319697
  0
VERTEX
  8
PLAN_1
  6
CONTINUOUS
 10
0.736866
 20
-4.315882
  0
VERTEX
  8
PLAN_1
  6
CONTINUOUS
 10
0.736319
 20
-4.312067
  0
VERTEX
  8
PLAN_1
  6
CONTINUOUS
 10
0.736319
 20
-4.308248
  0
VERTEX
  8
PLAN_1
  6
CONTINUOUS
 10
0.736319
 20
-4.288630
  0
VERTEX
  8
PLAN_1
  6
CONTINUOUS
 10
0.761394
 20
-4.288630
  0
SEQEND
  8
0
  0
POLYLINE
  8
PLAN_1
  6
CONTINUOUS
 66
     1
 40
0.003000
 41
0.003000
  0
VERTEX
  8
PLAN_1
  6
CONTINUOUS
 10
0.970146
 20
-4.352398
  0
VERTEX
  8
PLAN_1
  6
CONTINUOUS
 10
0.943984
 20
-4.352398
  0
VERTEX
  8
PLAN_1
  6
CONTINUOUS
 10
0.943984
 20
-4.213957
  0
VERTEX
  8
PLAN_1
  6
CONTINUOUS
 10
0.898201
 20
-4.213957
  0
VERTEX
  8
PLAN_1
  6
CONTINUOUS
 10
0.898201
 20
-4.194878
  0
VERTEX
  8
PLAN_1
  6
CONTINUOUS
 10
0.909102
 20
-4.193787
  0
VERTEX
  8
PLAN_1
  6
CONTINUOUS
 10
0.918913
 20
-4.192154
  0
VERTEX
  8
PLAN_1
  6
CONTINUOUS
 10
0.922728
 20
-4.191610
  0
VERTEX
  8
PLAN_1
  6
CONTINUOUS
 10
0.926543
 20
-4.190520
  0
VERTEX
  8
PLAN_1
  6
CONTINUOUS
 10
0.930358
 20
-4.188882
  0
VERTEX
  8
PLAN_1
  6
CONTINUOUS
 10
0.933630
 20
-4.187248
  0
VERTEX
  8
PLAN_1
  6
CONTINUOUS
 10
0.936354
 20
-4.185067
  0
VERTEX
  8
PLAN_1
  6
CONTINUOUS
 10
0.939079
 20
-4.182886
  0
VERTEX
  8
PLAN_1
  6
CONTINUOUS
 10
0.941260
 20
-4.179618
  0
VERTEX
  8
PLAN_1
  6
CONTINUOUS
 10
0.943984
 20
-4.176346
  0
VERTEX
  8
PLAN_1
  6
CONTINUOUS
 10
0.945618
 20
-4.172531
  0
VERTEX
  8
PLAN_1
  6
CONTINUOUS
 10
0.947799
 20
-4.168173
  0
VERTEX
  8
PLAN_1
  6
CONTINUOUS
 10
0.949437
 20
-4.163268
  0
VERTEX
  8
PLAN_1
  6
CONTINUOUS
 10
0.950524
 20
-4.157272
  0
VERTEX
  8
PLAN_1
  6
CONTINUOUS
 10
0.970146
 20
-4.157272
  0
VERTEX
  8
PLAN_1
  6
CONTINUOUS
 10
0.970146
 20
-4.352398
  0
SEQEND
  8
0
  0
POLYLINE
  8
PLAN_1
  6
CONTINUOUS
 66
     1
 40
0.003000
 41
0.003000
  0
VERTEX
  8
PLAN_1
  6
CONTINUOUS
 10
1.208335
 20
-4.198150
  0
VERTEX
  8
PLAN_1
  6
CONTINUOUS
 10
1.227413
 20
-4.198150
  0
VERTEX
  8
PLAN_1
  6
CONTINUOUS
 10
1.223051
 20
-4.212866
  0
VERTEX
  8
PLAN_1
  6
CONTINUOUS
 10
1.218693
 20
-4.227583
  0
VERTEX
  8
PLAN_1
  6
CONTINUOUS
 10
1.214878
 20
-4.241752
  0
VERTEX
  8
PLAN_1
  6
CONTINUOUS
 10
1.211059
 20
-4.255378
  0
VERTEX
  8
PLAN_1
  6
CONTINUOUS
 10
1.207244
 20
-4.266827
  0
VERTEX
  8
PLAN_1
  6
CONTINUOUS
 10
1.204520
 20
-4.276638
  0
VERTEX
  8
PLAN_1
  6
CONTINUOUS
 10
1.202886
 20
-4.284268
  0
VERTEX
  8
PLAN_1
  6
CONTINUOUS
 10
1.202339
 20
-4.288630
  0
VERTEX
  8
PLAN_1
  6
CONTINUOUS
 10
1.202339
 20
-4.290807
  0
VERTEX
  8
PLAN_1
  6
CONTINUOUS
 10
1.202339
 20
-4.292445
  0
VERTEX
  8
PLAN_1
  6
CONTINUOUS
 10
1.202886
 20
-4.293535
  0
VERTEX
  8
PLAN_1
  6
CONTINUOUS
 10
1.203429
 20
-4.294622
  0
VERTEX
  8
PLAN_1
  6
CONTINUOUS
 10
1.204520
 20
-4.295713
  0
VERTEX
  8
PLAN_1
  6
CONTINUOUS
 10
1.205067
 20
-4.296260
  0
VERTEX
  8
PLAN_1
  6
CONTINUOUS
 10
1.206701
 20
-4.296803
  0
VERTEX
  8
PLAN_1
  6
CONTINUOUS
 10
1.208335
 20
-4.296803
  0
VERTEX
  8
PLAN_1
  6
CONTINUOUS
 10
1.211606
 20
-4.296260
  0
VERTEX
  8
PLAN_1
  6
CONTINUOUS
 10
1.215421
 20
-4.295169
  0
VERTEX
  8
PLAN_1
  6
CONTINUOUS
 10
1.218693
 20
-4.294079
  0
VERTEX
  8
PLAN_1
  6
CONTINUOUS
 10
1.221961
 20
-4.291354
  0
VERTEX
  8
PLAN_1
  6
CONTINUOUS
 10
1.225776
 20
-4.288630
  0
VERTEX
  8
PLAN_1
  6
CONTINUOUS
 10
1.229047
 20
-4.285902
  0
VERTEX
  8
PLAN_1
  6
CONTINUOUS
 10
1.231772
 20
-4.282087
  0
VERTEX
  8
PLAN_1
  6
CONTINUOUS
 10
1.235043
 20
-4.277728
  0
VERTEX
  8
PLAN_1
  6
CONTINUOUS
 10
1.237768
 20
-4.273366
  0
VERTEX
  8
PLAN_1
  6
CONTINUOUS
 10
1.239949
 20
-4.269008
  0
VERTEX
  8
PLAN_1
  6
CONTINUOUS
 10
1.242130
 20
-4.264102
  0
VERTEX
  8
PLAN_1
  6
CONTINUOUS
 10
1.243764
 20
-4.258650
  0
VERTEX
  8
PLAN_1
  6
CONTINUOUS
 10
1.245398
 20
-4.253201
  0
VERTEX
  8
PLAN_1
  6
CONTINUOUS
 10
1.246488
 20
-4.247748
  0
VERTEX
  8
PLAN_1
  6
CONTINUOUS
 10
1.247035
 20
-4.242299
  0
VERTEX
  8
PLAN_1
  6
CONTINUOUS
 10
1.247579
 20
-4.236846
  0
VERTEX
  8
PLAN_1
  6
CONTINUOUS
 10
1.247035
 20
-4.228673
  0
VERTEX
  8
PLAN_1
  6
CONTINUOUS
 10
1.245945
 20
-4.221043
  0
VERTEX
  8
PLAN_1
  6
CONTINUOUS
 10
1.243764
 20
-4.213957
  0
VERTEX
  8
PLAN_1
  6
CONTINUOUS
 10
1.241583
 20
-4.206870
  0
VERTEX
  8
PLAN_1
  6
CONTINUOUS
 10
1.237768
 20
-4.200331
  0
VERTEX
  8
PLAN_1
  6
CONTINUOUS
 10
1.233953
 20
-4.194878
  0
VERTEX
  8
PLAN_1
  6
CONTINUOUS
 10
1.229594
 20
-4.189429
  0
VERTEX
  8
PLAN_1
  6
CONTINUOUS
 10
1.224689
 20
-4.184524
  0
VERTEX
  8
PLAN_1
  6
CONTINUOUS
 10
1.219236
 20
-4.180161
  0
VERTEX
  8
PLAN_1
  6
CONTINUOUS
 10
1.213240
 20
-4.176346
  0
VERTEX
  8
PLAN_1
  6
CONTINUOUS
 10
1.206701
 20
-4.173075
  0
VERTEX
  8
PLAN_1
  6
CONTINUOUS
 10
1.199614
 20
-4.170350
  0
VERTEX
  8
PLAN_1
  6
CONTINUOUS
 10
1.192528
 20
-4.168173
  0
VERTEX
  8
PLAN_1
  6
CONTINUOUS
 10
1.185445
 20
-4.166535
  0
VERTEX
  8
PLAN_1
  6
CONTINUOUS
 10
1.177811
 20
-4.165445
  0
VERTEX
  8
PLAN_1
  6
CONTINUOUS
 10
1.170181
 20
-4.165445
  0
VERTEX
  8
PLAN_1
  6
CONTINUOUS
 10
1.160917
 20
-4.165445
  0
VERTEX
  8
PLAN_1
  6
CONTINUOUS
 10
1.152197
 20
-4.167083
  0
VERTEX
  8
PLAN_1
  6
CONTINUOUS
 10
1.144020
 20
-4.169260
  0
VERTEX
  8
PLAN_1
  6
CONTINUOUS
 10
1.135843
 20
-4.171988
  0
VERTEX
  8
PLAN_1
  6
CONTINUOUS
 10
1.128756
 20
-4.175803
  0
VERTEX
  8
PLAN_1
  6
CONTINUOUS
 10
1.121673
 20
-4.180161
  0
VERTEX
  8
PLAN_1
  6
CONTINUOUS
 10
1.115130
 20
-4.185614
  0
VERTEX
  8
PLAN_1
  6
CONTINUOUS
 10
1.109134
 20
-4.191063
  0
VERTEX
  8
PLAN_1
  6
CONTINUOUS
 10
1.104232
 20
-4.197602
  0
VERTEX
  8
PLAN_1
  6
CONTINUOUS
 10
1.099327
 20
-4.204146
  0
VERTEX
  8
PLAN_1
  6
CONTINUOUS
 10
1.095508
 20
-4.211776
  0
VERTEX
  8
PLAN_1
  6
CONTINUOUS
 10
1.091693
 20
-4.219406
  0
VERTEX
  8
PLAN_1
  6
CONTINUOUS
 10
1.089516
 20
-4.227583
  0
VERTEX
  8
PLAN_1
  6
CONTINUOUS
 10
1.087335
 20
-4.236303
  0
VERTEX
  8
PLAN_1
  6
CONTINUOUS
 10
1.086244
 20
-4.245024
  0
VERTEX
  8
PLAN_1
  6
CONTINUOUS
 10
1.085697
 20
-4.254291
  0
VERTEX
  8
PLAN_1
  6
CONTINUOUS
 10
1.086244
 20
-4.263012
  0
VERTEX
  8
PLAN_1
  6
CONTINUOUS
 10
1.087335
 20
-4.271732
  0
VERTEX
  8
PLAN_1
  6
CONTINUOUS
 10
1.089516
 20
-4.280453
  0
VERTEX
  8
PLAN_1
  6
CONTINUOUS
 10
1.092240
 20
-4.288083
  0
VERTEX
  8
PLAN_1
  6
CONTINUOUS
 10
1.096055
 20
-4.295713
  0
VERTEX
  8
PLAN_1
  6
CONTINUOUS
 10
1.100413
 20
-4.302799
  0
VERTEX
  8
PLAN_1
  6
CONTINUOUS
 10
1.105319
 20
-4.309886
  0
VERTEX
  8
PLAN_1
  6
CONTINUOUS
 10
1.110772
 20
-4.315882
  0
VERTEX
  8
PLAN_1
  6
CONTINUOUS
 10
1.116768
 20
-4.321331
  0
VERTEX
  8
PLAN_1
  6
CONTINUOUS
 10
1.123307
 20
-4.326236
  0
VERTEX
  8
PLAN_1
  6
CONTINUOUS
 10
1.130394
 20
-4.330598
  0
VERTEX
  8
PLAN_1
  6
CONTINUOUS
 10
1.138024
 20
-4.333866
  0
VERTEX
  8
PLAN_1
  6
CONTINUOUS
 10
1.146201
 20
-4.337138
  0
VERTEX
  8
PLAN_1
  6
CONTINUOUS
 10
1.154374
 20
-4.338772
  0
VERTEX
  8
PLAN_1
  6
CONTINUOUS
 10
1.163094
 20
-4.340409
  0
VERTEX
  8
PLAN_1
  6
CONTINUOUS
 10
1.171815
 20
-4.340409
  0
VERTEX
  8
PLAN_1
  6
CONTINUOUS
 10
1.176720
 20
-4.340409
  0
VERTEX
  8
PLAN_1
  6
CONTINUOUS
 10
1.181626
 20
-4.339862
  0
VERTEX
  8
PLAN_1
  6
CONTINUOUS
 10
1.186531
 20
-4.339319
  0
VERTEX
  8
PLAN_1
  6
CONTINUOUS
 10
1.191437
 20
-4.338228
  0
VERTEX
  8
PLAN_1
  6
CONTINUOUS
 10
1.200705
 20
-4.335504
  0
VERTEX
  8
PLAN_1
  6
CONTINUOUS
 10
1.209425
 20
-4.332232
  0
VERTEX
  8
PLAN_1
  6
CONTINUOUS
 10
1.218146
 20
-4.327327
  0
VERTEX
  8
PLAN_1
  6
CONTINUOUS
 10
1.225776
 20
-4.321878
  0
VERTEX
  8
PLAN_1
  6
CONTINUOUS
 10
1.229594
 20
-4.319150
  0
VERTEX
  8
PLAN_1
  6
CONTINUOUS
 10
1.232862
 20
-4.315882
  0
VERTEX
  8
PLAN_1
  6
CONTINUOUS
 10
1.236134
 20
-4.312610
  0
VERTEX
  8
PLAN_1
  6
CONTINUOUS
 10
1.239402
 20
-4.308795
  0
VERTEX
  8
PLAN_1
  6
CONTINUOUS
 10
1.257937
 20
-4.308795
  0
VERTEX
  8
PLAN_1
  6
CONTINUOUS
 10
1.254665
 20
-4.314791
  0
VERTEX
  8
PLAN_1
  6
CONTINUOUS
 10
1.250850
 20
-4.319697
  0
VERTEX
  8
PLAN_1
  6
CONTINUOUS
 10
1.246488
 20
-4.324602
  0
VERTEX
  8
PLAN_1
  6
CONTINUOUS
 10
1.242130
 20
-4.329508
  0
VERTEX
  8
PLAN_1
  6
CONTINUOUS
 10
1.237224
 20
-4.333866
  0
VERTEX
  8
PLAN_1
  6
CONTINUOUS
 10
1.232319
 20
-4.337681
  0
VERTEX
  8
PLAN_1
  6
CONTINUOUS
 10
1.226866
 20
-4.341500
  0
VERTEX
  8
PLAN_1
  6
CONTINUOUS
 10
1.221417
 20
-4.344768
  0
VERTEX
  8
PLAN_1
  6
CONTINUOUS
 10
1.215421
 20
-4.347492
  0
VERTEX
  8
PLAN_1
  6
CONTINUOUS
 10
1.209972
 20
-4.350220
  0
VERTEX
  8
PLAN_1
  6
CONTINUOUS
 10
1.203429
 20
-4.352398
  0
VERTEX
  8
PLAN_1
  6
CONTINUOUS
 10
1.197433
 20
-4.354579
  0
VERTEX
  8
PLAN_1
  6
CONTINUOUS
 10
1.190894
 20
-4.355669
  0
VERTEX
  8
PLAN_1
  6
CONTINUOUS
 10
1.184898
 20
-4.356760
  0
VERTEX
  8
PLAN_1
  6
CONTINUOUS
 10
1.178358
 20
-4.357850
  0
VERTEX
  8
PLAN_1
  6
CONTINUOUS
 10
1.171272
 20
-4.357850
  0
VERTEX
  8
PLAN_1
  6
CONTINUOUS
 10
1.160370
 20
-4.357303
  0
VERTEX
  8
PLAN_1
  6
CONTINUOUS
 10
1.150016
 20
-4.355669
  0
VERTEX
  8
PLAN_1
  6
CONTINUOUS
 10
1.139657
 20
-4.352945
  0
VERTEX
  8
PLAN_1
  6
CONTINUOUS
 10
1.129846
 20
-4.349673
  0
VERTEX
  8
PLAN_1
  6
CONTINUOUS
 10
1.120583
 20
-4.345315
  0
VERTEX
  8
PLAN_1
  6
CONTINUOUS
 10
1.111862
 20
-4.339862
  0
VERTEX
  8
PLAN_1
  6
CONTINUOUS
 10
1.103685
 20
-4.333866
  0
VERTEX
  8
PLAN_1
  6
CONTINUOUS
 10
1.096055
 20
-4.327327
  0
VERTEX
  8
PLAN_1
  6
CONTINUOUS
 10
1.089516
 20
-4.319697
  0
VERTEX
  8
PLAN_1
  6
CONTINUOUS
 10
1.083520
 20
-4.311520
  0
VERTEX
  8
PLAN_1
  6
CONTINUOUS
 10
1.078067
 20
-4.302799
  0
VERTEX
  8
PLAN_1
  6
CONTINUOUS
 10
1.073709
 20
-4.293535
  0
VERTEX
  8
PLAN_1
  6
CONTINUOUS
 10
1.069894
 20
-4.284268
  0
VERTEX
  8
PLAN_1
  6
CONTINUOUS
 10
1.067713
 20
-4.273913
  0
VERTEX
  8
PLAN_1
  6
CONTINUOUS
 10
1.066075
 20
-4.263555
  0
VERTEX
  8
PLAN_1
  6
CONTINUOUS
 10
1.065531
 20
-4.252654
  0
VERTEX
  8
PLAN_1
  6
CONTINUOUS
 10
1.066075
 20
-4.241752
  0
VERTEX
  8
PLAN_1
  6
CONTINUOUS
 10
1.067713
 20
-4.231398
  0
VERTEX
  8
PLAN_1
  6
CONTINUOUS
 10
1.070437
 20
-4.221043
  0
VERTEX
  8
PLAN_1
  6
CONTINUOUS
 10
1.073709
 20
-4.211776
  0
VERTEX
  8
PLAN_1
  6
CONTINUOUS
 10
1.078067
 20
-4.202508
  0
VERTEX
  8
PLAN_1
  6
CONTINUOUS
 10
1.083520
 20
-4.193787
  0
VERTEX
  8
PLAN_1
  6
CONTINUOUS
 10
1.089516
 20
-4.185614
  0
VERTEX
  8
PLAN_1
  6
CONTINUOUS
 10
1.096598
 20
-4.178528
  0
VERTEX
  8
PLAN_1
  6
CONTINUOUS
 10
1.103685
 20
-4.171988
  0
VERTEX
  8
PLAN_1
  6
CONTINUOUS
 10
1.111862
 20
-4.165992
  0
VERTEX
  8
PLAN_1
  6
CONTINUOUS
 10
1.120583
 20
-4.160539
  0
VERTEX
  8
PLAN_1
  6
CONTINUOUS
 10
1.129846
 20
-4.156181
  0
VERTEX
  8
PLAN_1
  6
CONTINUOUS
 10
1.139114
 20
-4.152909
  0
VERTEX
  8
PLAN_1
  6
CONTINUOUS
 10
1.148925
 20
-4.150185
  0
VERTEX
  8
PLAN_1
  6
CONTINUOUS
 10
1.159280
 20
-4.148551
  0
VERTEX
  8
PLAN_1
  6
CONTINUOUS
 10
1.170181
 20
-4.148004
  0
VERTEX
  8
PLAN_1
  6
CONTINUOUS
 10
1.179449
 20
-4.148551
  0
VERTEX
  8
PLAN_1
  6
CONTINUOUS
 10
1.188713
 20
-4.149638
  0
VERTEX
  8
PLAN_1
  6
CONTINUOUS
 10
1.197980
 20
-4.151819
  0
VERTEX
  8
PLAN_1
  6
CONTINUOUS
 10
1.206701
 20
-4.154543
  0
VERTEX
  8
PLAN_1
  6
CONTINUOUS
 10
1.214878
 20
-4.157815
  0
VERTEX
  8
PLAN_1
  6
CONTINUOUS
 10
1.223051
 20
-4.162177
  0
VERTEX
  8
PLAN_1
  6
CONTINUOUS
 10
1.230138
 20
-4.167083
  0
VERTEX
  8
PLAN_1
  6
CONTINUOUS
 10
1.237224
 20
-4.172531
  0
VERTEX
  8
PLAN_1
  6
CONTINUOUS
 10
1.243220
 20
-4.178528
  0
VERTEX
  8
PLAN_1
  6
CONTINUOUS
 10
1.248669
 20
-4.185067
  0
VERTEX
  8
PLAN_1
  6
CONTINUOUS
 10
1.253575
 20
-4.192154
  0
VERTEX
  8
PLAN_1
  6
CONTINUOUS
 10
1.257937
 20
-4.199783
  0
VERTEX
  8
PLAN_1
  6
CONTINUOUS
 10
1.261205
 20
-4.207961
  0
VERTEX
  8
PLAN_1
  6
CONTINUOUS
 10
1.263386
 20
-4.216138
  0
VERTEX
  8
PLAN_1
  6
CONTINUOUS
 10
1.265020
 20
-4.225402
  0
VERTEX
  8
PLAN_1
  6
CONTINUOUS
 10
1.265567
 20
-4.234669
  0
VERTEX
  8
PLAN_1
  6
CONTINUOUS
 10
1.265020
 20
-4.243933
  0
VERTEX
  8
PLAN_1
  6
CONTINUOUS
 10
1.263929
 20
-4.252654
  0
VERTEX
  8
PLAN_1
  6
CONTINUOUS
 10
1.261752
 20
-4.260831
  0
VERTEX
  8
PLAN_1
  6
CONTINUOUS
 10
1.258480
 20
-4.268461
  0
VERTEX
  8
PLAN_1
  6
CONTINUOUS
 10
1.255209
 20
-4.275547
  0
VERTEX
  8
PLAN_1
  6
CONTINUOUS
 10
1.250850
 20
-4.282087
  0
VERTEX
  8
PLAN_1
  6
CONTINUOUS
 10
1.246488
 20
-4.288083
  0
VERTEX
  8
PLAN_1
  6
CONTINUOUS
 10
1.241583
 20
-4.293535
  0
VERTEX
  8
PLAN_1
  6
CONTINUOUS
 10
1.236677
 20
-4.298437
  0
VERTEX
  8
PLAN_1
  6
CONTINUOUS
 10
1.231228
 20
-4.302799
  0
VERTEX
  8
PLAN_1
  6
CONTINUOUS
 10
1.225776
 20
-4.306614
  0
VERTEX
  8
PLAN_1
  6
CONTINUOUS
 10
1.219783
 20
-4.309339
  0
VERTEX
  8
PLAN_1
  6
CONTINUOUS
 10
1.214331
 20
-4.311520
  0
VERTEX
  8
PLAN_1
  6
CONTINUOUS
 10
1.209425
 20
-4.313701
  0
VERTEX
  8
PLAN_1
  6
CONTINUOUS
 10
1.203976
 20
-4.314244
  0
VERTEX
  8
PLAN_1
  6
CONTINUOUS
 10
1.199071
 20
-4.314791
  0
VERTEX
  8
PLAN_1
  6
CONTINUOUS
 10
1.195799
 20
-4.314791
  0
VERTEX
  8
PLAN_1
  6
CONTINUOUS
 10
1.192528
 20
-4.313701
  0
VERTEX
  8
PLAN_1
  6
CONTINUOUS
 10
1.189803
 20
-4.312610
  0
VERTEX
  8
PLAN_1
  6
CONTINUOUS
 10
1.187079
 20
-4.310429
  0
VERTEX
  8
PLAN_1
  6
CONTINUOUS
 10
1.184898
 20
-4.308248
  0
VERTEX
  8
PLAN_1
  6
CONTINUOUS
 10
1.183264
 20
-4.304980
  0
VERTEX
  8
PLAN_1
  6
CONTINUOUS
 10
1.182173
 20
-4.301709
  0
VERTEX
  8
PLAN_1
  6
CONTINUOUS
 10
1.181626
 20
-4.297350
  0
VERTEX
  8
PLAN_1
  6
CONTINUOUS
 10
1.181083
 20
-4.297350
  0
VERTEX
  8
PLAN_1
  6
CONTINUOUS
 10
1.177811
 20
-4.300618
  0
VERTEX
  8
PLAN_1
  6
CONTINUOUS
 10
1.173996
 20
-4.303890
  0
VERTEX
  8
PLAN_1
  6
CONTINUOUS
 10
1.170181
 20
-4.306614
  0
VERTEX
  8
PLAN_1
  6
CONTINUOUS
 10
1.166366
 20
-4.309339
  0
VERTEX
  8
PLAN_1
  6
CONTINUOUS
 10
1.162008
 20
-4.311520
  0
VERTEX
  8
PLAN_1
  6
CONTINUOUS
 10
1.157102
 20
-4.313154
  0
VERTEX
  8
PLAN_1
  6
CONTINUOUS
 10
1.152197
 20
-4.314244
  0
VERTEX
  8
PLAN_1
  6
CONTINUOUS
 10
1.147835
 20
-4.314791
  0
VERTEX
  8
PLAN_1
  6
CONTINUOUS
 10
1.143472
 20
-4.314791
  0
VERTEX
  8
PLAN_1
  6
CONTINUOUS
 10
1.139114
 20
-4.313701
  0
VERTEX
  8
PLAN_1
  6
CONTINUOUS
 10
1.134752
 20
-4.312610
  0
VERTEX
  8
PLAN_1
  6
CONTINUOUS
 10
1.130937
 20
-4.311520
  0
VERTEX
  8
PLAN_1
  6
CONTINUOUS
 10
1.127669
 20
-4.309339
  0
VERTEX
  8
PLAN_1
  6
CONTINUOUS
 10
1.124398
 20
-4.307161
  0
VERTEX
  8
PLAN_1
  6
CONTINUOUS
 10
1.121126
 20
-4.304433
  0
VERTEX
  8
PLAN_1
  6
CONTINUOUS
 10
1.118402
 20
-4.301709
  0
VERTEX
  8
PLAN_1
  6
CONTINUOUS
 10
1.115677
 20
-4.298437
  0
VERTEX
  8
PLAN_1
  6
CONTINUOUS
 10
1.113496
 20
-4.295169
  0
VERTEX
  8
PLAN_1
  6
CONTINUOUS
 10
1.111315
 20
-4.291354
  0
VERTEX
  8
PLAN_1
  6
CONTINUOUS
 10
1.109681
 20
-4.287539
  0
VERTEX
  8
PLAN_1
  6
CONTINUOUS
 10
1.108591
 20
-4.283724
  0
VERTEX
  8
PLAN_1
  6
CONTINUOUS
 10
1.107500
 20
-4.279362
  0
VERTEX
  8
PLAN_1
  6
CONTINUOUS
 10
1.106957
 20
-4.275000
  0
VERTEX
  8
PLAN_1
  6
CONTINUOUS
 10
1.106957
 20
-4.270642
  0
VERTEX
  8
PLAN_1
  6
CONTINUOUS
 10
1.106957
 20
-4.263555
  0
VERTEX
  8
PLAN_1
  6
CONTINUOUS
 10
1.108047
 20
-4.256469
  0
VERTEX
  8
PLAN_1
  6
CONTINUOUS
 10
1.109681
 20
-4.249386
  0
VERTEX
  8
PLAN_1
  6
CONTINUOUS
 10
1.111315
 20
-4.242843
  0
VERTEX
  8
PLAN_1
  6
CONTINUOUS
 10
1.114039
 20
-4.236303
  0
VERTEX
  8
PLAN_1
  6
CONTINUOUS
 10
1.116768
 20
-4.229764
  0
VERTEX
  8
PLAN_1
  6
CONTINUOUS
 10
1.120583
 20
-4.223768
  0
VERTEX
  8
PLAN_1
  6
CONTINUOUS
 10
1.124398
 20
-4.218315
  0
VERTEX
  8
PLAN_1
  6
CONTINUOUS
 10
1.128756
 20
-4.212866
  0
VERTEX
  8
PLAN_1
  6
CONTINUOUS
 10
1.133661
 20
-4.207961
  0
VERTEX
  8
PLAN_1
  6
CONTINUOUS
 10
1.139114
 20
-4.204146
  0
VERTEX
  8
PLAN_1
  6
CONTINUOUS
 10
1.144563
 20
-4.200331
  0
VERTEX
  8
PLAN_1
  6
CONTINUOUS
 10
1.150559
 20
-4.197602
  0
VERTEX
  8
PLAN_1
  6
CONTINUOUS
 10
1.157102
 20
-4.195425
  0
VERTEX
  8
PLAN_1
  6
CONTINUOUS
 10
1.163642
 20
-4.194335
  0
VERTEX
  8
PLAN_1
  6
CONTINUOUS
 10
1.170728
 20
-4.193787
  0
VERTEX
  8
PLAN_1
  6
CONTINUOUS
 10
1.175634
 20
-4.194335
  0
VERTEX
  8
PLAN_1
  6
CONTINUOUS
 10
1.180539
 20
-4.194878
  0
VERTEX
  8
PLAN_1
  6
CONTINUOUS
 10
1.184898
 20
-4.196516
  0
VERTEX
  8
PLAN_1
  6
CONTINUOUS
 10
1.189260
 20
-4.198693
  0
VERTEX
  8
PLAN_1
  6
CONTINUOUS
 10
1.193075
 20
-4.201965
  0
VERTEX
  8
PLAN_1
  6
CONTINUOUS
 10
1.196890
 20
-4.205780
  0
VERTEX
  8
PLAN_1
  6
CONTINUOUS
 10
1.200161
 20
-4.210142
  0
VERTEX
  8
PLAN_1
  6
CONTINUOUS
 10
1.202886
 20
-4.215591
  0
VERTEX
  8
PLAN_1
  6
CONTINUOUS
 10
1.208335
 20
-4.198150
  0
SEQEND
  8
0
  0
POLYLINE
  8
PLAN_1
  6
CONTINUOUS
 66
     1
 40
0.003000
 41
0.003000
  0
VERTEX
  8
PLAN_1
  6
CONTINUOUS
 10
1.171272
 20
-4.213957
  0
VERTEX
  8
PLAN_1
  6
CONTINUOUS
 10
1.166913
 20
-4.213957
  0
VERTEX
  8
PLAN_1
  6
CONTINUOUS
 10
1.162551
 20
-4.215047
  0
VERTEX
  8
PLAN_1
  6
CONTINUOUS
 10
1.158189
 20
-4.216681
  0
VERTEX
  8
PLAN_1
  6
CONTINUOUS
 10
1.154374
 20
-4.218862
  0
VERTEX
  8
PLAN_1
  6
CONTINUOUS
 10
1.150559
 20
-4.221587
  0
VERTEX
  8
PLAN_1
  6
CONTINUOUS
 10
1.147291
 20
-4.224858
  0
VERTEX
  8
PLAN_1
  6
CONTINUOUS
 10
1.144020
 20
-4.228126
  0
VERTEX
  8
PLAN_1
  6
CONTINUOUS
 10
1.141295
 20
-4.232488
  0
VERTEX
  8
PLAN_1
  6
CONTINUOUS
 10
1.138567
 20
-4.236303
  0
VERTEX
  8
PLAN_1
  6
CONTINUOUS
 10
1.136390
 20
-4.240661
  0
VERTEX
  8
PLAN_1
  6
CONTINUOUS
 10
1.134209
 20
-4.245024
  0
VERTEX
  8
PLAN_1
  6
CONTINUOUS
 10
1.132575
 20
-4.249929
  0
VERTEX
  8
PLAN_1
  6
CONTINUOUS
 10
1.131484
 20
-4.254291
  0
VERTEX
  8
PLAN_1
  6
CONTINUOUS
 10
1.130394
 20
-4.259197
  0
VERTEX
  8
PLAN_1
  6
CONTINUOUS
 10
1.129846
 20
-4.263555
  0
VERTEX
  8
PLAN_1
  6
CONTINUOUS
 10
1.129303
 20
-4.267917
  0
VERTEX
  8
PLAN_1
  6
CONTINUOUS
 10
1.129846
 20
-4.273366
  0
VERTEX
  8
PLAN_1
  6
CONTINUOUS
 10
1.131484
 20
-4.278819
  0
VERTEX
  8
PLAN_1
  6
CONTINUOUS
 10
1.133118
 20
-4.283177
  0
VERTEX
  8
PLAN_1
  6
CONTINUOUS
 10
1.135843
 20
-4.287539
  0
VERTEX
  8
PLAN_1
  6
CONTINUOUS
 10
1.139657
 20
-4.290264
  0
VERTEX
  8
PLAN_1
  6
CONTINUOUS
 10
1.143472
 20
-4.292988
  0
VERTEX
  8
PLAN_1
  6
CONTINUOUS
 10
1.147835
 20
-4.294079
  0
VERTEX
  8
PLAN_1
  6
CONTINUOUS
 10
1.152740
 20
-4.294622
  0
VERTEX
  8
PLAN_1
  6
CONTINUOUS
 10
1.157102
 20
-4.294622
  0
VERTEX
  8
PLAN_1
  6
CONTINUOUS
 10
1.161461
 20
-4.293535
  0
VERTEX
  8
PLAN_1
  6
CONTINUOUS
 10
1.165276
 20
-4.291898
  0
VERTEX
  8
PLAN_1
  6
CONTINUOUS
 10
1.169091
 20
-4.289173
  0
VERTEX
  8
PLAN_1
  6
CONTINUOUS
 10
1.172906
 20
-4.286449
  0
VERTEX
  8
PLAN_1
  6
CONTINUOUS
 10
1.176177
 20
-4.283177
  0
VERTEX
  8
PLAN_1
  6
CONTINUOUS
 10
1.179449
 20
-4.279362
  0
VERTEX
  8
PLAN_1
  6
CONTINUOUS
 10
1.182173
 20
-4.275547
  0
VERTEX
  8
PLAN_1
  6
CONTINUOUS
 10
1.184898
 20
-4.271185
  0
VERTEX
  8
PLAN_1
  6
CONTINUOUS
 10
1.187622
 20
-4.266827
  0
VERTEX
  8
PLAN_1
  6
CONTINUOUS
 10
1.189260
 20
-4.261921
  0
VERTEX
  8
PLAN_1
  6
CONTINUOUS
 10
1.190894
 20
-4.257559
  0
VERTEX
  8
PLAN_1
  6
CONTINUOUS
 10
1.192528
 20
-4.252654
  0
VERTEX
  8
PLAN_1
  6
CONTINUOUS
 10
1.193618
 20
-4.248295
  0
VERTEX
  8
PLAN_1
  6
CONTINUOUS
 10
1.194165
 20
-4.243390
  0
VERTEX
  8
PLAN_1
  6
CONTINUOUS
 10
1.194165
 20
-4.239575
  0
VERTEX
  8
PLAN_1
  6
CONTINUOUS
 10
1.193618
 20
-4.234122
  0
VERTEX
  8
PLAN_1
  6
CONTINUOUS
 10
1.192528
 20
-4.229764
  0
VERTEX
  8
PLAN_1
  6
CONTINUOUS
 10
1.190350
 20
-4.225402
  0
VERTEX
  8
PLAN_1
  6
CONTINUOUS
 10
1.187622
 20
-4.221587
  0
VERTEX
  8
PLAN_1
  6
CONTINUOUS
 10
1.183807
 20
-4.218315
  0
VERTEX
  8
PLAN_1
  6
CONTINUOUS
 10
1.179992
 20
-4.216138
  0
VERTEX
  8
PLAN_1
  6
CONTINUOUS
 10
1.176177
 20
-4.214500
  0
VERTEX
  8
PLAN_1
  6
CONTINUOUS
 10
1.171272
 20
-4.213957
  0
SEQEND
  8
0
  0
POLYLINE
  8
PLAN_1
  6
CONTINUOUS
 66
     1
 40
0.003000
 41
0.003000
  0
VERTEX
  8
PLAN_1
  6
CONTINUOUS
 10
1.316799
 20
-4.161630
  0
VERTEX
  8
PLAN_1
  6
CONTINUOUS
 10
1.451429
 20
-4.161630
  0
VERTEX
  8
PLAN_1
  6
CONTINUOUS
 10
1.451429
 20
-4.182886
  0
VERTEX
  8
PLAN_1
  6
CONTINUOUS
 10
1.443252
 20
-4.192697
  0
VERTEX
  8
PLAN_1
  6
CONTINUOUS
 10
1.432898
 20
-4.205780
  0
VERTEX
  8
PLAN_1
  6
CONTINUOUS
 10
1.427445
 20
-4.213957
  0
VERTEX
  8
PLAN_1
  6
CONTINUOUS
 10
1.421453
 20
-4.222677
  0
VERTEX
  8
PLAN_1
  6
CONTINUOUS
 10
1.415457
 20
-4.232488
  0
VERTEX
  8
PLAN_1
  6
CONTINUOUS
 10
1.409461
 20
-4.242843
  0
VERTEX
  8
PLAN_1
  6
CONTINUOUS
 10
1.403465
 20
-4.253744
  0
VERTEX
  8
PLAN_1
  6
CONTINUOUS
 10
1.398016
 20
-4.265736
  0
VERTEX
  8
PLAN_1
  6
CONTINUOUS
 10
1.392563
 20
-4.278819
  0
VERTEX
  8
PLAN_1
  6
CONTINUOUS
 10
1.387114
 20
-4.291898
  0
VERTEX
  8
PLAN_1
  6
CONTINUOUS
 10
1.382209
 20
-4.306071
  0
VERTEX
  8
PLAN_1
  6
CONTINUOUS
 10
1.378394
 20
-4.321331
  0
VERTEX
  8
PLAN_1
  6
CONTINUOUS
 10
1.374575
 20
-4.336594
  0
VERTEX
  8
PLAN_1
  6
CONTINUOUS
 10
1.371307
 20
-4.352398
  0
VERTEX
  8
PLAN_1
  6
CONTINUOUS
 10
1.344598
 20
-4.352398
  0
VERTEX
  8
PLAN_1
  6
CONTINUOUS
 10
1.346232
 20
-4.342587
  0
VERTEX
  8
PLAN_1
  6
CONTINUOUS
 10
1.348413
 20
-4.331689
  0
VERTEX
  8
PLAN_1
  6
CONTINUOUS
 10
1.351138
 20
-4.320787
  0
VERTEX
  8
PLAN_1
  6
CONTINUOUS
 10
1.354409
 20
-4.309886
  0
VERTEX
  8
PLAN_1
  6
CONTINUOUS
 10
1.358224
 20
-4.298984
  0
VERTEX
  8
PLAN_1
  6
CONTINUOUS
 10
1.362587
 20
-4.287539
  0
VERTEX
  8
PLAN_1
  6
CONTINUOUS
 10
1.367492
 20
-4.276638
  0
VERTEX
  8
PLAN_1
  6
CONTINUOUS
 10
1.372941
 20
-4.265189
  0
VERTEX
  8
PLAN_1
  6
CONTINUOUS
 10
1.378394
 20
-4.254291
  0
VERTEX
  8
PLAN_1
  6
CONTINUOUS
 10
1.384386
 20
-4.243390
  0
VERTEX
  8
PLAN_1
  6
CONTINUOUS
 10
1.390382
 20
-4.233031
  0
VERTEX
  8
PLAN_1
  6
CONTINUOUS
 10
1.396925
 20
-4.222677
  0
VERTEX
  8
PLAN_1
  6
CONTINUOUS
 10
1.403465
 20
-4.212319
  0
VERTEX
  8
PLAN_1
  6
CONTINUOUS
 10
1.410004
 20
-4.203055
  0
VERTEX
  8
PLAN_1
  6
CONTINUOUS
 10
1.417091
 20
-4.193787
  0
VERTEX
  8
PLAN_1
  6
CONTINUOUS
 10
1.424177
 20
-4.185614
  0
VERTEX
  8
PLAN_1
  6
CONTINUOUS
 10
1.316799
 20
-4.185614
  0
VERTEX
  8
PLAN_1
  6
CONTINUOUS
 10
1.316799
 20
-4.161630
  0
SEQEND
  8
0
  0
POLYLINE
  8
PLAN_1
  6
CONTINUOUS
 66
     1
 40
0.003000
 41
0.003000
  0
VERTEX
  8
PLAN_1
  6
CONTINUOUS
 10
1.512476
 20
-4.352398
  0
VERTEX
  8
PLAN_1
  6
CONTINUOUS
 10
1.485224
 20
-4.352398
  0
VERTEX
  8
PLAN_1
  6
CONTINUOUS
 10
1.485224
 20
-4.153457
  0
VERTEX
  8
PLAN_1
  6
CONTINUOUS
 10
1.577335
 20
-4.153457
  0
VERTEX
  8
PLAN_1
  6
CONTINUOUS
 10
1.583331
 20
-4.153457
  0
VERTEX
  8
PLAN_1
  6
CONTINUOUS
 10
1.589874
 20
-4.154000
  0
VERTEX
  8
PLAN_1
  6
CONTINUOUS
 10
1.595870
 20
-4.154543
  0
VERTEX
  8
PLAN_1
  6
CONTINUOUS
 10
1.601319
 20
-4.155634
  0
VERTEX
  8
PLAN_1
  6
CONTINUOUS
 10
1.607315
 20
-4.157272
  0
VERTEX
  8
PLAN_1
  6
CONTINUOUS
 10
1.612764
 20
-4.158906
  0
VERTEX
  8
PLAN_1
  6
CONTINUOUS
 10
1.617669
 20
-4.161630
  0
VERTEX
  8
PLAN_1
  6
CONTINUOUS
 10
1.622575
 20
-4.164354
  0
VERTEX
  8
PLAN_1
  6
CONTINUOUS
 10
1.626937
 20
-4.167626
  0
VERTEX
  8
PLAN_1
  6
CONTINUOUS
 10
1.630752
 20
-4.171441
  0
VERTEX
  8
PLAN_1
  6
CONTINUOUS
 10
1.634567
 20
-4.175803
  0
VERTEX
  8
PLAN_1
  6
CONTINUOUS
 10
1.637291
 20
-4.180709
  0
VERTEX
  8
PLAN_1
  6
CONTINUOUS
 10
1.639472
 20
-4.186157
  0
VERTEX
  8
PLAN_1
  6
CONTINUOUS
 10
1.641654
 20
-4.192697
  0
VERTEX
  8
PLAN_1
  6
CONTINUOUS
 10
1.642744
 20
-4.199240
  0
VERTEX
  8
PLAN_1
  6
CONTINUOUS
 10
1.642744
 20
-4.206870
  0
VERTEX
  8
PLAN_1
  6
CONTINUOUS
 10
1.642744
 20
-4.212319
  0
VERTEX
  8
PLAN_1
  6
CONTINUOUS
 10
1.642197
 20
-4.217224
  0
VERTEX
  8
PLAN_1
  6
CONTINUOUS
 10
1.641654
 20
-4.221587
  0
VERTEX
  8
PLAN_1
  6
CONTINUOUS
 10
1.640563
 20
-4.225949
  0
VERTEX
  8
PLAN_1
  6
CONTINUOUS
 10
1.638929
 20
-4.229217
  0
VERTEX
  8
PLAN_1
  6
CONTINUOUS
 10
1.637291
 20
-4.233031
  0
VERTEX
  8
PLAN_1
  6
CONTINUOUS
 10
1.635657
 20
-4.236303
  0
VERTEX
  8
PLAN_1
  6
CONTINUOUS
 10
1.634024
 20
-4.239028
  0
VERTEX
  8
PLAN_1
  6
CONTINUOUS
 10
1.629661
 20
-4.243933
  0
VERTEX
  8
PLAN_1
  6
CONTINUOUS
 10
1.624756
 20
-4.248295
  0
VERTEX
  8
PLAN_1
  6
CONTINUOUS
 10
1.619850
 20
-4.251563
  0
VERTEX
  8
PLAN_1
  6
CONTINUOUS
 10
1.614945
 20
-4.254835
  0
VERTEX
  8
PLAN_1
  6
CONTINUOUS
 10
1.619307
 20
-4.256469
  0
VERTEX
  8
PLAN_1
  6
CONTINUOUS
 10
1.623665
 20
-4.258650
  0
VERTEX
  8
PLAN_1
  6
CONTINUOUS
 10
1.627480
 20
-4.261374
  0
VERTEX
  8
PLAN_1
  6
CONTINUOUS
 10
1.630752
 20
-4.264646
  0
VERTEX
  8
PLAN_1
  6
CONTINUOUS
 10
1.632386
 20
-4.266827
  0
VERTEX
  8
PLAN_1
  6
CONTINUOUS
 10
1.634024
 20
-4.269008
  0
VERTEX
  8
PLAN_1
  6
CONTINUOUS
 10
1.635110
 20
-4.272276
  0
VERTEX
  8
PLAN_1
  6
CONTINUOUS
 10
1.636201
 20
-4.275000
  0
VERTEX
  8
PLAN_1
  6
CONTINUOUS
 10
1.637291
 20
-4.278819
  0
VERTEX
  8
PLAN_1
  6
CONTINUOUS
 10
1.638382
 20
-4.282634
  0
VERTEX
  8
PLAN_1
  6
CONTINUOUS
 10
1.638929
 20
-4.286992
  0
VERTEX
  8
PLAN_1
  6
CONTINUOUS
 10
1.638929
 20
-4.291898
  0
VERTEX
  8
PLAN_1
  6
CONTINUOUS
 10
1.640563
 20
-4.328417
  0
VERTEX
  8
PLAN_1
  6
CONTINUOUS
 10
1.641106
 20
-4.332232
  0
VERTEX
  8
PLAN_1
  6
CONTINUOUS
 10
1.641106
 20
-4.335504
  0
VERTEX
  8
PLAN_1
  6
CONTINUOUS
 10
1.641654
 20
-4.338228
  0
VERTEX
  8
PLAN_1
  6
CONTINUOUS
 10
1.642744
 20
-4.340409
  0
VERTEX
  8
PLAN_1
  6
CONTINUOUS
 10
1.643835
 20
-4.342587
  0
VERTEX
  8
PLAN_1
  6
CONTINUOUS
 10
1.645469
 20
-4.344768
  0
VERTEX
  8
PLAN_1
  6
CONTINUOUS
 10
1.647650
 20
-4.346406
  0
VERTEX
  8
PLAN_1
  6
CONTINUOUS
 10
1.650917
 20
-4.348039
  0
VERTEX
  8
PLAN_1
  6
CONTINUOUS
 10
1.650917
 20
-4.352398
  0
VERTEX
  8
PLAN_1
  6
CONTINUOUS
 10
1.617669
 20
-4.352398
  0
VERTEX
  8
PLAN_1
  6
CONTINUOUS
 10
1.616579
 20
-4.347492
  0
VERTEX
  8
PLAN_1
  6
CONTINUOUS
 10
1.615488
 20
-4.340409
  0
VERTEX
  8
PLAN_1
  6
CONTINUOUS
 10
1.614402
 20
-4.333323
  0
VERTEX
  8
PLAN_1
  6
CONTINUOUS
 10
1.613854
 20
-4.325693
  0
VERTEX
  8
PLAN_1
  6
CONTINUOUS
 10
1.613311
 20
-4.318606
  0
VERTEX
  8
PLAN_1
  6
CONTINUOUS
 10
1.613311
 20
-4.312067
  0
VERTEX
  8
PLAN_1
  6
CONTINUOUS
 10
1.612764
 20
-4.306614
  0
VERTEX
  8
PLAN_1
  6
CONTINUOUS
 10
1.612764
 20
-4.302799
  0
VERTEX
  8
PLAN_1
  6
CONTINUOUS
 10
1.612764
 20
-4.296260
  0
VERTEX
  8
PLAN_1
  6
CONTINUOUS
 10
1.611673
 20
-4.290264
  0
VERTEX
  8
PLAN_1
  6
CONTINUOUS
 10
1.611130
 20
-4.286992
  0
VERTEX
  8
PLAN_1
  6
CONTINUOUS
 10
1.610039
 20
-4.284268
  0
VERTEX
  8
PLAN_1
  6
CONTINUOUS
 10
1.608949
 20
-4.281543
  0
VERTEX
  8
PLAN_1
  6
CONTINUOUS
 10
1.607315
 20
-4.278819
  0
VERTEX
  8
PLAN_1
  6
CONTINUOUS
 10
1.605134
 20
-4.276091
  0
VERTEX
  8
PLAN_1
  6
CONTINUOUS
 10
1.602953
 20
-4.273913
  0
VERTEX
  8
PLAN_1
  6
CONTINUOUS
 10
1.599685
 20
-4.272276
  0
VERTEX
  8
PLAN_1
  6
CONTINUOUS
 10
1.596413
 20
-4.270094
  0
VERTEX
  8
PLAN_1
  6
CONTINUOUS
 10
1.592598
 20
-4.269008
  0
VERTEX
  8
PLAN_1
  6
CONTINUOUS
 10
1.588236
 20
-4.267917
  0
VERTEX
  8
PLAN_1
  6
CONTINUOUS
 10
1.583331
 20
-4.267370
  0
VERTEX
  8
PLAN_1
  6
CONTINUOUS
 10
1.577335
 20
-4.266827
  0
VERTEX
  8
PLAN_1
  6
CONTINUOUS
 10
1.512476
 20
-4.266827
  0
VERTEX
  8
PLAN_1
  6
CONTINUOUS
 10
1.512476
 20
-4.352398
  0
SEQEND
  8
0
  0
POLYLINE
  8
PLAN_1
  6
CONTINUOUS
 66
     1
 40
0.003000
 41
0.003000
  0
VERTEX
  8
PLAN_1
  6
CONTINUOUS
 10
1.512476
 20
-4.243933
  0
VERTEX
  8
PLAN_1
  6
CONTINUOUS
 10
1.574610
 20
-4.243933
  0
VERTEX
  8
PLAN_1
  6
CONTINUOUS
 10
1.582240
 20
-4.243933
  0
VERTEX
  8
PLAN_1
  6
CONTINUOUS
 10
1.589327
 20
-4.242843
  0
VERTEX
  8
PLAN_1
  6
CONTINUOUS
 10
1.592598
 20
-4.241752
  0
VERTEX
  8
PLAN_1
  6
CONTINUOUS
 10
1.595870
 20
-4.240661
  0
VERTEX
  8
PLAN_1
  6
CONTINUOUS
 10
1.599138
 20
-4.239575
  0
VERTEX
  8
PLAN_1
  6
CONTINUOUS
 10
1.602409
 20
-4.237937
  0
VERTEX
  8
PLAN_1
  6
CONTINUOUS
 10
1.605134
 20
-4.235756
  0
VERTEX
  8
PLAN_1
  6
CONTINUOUS
 10
1.607315
 20
-4.233579
  0
VERTEX
  8
PLAN_1
  6
CONTINUOUS
 10
1.609496
 20
-4.230854
  0
VERTEX
  8
PLAN_1
  6
CONTINUOUS
 10
1.611673
 20
-4.227583
  0
VERTEX
  8
PLAN_1
  6
CONTINUOUS
 10
1.613311
 20
-4.223768
  0
VERTEX
  8
PLAN_1
  6
CONTINUOUS
 10
1.614402
 20
-4.219406
  0
VERTEX
  8
PLAN_1
  6
CONTINUOUS
 10
1.614945
 20
-4.215047
  0
VERTEX
  8
PLAN_1
  6
CONTINUOUS
 10
1.614945
 20
-4.209594
  0
VERTEX
  8
PLAN_1
  6
CONTINUOUS
 10
1.614945
 20
-4.204146
  0
VERTEX
  8
PLAN_1
  6
CONTINUOUS
 10
1.614402
 20
-4.199240
  0
VERTEX
  8
PLAN_1
  6
CONTINUOUS
 10
1.612764
 20
-4.194878
  0
VERTEX
  8
PLAN_1
  6
CONTINUOUS
 10
1.611673
 20
-4.191610
  0
VERTEX
  8
PLAN_1
  6
CONTINUOUS
 10
1.609496
 20
-4.188339
  0
VERTEX
  8
PLAN_1
  6
CONTINUOUS
 10
1.607315
 20
-4.185614
  0
VERTEX
  8
PLAN_1
  6
CONTINUOUS
 10
1.605134
 20
-4.183433
  0
VERTEX
  8
PLAN_1
  6
CONTINUOUS
 10
1.602409
 20
-4.181252
  0
VERTEX
  8
PLAN_1
  6
CONTINUOUS
 10
1.599685
 20
-4.180161
  0
VERTEX
  8
PLAN_1
  6
CONTINUOUS
 10
1.596413
 20
-4.178528
  0
VERTEX
  8
PLAN_1
  6
CONTINUOUS
 10
1.593689
 20
-4.177980
  0
VERTEX
  8
PLAN_1
  6
CONTINUOUS
 10
1.590417
 20
-4.177437
  0
VERTEX
  8
PLAN_1
  6
CONTINUOUS
 10
1.584969
 20
-4.176346
  0
VERTEX
  8
PLAN_1
  6
CONTINUOUS
 10
1.579516
 20
-4.176346
  0
VERTEX
  8
PLAN_1
  6
CONTINUOUS
 10
1.512476
 20
-4.176346
  0
VERTEX
  8
PLAN_1
  6
CONTINUOUS
 10
1.512476
 20
-4.243933
  0
SEQEND
  8
0
  0
SOLID
  8
PLAN_1
 10
1.714146
 20
-4.352398
 11
1.685256
 21
-4.352398
 12
1.714146
 22
-4.322965
 13
1.685256
 23
-4.322965
  0
POLYLINE
  8
PLAN_1
  6
CONTINUOUS
 66
     1
 40
0.003000
 41
0.003000
  0
VERTEX
  8
PLAN_1
  6
CONTINUOUS
 10
1.714146
 20
-4.352398
  0
VERTEX
  8
PLAN_1
  6
CONTINUOUS
 10
1.685256
 20
-4.352398
  0
VERTEX
  8
PLAN_1
  6
CONTINUOUS
 10
1.685256
 20
-4.322965
  0
VERTEX
  8
PLAN_1
  6
CONTINUOUS
 10
1.714146
 20
-4.322965
  0
VERTEX
  8
PLAN_1
  6
CONTINUOUS
 10
1.714146
 20
-4.352398
  0
SEQEND
  8
0
  0
POLYLINE
  8
PLAN_1
  6
CONTINUOUS
 66
     1
 40
0.003000
 41
0.003000
  0
VERTEX
  8
PLAN_1
  6
CONTINUOUS
 10
1.909276
 20
-4.352398
  0
VERTEX
  8
PLAN_1
  6
CONTINUOUS
 10
1.762110
 20
-4.352398
  0
VERTEX
  8
PLAN_1
  6
CONTINUOUS
 10
1.762110
 20
-4.153457
  0
VERTEX
  8
PLAN_1
  6
CONTINUOUS
 10
1.907638
 20
-4.153457
  0
VERTEX
  8
PLAN_1
  6
CONTINUOUS
 10
1.907638
 20
-4.176894
  0
VERTEX
  8
PLAN_1
  6
CONTINUOUS
 10
1.789362
 20
-4.176894
  0
VERTEX
  8
PLAN_1
  6
CONTINUOUS
 10
1.789362
 20
-4.238484
  0
VERTEX
  8
PLAN_1
  6
CONTINUOUS
 10
1.898374
 20
-4.238484
  0
VERTEX
  8
PLAN_1
  6
CONTINUOUS
 10
1.898374
 20
-4.261921
  0
VERTEX
  8
PLAN_1
  6
CONTINUOUS
 10
1.789362
 20
-4.261921
  0
VERTEX
  8
PLAN_1
  6
CONTINUOUS
 10
1.789362
 20
-4.328961
  0
VERTEX
  8
PLAN_1
  6
CONTINUOUS
 10
1.909276
 20
-4.328961
  0
VERTEX
  8
PLAN_1
  6
CONTINUOUS
 10
1.909276
 20
-4.352398
  0
SEQEND
  8
0
  0
POLYLINE
  8
PLAN_1
  6
CONTINUOUS
 66
     1
 40
0.003000
 41
0.003000
  0
VERTEX
  8
PLAN_1
  6
CONTINUOUS
 10
1.974681
 20
-4.352398
  0
VERTEX
  8
PLAN_1
  6
CONTINUOUS
 10
1.947429
 20
-4.352398
  0
VERTEX
  8
PLAN_1
  6
CONTINUOUS
 10
1.947429
 20
-4.153457
  0
VERTEX
  8
PLAN_1
  6
CONTINUOUS
 10
2.037362
 20
-4.153457
  0
VERTEX
  8
PLAN_1
  6
CONTINUOUS
 10
2.043902
 20
-4.153457
  0
VERTEX
  8
PLAN_1
  6
CONTINUOUS
 10
2.050441
 20
-4.154543
  0
VERTEX
  8
PLAN_1
  6
CONTINUOUS
 10
2.056437
 20
-4.155634
  0
VERTEX
  8
PLAN_1
  6
CONTINUOUS
 10
2.061890
 20
-4.157272
  0
VERTEX
  8
PLAN_1
  6
CONTINUOUS
 10
2.067339
 20
-4.159996
  0
VERTEX
  8
PLAN_1
  6
CONTINUOUS
 10
2.072244
 20
-4.162720
  0
VERTEX
  8
PLAN_1
  6
CONTINUOUS
 10
2.076606
 20
-4.165445
  0
VERTEX
  8
PLAN_1
  6
CONTINUOUS
 10
2.080421
 20
-4.169260
  0
VERTEX
  8
PLAN_1
  6
CONTINUOUS
 10
2.084236
 20
-4.173075
  0
VERTEX
  8
PLAN_1
  6
CONTINUOUS
 10
2.087508
 20
-4.177437
  0
VERTEX
  8
PLAN_1
  6
CONTINUOUS
 10
2.090232
 20
-4.182343
  0
VERTEX
  8
PLAN_1
  6
CONTINUOUS
 10
2.092413
 20
-4.187248
  0
VERTEX
  8
PLAN_1
  6
CONTINUOUS
 10
2.094047
 20
-4.192154
  0
VERTEX
  8
PLAN_1
  6
CONTINUOUS
 10
2.095138
 20
-4.197602
  0
VERTEX
  8
PLAN_1
  6
CONTINUOUS
 10
2.096228
 20
-4.203598
  0
VERTEX
  8
PLAN_1
  6
CONTINUOUS
 10
2.096228
 20
-4.209594
  0
VERTEX
  8
PLAN_1
  6
CONTINUOUS
 10
2.096228
 20
-4.214500
  0
VERTEX
  8
PLAN_1
  6
CONTINUOUS
 10
2.095681
 20
-4.219953
  0
VERTEX
  8
PLAN_1
  6
CONTINUOUS
 10
2.094591
 20
-4.225402
  0
VERTEX
  8
PLAN_1
  6
CONTINUOUS
 10
2.092957
 20
-4.230307
  0
VERTEX
  8
PLAN_1
  6
CONTINUOUS
 10
2.091323
 20
-4.235213
  0
VERTEX
  8
PLAN_1
  6
CONTINUOUS
 10
2.089142
 20
-4.240118
  0
VERTEX
  8
PLAN_1
  6
CONTINUOUS
 10
2.086417
 20
-4.245024
  0
VERTEX
  8
PLAN_1
  6
CONTINUOUS
 10
2.083146
 20
-4.249386
  0
VERTEX
  8
PLAN_1
  6
CONTINUOUS
 10
2.079331
 20
-4.253201
  0
VERTEX
  8
PLAN_1
  6
CONTINUOUS
 10
2.074969
 20
-4.257016
  0
VERTEX
  8
PLAN_1
  6
CONTINUOUS
 10
2.070063
 20
-4.260283
  0
VERTEX
  8
PLAN_1
  6
CONTINUOUS
 10
2.064614
 20
-4.263012
  0
VERTEX
  8
PLAN_1
  6
CONTINUOUS
 10
2.058618
 20
-4.265189
  0
VERTEX
  8
PLAN_1
  6
CONTINUOUS
 10
2.052079
 20
-4.266827
  0
VERTEX
  8
PLAN_1
  6
CONTINUOUS
 10
2.044992
 20
-4.267917
  0
VERTEX
  8
PLAN_1
  6
CONTINUOUS
 10
2.037362
 20
-4.268461
  0
VERTEX
  8
PLAN_1
  6
CONTINUOUS
 10
1.974681
 20
-4.268461
  0
VERTEX
  8
PLAN_1
  6
CONTINUOUS
 10
1.974681
 20
-4.352398
  0
SEQEND
  8
0
  0
POLYLINE
  8
PLAN_1
  6
CONTINUOUS
 66
     1
 40
0.003000
 41
0.003000
  0
VERTEX
  8
PLAN_1
  6
CONTINUOUS
 10
1.974681
 20
-4.245567
  0
VERTEX
  8
PLAN_1
  6
CONTINUOUS
 10
2.028094
 20
-4.245567
  0
VERTEX
  8
PLAN_1
  6
CONTINUOUS
 10
2.036815
 20
-4.245024
  0
VERTEX
  8
PLAN_1
  6
CONTINUOUS
 10
2.044449
 20
-4.243390
  0
VERTEX
  8
PLAN_1
  6
CONTINUOUS
 10
2.048264
 20
-4.242299
  0
VERTEX
  8
PLAN_1
  6
CONTINUOUS
 10
2.051531
 20
-4.241209
  0
VERTEX
  8
PLAN_1
  6
CONTINUOUS
 10
2.054803
 20
-4.239575
  0
VERTEX
  8
PLAN_1
  6
CONTINUOUS
 10
2.057528
 20
-4.237394
  0
VERTEX
  8
PLAN_1
  6
CONTINUOUS
 10
2.059709
 20
-4.235213
  0
VERTEX
  8
PLAN_1
  6
CONTINUOUS
 10
2.061890
 20
-4.233031
  0
VERTEX
  8
PLAN_1
  6
CONTINUOUS
 10
2.064067
 20
-4.229764
  0
VERTEX
  8
PLAN_1
  6
CONTINUOUS
 10
2.065705
 20
-4.226492
  0
VERTEX
  8
PLAN_1
  6
CONTINUOUS
 10
2.066795
 20
-4.222677
  0
VERTEX
  8
PLAN_1
  6
CONTINUOUS
 10
2.067886
 20
-4.218862
  0
VERTEX
  8
PLAN_1
  6
CONTINUOUS
 10
2.068429
 20
-4.214500
  0
VERTEX
  8
PLAN_1
  6
CONTINUOUS
 10
2.068429
 20
-4.209594
  0
VERTEX
  8
PLAN_1
  6
CONTINUOUS
 10
2.068429
 20
-4.205236
  0
VERTEX
  8
PLAN_1
  6
CONTINUOUS
 10
2.067886
 20
-4.200874
  0
VERTEX
  8
PLAN_1
  6
CONTINUOUS
 10
2.066795
 20
-4.197059
  0
VERTEX
  8
PLAN_1
  6
CONTINUOUS
 10
2.065705
 20
-4.193787
  0
VERTEX
  8
PLAN_1
  6
CONTINUOUS
 10
2.064067
 20
-4.190520
  0
VERTEX
  8
PLAN_1
  6
CONTINUOUS
 10
2.061890
 20
-4.187791
  0
VERTEX
  8
PLAN_1
  6
CONTINUOUS
 10
2.059709
 20
-4.185614
  0
VERTEX
  8
PLAN_1
  6
CONTINUOUS
 10
2.056984
 20
-4.183433
  0
VERTEX
  8
PLAN_1
  6
CONTINUOUS
 10
2.054260
 20
-4.181799
  0
VERTEX
  8
PLAN_1
  6
CONTINUOUS
 10
2.051531
 20
-4.180161
  0
VERTEX
  8
PLAN_1
  6
CONTINUOUS
 10
2.048264
 20
-4.179071
  0
VERTEX
  8
PLAN_1
  6
CONTINUOUS
 10
2.044449
 20
-4.177980
  0
VERTEX
  8
PLAN_1
  6
CONTINUOUS
 10
2.037362
 20
-4.176894
  0
VERTEX
  8
PLAN_1
  6
CONTINUOUS
 10
2.029185
 20
-4.176346
  0
VERTEX
  8
PLAN_1
  6
CONTINUOUS
 10
1.974681
 20
-4.176346
  0
VERTEX
  8
PLAN_1
  6
CONTINUOUS
 10
1.974681
 20
-4.245567
  0
SEQEND
  8
0
  0
POLYLINE
  8
PLAN_1
  6
CONTINUOUS
 66
     1
 40
0.003000
 41
0.003000
  0
VERTEX
  8
PLAN_1
  6
CONTINUOUS
 10
2.249933
 20
-4.211776
  0
VERTEX
  8
PLAN_1
  6
CONTINUOUS
 10
2.249386
 20
-4.206327
  0
VERTEX
  8
PLAN_1
  6
CONTINUOUS
 10
2.248843
 20
-4.200874
  0
VERTEX
  8
PLAN_1
  6
CONTINUOUS
 10
2.247209
 20
-4.196516
  0
VERTEX
  8
PLAN_1
  6
CONTINUOUS
 10
2.245028
 20
-4.192154
  0
VERTEX
  8
PLAN_1
  6
CONTINUOUS
 10
2.242846
 20
-4.188339
  0
VERTEX
  8
PLAN_1
  6
CONTINUOUS
 10
2.240122
 20
-4.185067
  0
VERTEX
  8
PLAN_1
  6
CONTINUOUS
 10
2.236850
 20
-4.182343
  0
VERTEX
  8
PLAN_1
  6
CONTINUOUS
 10
2.233579
 20
-4.179618
  0
VERTEX
  8
PLAN_1
  6
CONTINUOUS
 10
2.229764
 20
-4.177437
  0
VERTEX
  8
PLAN_1
  6
CONTINUOUS
 10
2.225949
 20
-4.175803
  0
VERTEX
  8
PLAN_1
  6
CONTINUOUS
 10
2.222134
 20
-4.174165
  0
VERTEX
  8
PLAN_1
  6
CONTINUOUS
 10
2.217776
 20
-4.173075
  0
VERTEX
  8
PLAN_1
  6
CONTINUOUS
 10
2.209051
 20
-4.171441
  0
VERTEX
  8
PLAN_1
  6
CONTINUOUS
 10
2.200878
 20
-4.170898
  0
VERTEX
  8
PLAN_1
  6
CONTINUOUS
 10
2.193791
 20
-4.171441
  0
VERTEX
  8
PLAN_1
  6
CONTINUOUS
 10
2.186705
 20
-4.172531
  0
VERTEX
  8
PLAN_1
  6
CONTINUOUS
 10
2.182890
 20
-4.173075
  0
VERTEX
  8
PLAN_1
  6
CONTINUOUS
 10
2.179075
 20
-4.174165
  0
VERTEX
  8
PLAN_1
  6
CONTINUOUS
 10
2.175260
 20
-4.175256
  0
VERTEX
  8
PLAN_1
  6
CONTINUOUS
 10
2.171445
 20
-4.177437
  0
VERTEX
  8
PLAN_1
  6
CONTINUOUS
 10
2.168173
 20
-4.179071
  0
VERTEX
  8
PLAN_1
  6
CONTINUOUS
 10
2.165449
 20
-4.181799
  0
VERTEX
  8
PLAN_1
  6
CONTINUOUS
 10
2.162177
 20
-4.184524
  0
VERTEX
  8
PLAN_1
  6
CONTINUOUS
 10
2.160000
 20
-4.187791
  0
VERTEX
  8
PLAN_1
  6
CONTINUOUS
 10
2.157819
 20
-4.191610
  0
VERTEX
  8
PLAN_1
  6
CONTINUOUS
 10
2.156728
 20
-4.195969
  0
VERTEX
  8
PLAN_1
  6
CONTINUOUS
 10
2.155638
 20
-4.200874
  0
VERTEX
  8
PLAN_1
  6
CONTINUOUS
 10
2.155094
 20
-4.205780
  0
VERTEX
  8
PLAN_1
  6
CONTINUOUS
 10
2.155638
 20
-4.209051
  0
VERTEX
  8
PLAN_1
  6
CONTINUOUS
 10
2.155638
 20
-4.211776
  0
VERTEX
  8
PLAN_1
  6
CONTINUOUS
 10
2.156181
 20
-4.214500
  0
VERTEX
  8
PLAN_1
  6
CONTINUOUS
 10
2.157272
 20
-4.216681
  0
VERTEX
  8
PLAN_1
  6
CONTINUOUS
 10
2.159453
 20
-4.220496
  0
VERTEX
  8
PLAN_1
  6
CONTINUOUS
 10
2.162724
 20
-4.223768
  0
VERTEX
  8
PLAN_1
  6
CONTINUOUS
 10
2.166539
 20
-4.226492
  0
VERTEX
  8
PLAN_1
  6
CONTINUOUS
 10
2.170354
 20
-4.228673
  0
VERTEX
  8
PLAN_1
  6
CONTINUOUS
 10
2.174717
 20
-4.230307
  0
VERTEX
  8
PLAN_1
  6
CONTINUOUS
 10
2.179075
 20
-4.231398
  0
VERTEX
  8
PLAN_1
  6
CONTINUOUS
 10
2.235760
 20
-4.244480
  0
VERTEX
  8
PLAN_1
  6
CONTINUOUS
 10
2.240665
 20
-4.245567
  0
VERTEX
  8
PLAN_1
  6
CONTINUOUS
 10
2.245028
 20
-4.247205
  0
VERTEX
  8
PLAN_1
  6
CONTINUOUS
 10
2.249386
 20
-4.248839
  0
VERTEX
  8
PLAN_1
  6
CONTINUOUS
 10
2.253748
 20
-4.251020
  0
VERTEX
  8
PLAN_1
  6
CONTINUOUS
 10
2.257563
 20
-4.253201
  0
VERTEX
  8
PLAN_1
  6
CONTINUOUS
 10
2.261378
 20
-4.255378
  0
VERTEX
  8
PLAN_1
  6
CONTINUOUS
 10
2.264650
 20
-4.258106
  0
VERTEX
  8
PLAN_1
  6
CONTINUOUS
 10
2.267917
 20
-4.261374
  0
VERTEX
  8
PLAN_1
  6
CONTINUOUS
 10
2.271189
 20
-4.264646
  0
VERTEX
  8
PLAN_1
  6
CONTINUOUS
 10
2.273370
 20
-4.268461
  0
VERTEX
  8
PLAN_1
  6
CONTINUOUS
 10
2.275551
 20
-4.272276
  0
VERTEX
  8
PLAN_1
  6
CONTINUOUS
 10
2.277728
 20
-4.276638
  0
VERTEX
  8
PLAN_1
  6
CONTINUOUS
 10
2.278819
 20
-4.281543
  0
VERTEX
  8
PLAN_1
  6
CONTINUOUS
 10
2.279909
 20
-4.286449
  0
VERTEX
  8
PLAN_1
  6
CONTINUOUS
 10
2.281000
 20
-4.291898
  0
VERTEX
  8
PLAN_1
  6
CONTINUOUS
 10
2.281000
 20
-4.297350
  0
VERTEX
  8
PLAN_1
  6
CONTINUOUS
 10
2.280457
 20
-4.306071
  0
VERTEX
  8
PLAN_1
  6
CONTINUOUS
 10
2.278819
 20
-4.313701
  0
VERTEX
  8
PLAN_1
  6
CONTINUOUS
 10
2.276638
 20
-4.320787
  0
VERTEX
  8
PLAN_1
  6
CONTINUOUS
 10
2.273370
 20
-4.326783
  0
VERTEX
  8
PLAN_1
  6
CONTINUOUS
 10
2.269555
 20
-4.332776
  0
VERTEX
  8
PLAN_1
  6
CONTINUOUS
 10
2.265193
 20
-4.337681
  0
VERTEX
  8
PLAN_1
  6
CONTINUOUS
 10
2.260287
 20
-4.341500
  0
VERTEX
  8
PLAN_1
  6
CONTINUOUS
 10
2.254839
 20
-4.345315
  0
VERTEX
  8
PLAN_1
  6
CONTINUOUS
 10
2.248843
 20
-4.348583
  0
VERTEX
  8
PLAN_1
  6
CONTINUOUS
 10
2.242846
 20
-4.351311
  0
VERTEX
  8
PLAN_1
  6
CONTINUOUS
 10
2.236307
 20
-4.353488
  0
VERTEX
  8
PLAN_1
  6
CONTINUOUS
 10
2.229764
 20
-4.355126
  0
VERTEX
  8
PLAN_1
  6
CONTINUOUS
 10
2.222681
 20
-4.356217
  0
VERTEX
  8
PLAN_1
  6
CONTINUOUS
 10
2.216138
 20
-4.357303
  0
VERTEX
  8
PLAN_1
  6
CONTINUOUS
 10
2.209598
 20
-4.357850
  0
VERTEX
  8
PLAN_1
  6
CONTINUOUS
 10
2.203059
 20
-4.357850
  0
VERTEX
  8
PLAN_1
  6
CONTINUOUS
 10
2.189976
 20
-4.357303
  0
VERTEX
  8
PLAN_1
  6
CONTINUOUS
 10
2.179075
 20
-4.356217
  0
VERTEX
  8
PLAN_1
  6
CONTINUOUS
 10
2.169811
 20
-4.354035
  0
VERTEX
  8
PLAN_1
  6
CONTINUOUS
 10
2.162177
 20
-4.351311
  0
VERTEX
  8
PLAN_1
  6
CONTINUOUS
 10
2.156181
 20
-4.348039
  0
VERTEX
  8
PLAN_1
  6
CONTINUOUS
 10
2.150732
 20
-4.345315
  0
VERTEX
  8
PLAN_1
  6
CONTINUOUS
 10
2.146370
 20
-4.342043
  0
VERTEX
  8
PLAN_1
  6
CONTINUOUS
 10
2.142555
 20
-4.338772
  0
VERTEX
  8
PLAN_1
  6
CONTINUOUS
 10
2.137106
 20
-4.332776
  0
VERTEX
  8
PLAN_1
  6
CONTINUOUS
 10
2.132744
 20
-4.326783
  0
VERTEX
  8
PLAN_1
  6
CONTINUOUS
 10
2.128929
 20
-4.320787
  0
VERTEX
  8
PLAN_1
  6
CONTINUOUS
 10
2.126205
 20
-4.314791
  0
VERTEX
  8
PLAN_1
  6
CONTINUOUS
 10
2.124571
 20
-4.308248
  0
VERTEX
  8
PLAN_1
  6
CONTINUOUS
 10
2.123480
 20
-4.301709
  0
VERTEX
  8
PLAN_1
  6
CONTINUOUS
 10
2.122933
 20
-4.295169
  0
VERTEX
  8
PLAN_1
  6
CONTINUOUS
 10
2.122390
 20
-4.288083
  0
VERTEX
  8
PLAN_1
  6
CONTINUOUS
 10
2.148008
 20
-4.288083
  0
VERTEX
  8
PLAN_1
  6
CONTINUOUS
 10
2.148008
 20
-4.294622
  0
VERTEX
  8
PLAN_1
  6
CONTINUOUS
 10
2.149098
 20
-4.300618
  0
VERTEX
  8
PLAN_1
  6
CONTINUOUS
 10
2.150732
 20
-4.306071
  0
VERTEX
  8
PLAN_1
  6
CONTINUOUS
 10
2.152913
 20
-4.310429
  0
VERTEX
  8
PLAN_1
  6
CONTINUOUS
 10
2.155638
 20
-4.314791
  0
VERTEX
  8
PLAN_1
  6
CONTINUOUS
 10
2.158362
 20
-4.318606
  0
VERTEX
  8
PLAN_1
  6
CONTINUOUS
 10
2.161634
 20
-4.321878
  0
VERTEX
  8
PLAN_1
  6
CONTINUOUS
 10
2.165449
 20
-4.325146
  0
VERTEX
  8
PLAN_1
  6
CONTINUOUS
 10
2.169811
 20
-4.327327
  0
VERTEX
  8
PLAN_1
  6
CONTINUOUS
 10
2.174169
 20
-4.329508
  0
VERTEX
  8
PLAN_1
  6
CONTINUOUS
 10
2.178531
 20
-4.331142
  0
VERTEX
  8
PLAN_1
  6
CONTINUOUS
 10
2.183437
 20
-4.332776
  0
VERTEX
  8
PLAN_1
  6
CONTINUOUS
 10
2.188343
 20
-4.333866
  0
VERTEX
  8
PLAN_1
  6
CONTINUOUS
 10
2.193248
 20
-4.334413
  0
VERTEX
  8
PLAN_1
  6
CONTINUOUS
 10
2.198154
 20
-4.334957
  0
VERTEX
  8
PLAN_1
  6
CONTINUOUS
 10
2.202512
 20
-4.334957
  0
VERTEX
  8
PLAN_1
  6
CONTINUOUS
 10
2.210689
 20
-4.334413
  0
VERTEX
  8
PLAN_1
  6
CONTINUOUS
 10
2.218862
 20
-4.333323
  0
VERTEX
  8
PLAN_1
  6
CONTINUOUS
 10
2.223224
 20
-4.332776
  0
VERTEX
  8
PLAN_1
  6
CONTINUOUS
 10
2.227587
 20
-4.331689
  0
VERTEX
  8
PLAN_1
  6
CONTINUOUS
 10
2.231945
 20
-4.330598
  0
VERTEX
  8
PLAN_1
  6
CONTINUOUS
 10
2.236307
 20
-4.328961
  0
VERTEX
  8
PLAN_1
  6
CONTINUOUS
 10
2.240122
 20
-4.326783
  0
VERTEX
  8
PLAN_1
  6
CONTINUOUS
 10
2.243390
 20
-4.324602
  0
VERTEX
  8
PLAN_1
  6
CONTINUOUS
 10
2.246661
 20
-4.321878
  0
VERTEX
  8
PLAN_1
  6
CONTINUOUS
 10
2.249386
 20
-4.318606
  0
VERTEX
  8
PLAN_1
  6
CONTINUOUS
 10
2.251567
 20
-4.314791
  0
VERTEX
  8
PLAN_1
  6
CONTINUOUS
 10
2.253201
 20
-4.310976
  0
VERTEX
  8
PLAN_1
  6
CONTINUOUS
 10
2.254291
 20
-4.306071
  0
VERTEX
  8
PLAN_1
  6
CONTINUOUS
 10
2.254839
 20
-4.301165
  0
VERTEX
  8
PLAN_1
  6
CONTINUOUS
 10
2.254839
 20
-4.297350
  0
VERTEX
  8
PLAN_1
  6
CONTINUOUS
 10
2.254291
 20
-4.294079
  0
VERTEX
  8
PLAN_1
  6
CONTINUOUS
 10
2.253748
 20
-4.290807
  0
VERTEX
  8
PLAN_1
  6
CONTINUOUS
 10
2.252657
 20
-4.288083
  0
VERTEX
  8
PLAN_1
  6
CONTINUOUS
 10
2.251567
 20
-4.285358
  0
VERTEX
  8
PLAN_1
  6
CONTINUOUS
 10
2.249933
 20
-4.283177
  0
VERTEX
  8
PLAN_1
  6
CONTINUOUS
 10
2.248295
 20
-4.280996
  0
VERTEX
  8
PLAN_1
  6
CONTINUOUS
 10
2.246118
 20
-4.278819
  0
VERTEX
  8
PLAN_1
  6
CONTINUOUS
 10
2.243390
 20
-4.276638
  0
VERTEX
  8
PLAN_1
  6
CONTINUOUS
 10
2.240122
 20
-4.275000
  0
VERTEX
  8
PLAN_1
  6
CONTINUOUS
 10
2.236850
 20
-4.273366
  0
VERTEX
  8
PLAN_1
  6
CONTINUOUS
 10
2.233035
 20
-4.271732
  0
VERTEX
  8
PLAN_1
  6
CONTINUOUS
 10
2.223768
 20
-4.269008
  0
VERTEX
  8
PLAN_1
  6
CONTINUOUS
 10
2.212323
 20
-4.265736
  0
VERTEX
  8
PLAN_1
  6
CONTINUOUS
 10
2.171445
 20
-4.256469
  0
VERTEX
  8
PLAN_1
  6
CONTINUOUS
 10
2.165992
 20
-4.254835
  0
VERTEX
  8
PLAN_1
  6
CONTINUOUS
 10
2.159453
 20
-4.252654
  0
VERTEX
  8
PLAN_1
  6
CONTINUOUS
 10
2.156181
 20
-4.251563
  0
VERTEX
  8
PLAN_1
  6
CONTINUOUS
 10
2.152366
 20
-4.249386
  0
VERTEX
  8
PLAN_1
  6
CONTINUOUS
 10
2.149098
 20
-4.247205
  0
VERTEX
  8
PLAN_1
  6
CONTINUOUS
 10
2.145283
 20
-4.245024
  0
VERTEX
  8
PLAN_1
  6
CONTINUOUS
 10
2.142012
 20
-4.242299
  0
VERTEX
  8
PLAN_1
  6
CONTINUOUS
 10
2.139287
 20
-4.239028
  0
VERTEX
  8
PLAN_1
  6
CONTINUOUS
 10
2.136559
 20
-4.235213
  0
VERTEX
  8
PLAN_1
  6
CONTINUOUS
 10
2.133835
 20
-4.231398
  0
VERTEX
  8
PLAN_1
  6
CONTINUOUS
 10
2.132201
 20
-4.226492
  0
VERTEX
  8
PLAN_1
  6
CONTINUOUS
 10
2.130567
 20
-4.221587
  0
VERTEX
  8
PLAN_1
  6
CONTINUOUS
 10
2.129476
 20
-4.215591
  0
VERTEX
  8
PLAN_1
  6
CONTINUOUS
 10
2.128929
 20
-4.209594
  0
VERTEX
  8
PLAN_1
  6
CONTINUOUS
 10
2.129476
 20
-4.203598
  0
VERTEX
  8
PLAN_1
  6
CONTINUOUS
 10
2.130020
 20
-4.198150
  0
VERTEX
  8
PLAN_1
  6
CONTINUOUS
 10
2.131110
 20
-4.192154
  0
VERTEX
  8
PLAN_1
  6
CONTINUOUS
 10
2.133291
 20
-4.186705
  0
VERTEX
  8
PLAN_1
  6
CONTINUOUS
 10
2.135472
 20
-4.181799
  0
VERTEX
  8
PLAN_1
  6
CONTINUOUS
 10
2.138197
 20
-4.176346
  0
VERTEX
  8
PLAN_1
  6
CONTINUOUS
 10
2.141465
 20
-4.171441
  0
VERTEX
  8
PLAN_1
  6
CONTINUOUS
 10
2.145283
 20
-4.167083
  0
VERTEX
  8
PLAN_1
  6
CONTINUOUS
 10
2.149642
 20
-4.163268
  0
VERTEX
  8
PLAN_1
  6
CONTINUOUS
 10
2.155094
 20
-4.159449
  0
VERTEX
  8
PLAN_1
  6
CONTINUOUS
 10
2.160543
 20
-4.156181
  0
VERTEX
  8
PLAN_1
  6
CONTINUOUS
 10
2.166539
 20
-4.153457
  0
VERTEX
  8
PLAN_1
  6
CONTINUOUS
 10
2.173626
 20
-4.151276
  0
VERTEX
  8
PLAN_1
  6
CONTINUOUS
 10
2.180709
 20
-4.149638
  0
VERTEX
  8
PLAN_1
  6
CONTINUOUS
 10
2.188886
 20
-4.148551
  0
VERTEX
  8
PLAN_1
  6
CONTINUOUS
 10
2.197606
 20
-4.148004
  0
VERTEX
  8
PLAN_1
  6
CONTINUOUS
 10
2.210142
 20
-4.148551
  0
VERTEX
  8
PLAN_1
  6
CONTINUOUS
 10
2.221043
 20
-4.149638
  0
VERTEX
  8
PLAN_1
  6
CONTINUOUS
 10
2.230854
 20
-4.151819
  0
VERTEX
  8
PLAN_1
  6
CONTINUOUS
 10
2.239031
 20
-4.155091
  0
VERTEX
  8
PLAN_1
  6
CONTINUOUS
 10
2.246661
 20
-4.158362
  0
VERTEX
  8
PLAN_1
  6
CONTINUOUS
 10
2.252657
 20
-4.162177
  0
VERTEX
  8
PLAN_1
  6
CONTINUOUS
 10
2.258106
 20
-4.166535
  0
VERTEX
  8
PLAN_1
  6
CONTINUOUS
 10
2.262469
 20
-4.171441
  0
VERTEX
  8
PLAN_1
  6
CONTINUOUS
 10
2.265740
 20
-4.176894
  0
VERTEX
  8
PLAN_1
  6
CONTINUOUS
 10
2.269008
 20
-4.181799
  0
VERTEX
  8
PLAN_1
  6
CONTINUOUS
 10
2.271189
 20
-4.187248
  0
VERTEX
  8
PLAN_1
  6
CONTINUOUS
 10
2.272823
 20
-4.192154
  0
VERTEX
  8
PLAN_1
  6
CONTINUOUS
 10
2.274461
 20
-4.202508
  0
VERTEX
  8
PLAN_1
  6
CONTINUOUS
 10
2.275551
 20
-4.211776
  0
VERTEX
  8
PLAN_1
  6
CONTINUOUS
 10
2.249933
 20
-4.211776
  0
SEQEND
  8
0
  0
POLYLINE
  8
PLAN_1
  6
CONTINUOUS
 66
     1
 40
0.008173
 41
0.008173
  0
VERTEX
  8
PLAN_1
  6
CONTINUOUS
 10
0.315539
 20
0.970591
  0
VERTEX
  8
PLAN_1
  6
CONTINUOUS
 10
0.353146
 20
0.970591
  0
VERTEX
  8
PLAN_1
  6
CONTINUOUS
 10
0.353146
 20
1.480760
  0
VERTEX
  8
PLAN_1
  6
CONTINUOUS
 10
0.314449
 20
1.480760
  0
SEQEND
  8
0
  0
POLYLINE
  8
PLAN_1
  6
CONTINUOUS
 66
     1
 40
0.008173
 41
0.008173
  0
VERTEX
  8
PLAN_1
  6
CONTINUOUS
 10
0.315539
 20
-1.436366
  0
VERTEX
  8
PLAN_1
  6
CONTINUOUS
 10
0.353146
 20
-1.436366
  0
VERTEX
  8
PLAN_1
  6
CONTINUOUS
 10
0.353146
 20
-1.067909
  0
VERTEX
  8
PLAN_1
  6
CONTINUOUS
 10
0.315539
 20
-1.067909
  0
SEQEND
  8
0
  0
POLYLINE
  8
PLAN_1
  6
CONTINUOUS
 66
     1
 40
0.008173
 41
0.008173
  0
VERTEX
  8
PLAN_1
  6
CONTINUOUS
 10
-1.097783
 20
1.077421
  0
VERTEX
  8
PLAN_1
  6
CONTINUOUS
 10
-1.221512
 20
1.077965
  0
VERTEX
  8
PLAN_1
  6
CONTINUOUS
 10
-1.221512
 20
-2.017937
  0
VERTEX
  8
PLAN_1
  6
CONTINUOUS
 10
0.314449
 20
-2.017937
  0
SEQEND
  8
0
  0
POLYLINE
  8
PLAN_1
  6
CONTINUOUS
 66
     1
 40
0.008173
 41
0.008173
  0
VERTEX
  8
PLAN_1
  6
CONTINUOUS
 10
0.314449
 20
-2.017937
  0
VERTEX
  8
PLAN_1
  6
CONTINUOUS
 10
0.314449
 20
-1.866957
  0
VERTEX
  8
PLAN_1
  6
CONTINUOUS
 10
0.314449
 20
-1.470157
  0
VERTEX
  8
PLAN_1
  6
CONTINUOUS
 10
0.314449
 20
-0.909843
  0
VERTEX
  8
PLAN_1
  6
CONTINUOUS
 10
0.314449
 20
-0.267772
  0
VERTEX
  8
PLAN_1
  6
CONTINUOUS
 10
0.314449
 20
0.374303
  0
VERTEX
  8
PLAN_1
  6
CONTINUOUS
 10
0.314449
 20
0.934614
  0
VERTEX
  8
PLAN_1
  6
CONTINUOUS
 10
0.314449
 20
1.330323
  0
VERTEX
  8
PLAN_1
  6
CONTINUOUS
 10
0.314449
 20
1.480760
  0
SEQEND
  8
0
  0
POLYLINE
  8
PLAN_1
  6
CONTINUOUS
 66
     1
 40
0.008173
 41
0.008173
  0
VERTEX
  8
PLAN_1
  6
CONTINUOUS
 10
0.314449
 20
1.480760
  0
VERTEX
  8
PLAN_1
  6
CONTINUOUS
 10
-1.097783
 20
1.480760
  0
VERTEX
  8
PLAN_1
  6
CONTINUOUS
 10
-1.097783
 20
1.077421
  0
SEQEND
  8
0
  0
POLYLINE
  8
PLAN_1
  6
CONTINUOUS
 66
     1
 40
0.008173
 41
0.008173
  0
VERTEX
  8
PLAN_1
  6
CONTINUOUS
 10
-1.056358
 20
-1.085350
  0
VERTEX
  8
PLAN_1
  6
CONTINUOUS
 10
-1.195894
 20
-1.085350
  0
VERTEX
  8
PLAN_1
  6
CONTINUOUS
 10
-1.195894
 20
-1.445630
  0
VERTEX
  8
PLAN_1
  6
CONTINUOUS
 10
-1.056358
 20
-1.445630
  0
SEQEND
  8
0
  0
POLYLINE
  8
PLAN_1
  6
CONTINUOUS
 66
     1
 40
0.008173
 41
0.008173
  0
VERTEX
  8
PLAN_1
  6
CONTINUOUS
 10
-1.195894
 20
-1.410748
  0
VERTEX
  8
PLAN_1
  6
CONTINUOUS
 10
-1.122311
 20
-1.410748
  0
VERTEX
  8
PLAN_1
  6
CONTINUOUS
 10
-1.122311
 20
-1.380768
  0
VERTEX
  8
PLAN_1
  6
CONTINUOUS
 10
-1.195894
 20
-1.380768
  0
SEQEND
  8
0
  0
POLYLINE
  8
PLAN_1
  6
CONTINUOUS
 66
     1
 40
0.008173
 41
0.008173
  0
VERTEX
  8
PLAN_1
  6
CONTINUOUS
 10
-1.221512
 20
-1.472882
  0
VERTEX
  8
PLAN_1
  6
CONTINUOUS
 10
-1.055815
 20
-1.472882
  0
VERTEX
  8
PLAN_1
  6
CONTINUOUS
 10
-1.055815
 20
-1.055374
  0
VERTEX
  8
PLAN_1
  6
CONTINUOUS
 10
-1.221512
 20
-1.055374
  0
SEQEND
  8
0
  0
POLYLINE
  8
PLAN_1
  6
CONTINUOUS
 66
     1
 40
0.008173
 41
0.008173
  0
VERTEX
  8
PLAN_1
  6
CONTINUOUS
 10
-0.325445
 20
-1.221071
  0
VERTEX
  8
PLAN_1
  6
CONTINUOUS
 10
-0.370685
 20
-1.221071
  0
VERTEX
  8
PLAN_1
  6
CONTINUOUS
 10
-0.370685
 20
1.074150
  0
SEQEND
  8
0
  0
POLYLINE
  8
PLAN_1
  6
CONTINUOUS
 66
     1
 40
0.008173
 41
0.008173
  0
VERTEX
  8
PLAN_1
  6
CONTINUOUS
 10
-0.325445
 20
-2.016846
  0
VERTEX
  8
PLAN_1
  6
CONTINUOUS
 10
-0.325445
 20
1.077965
  0
VERTEX
  8
PLAN_1
  6
CONTINUOUS
 10
-1.097783
 20
1.077965
  0
SEQEND
  8
0
  0
POLYLINE
  8
PLAN_1
  6
CONTINUOUS
 66
     1
 40
0.008173
 41
0.008173
  0
VERTEX
  8
PLAN_1
  6
CONTINUOUS
 10
-0.671008
 20
1.077421
  0
VERTEX
  8
PLAN_1
  6
CONTINUOUS
 10
-0.671008
 20
1.480760
  0
SEQEND
  8
0
  0
POLYLINE
  8
PLAN_1
  6
CONTINUOUS
 66
     1
 40
0.008173
 41
0.008173
  0
VERTEX
  8
PLAN_1
  6
CONTINUOUS
 10
-1.098331
 20
1.716768
  0
VERTEX
  8
PLAN_1
  6
CONTINUOUS
 10
-1.209520
 20
1.716768
  0
VERTEX
  8
PLAN_1
  6
CONTINUOUS
 10
-1.473870
 20
1.773996
  0
VERTEX
  8
PLAN_1
  6
CONTINUOUS
 10
-1.473870
 20
2.567051
  0
VERTEX
  8
PLAN_1
  6
CONTINUOUS
 10
-1.219331
 20
2.611201
  0
VERTEX
  8
PLAN_1
  6
CONTINUOUS
 10
0.320988
 20
2.611201
  0
VERTEX
  8
PLAN_1
  6
CONTINUOUS
 10
0.320988
 20
1.480760
  0
VERTEX
  8
PLAN_1
  6
CONTINUOUS
 10
-1.098331
 20
1.480760
  0
VERTEX
  8
PLAN_1
  6
CONTINUOUS
 10
-1.098331
 20
1.716768
  0
SEQEND
  8
0
  0
POLYLINE
  8
PLAN_1
  6
CONTINUOUS
 66
     1
 40
0.008173
 41
0.008173
  0
VERTEX
  8
PLAN_1
  6
CONTINUOUS
 10
-1.098331
 20
2.611201
  0
VERTEX
  8
PLAN_1
  6
CONTINUOUS
 10
-1.098331
 20
1.717858
  0
SEQEND
  8
0
  0
POLYLINE
  8
PLAN_1
  6
CONTINUOUS
 66
     1
 40
0.008173
 41
0.008173
  0
VERTEX
  8
PLAN_1
  6
CONTINUOUS
 10
-1.208429
 20
2.611201
  0
VERTEX
  8
PLAN_1
  6
CONTINUOUS
 10
-1.208429
 20
1.725488
  0
SEQEND
  8
0
  0
POLYLINE
  8
PLAN_1
  6
CONTINUOUS
 66
     1
 40
0.008173
 41
0.008173
  0
VERTEX
  8
PLAN_1
  6
CONTINUOUS
 10
-1.942618
 20
2.978020
  0
VERTEX
  8
PLAN_1
  6
CONTINUOUS
 10
-1.942618
 20
3.931862
  0
VERTEX
  8
PLAN_1
  6
CONTINUOUS
 10
-2.155189
 20
3.931862
  0
VERTEX
  8
PLAN_1
  6
CONTINUOUS
 10
-2.155189
 20
2.978020
  0
VERTEX
  8
PLAN_1
  6
CONTINUOUS
 10
-1.942618
 20
2.978020
  0
SEQEND
  8
0
  0
POLYLINE
  8
PLAN_1
  6
CONTINUOUS
 66
     1
 40
0.008173
 41
0.008173
  0
VERTEX
  8
PLAN_1
  6
CONTINUOUS
 10
-1.942071
 20
3.230378
  0
VERTEX
  8
PLAN_1
  6
CONTINUOUS
 10
-1.942071
 20
3.680594
  0
VERTEX
  8
PLAN_1
  6
CONTINUOUS
 10
-1.859768
 20
3.680594
  0
VERTEX
  8
PLAN_1
  6
CONTINUOUS
 10
-1.859768
 20
3.230378
  0
VERTEX
  8
PLAN_1
  6
CONTINUOUS
 10
-1.942071
 20
3.230378
  0
SEQEND
  8
0
  0
POLYLINE
  8
PLAN_1
  6
CONTINUOUS
 66
     1
 40
0.008173
 41
0.008173
  0
VERTEX
  8
PLAN_1
  6
CONTINUOUS
 10
-2.155732
 20
3.187319
  0
VERTEX
  8
PLAN_1
  6
CONTINUOUS
 10
-2.155732
 20
3.720929
  0
VERTEX
  8
PLAN_1
  6
CONTINUOUS
 10
-2.281638
 20
3.720929
  0
VERTEX
  8
PLAN_1
  6
CONTINUOUS
 10
-2.281638
 20
3.187319
  0
VERTEX
  8
PLAN_1
  6
CONTINUOUS
 10
-2.155732
 20
3.187319
  0
SEQEND
  8
0
  0
POLYLINE
  8
PLAN_1
  6
CONTINUOUS
 66
     1
 40
0.007083
 41
0.007083
  0
VERTEX
  8
PLAN_1
  6
CONTINUOUS
 10
-2.281094
 20
3.584665
  0
VERTEX
  8
PLAN_1
  6
CONTINUOUS
 10
-2.159004
 20
3.584665
  0
SEQEND
  8
0
  0
POLYLINE
  8
PLAN_1
  6
CONTINUOUS
 66
     1
 40
0.007083
 41
0.007083
  0
VERTEX
  8
PLAN_1
  6
CONTINUOUS
 10
-2.281094
 20
3.323583
  0
VERTEX
  8
PLAN_1
  6
CONTINUOUS
 10
-2.159004
 20
3.323583
  0
SEQEND
  8
0
  0
POLYLINE
  8
PLAN_1
  6
CONTINUOUS
 66
     1
 40
0.007083
 41
0.007083
  0
VERTEX
  8
PLAN_1
  6
CONTINUOUS
 10
-2.266378
 20
3.720382
  0
VERTEX
  8
PLAN_1
  6
CONTINUOUS
 10
-2.268012
 20
3.717657
  0
VERTEX
  8
PLAN_1
  6
CONTINUOUS
 10
-2.271827
 20
3.708937
  0
VERTEX
  8
PLAN_1
  6
CONTINUOUS
 10
-2.274008
 20
3.702394
  0
VERTEX
  8
PLAN_1
  6
CONTINUOUS
 10
-2.276189
 20
3.695311
  0
VERTEX
  8
PLAN_1
  6
CONTINUOUS
 10
-2.277823
 20
3.686591
  0
VERTEX
  8
PLAN_1
  6
CONTINUOUS
 10
-2.280004
 20
3.677870
  0
VERTEX
  8
PLAN_1
  6
CONTINUOUS
 10
-2.281094
 20
3.667512
  0
VERTEX
  8
PLAN_1
  6
CONTINUOUS
 10
-2.281638
 20
3.657157
  0
VERTEX
  8
PLAN_1
  6
CONTINUOUS
 10
-2.281638
 20
3.645709
  0
VERTEX
  8
PLAN_1
  6
CONTINUOUS
 10
-2.280551
 20
3.633720
  0
VERTEX
  8
PLAN_1
  6
CONTINUOUS
 10
-2.279461
 20
3.627724
  0
VERTEX
  8
PLAN_1
  6
CONTINUOUS
 10
-2.278370
 20
3.621728
  0
VERTEX
  8
PLAN_1
  6
CONTINUOUS
 10
-2.276732
 20
3.615732
  0
VERTEX
  8
PLAN_1
  6
CONTINUOUS
 10
-2.275098
 20
3.609193
  0
VERTEX
  8
PLAN_1
  6
CONTINUOUS
 10
-2.272917
 20
3.603197
  0
VERTEX
  8
PLAN_1
  6
CONTINUOUS
 10
-2.270193
 20
3.596654
  0
VERTEX
  8
PLAN_1
  6
CONTINUOUS
 10
-2.267469
 20
3.590661
  0
VERTEX
  8
PLAN_1
  6
CONTINUOUS
 10
-2.263654
 20
3.584118
  0
VERTEX
  8
PLAN_1
  6
CONTINUOUS
 10
-2.265287
 20
3.579760
  0
VERTEX
  8
PLAN_1
  6
CONTINUOUS
 10
-2.269102
 20
3.565587
  0
VERTEX
  8
PLAN_1
  6
CONTINUOUS
 10
-2.271827
 20
3.555232
  0
VERTEX
  8
PLAN_1
  6
CONTINUOUS
 10
-2.274008
 20
3.542697
  0
VERTEX
  8
PLAN_1
  6
CONTINUOUS
 10
-2.276732
 20
3.528524
  0
VERTEX
  8
PLAN_1
  6
CONTINUOUS
 10
-2.278370
 20
3.512173
  0
VERTEX
  8
PLAN_1
  6
CONTINUOUS
 10
-2.280551
 20
3.494185
  0
VERTEX
  8
PLAN_1
  6
CONTINUOUS
 10
-2.281638
 20
3.474563
  0
VERTEX
  8
PLAN_1
  6
CONTINUOUS
 10
-2.281638
 20
3.452760
  0
VERTEX
  8
PLAN_1
  6
CONTINUOUS
 10
-2.281638
 20
3.429870
  0
VERTEX
  8
PLAN_1
  6
CONTINUOUS
 10
-2.280551
 20
3.417878
  0
VERTEX
  8
PLAN_1
  6
CONTINUOUS
 10
-2.280004
 20
3.405343
  0
VERTEX
  8
PLAN_1
  6
CONTINUOUS
 10
-2.278370
 20
3.392260
  0
VERTEX
  8
PLAN_1
  6
CONTINUOUS
 10
-2.277280
 20
3.379181
  0
VERTEX
  8
PLAN_1
  6
CONTINUOUS
 10
-2.275098
 20
3.365551
  0
VERTEX
  8
PLAN_1
  6
CONTINUOUS
 10
-2.272917
 20
3.351925
  0
VERTEX
  8
PLAN_1
  6
CONTINUOUS
 10
-2.270193
 20
3.337756
  0
VERTEX
  8
PLAN_1
  6
CONTINUOUS
 10
-2.266921
 20
3.323039
  0
VERTEX
  8
PLAN_1
  6
CONTINUOUS
 10
-2.268559
 20
3.320315
  0
VERTEX
  8
PLAN_1
  6
CONTINUOUS
 10
-2.272374
 20
3.311594
  0
VERTEX
  8
PLAN_1
  6
CONTINUOUS
 10
-2.274008
 20
3.305598
  0
VERTEX
  8
PLAN_1
  6
CONTINUOUS
 10
-2.276189
 20
3.298512
  0
VERTEX
  8
PLAN_1
  6
CONTINUOUS
 10
-2.278370
 20
3.290335
  0
VERTEX
  8
PLAN_1
  6
CONTINUOUS
 10
-2.280004
 20
3.281071
  0
VERTEX
  8
PLAN_1
  6
CONTINUOUS
 10
-2.281638
 20
3.271260
  0
VERTEX
  8
PLAN_1
  6
CONTINUOUS
 10
-2.282185
 20
3.260902
  0
VERTEX
  8
PLAN_1
  6
CONTINUOUS
 10
-2.282185
 20
3.250000
  0
VERTEX
  8
PLAN_1
  6
CONTINUOUS
 10
-2.281094
 20
3.238012
  0
VERTEX
  8
PLAN_1
  6
CONTINUOUS
 10
-2.280004
 20
3.232559
  0
VERTEX
  8
PLAN_1
  6
CONTINUOUS
 10
-2.278913
 20
3.226020
  0
VERTEX
  8
PLAN_1
  6
CONTINUOUS
 10
-2.277280
 20
3.220024
  0
VERTEX
  8
PLAN_1
  6
CONTINUOUS
 10
-2.275646
 20
3.214028
  0
VERTEX
  8
PLAN_1
  6
CONTINUOUS
 10
-2.273465
 20
3.207488
  0
VERTEX
  8
PLAN_1
  6
CONTINUOUS
 10
-2.270740
 20
3.201492
  0
VERTEX
  8
PLAN_1
  6
CONTINUOUS
 10
-2.267469
 20
3.194953
  0
VERTEX
  8
PLAN_1
  6
CONTINUOUS
 10
-2.264197
 20
3.188957
  0
SEQEND
  8
0
  0
POLYLINE
  8
PLAN_1
 62
     5
  6
CONTINUOUS
 66
     1
 40
0.003000
 41
0.003000
  0
VERTEX
  8
PLAN_1
 62
     5
  6
CONTINUOUS
 10
-1.223693
 20
3.176421
  0
VERTEX
  8
PLAN_1
 62
     5
  6
CONTINUOUS
 10
-1.215516
 20
3.176421
  0
SEQEND
  8
0
  0
POLYLINE
  8
PLAN_1
 62
     5
  6
CONTINUOUS
 66
     1
 40
0.003000
 41
0.003000
  0
VERTEX
  8
PLAN_1
 62
     5
  6
CONTINUOUS
 10
-1.207339
 20
3.176421
  0
VERTEX
  8
PLAN_1
 62
     5
  6
CONTINUOUS
 10
-1.199165
 20
3.176421
  0
SEQEND
  8
0
  0
POLYLINE
  8
PLAN_1
 62
     5
  6
CONTINUOUS
 66
     1
 40
0.003000
 41
0.003000
  0
VERTEX
  8
PLAN_1
 62
     5
  6
CONTINUOUS
 10
-1.190445
 20
3.176421
  0
VERTEX
  8
PLAN_1
 62
     5
  6
CONTINUOUS
 10
-1.182268
 20
3.176421
  0
SEQEND
  8
0
  0
POLYLINE
  8
PLAN_1
 62
     5
  6
CONTINUOUS
 66
     1
 40
0.003000
 41
0.003000
  0
VERTEX
  8
PLAN_1
 62
     5
  6
CONTINUOUS
 10
-1.174091
 20
3.176421
  0
VERTEX
  8
PLAN_1
 62
     5
  6
CONTINUOUS
 10
-1.165370
 20
3.176421
  0
SEQEND
  8
0
  0
POLYLINE
  8
PLAN_1
 62
     5
  6
CONTINUOUS
 66
     1
 40
0.003000
 41
0.003000
  0
VERTEX
  8
PLAN_1
 62
     5
  6
CONTINUOUS
 10
-1.157197
 20
3.176421
  0
VERTEX
  8
PLAN_1
 62
     5
  6
CONTINUOUS
 10
-1.149020
 20
3.176421
  0
SEQEND
  8
0
  0
POLYLINE
  8
PLAN_1
 62
     5
  6
CONTINUOUS
 66
     1
 40
0.003000
 41
0.003000
  0
VERTEX
  8
PLAN_1
 62
     5
  6
CONTINUOUS
 10
-1.140843
 20
3.176421
  0
VERTEX
  8
PLAN_1
 62
     5
  6
CONTINUOUS
 10
-1.132122
 20
3.176421
  0
SEQEND
  8
0
  0
POLYLINE
  8
PLAN_1
 62
     5
  6
CONTINUOUS
 66
     1
 40
0.003000
 41
0.003000
  0
VERTEX
  8
PLAN_1
 62
     5
  6
CONTINUOUS
 10
-1.123945
 20
3.176421
  0
VERTEX
  8
PLAN_1
 62
     5
  6
CONTINUOUS
 10
-1.115772
 20
3.176421
  0
SEQEND
  8
0
  0
POLYLINE
  8
PLAN_1
 62
     5
  6
CONTINUOUS
 66
     1
 40
0.003000
 41
0.003000
  0
VERTEX
  8
PLAN_1
 62
     5
  6
CONTINUOUS
 10
-1.107594
 20
3.176421
  0
VERTEX
  8
PLAN_1
 62
     5
  6
CONTINUOUS
 10
-1.098874
 20
3.176421
  0
SEQEND
  8
0
  0
POLYLINE
  8
PLAN_1
 62
     5
  6
CONTINUOUS
 66
     1
 40
0.003000
 41
0.003000
  0
VERTEX
  8
PLAN_1
 62
     5
  6
CONTINUOUS
 10
-1.097783
 20
3.182961
  0
VERTEX
  8
PLAN_1
 62
     5
  6
CONTINUOUS
 10
-1.097783
 20
3.191681
  0
SEQEND
  8
0
  0
POLYLINE
  8
PLAN_1
 62
     5
  6
CONTINUOUS
 66
     1
 40
0.003000
 41
0.003000
  0
VERTEX
  8
PLAN_1
 62
     5
  6
CONTINUOUS
 10
-1.097783
 20
3.199858
  0
VERTEX
  8
PLAN_1
 62
     5
  6
CONTINUOUS
 10
-1.097783
 20
3.208031
  0
SEQEND
  8
0
  0
POLYLINE
  8
PLAN_1
 62
     5
  6
CONTINUOUS
 66
     1
 40
0.003000
 41
0.003000
  0
VERTEX
  8
PLAN_1
 62
     5
  6
CONTINUOUS
 10
-1.097783
 20
3.216209
  0
VERTEX
  8
PLAN_1
 62
     5
  6
CONTINUOUS
 10
-1.097783
 20
3.224929
  0
SEQEND
  8
0
  0
POLYLINE
  8
PLAN_1
 62
     5
  6
CONTINUOUS
 66
     1
 40
0.003000
 41
0.003000
  0
VERTEX
  8
PLAN_1
 62
     5
  6
CONTINUOUS
 10
-1.097783
 20
3.233106
  0
VERTEX
  8
PLAN_1
 62
     5
  6
CONTINUOUS
 10
-1.097783
 20
3.241280
  0
SEQEND
  8
0
  0
POLYLINE
  8
PLAN_1
 62
     5
  6
CONTINUOUS
 66
     1
 40
0.003000
 41
0.003000
  0
VERTEX
  8
PLAN_1
 62
     5
  6
CONTINUOUS
 10
-1.097783
 20
3.250000
  0
VERTEX
  8
PLAN_1
 62
     5
  6
CONTINUOUS
 10
-1.097783
 20
3.258177
  0
SEQEND
  8
0
  0
POLYLINE
  8
PLAN_1
 62
     5
  6
CONTINUOUS
 66
     1
 40
0.003000
 41
0.003000
  0
VERTEX
  8
PLAN_1
 62
     5
  6
CONTINUOUS
 10
-1.097783
 20
3.266354
  0
VERTEX
  8
PLAN_1
 62
     5
  6
CONTINUOUS
 10
-1.097783
 20
3.274528
  0
SEQEND
  8
0
  0
POLYLINE
  8
PLAN_1
 62
     5
  6
CONTINUOUS
 66
     1
 40
0.003000
 41
0.003000
  0
VERTEX
  8
PLAN_1
 62
     5
  6
CONTINUOUS
 10
-1.097783
 20
3.283248
  0
VERTEX
  8
PLAN_1
 62
     5
  6
CONTINUOUS
 10
-1.097783
 20
3.291425
  0
SEQEND
  8
0
  0
POLYLINE
  8
PLAN_1
 62
     5
  6
CONTINUOUS
 66
     1
 40
0.003000
 41
0.003000
  0
VERTEX
  8
PLAN_1
 62
     5
  6
CONTINUOUS
 10
-1.097783
 20
3.299602
  0
VERTEX
  8
PLAN_1
 62
     5
  6
CONTINUOUS
 10
-1.097783
 20
3.308323
  0
SEQEND
  8
0
  0
POLYLINE
  8
PLAN_1
 62
     5
  6
CONTINUOUS
 66
     1
 40
0.003000
 41
0.003000
  0
VERTEX
  8
PLAN_1
 62
     5
  6
CONTINUOUS
 10
-1.097783
 20
3.316496
  0
VERTEX
  8
PLAN_1
 62
     5
  6
CONTINUOUS
 10
-1.097783
 20
3.324673
  0
SEQEND
  8
0
  0
POLYLINE
  8
PLAN_1
 62
     5
  6
CONTINUOUS
 66
     1
 40
0.003000
 41
0.003000
  0
VERTEX
  8
PLAN_1
 62
     5
  6
CONTINUOUS
 10
-1.097783
 20
3.332850
  0
VERTEX
  8
PLAN_1
 62
     5
  6
CONTINUOUS
 10
-1.097783
 20
3.341571
  0
SEQEND
  8
0
  0
POLYLINE
  8
PLAN_1
 62
     5
  6
CONTINUOUS
 66
     1
 40
0.003000
 41
0.003000
  0
VERTEX
  8
PLAN_1
 62
     5
  6
CONTINUOUS
 10
-1.097783
 20
3.349748
  0
VERTEX
  8
PLAN_1
 62
     5
  6
CONTINUOUS
 10
-1.097783
 20
3.357921
  0
SEQEND
  8
0
  0
POLYLINE
  8
PLAN_1
 62
     5
  6
CONTINUOUS
 66
     1
 40
0.003000
 41
0.003000
  0
VERTEX
  8
PLAN_1
 62
     5
  6
CONTINUOUS
 10
-1.097783
 20
3.366642
  0
VERTEX
  8
PLAN_1
 62
     5
  6
CONTINUOUS
 10
-1.097783
 20
3.374819
  0
SEQEND
  8
0
  0
POLYLINE
  8
PLAN_1
 62
     5
  6
CONTINUOUS
 66
     1
 40
0.003000
 41
0.003000
  0
VERTEX
  8
PLAN_1
 62
     5
  6
CONTINUOUS
 10
-1.097783
 20
3.382996
  0
VERTEX
  8
PLAN_1
 62
     5
  6
CONTINUOUS
 10
-1.097783
 20
3.391169
  0
SEQEND
  8
0
  0
POLYLINE
  8
PLAN_1
 62
     5
  6
CONTINUOUS
 66
     1
 40
0.003000
 41
0.003000
  0
VERTEX
  8
PLAN_1
 62
     5
  6
CONTINUOUS
 10
-1.097783
 20
3.399890
  0
VERTEX
  8
PLAN_1
 62
     5
  6
CONTINUOUS
 10
-1.097783
 20
3.408067
  0
SEQEND
  8
0
  0
POLYLINE
  8
PLAN_1
 62
     5
  6
CONTINUOUS
 66
     1
 40
0.003000
 41
0.003000
  0
VERTEX
  8
PLAN_1
 62
     5
  6
CONTINUOUS
 10
-1.097783
 20
3.416244
  0
VERTEX
  8
PLAN_1
 62
     5
  6
CONTINUOUS
 10
-1.097783
 20
3.424417
  0
SEQEND
  8
0
  0
POLYLINE
  8
PLAN_1
 62
     5
  6
CONTINUOUS
 66
     1
 40
0.003000
 41
0.003000
  0
VERTEX
  8
PLAN_1
 62
     5
  6
CONTINUOUS
 10
-1.097783
 20
3.433138
  0
VERTEX
  8
PLAN_1
 62
     5
  6
CONTINUOUS
 10
-1.097783
 20
3.441315
  0
SEQEND
  8
0
  0
POLYLINE
  8
PLAN_1
 62
     5
  6
CONTINUOUS
 66
     1
 40
0.003000
 41
0.003000
  0
VERTEX
  8
PLAN_1
 62
     5
  6
CONTINUOUS
 10
-1.097783
 20
3.449492
  0
VERTEX
  8
PLAN_1
 62
     5
  6
CONTINUOUS
 10
-1.097783
 20
3.458213
  0
SEQEND
  8
0
  0
POLYLINE
  8
PLAN_1
 62
     5
  6
CONTINUOUS
 66
     1
 40
0.003000
 41
0.003000
  0
VERTEX
  8
PLAN_1
 62
     5
  6
CONTINUOUS
 10
-1.097783
 20
3.466386
  0
VERTEX
  8
PLAN_1
 62
     5
  6
CONTINUOUS
 10
-1.097783
 20
3.474563
  0
SEQEND
  8
0
  0
POLYLINE
  8
PLAN_1
 62
     5
  6
CONTINUOUS
 66
     1
 40
0.003000
 41
0.003000
  0
VERTEX
  8
PLAN_1
 62
     5
  6
CONTINUOUS
 10
-1.097783
 20
3.482740
  0
VERTEX
  8
PLAN_1
 62
     5
  6
CONTINUOUS
 10
-1.097783
 20
3.491461
  0
SEQEND
  8
0
  0
POLYLINE
  8
PLAN_1
 62
     5
  6
CONTINUOUS
 66
     1
 40
0.003000
 41
0.003000
  0
VERTEX
  8
PLAN_1
 62
     5
  6
CONTINUOUS
 10
-1.097783
 20
3.499638
  0
VERTEX
  8
PLAN_1
 62
     5
  6
CONTINUOUS
 10
-1.097783
 20
3.507811
  0
SEQEND
  8
0
  0
POLYLINE
  8
PLAN_1
 62
     5
  6
CONTINUOUS
 66
     1
 40
0.003000
 41
0.003000
  0
VERTEX
  8
PLAN_1
 62
     5
  6
CONTINUOUS
 10
-1.097783
 20
3.516531
  0
VERTEX
  8
PLAN_1
 62
     5
  6
CONTINUOUS
 10
-1.097783
 20
3.524709
  0
SEQEND
  8
0
  0
POLYLINE
  8
PLAN_1
 62
     5
  6
CONTINUOUS
 66
     1
 40
0.003000
 41
0.003000
  0
VERTEX
  8
PLAN_1
 62
     5
  6
CONTINUOUS
 10
-1.097783
 20
3.532886
  0
VERTEX
  8
PLAN_1
 62
     5
  6
CONTINUOUS
 10
-1.097783
 20
3.541059
  0
SEQEND
  8
0
  0
POLYLINE
  8
PLAN_1
 62
     5
  6
CONTINUOUS
 66
     1
 40
0.003000
 41
0.003000
  0
VERTEX
  8
PLAN_1
 62
     5
  6
CONTINUOUS
 10
-1.097783
 20
3.549780
  0
VERTEX
  8
PLAN_1
 62
     5
  6
CONTINUOUS
 10
-1.097783
 20
3.557957
  0
SEQEND
  8
0
  0
POLYLINE
  8
PLAN_1
 62
     5
  6
CONTINUOUS
 66
     1
 40
0.003000
 41
0.003000
  0
VERTEX
  8
PLAN_1
 62
     5
  6
CONTINUOUS
 10
-1.097783
 20
3.566134
  0
VERTEX
  8
PLAN_1
 62
     5
  6
CONTINUOUS
 10
-1.097783
 20
3.574854
  0
SEQEND
  8
0
  0
POLYLINE
  8
PLAN_1
 62
     5
  6
CONTINUOUS
 66
     1
 40
0.003000
 41
0.003000
  0
VERTEX
  8
PLAN_1
 62
     5
  6
CONTINUOUS
 10
-1.097783
 20
3.583028
  0
VERTEX
  8
PLAN_1
 62
     5
  6
CONTINUOUS
 10
-1.097783
 20
3.591205
  0
SEQEND
  8
0
  0
POLYLINE
  8
PLAN_1
 62
     5
  6
CONTINUOUS
 66
     1
 40
0.003000
 41
0.003000
  0
VERTEX
  8
PLAN_1
 62
     5
  6
CONTINUOUS
 10
-1.097783
 20
3.599382
  0
VERTEX
  8
PLAN_1
 62
     5
  6
CONTINUOUS
 10
-1.097783
 20
3.608102
  0
SEQEND
  8
0
  0
POLYLINE
  8
PLAN_1
 62
     5
  6
CONTINUOUS
 66
     1
 40
0.003000
 41
0.003000
  0
VERTEX
  8
PLAN_1
 62
     5
  6
CONTINUOUS
 10
-1.097783
 20
3.616276
  0
VERTEX
  8
PLAN_1
 62
     5
  6
CONTINUOUS
 10
-1.097783
 20
3.624453
  0
SEQEND
  8
0
  0
POLYLINE
  8
PLAN_1
 62
     5
  6
CONTINUOUS
 66
     1
 40
0.003000
 41
0.003000
  0
VERTEX
  8
PLAN_1
 62
     5
  6
CONTINUOUS
 10
-1.097783
 20
3.632630
  0
VERTEX
  8
PLAN_1
 62
     5
  6
CONTINUOUS
 10
-1.097783
 20
3.641350
  0
SEQEND
  8
0
  0
POLYLINE
  8
PLAN_1
 62
     5
  6
CONTINUOUS
 66
     1
 40
0.003000
 41
0.003000
  0
VERTEX
  8
PLAN_1
 62
     5
  6
CONTINUOUS
 10
-1.097783
 20
3.649524
  0
VERTEX
  8
PLAN_1
 62
     5
  6
CONTINUOUS
 10
-1.097783
 20
3.657701
  0
SEQEND
  8
0
  0
POLYLINE
  8
PLAN_1
 62
     5
  6
CONTINUOUS
 66
     1
 40
0.003000
 41
0.003000
  0
VERTEX
  8
PLAN_1
 62
     5
  6
CONTINUOUS
 10
-1.097783
 20
3.666421
  0
VERTEX
  8
PLAN_1
 62
     5
  6
CONTINUOUS
 10
-1.097783
 20
3.674598
  0
SEQEND
  8
0
  0
POLYLINE
  8
PLAN_1
 62
     5
  6
CONTINUOUS
 66
     1
 40
0.003000
 41
0.003000
  0
VERTEX
  8
PLAN_1
 62
     5
  6
CONTINUOUS
 10
-1.097783
 20
3.682776
  0
VERTEX
  8
PLAN_1
 62
     5
  6
CONTINUOUS
 10
-1.097783
 20
3.690949
  0
SEQEND
  8
0
  0
POLYLINE
  8
PLAN_1
 62
     5
  6
CONTINUOUS
 66
     1
 40
0.003000
 41
0.003000
  0
VERTEX
  8
PLAN_1
 62
     5
  6
CONTINUOUS
 10
-1.097783
 20
3.699669
  0
VERTEX
  8
PLAN_1
 62
     5
  6
CONTINUOUS
 10
-1.097783
 20
3.707846
  0
SEQEND
  8
0
  0
POLYLINE
  8
PLAN_1
 62
     5
  6
CONTINUOUS
 66
     1
 40
0.003000
 41
0.003000
  0
VERTEX
  8
PLAN_1
 62
     5
  6
CONTINUOUS
 10
-1.104327
 20
3.709480
  0
VERTEX
  8
PLAN_1
 62
     5
  6
CONTINUOUS
 10
-1.112500
 20
3.709480
  0
SEQEND
  8
0
  0
POLYLINE
  8
PLAN_1
 62
     5
  6
CONTINUOUS
 66
     1
 40
0.003000
 41
0.003000
  0
VERTEX
  8
PLAN_1
 62
     5
  6
CONTINUOUS
 10
-1.120677
 20
3.709480
  0
VERTEX
  8
PLAN_1
 62
     5
  6
CONTINUOUS
 10
-1.129398
 20
3.709480
  0
SEQEND
  8
0
  0
POLYLINE
  8
PLAN_1
 62
     5
  6
CONTINUOUS
 66
     1
 40
0.003000
 41
0.003000
  0
VERTEX
  8
PLAN_1
 62
     5
  6
CONTINUOUS
 10
-1.137575
 20
3.709480
  0
VERTEX
  8
PLAN_1
 62
     5
  6
CONTINUOUS
 10
-1.145748
 20
3.709480
  0
SEQEND
  8
0
  0
POLYLINE
  8
PLAN_1
 62
     5
  6
CONTINUOUS
 66
     1
 40
0.003000
 41
0.003000
  0
VERTEX
  8
PLAN_1
 62
     5
  6
CONTINUOUS
 10
-1.154469
 20
3.709480
  0
VERTEX
  8
PLAN_1
 62
     5
  6
CONTINUOUS
 10
-1.162646
 20
3.709480
  0
SEQEND
  8
0
  0
POLYLINE
  8
PLAN_1
 62
     5
  6
CONTINUOUS
 66
     1
 40
0.003000
 41
0.003000
  0
VERTEX
  8
PLAN_1
 62
     5
  6
CONTINUOUS
 10
-1.170823
 20
3.709480
  0
VERTEX
  8
PLAN_1
 62
     5
  6
CONTINUOUS
 10
-1.178996
 20
3.709480
  0
SEQEND
  8
0
  0
POLYLINE
  8
PLAN_1
 62
     5
  6
CONTINUOUS
 66
     1
 40
0.003000
 41
0.003000
  0
VERTEX
  8
PLAN_1
 62
     5
  6
CONTINUOUS
 10
-1.187717
 20
3.709480
  0
VERTEX
  8
PLAN_1
 62
     5
  6
CONTINUOUS
 10
-1.195894
 20
3.709480
  0
SEQEND
  8
0
  0
POLYLINE
  8
PLAN_1
 62
     5
  6
CONTINUOUS
 66
     1
 40
0.003000
 41
0.003000
  0
VERTEX
  8
PLAN_1
 62
     5
  6
CONTINUOUS
 10
-1.204071
 20
3.709480
  0
VERTEX
  8
PLAN_1
 62
     5
  6
CONTINUOUS
 10
-1.212791
 20
3.709480
  0
SEQEND
  8
0
  0
POLYLINE
  8
PLAN_1
 62
     5
  6
CONTINUOUS
 66
     1
 40
0.003000
 41
0.003000
  0
VERTEX
  8
PLAN_1
 62
     5
  6
CONTINUOUS
 10
-1.220965
 20
3.709480
  0
VERTEX
  8
PLAN_1
 62
     5
  6
CONTINUOUS
 10
-1.223693
 20
3.709480
  0
VERTEX
  8
PLAN_1
 62
     5
  6
CONTINUOUS
 10
-1.224236
 20
3.704031
  0
SEQEND
  8
0
  0
POLYLINE
  8
PLAN_1
 62
     5
  6
CONTINUOUS
 66
     1
 40
0.003000
 41
0.003000
  0
VERTEX
  8
PLAN_1
 62
     5
  6
CONTINUOUS
 10
-1.224236
 20
3.695854
  0
VERTEX
  8
PLAN_1
 62
     5
  6
CONTINUOUS
 10
-1.224236
 20
3.687681
  0
SEQEND
  8
0
  0
POLYLINE
  8
PLAN_1
 62
     5
  6
CONTINUOUS
 66
     1
 40
0.003000
 41
0.003000
  0
VERTEX
  8
PLAN_1
 62
     5
  6
CONTINUOUS
 10
-1.224236
 20
3.679504
  0
VERTEX
  8
PLAN_1
 62
     5
  6
CONTINUOUS
 10
-1.224236
 20
3.670783
  0
SEQEND
  8
0
  0
POLYLINE
  8
PLAN_1
 62
     5
  6
CONTINUOUS
 66
     1
 40
0.003000
 41
0.003000
  0
VERTEX
  8
PLAN_1
 62
     5
  6
CONTINUOUS
 10
-1.230232
 20
3.668602
  0
VERTEX
  8
PLAN_1
 62
     5
  6
CONTINUOUS
 10
-1.238409
 20
3.668059
  0
SEQEND
  8
0
  0
POLYLINE
  8
PLAN_1
 62
     5
  6
CONTINUOUS
 66
     1
 40
0.003000
 41
0.003000
  0
VERTEX
  8
PLAN_1
 62
     5
  6
CONTINUOUS
 10
-1.247130
 20
3.668059
  0
VERTEX
  8
PLAN_1
 62
     5
  6
CONTINUOUS
 10
-1.255303
 20
3.668059
  0
SEQEND
  8
0
  0
POLYLINE
  8
PLAN_1
 62
     5
  6
CONTINUOUS
 66
     1
 40
0.003000
 41
0.003000
  0
VERTEX
  8
PLAN_1
 62
     5
  6
CONTINUOUS
 10
-1.261299
 20
3.670236
  0
VERTEX
  8
PLAN_1
 62
     5
  6
CONTINUOUS
 10
-1.261299
 20
3.678413
  0
SEQEND
  8
0
  0
POLYLINE
  8
PLAN_1
 62
     5
  6
CONTINUOUS
 66
     1
 40
0.003000
 41
0.003000
  0
VERTEX
  8
PLAN_1
 62
     5
  6
CONTINUOUS
 10
-1.261299
 20
3.686591
  0
VERTEX
  8
PLAN_1
 62
     5
  6
CONTINUOUS
 10
-1.261299
 20
3.695311
  0
SEQEND
  8
0
  0
POLYLINE
  8
PLAN_1
 62
     5
  6
CONTINUOUS
 66
     1
 40
0.003000
 41
0.003000
  0
VERTEX
  8
PLAN_1
 62
     5
  6
CONTINUOUS
 10
-1.261299
 20
3.703484
  0
VERTEX
  8
PLAN_1
 62
     5
  6
CONTINUOUS
 10
-1.261299
 20
3.711661
  0
SEQEND
  8
0
  0
POLYLINE
  8
PLAN_1
 62
     5
  6
CONTINUOUS
 66
     1
 40
0.003000
 41
0.003000
  0
VERTEX
  8
PLAN_1
 62
     5
  6
CONTINUOUS
 10
-1.261299
 20
3.720382
  0
VERTEX
  8
PLAN_1
 62
     5
  6
CONTINUOUS
 10
-1.261299
 20
3.728559
  0
SEQEND
  8
0
  0
POLYLINE
  8
PLAN_1
 62
     5
  6
CONTINUOUS
 66
     1
 40
0.003000
 41
0.003000
  0
VERTEX
  8
PLAN_1
 62
     5
  6
CONTINUOUS
 10
-1.261299
 20
3.736732
  0
VERTEX
  8
PLAN_1
 62
     5
  6
CONTINUOUS
 10
-1.261299
 20
3.744909
  0
SEQEND
  8
0
  0
POLYLINE
  8
PLAN_1
 62
     5
  6
CONTINUOUS
 66
     1
 40
0.003000
 41
0.003000
  0
VERTEX
  8
PLAN_1
 62
     5
  6
CONTINUOUS
 10
-1.261299
 20
3.753630
  0
VERTEX
  8
PLAN_1
 62
     5
  6
CONTINUOUS
 10
-1.261299
 20
3.761807
  0
SEQEND
  8
0
  0
POLYLINE
  8
PLAN_1
 62
     5
  6
CONTINUOUS
 66
     1
 40
0.003000
 41
0.003000
  0
VERTEX
  8
PLAN_1
 62
     5
  6
CONTINUOUS
 10
-1.261299
 20
3.769980
  0
VERTEX
  8
PLAN_1
 62
     5
  6
CONTINUOUS
 10
-1.261299
 20
3.778705
  0
SEQEND
  8
0
  0
POLYLINE
  8
PLAN_1
 62
     5
  6
CONTINUOUS
 66
     1
 40
0.003000
 41
0.003000
  0
VERTEX
  8
PLAN_1
 62
     5
  6
CONTINUOUS
 10
-1.261299
 20
3.786878
  0
VERTEX
  8
PLAN_1
 62
     5
  6
CONTINUOUS
 10
-1.261299
 20
3.795055
  0
SEQEND
  8
0
  0
POLYLINE
  8
PLAN_1
 62
     5
  6
CONTINUOUS
 66
     1
 40
0.003000
 41
0.003000
  0
VERTEX
  8
PLAN_1
 62
     5
  6
CONTINUOUS
 10
-1.261299
 20
3.803232
  0
VERTEX
  8
PLAN_1
 62
     5
  6
CONTINUOUS
 10
-1.261299
 20
3.811953
  0
SEQEND
  8
0
  0
POLYLINE
  8
PLAN_1
 62
     5
  6
CONTINUOUS
 66
     1
 40
0.003000
 41
0.003000
  0
VERTEX
  8
PLAN_1
 62
     5
  6
CONTINUOUS
 10
-1.261299
 20
3.820126
  0
VERTEX
  8
PLAN_1
 62
     5
  6
CONTINUOUS
 10
-1.261299
 20
3.828303
  0
SEQEND
  8
0
  0
POLYLINE
  8
PLAN_1
 62
     5
  6
CONTINUOUS
 66
     1
 40
0.003000
 41
0.003000
  0
VERTEX
  8
PLAN_1
 62
     5
  6
CONTINUOUS
 10
-1.261299
 20
3.836480
  0
VERTEX
  8
PLAN_1
 62
     5
  6
CONTINUOUS
 10
-1.261299
 20
3.845201
  0
SEQEND
  8
0
  0
POLYLINE
  8
PLAN_1
 62
     5
  6
CONTINUOUS
 66
     1
 40
0.003000
 41
0.003000
  0
VERTEX
  8
PLAN_1
 62
     5
  6
CONTINUOUS
 10
-1.261299
 20
3.853374
  0
VERTEX
  8
PLAN_1
 62
     5
  6
CONTINUOUS
 10
-1.261299
 20
3.861551
  0
SEQEND
  8
0
  0
POLYLINE
  8
PLAN_1
 62
     5
  6
CONTINUOUS
 66
     1
 40
0.003000
 41
0.003000
  0
VERTEX
  8
PLAN_1
 62
     5
  6
CONTINUOUS
 10
-1.261299
 20
3.870272
  0
VERTEX
  8
PLAN_1
 62
     5
  6
CONTINUOUS
 10
-1.261299
 20
3.878449
  0
SEQEND
  8
0
  0
POLYLINE
  8
PLAN_1
 62
     5
  6
CONTINUOUS
 66
     1
 40
0.003000
 41
0.003000
  0
VERTEX
  8
PLAN_1
 62
     5
  6
CONTINUOUS
 10
-1.261299
 20
3.886622
  0
VERTEX
  8
PLAN_1
 62
     5
  6
CONTINUOUS
 10
-1.261299
 20
3.894799
  0
SEQEND
  8
0
  0
POLYLINE
  8
PLAN_1
 62
     5
  6
CONTINUOUS
 66
     1
 40
0.003000
 41
0.003000
  0
VERTEX
  8
PLAN_1
 62
     5
  6
CONTINUOUS
 10
-1.261299
 20
3.903520
  0
VERTEX
  8
PLAN_1
 62
     5
  6
CONTINUOUS
 10
-1.261299
 20
3.911697
  0
SEQEND
  8
0
  0
POLYLINE
  8
PLAN_1
 62
     5
  6
CONTINUOUS
 66
     1
 40
0.003000
 41
0.003000
  0
VERTEX
  8
PLAN_1
 62
     5
  6
CONTINUOUS
 10
-1.261299
 20
3.919870
  0
VERTEX
  8
PLAN_1
 62
     5
  6
CONTINUOUS
 10
-1.261299
 20
3.928594
  0
SEQEND
  8
0
  0
POLYLINE
  8
PLAN_1
 62
     5
  6
CONTINUOUS
 66
     1
 40
0.003000
 41
0.003000
  0
VERTEX
  8
PLAN_1
 62
     5
  6
CONTINUOUS
 10
-1.265661
 20
3.931862
  0
VERTEX
  8
PLAN_1
 62
     5
  6
CONTINUOUS
 10
-1.274382
 20
3.931862
  0
SEQEND
  8
0
  0
POLYLINE
  8
PLAN_1
 62
     5
  6
CONTINUOUS
 66
     1
 40
0.003000
 41
0.003000
  0
VERTEX
  8
PLAN_1
 62
     5
  6
CONTINUOUS
 10
-1.282559
 20
3.931862
  0
VERTEX
  8
PLAN_1
 62
     5
  6
CONTINUOUS
 10
-1.290732
 20
3.931862
  0
SEQEND
  8
0
  0
POLYLINE
  8
PLAN_1
 62
     5
  6
CONTINUOUS
 66
     1
 40
0.003000
 41
0.003000
  0
VERTEX
  8
PLAN_1
 62
     5
  6
CONTINUOUS
 10
-1.299453
 20
3.931862
  0
VERTEX
  8
PLAN_1
 62
     5
  6
CONTINUOUS
 10
-1.307630
 20
3.931862
  0
SEQEND
  8
0
  0
POLYLINE
  8
PLAN_1
 62
     5
  6
CONTINUOUS
 66
     1
 40
0.003000
 41
0.003000
  0
VERTEX
  8
PLAN_1
 62
     5
  6
CONTINUOUS
 10
-1.315807
 20
3.931862
  0
VERTEX
  8
PLAN_1
 62
     5
  6
CONTINUOUS
 10
-1.323980
 20
3.931862
  0
SEQEND
  8
0
  0
POLYLINE
  8
PLAN_1
 62
     5
  6
CONTINUOUS
 66
     1
 40
0.003000
 41
0.003000
  0
VERTEX
  8
PLAN_1
 62
     5
  6
CONTINUOUS
 10
-1.332701
 20
3.931862
  0
VERTEX
  8
PLAN_1
 62
     5
  6
CONTINUOUS
 10
-1.340878
 20
3.931862
  0
SEQEND
  8
0
  0
POLYLINE
  8
PLAN_1
 62
     5
  6
CONTINUOUS
 66
     1
 40
0.003000
 41
0.003000
  0
VERTEX
  8
PLAN_1
 62
     5
  6
CONTINUOUS
 10
-1.349055
 20
3.931862
  0
VERTEX
  8
PLAN_1
 62
     5
  6
CONTINUOUS
 10
-1.357776
 20
3.931862
  0
SEQEND
  8
0
  0
POLYLINE
  8
PLAN_1
 62
     5
  6
CONTINUOUS
 66
     1
 40
0.003000
 41
0.003000
  0
VERTEX
  8
PLAN_1
 62
     5
  6
CONTINUOUS
 10
-1.365949
 20
3.931862
  0
VERTEX
  8
PLAN_1
 62
     5
  6
CONTINUOUS
 10
-1.374126
 20
3.931862
  0
SEQEND
  8
0
  0
POLYLINE
  8
PLAN_1
 62
     5
  6
CONTINUOUS
 66
     1
 40
0.003000
 41
0.003000
  0
VERTEX
  8
PLAN_1
 62
     5
  6
CONTINUOUS
 10
-1.382303
 20
3.931862
  0
VERTEX
  8
PLAN_1
 62
     5
  6
CONTINUOUS
 10
-1.391024
 20
3.931862
  0
SEQEND
  8
0
  0
POLYLINE
  8
PLAN_1
 62
     5
  6
CONTINUOUS
 66
     1
 40
0.003000
 41
0.003000
  0
VERTEX
  8
PLAN_1
 62
     5
  6
CONTINUOUS
 10
-1.399197
 20
3.931862
  0
VERTEX
  8
PLAN_1
 62
     5
  6
CONTINUOUS
 10
-1.407374
 20
3.931862
  0
SEQEND
  8
0
  0
POLYLINE
  8
PLAN_1
 62
     5
  6
CONTINUOUS
 66
     1
 40
0.003000
 41
0.003000
  0
VERTEX
  8
PLAN_1
 62
     5
  6
CONTINUOUS
 10
-1.416094
 20
3.931862
  0
VERTEX
  8
PLAN_1
 62
     5
  6
CONTINUOUS
 10
-1.424272
 20
3.931862
  0
SEQEND
  8
0
  0
POLYLINE
  8
PLAN_1
 62
     5
  6
CONTINUOUS
 66
     1
 40
0.003000
 41
0.003000
  0
VERTEX
  8
PLAN_1
 62
     5
  6
CONTINUOUS
 10
-1.432445
 20
3.931862
  0
VERTEX
  8
PLAN_1
 62
     5
  6
CONTINUOUS
 10
-1.440622
 20
3.931862
  0
SEQEND
  8
0
  0
POLYLINE
  8
PLAN_1
 62
     5
  6
CONTINUOUS
 66
     1
 40
0.003000
 41
0.003000
  0
VERTEX
  8
PLAN_1
 62
     5
  6
CONTINUOUS
 10
-1.449343
 20
3.931862
  0
VERTEX
  8
PLAN_1
 62
     5
  6
CONTINUOUS
 10
-1.457520
 20
3.931862
  0
SEQEND
  8
0
  0
POLYLINE
  8
PLAN_1
 62
     5
  6
CONTINUOUS
 66
     1
 40
0.003000
 41
0.003000
  0
VERTEX
  8
PLAN_1
 62
     5
  6
CONTINUOUS
 10
-1.465697
 20
3.931862
  0
VERTEX
  8
PLAN_1
 62
     5
  6
CONTINUOUS
 10
-1.473870
 20
3.931862
  0
SEQEND
  8
0
  0
POLYLINE
  8
PLAN_1
 62
     5
  6
CONTINUOUS
 66
     1
 40
0.003000
 41
0.003000
  0
VERTEX
  8
PLAN_1
 62
     5
  6
CONTINUOUS
 10
-1.476051
 20
3.925323
  0
VERTEX
  8
PLAN_1
 62
     5
  6
CONTINUOUS
 10
-1.476051
 20
3.917146
  0
SEQEND
  8
0
  0
POLYLINE
  8
PLAN_1
 62
     5
  6
CONTINUOUS
 66
     1
 40
0.003000
 41
0.003000
  0
VERTEX
  8
PLAN_1
 62
     5
  6
CONTINUOUS
 10
-1.476051
 20
3.908972
  0
VERTEX
  8
PLAN_1
 62
     5
  6
CONTINUOUS
 10
-1.476051
 20
3.900248
  0
SEQEND
  8
0
  0
POLYLINE
  8
PLAN_1
 62
     5
  6
CONTINUOUS
 66
     1
 40
0.003000
 41
0.003000
  0
VERTEX
  8
PLAN_1
 62
     5
  6
CONTINUOUS
 10
-1.476051
 20
3.892075
  0
VERTEX
  8
PLAN_1
 62
     5
  6
CONTINUOUS
 10
-1.476051
 20
3.883898
  0
SEQEND
  8
0
  0
POLYLINE
  8
PLAN_1
 62
     5
  6
CONTINUOUS
 66
     1
 40
0.003000
 41
0.003000
  0
VERTEX
  8
PLAN_1
 62
     5
  6
CONTINUOUS
 10
-1.476051
 20
3.875724
  0
VERTEX
  8
PLAN_1
 62
     5
  6
CONTINUOUS
 10
-1.476051
 20
3.867000
  0
SEQEND
  8
0
  0
POLYLINE
  8
PLAN_1
 62
     5
  6
CONTINUOUS
 66
     1
 40
0.003000
 41
0.003000
  0
VERTEX
  8
PLAN_1
 62
     5
  6
CONTINUOUS
 10
-1.476051
 20
3.858827
  0
VERTEX
  8
PLAN_1
 62
     5
  6
CONTINUOUS
 10
-1.476051
 20
3.850650
  0
SEQEND
  8
0
  0
POLYLINE
  8
PLAN_1
 62
     5
  6
CONTINUOUS
 66
     1
 40
0.003000
 41
0.003000
  0
VERTEX
  8
PLAN_1
 62
     5
  6
CONTINUOUS
 10
-1.476051
 20
3.841929
  0
VERTEX
  8
PLAN_1
 62
     5
  6
CONTINUOUS
 10
-1.476051
 20
3.833752
  0
SEQEND
  8
0
  0
POLYLINE
  8
PLAN_1
 62
     5
  6
CONTINUOUS
 66
     1
 40
0.003000
 41
0.003000
  0
VERTEX
  8
PLAN_1
 62
     5
  6
CONTINUOUS
 10
-1.476051
 20
3.825579
  0
VERTEX
  8
PLAN_1
 62
     5
  6
CONTINUOUS
 10
-1.476051
 20
3.817402
  0
SEQEND
  8
0
  0
POLYLINE
  8
PLAN_1
 62
     5
  6
CONTINUOUS
 66
     1
 40
0.003000
 41
0.003000
  0
VERTEX
  8
PLAN_1
 62
     5
  6
CONTINUOUS
 10
-1.476051
 20
3.808681
  0
VERTEX
  8
PLAN_1
 62
     5
  6
CONTINUOUS
 10
-1.476051
 20
3.800504
  0
SEQEND
  8
0
  0
POLYLINE
  8
PLAN_1
 62
     5
  6
CONTINUOUS
 66
     1
 40
0.003000
 41
0.003000
  0
VERTEX
  8
PLAN_1
 62
     5
  6
CONTINUOUS
 10
-1.476051
 20
3.792331
  0
VERTEX
  8
PLAN_1
 62
     5
  6
CONTINUOUS
 10
-1.476051
 20
3.784154
  0
SEQEND
  8
0
  0
POLYLINE
  8
PLAN_1
 62
     5
  6
CONTINUOUS
 66
     1
 40
0.003000
 41
0.003000
  0
VERTEX
  8
PLAN_1
 62
     5
  6
CONTINUOUS
 10
-1.476051
 20
3.775433
  0
VERTEX
  8
PLAN_1
 62
     5
  6
CONTINUOUS
 10
-1.476051
 20
3.767256
  0
SEQEND
  8
0
  0
POLYLINE
  8
PLAN_1
 62
     5
  6
CONTINUOUS
 66
     1
 40
0.003000
 41
0.003000
  0
VERTEX
  8
PLAN_1
 62
     5
  6
CONTINUOUS
 10
-1.476051
 20
3.759083
  0
VERTEX
  8
PLAN_1
 62
     5
  6
CONTINUOUS
 10
-1.476051
 20
3.750362
  0
SEQEND
  8
0
  0
POLYLINE
  8
PLAN_1
 62
     5
  6
CONTINUOUS
 66
     1
 40
0.003000
 41
0.003000
  0
VERTEX
  8
PLAN_1
 62
     5
  6
CONTINUOUS
 10
-1.476051
 20
3.742185
  0
VERTEX
  8
PLAN_1
 62
     5
  6
CONTINUOUS
 10
-1.476051
 20
3.734008
  0
SEQEND
  8
0
  0
POLYLINE
  8
PLAN_1
 62
     5
  6
CONTINUOUS
 66
     1
 40
0.003000
 41
0.003000
  0
VERTEX
  8
PLAN_1
 62
     5
  6
CONTINUOUS
 10
-1.476051
 20
3.725835
  0
VERTEX
  8
PLAN_1
 62
     5
  6
CONTINUOUS
 10
-1.476051
 20
3.717110
  0
SEQEND
  8
0
  0
POLYLINE
  8
PLAN_1
 62
     5
  6
CONTINUOUS
 66
     1
 40
0.003000
 41
0.003000
  0
VERTEX
  8
PLAN_1
 62
     5
  6
CONTINUOUS
 10
-1.476051
 20
3.708937
  0
VERTEX
  8
PLAN_1
 62
     5
  6
CONTINUOUS
 10
-1.476051
 20
3.700760
  0
SEQEND
  8
0
  0
POLYLINE
  8
PLAN_1
 62
     5
  6
CONTINUOUS
 66
     1
 40
0.003000
 41
0.003000
  0
VERTEX
  8
PLAN_1
 62
     5
  6
CONTINUOUS
 10
-1.476051
 20
3.692039
  0
VERTEX
  8
PLAN_1
 62
     5
  6
CONTINUOUS
 10
-1.476051
 20
3.683862
  0
SEQEND
  8
0
  0
POLYLINE
  8
PLAN_1
 62
     5
  6
CONTINUOUS
 66
     1
 40
0.003000
 41
0.003000
  0
VERTEX
  8
PLAN_1
 62
     5
  6
CONTINUOUS
 10
-1.476051
 20
3.675689
  0
VERTEX
  8
PLAN_1
 62
     5
  6
CONTINUOUS
 10
-1.476051
 20
3.667512
  0
SEQEND
  8
0
  0
POLYLINE
  8
PLAN_1
 62
     5
  6
CONTINUOUS
 66
     1
 40
0.003000
 41
0.003000
  0
VERTEX
  8
PLAN_1
 62
     5
  6
CONTINUOUS
 10
-1.476051
 20
3.658791
  0
VERTEX
  8
PLAN_1
 62
     5
  6
CONTINUOUS
 10
-1.476051
 20
3.650614
  0
SEQEND
  8
0
  0
POLYLINE
  8
PLAN_1
 62
     5
  6
CONTINUOUS
 66
     1
 40
0.003000
 41
0.003000
  0
VERTEX
  8
PLAN_1
 62
     5
  6
CONTINUOUS
 10
-1.476051
 20
3.642441
  0
VERTEX
  8
PLAN_1
 62
     5
  6
CONTINUOUS
 10
-1.476051
 20
3.633720
  0
SEQEND
  8
0
  0
POLYLINE
  8
PLAN_1
 62
     5
  6
CONTINUOUS
 66
     1
 40
0.003000
 41
0.003000
  0
VERTEX
  8
PLAN_1
 62
     5
  6
CONTINUOUS
 10
-1.476051
 20
3.625543
  0
VERTEX
  8
PLAN_1
 62
     5
  6
CONTINUOUS
 10
-1.476051
 20
3.617366
  0
SEQEND
  8
0
  0
POLYLINE
  8
PLAN_1
 62
     5
  6
CONTINUOUS
 66
     1
 40
0.003000
 41
0.003000
  0
VERTEX
  8
PLAN_1
 62
     5
  6
CONTINUOUS
 10
-1.476051
 20
3.609193
  0
VERTEX
  8
PLAN_1
 62
     5
  6
CONTINUOUS
 10
-1.476051
 20
3.600472
  0
SEQEND
  8
0
  0
POLYLINE
  8
PLAN_1
 62
     5
  6
CONTINUOUS
 66
     1
 40
0.003000
 41
0.003000
  0
VERTEX
  8
PLAN_1
 62
     5
  6
CONTINUOUS
 10
-1.476051
 20
3.592295
  0
VERTEX
  8
PLAN_1
 62
     5
  6
CONTINUOUS
 10
-1.476051
 20
3.584118
  0
SEQEND
  8
0
  0
POLYLINE
  8
PLAN_1
 62
     5
  6
CONTINUOUS
 66
     1
 40
0.003000
 41
0.003000
  0
VERTEX
  8
PLAN_1
 62
     5
  6
CONTINUOUS
 10
-1.476051
 20
3.575945
  0
VERTEX
  8
PLAN_1
 62
     5
  6
CONTINUOUS
 10
-1.476051
 20
3.567224
  0
SEQEND
  8
0
  0
POLYLINE
  8
PLAN_1
 62
     5
  6
CONTINUOUS
 66
     1
 40
0.003000
 41
0.003000
  0
VERTEX
  8
PLAN_1
 62
     5
  6
CONTINUOUS
 10
-1.476051
 20
3.559047
  0
VERTEX
  8
PLAN_1
 62
     5
  6
CONTINUOUS
 10
-1.476051
 20
3.550870
  0
SEQEND
  8
0
  0
POLYLINE
  8
PLAN_1
 62
     5
  6
CONTINUOUS
 66
     1
 40
0.003000
 41
0.003000
  0
VERTEX
  8
PLAN_1
 62
     5
  6
CONTINUOUS
 10
-1.476051
 20
3.542150
  0
VERTEX
  8
PLAN_1
 62
     5
  6
CONTINUOUS
 10
-1.476051
 20
3.533972
  0
SEQEND
  8
0
  0
POLYLINE
  8
PLAN_1
 62
     5
  6
CONTINUOUS
 66
     1
 40
0.003000
 41
0.003000
  0
VERTEX
  8
PLAN_1
 62
     5
  6
CONTINUOUS
 10
-1.476051
 20
3.525799
  0
VERTEX
  8
PLAN_1
 62
     5
  6
CONTINUOUS
 10
-1.476051
 20
3.517622
  0
SEQEND
  8
0
  0
POLYLINE
  8
PLAN_1
 62
     5
  6
CONTINUOUS
 66
     1
 40
0.003000
 41
0.003000
  0
VERTEX
  8
PLAN_1
 62
     5
  6
CONTINUOUS
 10
-1.476051
 20
3.508902
  0
VERTEX
  8
PLAN_1
 62
     5
  6
CONTINUOUS
 10
-1.476051
 20
3.500724
  0
SEQEND
  8
0
  0
POLYLINE
  8
PLAN_1
 62
     5
  6
CONTINUOUS
 66
     1
 40
0.003000
 41
0.003000
  0
VERTEX
  8
PLAN_1
 62
     5
  6
CONTINUOUS
 10
-1.476051
 20
3.492551
  0
VERTEX
  8
PLAN_1
 62
     5
  6
CONTINUOUS
 10
-1.476051
 20
3.483831
  0
SEQEND
  8
0
  0
POLYLINE
  8
PLAN_1
 62
     5
  6
CONTINUOUS
 66
     1
 40
0.003000
 41
0.003000
  0
VERTEX
  8
PLAN_1
 62
     5
  6
CONTINUOUS
 10
-1.476051
 20
3.475654
  0
VERTEX
  8
PLAN_1
 62
     5
  6
CONTINUOUS
 10
-1.476051
 20
3.467476
  0
SEQEND
  8
0
  0
POLYLINE
  8
PLAN_1
 62
     5
  6
CONTINUOUS
 66
     1
 40
0.003000
 41
0.003000
  0
VERTEX
  8
PLAN_1
 62
     5
  6
CONTINUOUS
 10
-1.476051
 20
3.459303
  0
VERTEX
  8
PLAN_1
 62
     5
  6
CONTINUOUS
 10
-1.476051
 20
3.450583
  0
SEQEND
  8
0
  0
POLYLINE
  8
PLAN_1
 62
     5
  6
CONTINUOUS
 66
     1
 40
0.003000
 41
0.003000
  0
VERTEX
  8
PLAN_1
 62
     5
  6
CONTINUOUS
 10
-1.476051
 20
3.442406
  0
VERTEX
  8
PLAN_1
 62
     5
  6
CONTINUOUS
 10
-1.476051
 20
3.434228
  0
SEQEND
  8
0
  0
POLYLINE
  8
PLAN_1
 62
     5
  6
CONTINUOUS
 66
     1
 40
0.003000
 41
0.003000
  0
VERTEX
  8
PLAN_1
 62
     5
  6
CONTINUOUS
 10
-1.476051
 20
3.425508
  0
VERTEX
  8
PLAN_1
 62
     5
  6
CONTINUOUS
 10
-1.476051
 20
3.417335
  0
SEQEND
  8
0
  0
POLYLINE
  8
PLAN_1
 62
     5
  6
CONTINUOUS
 66
     1
 40
0.003000
 41
0.003000
  0
VERTEX
  8
PLAN_1
 62
     5
  6
CONTINUOUS
 10
-1.476051
 20
3.409157
  0
VERTEX
  8
PLAN_1
 62
     5
  6
CONTINUOUS
 10
-1.476051
 20
3.400980
  0
SEQEND
  8
0
  0
POLYLINE
  8
PLAN_1
 62
     5
  6
CONTINUOUS
 66
     1
 40
0.003000
 41
0.003000
  0
VERTEX
  8
PLAN_1
 62
     5
  6
CONTINUOUS
 10
-1.476051
 20
3.392260
  0
VERTEX
  8
PLAN_1
 62
     5
  6
CONTINUOUS
 10
-1.476051
 20
3.384083
  0
SEQEND
  8
0
  0
POLYLINE
  8
PLAN_1
 62
     5
  6
CONTINUOUS
 66
     1
 40
0.003000
 41
0.003000
  0
VERTEX
  8
PLAN_1
 62
     5
  6
CONTINUOUS
 10
-1.476051
 20
3.375909
  0
VERTEX
  8
PLAN_1
 62
     5
  6
CONTINUOUS
 10
-1.476051
 20
3.367189
  0
SEQEND
  8
0
  0
POLYLINE
  8
PLAN_1
 62
     5
  6
CONTINUOUS
 66
     1
 40
0.003000
 41
0.003000
  0
VERTEX
  8
PLAN_1
 62
     5
  6
CONTINUOUS
 10
-1.476051
 20
3.359012
  0
VERTEX
  8
PLAN_1
 62
     5
  6
CONTINUOUS
 10
-1.476051
 20
3.350835
  0
SEQEND
  8
0
  0
POLYLINE
  8
PLAN_1
 62
     5
  6
CONTINUOUS
 66
     1
 40
0.003000
 41
0.003000
  0
VERTEX
  8
PLAN_1
 62
     5
  6
CONTINUOUS
 10
-1.476051
 20
3.342661
  0
VERTEX
  8
PLAN_1
 62
     5
  6
CONTINUOUS
 10
-1.476051
 20
3.333941
  0
SEQEND
  8
0
  0
POLYLINE
  8
PLAN_1
 62
     5
  6
CONTINUOUS
 66
     1
 40
0.003000
 41
0.003000
  0
VERTEX
  8
PLAN_1
 62
     5
  6
CONTINUOUS
 10
-1.476051
 20
3.325764
  0
VERTEX
  8
PLAN_1
 62
     5
  6
CONTINUOUS
 10
-1.476051
 20
3.317587
  0
SEQEND
  8
0
  0
POLYLINE
  8
PLAN_1
 62
     5
  6
CONTINUOUS
 66
     1
 40
0.003000
 41
0.003000
  0
VERTEX
  8
PLAN_1
 62
     5
  6
CONTINUOUS
 10
-1.476051
 20
3.309413
  0
VERTEX
  8
PLAN_1
 62
     5
  6
CONTINUOUS
 10
-1.476051
 20
3.300693
  0
SEQEND
  8
0
  0
POLYLINE
  8
PLAN_1
 62
     5
  6
CONTINUOUS
 66
     1
 40
0.003000
 41
0.003000
  0
VERTEX
  8
PLAN_1
 62
     5
  6
CONTINUOUS
 10
-1.476051
 20
3.292516
  0
VERTEX
  8
PLAN_1
 62
     5
  6
CONTINUOUS
 10
-1.476051
 20
3.284339
  0
SEQEND
  8
0
  0
POLYLINE
  8
PLAN_1
 62
     5
  6
CONTINUOUS
 66
     1
 40
0.003000
 41
0.003000
  0
VERTEX
  8
PLAN_1
 62
     5
  6
CONTINUOUS
 10
-1.476051
 20
3.275618
  0
VERTEX
  8
PLAN_1
 62
     5
  6
CONTINUOUS
 10
-1.476051
 20
3.267445
  0
SEQEND
  8
0
  0
POLYLINE
  8
PLAN_1
 62
     5
  6
CONTINUOUS
 66
     1
 40
0.003000
 41
0.003000
  0
VERTEX
  8
PLAN_1
 62
     5
  6
CONTINUOUS
 10
-1.476051
 20
3.259268
  0
VERTEX
  8
PLAN_1
 62
     5
  6
CONTINUOUS
 10
-1.476051
 20
3.251091
  0
SEQEND
  8
0
  0
POLYLINE
  8
PLAN_1
 62
     5
  6
CONTINUOUS
 66
     1
 40
0.003000
 41
0.003000
  0
VERTEX
  8
PLAN_1
 62
     5
  6
CONTINUOUS
 10
-1.476051
 20
3.242370
  0
VERTEX
  8
PLAN_1
 62
     5
  6
CONTINUOUS
 10
-1.476051
 20
3.234197
  0
SEQEND
  8
0
  0
POLYLINE
  8
PLAN_1
 62
     5
  6
CONTINUOUS
 66
     1
 40
0.003000
 41
0.003000
  0
VERTEX
  8
PLAN_1
 62
     5
  6
CONTINUOUS
 10
-1.476051
 20
3.226020
  0
VERTEX
  8
PLAN_1
 62
     5
  6
CONTINUOUS
 10
-1.476051
 20
3.217299
  0
SEQEND
  8
0
  0
POLYLINE
  8
PLAN_1
 62
     5
  6
CONTINUOUS
 66
     1
 40
0.003000
 41
0.003000
  0
VERTEX
  8
PLAN_1
 62
     5
  6
CONTINUOUS
 10
-1.476051
 20
3.209122
  0
VERTEX
  8
PLAN_1
 62
     5
  6
CONTINUOUS
 10
-1.476051
 20
3.200945
  0
SEQEND
  8
0
  0
POLYLINE
  8
PLAN_1
 62
     5
  6
CONTINUOUS
 66
     1
 40
0.003000
 41
0.003000
  0
VERTEX
  8
PLAN_1
 62
     5
  6
CONTINUOUS
 10
-1.476051
 20
3.192772
  0
VERTEX
  8
PLAN_1
 62
     5
  6
CONTINUOUS
 10
-1.476051
 20
3.184051
  0
SEQEND
  8
0
  0
POLYLINE
  8
PLAN_1
 62
     5
  6
CONTINUOUS
 66
     1
 40
0.003000
 41
0.003000
  0
VERTEX
  8
PLAN_1
 62
     5
  6
CONTINUOUS
 10
-1.476051
 20
3.175874
  0
VERTEX
  8
PLAN_1
 62
     5
  6
CONTINUOUS
 10
-1.476051
 20
3.167697
  0
SEQEND
  8
0
  0
POLYLINE
  8
PLAN_1
 62
     5
  6
CONTINUOUS
 66
     1
 40
0.003000
 41
0.003000
  0
VERTEX
  8
PLAN_1
 62
     5
  6
CONTINUOUS
 10
-1.476051
 20
3.158976
  0
VERTEX
  8
PLAN_1
 62
     5
  6
CONTINUOUS
 10
-1.476051
 20
3.150803
  0
SEQEND
  8
0
  0
POLYLINE
  8
PLAN_1
 62
     5
  6
CONTINUOUS
 66
     1
 40
0.003000
 41
0.003000
  0
VERTEX
  8
PLAN_1
 62
     5
  6
CONTINUOUS
 10
-1.476051
 20
3.142626
  0
VERTEX
  8
PLAN_1
 62
     5
  6
CONTINUOUS
 10
-1.476051
 20
3.134449
  0
SEQEND
  8
0
  0
POLYLINE
  8
PLAN_1
 62
     5
  6
CONTINUOUS
 66
     1
 40
0.003000
 41
0.003000
  0
VERTEX
  8
PLAN_1
 62
     5
  6
CONTINUOUS
 10
-1.476051
 20
3.125728
  0
VERTEX
  8
PLAN_1
 62
     5
  6
CONTINUOUS
 10
-1.476051
 20
3.117555
  0
SEQEND
  8
0
  0
POLYLINE
  8
PLAN_1
 62
     5
  6
CONTINUOUS
 66
     1
 40
0.003000
 41
0.003000
  0
VERTEX
  8
PLAN_1
 62
     5
  6
CONTINUOUS
 10
-1.476051
 20
3.109378
  0
VERTEX
  8
PLAN_1
 62
     5
  6
CONTINUOUS
 10
-1.476051
 20
3.101201
  0
SEQEND
  8
0
  0
POLYLINE
  8
PLAN_1
 62
     5
  6
CONTINUOUS
 66
     1
 40
0.003000
 41
0.003000
  0
VERTEX
  8
PLAN_1
 62
     5
  6
CONTINUOUS
 10
-1.476051
 20
3.092480
  0
VERTEX
  8
PLAN_1
 62
     5
  6
CONTINUOUS
 10
-1.476051
 20
3.084307
  0
SEQEND
  8
0
  0
POLYLINE
  8
PLAN_1
 62
     5
  6
CONTINUOUS
 66
     1
 40
0.003000
 41
0.003000
  0
VERTEX
  8
PLAN_1
 62
     5
  6
CONTINUOUS
 10
-1.476051
 20
3.076130
  0
VERTEX
  8
PLAN_1
 62
     5
  6
CONTINUOUS
 10
-1.476051
 20
3.067409
  0
SEQEND
  8
0
  0
POLYLINE
  8
PLAN_1
 62
     5
  6
CONTINUOUS
 66
     1
 40
0.003000
 41
0.003000
  0
VERTEX
  8
PLAN_1
 62
     5
  6
CONTINUOUS
 10
-1.476051
 20
3.059232
  0
VERTEX
  8
PLAN_1
 62
     5
  6
CONTINUOUS
 10
-1.476051
 20
3.051059
  0
SEQEND
  8
0
  0
POLYLINE
  8
PLAN_1
 62
     5
  6
CONTINUOUS
 66
     1
 40
0.003000
 41
0.003000
  0
VERTEX
  8
PLAN_1
 62
     5
  6
CONTINUOUS
 10
-1.476051
 20
3.042882
  0
VERTEX
  8
PLAN_1
 62
     5
  6
CONTINUOUS
 10
-1.476051
 20
3.034161
  0
SEQEND
  8
0
  0
POLYLINE
  8
PLAN_1
 62
     5
  6
CONTINUOUS
 66
     1
 40
0.003000
 41
0.003000
  0
VERTEX
  8
PLAN_1
 62
     5
  6
CONTINUOUS
 10
-1.476051
 20
3.025984
  0
VERTEX
  8
PLAN_1
 62
     5
  6
CONTINUOUS
 10
-1.476051
 20
3.017807
  0
SEQEND
  8
0
  0
POLYLINE
  8
PLAN_1
 62
     5
  6
CONTINUOUS
 66
     1
 40
0.003000
 41
0.003000
  0
VERTEX
  8
PLAN_1
 62
     5
  6
CONTINUOUS
 10
-1.476051
 20
3.009087
  0
VERTEX
  8
PLAN_1
 62
     5
  6
CONTINUOUS
 10
-1.476051
 20
3.000913
  0
SEQEND
  8
0
  0
POLYLINE
  8
PLAN_1
 62
     5
  6
CONTINUOUS
 66
     1
 40
0.003000
 41
0.003000
  0
VERTEX
  8
PLAN_1
 62
     5
  6
CONTINUOUS
 10
-1.476051
 20
2.992736
  0
VERTEX
  8
PLAN_1
 62
     5
  6
CONTINUOUS
 10
-1.476051
 20
2.984559
  0
SEQEND
  8
0
  0
POLYLINE
  8
PLAN_1
 62
     5
  6
CONTINUOUS
 66
     1
 40
0.003000
 41
0.003000
  0
VERTEX
  8
PLAN_1
 62
     5
  6
CONTINUOUS
 10
-1.476051
 20
2.975839
  0
VERTEX
  8
PLAN_1
 62
     5
  6
CONTINUOUS
 10
-1.476051
 20
2.967665
  0
SEQEND
  8
0
  0
POLYLINE
  8
PLAN_1
 62
     5
  6
CONTINUOUS
 66
     1
 40
0.003000
 41
0.003000
  0
VERTEX
  8
PLAN_1
 62
     5
  6
CONTINUOUS
 10
-1.471689
 20
2.963850
  0
VERTEX
  8
PLAN_1
 62
     5
  6
CONTINUOUS
 10
-1.462969
 20
2.963850
  0
SEQEND
  8
0
  0
POLYLINE
  8
PLAN_1
 62
     5
  6
CONTINUOUS
 66
     1
 40
0.003000
 41
0.003000
  0
VERTEX
  8
PLAN_1
 62
     5
  6
CONTINUOUS
 10
-1.454795
 20
2.963850
  0
VERTEX
  8
PLAN_1
 62
     5
  6
CONTINUOUS
 10
-1.446618
 20
2.963850
  0
SEQEND
  8
0
  0
POLYLINE
  8
PLAN_1
 62
     5
  6
CONTINUOUS
 66
     1
 40
0.003000
 41
0.003000
  0
VERTEX
  8
PLAN_1
 62
     5
  6
CONTINUOUS
 10
-1.437898
 20
2.963850
  0
VERTEX
  8
PLAN_1
 62
     5
  6
CONTINUOUS
 10
-1.429720
 20
2.963850
  0
SEQEND
  8
0
  0
POLYLINE
  8
PLAN_1
 62
     5
  6
CONTINUOUS
 66
     1
 40
0.003000
 41
0.003000
  0
VERTEX
  8
PLAN_1
 62
     5
  6
CONTINUOUS
 10
-1.421547
 20
2.963850
  0
VERTEX
  8
PLAN_1
 62
     5
  6
CONTINUOUS
 10
-1.413370
 20
2.963850
  0
SEQEND
  8
0
  0
POLYLINE
  8
PLAN_1
 62
     5
  6
CONTINUOUS
 66
     1
 40
0.003000
 41
0.003000
  0
VERTEX
  8
PLAN_1
 62
     5
  6
CONTINUOUS
 10
-1.404650
 20
2.963850
  0
VERTEX
  8
PLAN_1
 62
     5
  6
CONTINUOUS
 10
-1.396472
 20
2.963850
  0
SEQEND
  8
0
  0
POLYLINE
  8
PLAN_1
 62
     5
  6
CONTINUOUS
 66
     1
 40
0.003000
 41
0.003000
  0
VERTEX
  8
PLAN_1
 62
     5
  6
CONTINUOUS
 10
-1.388299
 20
2.963850
  0
VERTEX
  8
PLAN_1
 62
     5
  6
CONTINUOUS
 10
-1.379575
 20
2.963850
  0
SEQEND
  8
0
  0
POLYLINE
  8
PLAN_1
 62
     5
  6
CONTINUOUS
 66
     1
 40
0.003000
 41
0.003000
  0
VERTEX
  8
PLAN_1
 62
     5
  6
CONTINUOUS
 10
-1.371402
 20
2.963850
  0
VERTEX
  8
PLAN_1
 62
     5
  6
CONTINUOUS
 10
-1.363224
 20
2.963850
  0
SEQEND
  8
0
  0
POLYLINE
  8
PLAN_1
 62
     5
  6
CONTINUOUS
 66
     1
 40
0.003000
 41
0.003000
  0
VERTEX
  8
PLAN_1
 62
     5
  6
CONTINUOUS
 10
-1.355051
 20
2.963850
  0
VERTEX
  8
PLAN_1
 62
     5
  6
CONTINUOUS
 10
-1.346327
 20
2.963850
  0
SEQEND
  8
0
  0
POLYLINE
  8
PLAN_1
 62
     5
  6
CONTINUOUS
 66
     1
 40
0.003000
 41
0.003000
  0
VERTEX
  8
PLAN_1
 62
     5
  6
CONTINUOUS
 10
-1.338154
 20
2.963850
  0
VERTEX
  8
PLAN_1
 62
     5
  6
CONTINUOUS
 10
-1.329976
 20
2.963850
  0
SEQEND
  8
0
  0
POLYLINE
  8
PLAN_1
 62
     5
  6
CONTINUOUS
 66
     1
 40
0.003000
 41
0.003000
  0
VERTEX
  8
PLAN_1
 62
     5
  6
CONTINUOUS
 10
-1.321799
 20
2.963850
  0
VERTEX
  8
PLAN_1
 62
     5
  6
CONTINUOUS
 10
-1.313079
 20
2.963850
  0
SEQEND
  8
0
  0
POLYLINE
  8
PLAN_1
 62
     5
  6
CONTINUOUS
 66
     1
 40
0.003000
 41
0.003000
  0
VERTEX
  8
PLAN_1
 62
     5
  6
CONTINUOUS
 10
-1.304906
 20
2.963850
  0
VERTEX
  8
PLAN_1
 62
     5
  6
CONTINUOUS
 10
-1.296728
 20
2.963850
  0
SEQEND
  8
0
  0
POLYLINE
  8
PLAN_1
 62
     5
  6
CONTINUOUS
 66
     1
 40
0.003000
 41
0.003000
  0
VERTEX
  8
PLAN_1
 62
     5
  6
CONTINUOUS
 10
-1.288008
 20
2.963850
  0
VERTEX
  8
PLAN_1
 62
     5
  6
CONTINUOUS
 10
-1.279831
 20
2.963850
  0
SEQEND
  8
0
  0
POLYLINE
  8
PLAN_1
 62
     5
  6
CONTINUOUS
 66
     1
 40
0.003000
 41
0.003000
  0
VERTEX
  8
PLAN_1
 62
     5
  6
CONTINUOUS
 10
-1.271657
 20
2.963850
  0
VERTEX
  8
PLAN_1
 62
     5
  6
CONTINUOUS
 10
-1.263480
 20
2.963850
  0
SEQEND
  8
0
  0
POLYLINE
  8
PLAN_1
 62
     5
  6
CONTINUOUS
 66
     1
 40
0.003000
 41
0.003000
  0
VERTEX
  8
PLAN_1
 62
     5
  6
CONTINUOUS
 10
-1.261299
 20
2.970390
  0
VERTEX
  8
PLAN_1
 62
     5
  6
CONTINUOUS
 10
-1.261299
 20
2.978567
  0
SEQEND
  8
0
  0
POLYLINE
  8
PLAN_1
 62
     5
  6
CONTINUOUS
 66
     1
 40
0.003000
 41
0.003000
  0
VERTEX
  8
PLAN_1
 62
     5
  6
CONTINUOUS
 10
-1.261299
 20
2.986740
  0
VERTEX
  8
PLAN_1
 62
     5
  6
CONTINUOUS
 10
-1.261299
 20
2.994917
  0
SEQEND
  8
0
  0
POLYLINE
  8
PLAN_1
 62
     5
  6
CONTINUOUS
 66
     1
 40
0.003000
 41
0.003000
  0
VERTEX
  8
PLAN_1
 62
     5
  6
CONTINUOUS
 10
-1.261299
 20
3.003638
  0
VERTEX
  8
PLAN_1
 62
     5
  6
CONTINUOUS
 10
-1.261299
 20
3.011815
  0
SEQEND
  8
0
  0
POLYLINE
  8
PLAN_1
 62
     5
  6
CONTINUOUS
 66
     1
 40
0.003000
 41
0.003000
  0
VERTEX
  8
PLAN_1
 62
     5
  6
CONTINUOUS
 10
-1.261299
 20
3.019988
  0
VERTEX
  8
PLAN_1
 62
     5
  6
CONTINUOUS
 10
-1.261299
 20
3.028709
  0
SEQEND
  8
0
  0
POLYLINE
  8
PLAN_1
 62
     5
  6
CONTINUOUS
 66
     1
 40
0.003000
 41
0.003000
  0
VERTEX
  8
PLAN_1
 62
     5
  6
CONTINUOUS
 10
-1.261299
 20
3.036886
  0
VERTEX
  8
PLAN_1
 62
     5
  6
CONTINUOUS
 10
-1.261299
 20
3.045063
  0
SEQEND
  8
0
  0
POLYLINE
  8
PLAN_1
 62
     5
  6
CONTINUOUS
 66
     1
 40
0.003000
 41
0.003000
  0
VERTEX
  8
PLAN_1
 62
     5
  6
CONTINUOUS
 10
-1.261299
 20
3.053236
  0
VERTEX
  8
PLAN_1
 62
     5
  6
CONTINUOUS
 10
-1.261299
 20
3.061957
  0
SEQEND
  8
0
  0
POLYLINE
  8
PLAN_1
 62
     5
  6
CONTINUOUS
 66
     1
 40
0.003000
 41
0.003000
  0
VERTEX
  8
PLAN_1
 62
     5
  6
CONTINUOUS
 10
-1.261299
 20
3.070134
  0
VERTEX
  8
PLAN_1
 62
     5
  6
CONTINUOUS
 10
-1.261299
 20
3.078311
  0
SEQEND
  8
0
  0
POLYLINE
  8
PLAN_1
 62
     5
  6
CONTINUOUS
 66
     1
 40
0.003000
 41
0.003000
  0
VERTEX
  8
PLAN_1
 62
     5
  6
CONTINUOUS
 10
-1.261299
 20
3.086484
  0
VERTEX
  8
PLAN_1
 62
     5
  6
CONTINUOUS
 10
-1.261299
 20
3.095205
  0
SEQEND
  8
0
  0
POLYLINE
  8
PLAN_1
 62
     5
  6
CONTINUOUS
 66
     1
 40
0.003000
 41
0.003000
  0
VERTEX
  8
PLAN_1
 62
     5
  6
CONTINUOUS
 10
-1.261299
 20
3.103382
  0
VERTEX
  8
PLAN_1
 62
     5
  6
CONTINUOUS
 10
-1.261299
 20
3.111559
  0
SEQEND
  8
0
  0
POLYLINE
  8
PLAN_1
 62
     5
  6
CONTINUOUS
 66
     1
 40
0.003000
 41
0.003000
  0
VERTEX
  8
PLAN_1
 62
     5
  6
CONTINUOUS
 10
-1.261299
 20
3.120280
  0
VERTEX
  8
PLAN_1
 62
     5
  6
CONTINUOUS
 10
-1.261299
 20
3.128453
  0
SEQEND
  8
0
  0
POLYLINE
  8
PLAN_1
 62
     5
  6
CONTINUOUS
 66
     1
 40
0.003000
 41
0.003000
  0
VERTEX
  8
PLAN_1
 62
     5
  6
CONTINUOUS
 10
-1.261299
 20
3.136630
  0
VERTEX
  8
PLAN_1
 62
     5
  6
CONTINUOUS
 10
-1.261299
 20
3.144807
  0
SEQEND
  8
0
  0
POLYLINE
  8
PLAN_1
 62
     5
  6
CONTINUOUS
 66
     1
 40
0.003000
 41
0.003000
  0
VERTEX
  8
PLAN_1
 62
     5
  6
CONTINUOUS
 10
-1.261299
 20
3.153528
  0
VERTEX
  8
PLAN_1
 62
     5
  6
CONTINUOUS
 10
-1.261299
 20
3.161705
  0
SEQEND
  8
0
  0
POLYLINE
  8
PLAN_1
 62
     5
  6
CONTINUOUS
 66
     1
 40
0.003000
 41
0.003000
  0
VERTEX
  8
PLAN_1
 62
     5
  6
CONTINUOUS
 10
-1.261299
 20
3.169878
  0
VERTEX
  8
PLAN_1
 62
     5
  6
CONTINUOUS
 10
-1.261299
 20
3.178598
  0
SEQEND
  8
0
  0
POLYLINE
  8
PLAN_1
 62
     5
  6
CONTINUOUS
 66
     1
 40
0.003000
 41
0.003000
  0
VERTEX
  8
PLAN_1
 62
     5
  6
CONTINUOUS
 10
-1.261299
 20
3.186776
  0
VERTEX
  8
PLAN_1
 62
     5
  6
CONTINUOUS
 10
-1.261299
 20
3.194953
  0
SEQEND
  8
0
  0
POLYLINE
  8
PLAN_1
 62
     5
  6
CONTINUOUS
 66
     1
 40
0.003000
 41
0.003000
  0
VERTEX
  8
PLAN_1
 62
     5
  6
CONTINUOUS
 10
-1.261299
 20
3.203126
  0
VERTEX
  8
PLAN_1
 62
     5
  6
CONTINUOUS
 10
-1.260756
 20
3.211846
  0
SEQEND
  8
0
  0
POLYLINE
  8
PLAN_1
 62
     5
  6
CONTINUOUS
 66
     1
 40
0.003000
 41
0.003000
  0
VERTEX
  8
PLAN_1
 62
     5
  6
CONTINUOUS
 10
-1.259118
 20
3.218390
  0
VERTEX
  8
PLAN_1
 62
     5
  6
CONTINUOUS
 10
-1.250945
 20
3.218390
  0
SEQEND
  8
0
  0
POLYLINE
  8
PLAN_1
 62
     5
  6
CONTINUOUS
 66
     1
 40
0.003000
 41
0.003000
  0
VERTEX
  8
PLAN_1
 62
     5
  6
CONTINUOUS
 10
-1.242768
 20
3.218390
  0
VERTEX
  8
PLAN_1
 62
     5
  6
CONTINUOUS
 10
-1.234594
 20
3.218390
  0
SEQEND
  8
0
  0
POLYLINE
  8
PLAN_1
 62
     5
  6
CONTINUOUS
 66
     1
 40
0.003000
 41
0.003000
  0
VERTEX
  8
PLAN_1
 62
     5
  6
CONTINUOUS
 10
-1.225870
 20
3.218390
  0
VERTEX
  8
PLAN_1
 62
     5
  6
CONTINUOUS
 10
-1.224236
 20
3.218390
  0
VERTEX
  8
PLAN_1
 62
     5
  6
CONTINUOUS
 10
-1.224236
 20
3.211846
  0
SEQEND
  8
0
  0
POLYLINE
  8
PLAN_1
 62
     5
  6
CONTINUOUS
 66
     1
 40
0.003000
 41
0.003000
  0
VERTEX
  8
PLAN_1
 62
     5
  6
CONTINUOUS
 10
-1.224236
 20
3.203126
  0
VERTEX
  8
PLAN_1
 62
     5
  6
CONTINUOUS
 10
-1.224236
 20
3.194953
  0
SEQEND
  8
0
  0
POLYLINE
  8
PLAN_1
 62
     5
  6
CONTINUOUS
 66
     1
 40
0.003000
 41
0.003000
  0
VERTEX
  8
PLAN_1
 62
     5
  6
CONTINUOUS
 10
-1.224236
 20
3.186776
  0
VERTEX
  8
PLAN_1
 62
     5
  6
CONTINUOUS
 10
-1.223693
 20
3.178598
  0
SEQEND
  8
0
  0
POLYLINE
  8
PLAN_1
  6
CONTINUOUS
 66
     1
 40
0.008173
 41
0.008173
  0
VERTEX
  8
PLAN_1
  6
CONTINUOUS
 10
-1.473870
 20
3.275075
  0
VERTEX
  8
PLAN_1
  6
CONTINUOUS
 10
-1.473870
 20
3.647890
  0
VERTEX
  8
PLAN_1
  6
CONTINUOUS
 10
-1.561626
 20
3.647890
  0
VERTEX
  8
PLAN_1
  6
CONTINUOUS
 10
-1.561626
 20
3.275075
  0
VERTEX
  8
PLAN_1
  6
CONTINUOUS
 10
-1.473870
 20
3.275075
  0
SEQEND
  8
0
  0
POLYLINE
  8
PLAN_1
  6
CONTINUOUS
 66
     1
 40
0.008173
 41
0.008173
  0
VERTEX
  8
PLAN_1
  6
CONTINUOUS
 10
-1.561626
 20
3.550870
  0
VERTEX
  8
PLAN_1
  6
CONTINUOUS
 10
-1.473870
 20
3.550870
  0
SEQEND
  8
0
  0
POLYLINE
  8
PLAN_1
  6
CONTINUOUS
 66
     1
 40
0.008173
 41
0.008173
  0
VERTEX
  8
PLAN_1
  6
CONTINUOUS
 10
-1.561626
 20
3.372638
  0
VERTEX
  8
PLAN_1
  6
CONTINUOUS
 10
-1.473870
 20
3.372638
  0
SEQEND
  8
0
  0
POLYLINE
  8
PLAN_1
  6
CONTINUOUS
 66
     1
 40
0.008173
 41
0.008173
  0
VERTEX
  8
PLAN_1
  6
CONTINUOUS
 10
-1.484772
 20
3.276165
  0
VERTEX
  8
PLAN_1
  6
CONTINUOUS
 10
-1.483681
 20
3.278343
  0
VERTEX
  8
PLAN_1
  6
CONTINUOUS
 10
-1.481500
 20
3.284339
  0
VERTEX
  8
PLAN_1
  6
CONTINUOUS
 10
-1.478776
 20
3.293606
  0
VERTEX
  8
PLAN_1
  6
CONTINUOUS
 10
-1.476051
 20
3.306142
  0
VERTEX
  8
PLAN_1
  6
CONTINUOUS
 10
-1.474961
 20
3.313228
  0
VERTEX
  8
PLAN_1
  6
CONTINUOUS
 10
-1.474417
 20
3.320858
  0
VERTEX
  8
PLAN_1
  6
CONTINUOUS
 10
-1.474417
 20
3.329035
  0
VERTEX
  8
PLAN_1
  6
CONTINUOUS
 10
-1.474961
 20
3.337209
  0
VERTEX
  8
PLAN_1
  6
CONTINUOUS
 10
-1.476051
 20
3.345929
  0
VERTEX
  8
PLAN_1
  6
CONTINUOUS
 10
-1.478232
 20
3.354654
  0
VERTEX
  8
PLAN_1
  6
CONTINUOUS
 10
-1.480957
 20
3.363374
  0
VERTEX
  8
PLAN_1
  6
CONTINUOUS
 10
-1.484772
 20
3.372638
  0
SEQEND
  8
0
  0
POLYLINE
  8
PLAN_1
 62
     5
  6
CONTINUOUS
 66
     1
 40
0.003000
 41
0.003000
  0
VERTEX
  8
PLAN_1
 62
     5
  6
CONTINUOUS
 10
-1.483681
 20
3.551417
  0
VERTEX
  8
PLAN_1
 62
     5
  6
CONTINUOUS
 10
-1.482591
 20
3.553594
  0
VERTEX
  8
PLAN_1
 62
     5
  6
CONTINUOUS
 10
-1.480957
 20
3.559047
  0
SEQEND
  8
0
  0
POLYLINE
  8
PLAN_1
 62
     5
  6
CONTINUOUS
 66
     1
 40
0.003000
 41
0.003000
  0
VERTEX
  8
PLAN_1
 62
     5
  6
CONTINUOUS
 10
-1.478232
 20
3.566677
  0
VERTEX
  8
PLAN_1
 62
     5
  6
CONTINUOUS
 10
-1.477685
 20
3.568858
  0
VERTEX
  8
PLAN_1
 62
     5
  6
CONTINUOUS
 10
-1.476594
 20
3.574854
  0
SEQEND
  8
0
  0
POLYLINE
  8
PLAN_1
 62
     5
  6
CONTINUOUS
 66
     1
 40
0.003000
 41
0.003000
  0
VERTEX
  8
PLAN_1
 62
     5
  6
CONTINUOUS
 10
-1.474961
 20
3.583028
  0
VERTEX
  8
PLAN_1
 62
     5
  6
CONTINUOUS
 10
-1.473870
 20
3.588480
  0
VERTEX
  8
PLAN_1
 62
     5
  6
CONTINUOUS
 10
-1.473870
 20
3.591205
  0
SEQEND
  8
0
  0
POLYLINE
  8
PLAN_1
 62
     5
  6
CONTINUOUS
 66
     1
 40
0.003000
 41
0.003000
  0
VERTEX
  8
PLAN_1
 62
     5
  6
CONTINUOUS
 10
-1.473327
 20
3.599925
  0
VERTEX
  8
PLAN_1
 62
     5
  6
CONTINUOUS
 10
-1.473327
 20
3.604287
  0
VERTEX
  8
PLAN_1
 62
     5
  6
CONTINUOUS
 10
-1.473870
 20
3.608102
  0
SEQEND
  8
0
  0
POLYLINE
  8
PLAN_1
 62
     5
  6
CONTINUOUS
 66
     1
 40
0.003000
 41
0.003000
  0
VERTEX
  8
PLAN_1
 62
     5
  6
CONTINUOUS
 10
-1.474417
 20
3.616276
  0
VERTEX
  8
PLAN_1
 62
     5
  6
CONTINUOUS
 10
-1.474961
 20
3.621181
  0
VERTEX
  8
PLAN_1
 62
     5
  6
CONTINUOUS
 10
-1.476051
 20
3.624453
  0
SEQEND
  8
0
  0
POLYLINE
  8
PLAN_1
 62
     5
  6
CONTINUOUS
 66
     1
 40
0.003000
 41
0.003000
  0
VERTEX
  8
PLAN_1
 62
     5
  6
CONTINUOUS
 10
-1.478232
 20
3.632630
  0
VERTEX
  8
PLAN_1
 62
     5
  6
CONTINUOUS
 10
-1.479866
 20
3.638626
  0
VERTEX
  8
PLAN_1
 62
     5
  6
CONTINUOUS
 10
-1.480957
 20
3.640260
  0
SEQEND
  8
0
  0
POLYLINE
  8
PLAN_1
 62
     5
  6
CONTINUOUS
 66
     1
 40
0.003000
 41
0.003000
  0
VERTEX
  8
PLAN_1
 62
     5
  6
CONTINUOUS
 10
-1.484228
 20
3.372638
  0
VERTEX
  8
PLAN_1
 62
     5
  6
CONTINUOUS
 10
-1.483138
 20
3.376453
  0
VERTEX
  8
PLAN_1
 62
     5
  6
CONTINUOUS
 10
-1.482047
 20
3.380815
  0
SEQEND
  8
0
  0
POLYLINE
  8
PLAN_1
 62
     5
  6
CONTINUOUS
 66
     1
 40
0.003000
 41
0.003000
  0
VERTEX
  8
PLAN_1
 62
     5
  6
CONTINUOUS
 10
-1.480413
 20
3.388445
  0
VERTEX
  8
PLAN_1
 62
     5
  6
CONTINUOUS
 10
-1.479323
 20
3.397165
  0
SEQEND
  8
0
  0
POLYLINE
  8
PLAN_1
 62
     5
  6
CONTINUOUS
 66
     1
 40
0.003000
 41
0.003000
  0
VERTEX
  8
PLAN_1
 62
     5
  6
CONTINUOUS
 10
-1.477685
 20
3.405343
  0
VERTEX
  8
PLAN_1
 62
     5
  6
CONTINUOUS
 10
-1.477142
 20
3.413516
  0
SEQEND
  8
0
  0
POLYLINE
  8
PLAN_1
 62
     5
  6
CONTINUOUS
 66
     1
 40
0.003000
 41
0.003000
  0
VERTEX
  8
PLAN_1
 62
     5
  6
CONTINUOUS
 10
-1.476051
 20
3.421693
  0
VERTEX
  8
PLAN_1
 62
     5
  6
CONTINUOUS
 10
-1.475508
 20
3.426598
  0
VERTEX
  8
PLAN_1
 62
     5
  6
CONTINUOUS
 10
-1.475508
 20
3.429870
  0
SEQEND
  8
0
  0
POLYLINE
  8
PLAN_1
 62
     5
  6
CONTINUOUS
 66
     1
 40
0.003000
 41
0.003000
  0
VERTEX
  8
PLAN_1
 62
     5
  6
CONTINUOUS
 10
-1.474417
 20
3.438043
  0
VERTEX
  8
PLAN_1
 62
     5
  6
CONTINUOUS
 10
-1.474417
 20
3.439134
  0
VERTEX
  8
PLAN_1
 62
     5
  6
CONTINUOUS
 10
-1.474417
 20
3.446764
  0
SEQEND
  8
0
  0
POLYLINE
  8
PLAN_1
 62
     5
  6
CONTINUOUS
 66
     1
 40
0.003000
 41
0.003000
  0
VERTEX
  8
PLAN_1
 62
     5
  6
CONTINUOUS
 10
-1.473870
 20
3.454941
  0
VERTEX
  8
PLAN_1
 62
     5
  6
CONTINUOUS
 10
-1.473870
 20
3.463118
  0
SEQEND
  8
0
  0
POLYLINE
  8
PLAN_1
 62
     5
  6
CONTINUOUS
 66
     1
 40
0.003000
 41
0.003000
  0
VERTEX
  8
PLAN_1
 62
     5
  6
CONTINUOUS
 10
-1.473870
 20
3.471839
  0
VERTEX
  8
PLAN_1
 62
     5
  6
CONTINUOUS
 10
-1.474417
 20
3.480016
  0
SEQEND
  8
0
  0
POLYLINE
  8
PLAN_1
 62
     5
  6
CONTINUOUS
 66
     1
 40
0.003000
 41
0.003000
  0
VERTEX
  8
PLAN_1
 62
     5
  6
CONTINUOUS
 10
-1.474961
 20
3.488189
  0
VERTEX
  8
PLAN_1
 62
     5
  6
CONTINUOUS
 10
-1.475508
 20
3.496366
  0
SEQEND
  8
0
  0
POLYLINE
  8
PLAN_1
 62
     5
  6
CONTINUOUS
 66
     1
 40
0.003000
 41
0.003000
  0
VERTEX
  8
PLAN_1
 62
     5
  6
CONTINUOUS
 10
-1.476594
 20
3.505087
  0
VERTEX
  8
PLAN_1
 62
     5
  6
CONTINUOUS
 10
-1.477142
 20
3.513264
  0
SEQEND
  8
0
  0
POLYLINE
  8
PLAN_1
 62
     5
  6
CONTINUOUS
 66
     1
 40
0.003000
 41
0.003000
  0
VERTEX
  8
PLAN_1
 62
     5
  6
CONTINUOUS
 10
-1.478776
 20
3.521437
  0
VERTEX
  8
PLAN_1
 62
     5
  6
CONTINUOUS
 10
-1.479866
 20
3.529614
  0
SEQEND
  8
0
  0
POLYLINE
  8
PLAN_1
 62
     5
  6
CONTINUOUS
 66
     1
 40
0.003000
 41
0.003000
  0
VERTEX
  8
PLAN_1
 62
     5
  6
CONTINUOUS
 10
-1.481500
 20
3.537791
  0
VERTEX
  8
PLAN_1
 62
     5
  6
CONTINUOUS
 10
-1.483138
 20
3.545965
  0
SEQEND
  8
0
  0
POLYLINE
  8
PLAN_1
  6
CONTINUOUS
 66
     1
 40
0.008173
 41
0.008173
  0
VERTEX
  8
PLAN_1
  6
CONTINUOUS
 10
-1.945886
 20
1.930972
  0
VERTEX
  8
PLAN_1
  6
CONTINUOUS
 10
-1.945886
 20
2.411165
  0
VERTEX
  8
PLAN_1
  6
CONTINUOUS
 10
-2.059803
 20
2.411165
  0
VERTEX
  8
PLAN_1
  6
CONTINUOUS
 10
-2.059803
 20
1.930972
  0
VERTEX
  8
PLAN_1
  6
CONTINUOUS
 10
-1.945886
 20
1.930972
  0
SEQEND
  8
0
  0
POLYLINE
  8
PLAN_1
  6
CONTINUOUS
 66
     1
 40
0.008173
 41
0.008173
  0
VERTEX
  8
PLAN_1
  6
CONTINUOUS
 10
-2.059260
 20
2.288528
  0
VERTEX
  8
PLAN_1
  6
CONTINUOUS
 10
-1.949157
 20
2.288528
  0
SEQEND
  8
0
  0
POLYLINE
  8
PLAN_1
  6
CONTINUOUS
 66
     1
 40
0.008173
 41
0.008173
  0
VERTEX
  8
PLAN_1
  6
CONTINUOUS
 10
-2.059260
 20
2.053063
  0
VERTEX
  8
PLAN_1
  6
CONTINUOUS
 10
-1.949157
 20
2.053063
  0
SEQEND
  8
0
  0
POLYLINE
  8
PLAN_1
  6
CONTINUOUS
 66
     1
 40
0.008173
 41
0.008173
  0
VERTEX
  8
PLAN_1
  6
CONTINUOUS
 10
-2.046177
 20
2.410618
  0
VERTEX
  8
PLAN_1
  6
CONTINUOUS
 10
-2.047268
 20
2.407894
  0
VERTEX
  8
PLAN_1
  6
CONTINUOUS
 10
-2.050535
 20
2.400264
  0
VERTEX
  8
PLAN_1
  6
CONTINUOUS
 10
-2.052717
 20
2.394268
  0
VERTEX
  8
PLAN_1
  6
CONTINUOUS
 10
-2.054354
 20
2.387728
  0
VERTEX
  8
PLAN_1
  6
CONTINUOUS
 10
-2.056531
 20
2.380642
  0
VERTEX
  8
PLAN_1
  6
CONTINUOUS
 10
-2.057622
 20
2.371921
  0
VERTEX
  8
PLAN_1
  6
CONTINUOUS
 10
-2.059260
 20
2.363201
  0
VERTEX
  8
PLAN_1
  6
CONTINUOUS
 10
-2.059803
 20
2.353390
  0
VERTEX
  8
PLAN_1
  6
CONTINUOUS
 10
-2.059803
 20
2.343579
  0
VERTEX
  8
PLAN_1
  6
CONTINUOUS
 10
-2.058713
 20
2.332677
  0
VERTEX
  8
PLAN_1
  6
CONTINUOUS
 10
-2.056531
 20
2.321776
  0
VERTEX
  8
PLAN_1
  6
CONTINUOUS
 10
-2.053807
 20
2.310874
  0
VERTEX
  8
PLAN_1
  6
CONTINUOUS
 10
-2.051626
 20
2.305425
  0
VERTEX
  8
PLAN_1
  6
CONTINUOUS
 10
-2.049449
 20
2.299429
  0
VERTEX
  8
PLAN_1
  6
CONTINUOUS
 10
-2.046720
 20
2.293980
  0
VERTEX
  8
PLAN_1
  6
CONTINUOUS
 10
-2.043453
 20
2.287984
  0
VERTEX
  8
PLAN_1
  6
CONTINUOUS
 10
-2.045087
 20
2.283622
  0
VERTEX
  8
PLAN_1
  6
CONTINUOUS
 10
-2.048358
 20
2.271087
  0
VERTEX
  8
PLAN_1
  6
CONTINUOUS
 10
-2.050535
 20
2.261819
  0
VERTEX
  8
PLAN_1
  6
CONTINUOUS
 10
-2.052717
 20
2.250917
  0
VERTEX
  8
PLAN_1
  6
CONTINUOUS
 10
-2.054898
 20
2.237839
  0
VERTEX
  8
PLAN_1
  6
CONTINUOUS
 10
-2.057079
 20
2.223122
  0
VERTEX
  8
PLAN_1
  6
CONTINUOUS
 10
-2.058169
 20
2.207315
  0
VERTEX
  8
PLAN_1
  6
CONTINUOUS
 10
-2.059260
 20
2.189327
  0
VERTEX
  8
PLAN_1
  6
CONTINUOUS
 10
-2.059803
 20
2.169705
  0
VERTEX
  8
PLAN_1
  6
CONTINUOUS
 10
-2.059260
 20
2.148996
  0
VERTEX
  8
PLAN_1
  6
CONTINUOUS
 10
-2.058169
 20
2.127193
  0
VERTEX
  8
PLAN_1
  6
CONTINUOUS
 10
-2.055441
 20
2.103756
  0
VERTEX
  8
PLAN_1
  6
CONTINUOUS
 10
-2.053807
 20
2.091220
  0
VERTEX
  8
PLAN_1
  6
CONTINUOUS
 10
-2.051626
 20
2.079228
  0
VERTEX
  8
PLAN_1
  6
CONTINUOUS
 10
-2.049449
 20
2.066146
  0
VERTEX
  8
PLAN_1
  6
CONTINUOUS
 10
-2.046720
 20
2.053063
  0
VERTEX
  8
PLAN_1
  6
CONTINUOUS
 10
-2.047811
 20
2.050339
  0
VERTEX
  8
PLAN_1
  6
CONTINUOUS
 10
-2.051083
 20
2.042709
  0
VERTEX
  8
PLAN_1
  6
CONTINUOUS
 10
-2.052717
 20
2.037260
  0
VERTEX
  8
PLAN_1
  6
CONTINUOUS
 10
-2.054898
 20
2.030717
  0
VERTEX
  8
PLAN_1
  6
CONTINUOUS
 10
-2.056531
 20
2.023634
  0
VERTEX
  8
PLAN_1
  6
CONTINUOUS
 10
-2.058169
 20
2.015457
  0
VERTEX
  8
PLAN_1
  6
CONTINUOUS
 10
-2.059260
 20
2.006736
  0
VERTEX
  8
PLAN_1
  6
CONTINUOUS
 10
-2.060346
 20
1.996925
  0
VERTEX
  8
PLAN_1
  6
CONTINUOUS
 10
-2.059803
 20
1.987114
  0
VERTEX
  8
PLAN_1
  6
CONTINUOUS
 10
-2.059260
 20
1.976756
  0
VERTEX
  8
PLAN_1
  6
CONTINUOUS
 10
-2.057079
 20
1.965858
  0
VERTEX
  8
PLAN_1
  6
CONTINUOUS
 10
-2.054354
 20
1.954957
  0
VERTEX
  8
PLAN_1
  6
CONTINUOUS
 10
-2.052173
 20
1.949504
  0
VERTEX
  8
PLAN_1
  6
CONTINUOUS
 10
-2.049992
 20
1.943508
  0
VERTEX
  8
PLAN_1
  6
CONTINUOUS
 10
-2.047268
 20
1.938059
  0
VERTEX
  8
PLAN_1
  6
CONTINUOUS
 10
-2.043996
 20
1.932063
  0
SEQEND
  8
0
  0
POLYLINE
  8
PLAN_1
  6
CONTINUOUS
 66
     1
 40
0.007083
 41
0.007083
  0
VERTEX
  8
PLAN_1
  6
CONTINUOUS
 10
-2.112673
 20
2.305969
  0
VERTEX
  8
PLAN_1
  6
CONTINUOUS
 10
-2.112673
 20
2.033445
  0
SEQEND
  8
0
  0
POLYLINE
  8
PLAN_1
  6
CONTINUOUS
 66
     1
 40
0.008173
 41
0.008173
  0
VERTEX
  8
PLAN_1
  6
CONTINUOUS
 10
-2.112673
 20
2.033445
  0
VERTEX
  8
PLAN_1
  6
CONTINUOUS
 10
-2.122484
 20
2.042709
  0
VERTEX
  8
PLAN_1
  6
CONTINUOUS
 10
-2.122484
 20
2.295614
  0
VERTEX
  8
PLAN_1
  6
CONTINUOUS
 10
-2.112673
 20
2.304878
  0
VERTEX
  8
PLAN_1
  6
CONTINUOUS
 10
-2.059803
 20
2.305969
  0
VERTEX
  8
PLAN_1
  6
CONTINUOUS
 10
-2.059803
 20
2.033445
  0
VERTEX
  8
PLAN_1
  6
CONTINUOUS
 10
-2.112673
 20
2.033445
  0
SEQEND
  8
0
  0
POLYLINE
  8
PLAN_1
  6
CONTINUOUS
 66
     1
 40
0.008173
 41
0.008173
  0
VERTEX
  8
PLAN_1
  6
CONTINUOUS
 10
-1.839602
 20
2.566504
  0
VERTEX
  8
PLAN_1
  6
CONTINUOUS
 10
-1.946976
 20
2.566504
  0
VERTEX
  8
PLAN_1
  6
CONTINUOUS
 10
-1.946976
 20
1.772909
  0
VERTEX
  8
PLAN_1
  6
CONTINUOUS
 10
-1.476594
 20
1.772909
  0
VERTEX
  8
PLAN_1
  6
CONTINUOUS
 10
-1.476594
 20
2.566504
  0
VERTEX
  8
PLAN_1
  6
CONTINUOUS
 10
-1.582335
 20
2.566504
  0
SEQEND
  8
0
  0
POLYLINE
  8
PLAN_1
  6
CONTINUOUS
 66
     1
 40
0.008173
 41
0.008173
  0
VERTEX
  8
PLAN_1
  6
CONTINUOUS
 10
-1.582335
 20
3.190591
  0
VERTEX
  8
PLAN_1
  6
CONTINUOUS
 10
-1.561626
 20
3.190591
  0
VERTEX
  8
PLAN_1
  6
CONTINUOUS
 10
-1.561626
 20
3.705665
  0
VERTEX
  8
PLAN_1
  6
CONTINUOUS
 10
-1.859768
 20
3.705665
  0
VERTEX
  8
PLAN_1
  6
CONTINUOUS
 10
-1.859768
 20
3.190591
  0
VERTEX
  8
PLAN_1
  6
CONTINUOUS
 10
-1.839602
 20
3.190591
  0
SEQEND
  8
0
  0
POLYLINE
  8
PLAN_1
  6
CONTINUOUS
 66
     1
 40
0.008173
 41
0.008173
  0
VERTEX
  8
PLAN_1
  6
CONTINUOUS
 10
-1.839602
 20
2.566504
  0
VERTEX
  8
PLAN_1
  6
CONTINUOUS
 10
-1.839602
 20
2.403535
  0
SEQEND
  8
0
  0
POLYLINE
  8
PLAN_1
  6
CONTINUOUS
 66
     1
 40
0.008173
 41
0.008173
  0
VERTEX
  8
PLAN_1
  6
CONTINUOUS
 10
-1.839602
 20
2.566504
  0
VERTEX
  8
PLAN_1
  6
CONTINUOUS
 10
-1.839602
 20
3.190591
  0
SEQEND
  8
0
  0
POLYLINE
  8
PLAN_1
  6
CONTINUOUS
 66
     1
 40
0.008173
 41
0.008173
  0
VERTEX
  8
PLAN_1
  6
CONTINUOUS
 10
-1.839602
 20
3.317043
  0
VERTEX
  8
PLAN_1
  6
CONTINUOUS
 10
-1.839602
 20
3.190591
  0
SEQEND
  8
0
  0
POLYLINE
  8
PLAN_1
  6
CONTINUOUS
 66
     1
 40
0.008173
 41
0.008173
  0
VERTEX
  8
PLAN_1
  6
CONTINUOUS
 10
-1.582335
 20
2.403535
  0
VERTEX
  8
PLAN_1
  6
CONTINUOUS
 10
-1.582335
 20
2.566504
  0
SEQEND
  8
0
  0
POLYLINE
  8
PLAN_1
  6
CONTINUOUS
 66
     1
 40
0.008173
 41
0.008173
  0
VERTEX
  8
PLAN_1
  6
CONTINUOUS
 10
-1.582335
 20
3.190591
  0
VERTEX
  8
PLAN_1
  6
CONTINUOUS
 10
-1.582335
 20
3.317043
  0
SEQEND
  8
0
  0
POLYLINE
  8
PLAN_1
  6
CONTINUOUS
 66
     1
 40
0.008173
 41
0.008173
  0
VERTEX
  8
PLAN_1
  6
CONTINUOUS
 10
-1.582335
 20
2.566504
  0
VERTEX
  8
PLAN_1
  6
CONTINUOUS
 10
-1.582335
 20
3.190591
  0
SEQEND
  8
0
  0
POLYLINE
  8
PLAN_1
  6
CONTINUOUS
 66
     1
 40
0.004358
 41
0.004358
  0
VERTEX
  8
PLAN_1
  6
CONTINUOUS
 10
-2.046720
 20
3.519803
  0
VERTEX
  8
PLAN_1
  6
CONTINUOUS
 10
-2.046720
 20
4.013075
  0
SEQEND
  8
0
  0
POLYLINE
  8
PLAN_1
 62
     2
  6
CONTINUOUS
 66
     1
 40
0.004358
 41
0.004358
  0
VERTEX
  8
PLAN_1
 62
     2
  6
CONTINUOUS
 10
-0.639394
 20
-2.173276
  0
VERTEX
  8
PLAN_1
 62
     2
  6
CONTINUOUS
 10
0.323169
 20
-2.173276
  0
SEQEND
  8
0
  0
SOLID
  8
PLAN_1
 62
     2
 10
0.353146
 20
-2.173276
 11
0.293736
 21
-2.157469
 12
0.353146
 22
-2.173276
 13
0.293736
 23
-2.189083
  0
POLYLINE
  8
PLAN_1
 62
     2
  6
CONTINUOUS
 66
     1
 40
0.003000
 41
0.003000
  0
VERTEX
  8
PLAN_1
 62
     2
  6
CONTINUOUS
 10
0.353146
 20
-2.173276
  0
VERTEX
  8
PLAN_1
 62
     2
  6
CONTINUOUS
 10
0.293736
 20
-2.157469
  0
VERTEX
  8
PLAN_1
 62
     2
  6
CONTINUOUS
 10
0.293736
 20
-2.189083
  0
VERTEX
  8
PLAN_1
 62
     2
  6
CONTINUOUS
 10
0.353146
 20
-2.173276
  0
SEQEND
  8
0
  0
SOLID
  8
PLAN_1
 62
     2
 10
-0.668827
 20
-2.173276
 11
-0.609961
 21
-2.157469
 12
-0.668827
 22
-2.173276
 13
-0.609961
 23
-2.189083
  0
POLYLINE
  8
PLAN_1
 62
     2
  6
CONTINUOUS
 66
     1
 40
0.003000
 41
0.003000
  0
VERTEX
  8
PLAN_1
 62
     2
  6
CONTINUOUS
 10
-0.668827
 20
-2.173276
  0
VERTEX
  8
PLAN_1
 62
     2
  6
CONTINUOUS
 10
-0.609961
 20
-2.157469
  0
VERTEX
  8
PLAN_1
 62
     2
  6
CONTINUOUS
 10
-0.609961
 20
-2.189083
  0
VERTEX
  8
PLAN_1
 62
     2
  6
CONTINUOUS
 10
-0.668827
 20
-2.173276
  0
SEQEND
  8
0
  0
POLYLINE
  8
PLAN_1
 62
     2
  6
CONTINUOUS
 66
     1
 40
0.003000
 41
0.003000
  0
VERTEX
  8
PLAN_1
 62
     2
  6
CONTINUOUS
 10
-0.230606
 20
-2.102965
  0
VERTEX
  8
PLAN_1
 62
     2
  6
CONTINUOUS
 10
-0.230606
 20
-2.098606
  0
VERTEX
  8
PLAN_1
 62
     2
  6
CONTINUOUS
 10
-0.229516
 20
-2.094787
  0
VERTEX
  8
PLAN_1
 62
     2
  6
CONTINUOUS
 10
-0.228969
 20
-2.091520
  0
VERTEX
  8
PLAN_1
 62
     2
  6
CONTINUOUS
 10
-0.227878
 20
-2.088795
  0
VERTEX
  8
PLAN_1
 62
     2
  6
CONTINUOUS
 10
-0.226244
 20
-2.086067
  0
VERTEX
  8
PLAN_1
 62
     2
  6
CONTINUOUS
 10
-0.224610
 20
-2.083890
  0
VERTEX
  8
PLAN_1
 62
     2
  6
CONTINUOUS
 10
-0.222972
 20
-2.082252
  0
VERTEX
  8
PLAN_1
 62
     2
  6
CONTINUOUS
 10
-0.220795
 20
-2.080618
  0
VERTEX
  8
PLAN_1
 62
     2
  6
CONTINUOUS
 10
-0.216980
 20
-2.078437
  0
VERTEX
  8
PLAN_1
 62
     2
  6
CONTINUOUS
 10
-0.212618
 20
-2.077346
  0
VERTEX
  8
PLAN_1
 62
     2
  6
CONTINUOUS
 10
-0.208803
 20
-2.076803
  0
VERTEX
  8
PLAN_1
 62
     2
  6
CONTINUOUS
 10
-0.205531
 20
-2.076803
  0
VERTEX
  8
PLAN_1
 62
     2
  6
CONTINUOUS
 10
-0.200626
 20
-2.076803
  0
VERTEX
  8
PLAN_1
 62
     2
  6
CONTINUOUS
 10
-0.196268
 20
-2.077894
  0
VERTEX
  8
PLAN_1
 62
     2
  6
CONTINUOUS
 10
-0.192453
 20
-2.080071
  0
VERTEX
  8
PLAN_1
 62
     2
  6
CONTINUOUS
 10
-0.189181
 20
-2.082252
  0
VERTEX
  8
PLAN_1
 62
     2
  6
CONTINUOUS
 10
-0.186457
 20
-2.085524
  0
VERTEX
  8
PLAN_1
 62
     2
  6
CONTINUOUS
 10
-0.184276
 20
-2.089339
  0
VERTEX
  8
PLAN_1
 62
     2
  6
CONTINUOUS
 10
-0.182642
 20
-2.093701
  0
VERTEX
  8
PLAN_1
 62
     2
  6
CONTINUOUS
 10
-0.182642
 20
-2.098606
  0
VERTEX
  8
PLAN_1
 62
     2
  6
CONTINUOUS
 10
-0.182642
 20
-2.102965
  0
VERTEX
  8
PLAN_1
 62
     2
  6
CONTINUOUS
 10
-0.183728
 20
-2.106780
  0
VERTEX
  8
PLAN_1
 62
     2
  6
CONTINUOUS
 10
-0.185909
 20
-2.110594
  0
VERTEX
  8
PLAN_1
 62
     2
  6
CONTINUOUS
 10
-0.188091
 20
-2.113323
  0
VERTEX
  8
PLAN_1
 62
     2
  6
CONTINUOUS
 10
-0.190815
 20
-2.116047
  0
VERTEX
  8
PLAN_1
 62
     2
  6
CONTINUOUS
 10
-0.194087
 20
-2.118228
  0
VERTEX
  8
PLAN_1
 62
     2
  6
CONTINUOUS
 10
-0.197902
 20
-2.120406
  0
VERTEX
  8
PLAN_1
 62
     2
  6
CONTINUOUS
 10
-0.201717
 20
-2.122587
  0
VERTEX
  8
PLAN_1
 62
     2
  6
CONTINUOUS
 10
-0.209346
 20
-2.126949
  0
VERTEX
  8
PLAN_1
 62
     2
  6
CONTINUOUS
 10
-0.213161
 20
-2.129126
  0
VERTEX
  8
PLAN_1
 62
     2
  6
CONTINUOUS
 10
-0.215890
 20
-2.131307
  0
VERTEX
  8
PLAN_1
 62
     2
  6
CONTINUOUS
 10
-0.217524
 20
-2.132945
  0
VERTEX
  8
PLAN_1
 62
     2
  6
CONTINUOUS
 10
-0.219157
 20
-2.135122
  0
VERTEX
  8
PLAN_1
 62
     2
  6
CONTINUOUS
 10
-0.220795
 20
-2.136760
  0
VERTEX
  8
PLAN_1
 62
     2
  6
CONTINUOUS
 10
-0.221339
 20
-2.138394
  0
VERTEX
  8
PLAN_1
 62
     2
  6
CONTINUOUS
 10
-0.221886
 20
-2.140028
  0
VERTEX
  8
PLAN_1
 62
     2
  6
CONTINUOUS
 10
-0.221886
 20
-2.141118
  0
VERTEX
  8
PLAN_1
 62
     2
  6
CONTINUOUS
 10
-0.182642
 20
-2.141118
  0
VERTEX
  8
PLAN_1
 62
     2
  6
CONTINUOUS
 10
-0.182642
 20
-2.149839
  0
VERTEX
  8
PLAN_1
 62
     2
  6
CONTINUOUS
 10
-0.232240
 20
-2.149839
  0
VERTEX
  8
PLAN_1
 62
     2
  6
CONTINUOUS
 10
-0.231693
 20
-2.144390
  0
VERTEX
  8
PLAN_1
 62
     2
  6
CONTINUOUS
 10
-0.231150
 20
-2.139484
  0
VERTEX
  8
PLAN_1
 62
     2
  6
CONTINUOUS
 10
-0.229516
 20
-2.135122
  0
VERTEX
  8
PLAN_1
 62
     2
  6
CONTINUOUS
 10
-0.227335
 20
-2.131854
  0
VERTEX
  8
PLAN_1
 62
     2
  6
CONTINUOUS
 10
-0.224610
 20
-2.128583
  0
VERTEX
  8
PLAN_1
 62
     2
  6
CONTINUOUS
 10
-0.221886
 20
-2.125311
  0
VERTEX
  8
PLAN_1
 62
     2
  6
CONTINUOUS
 10
-0.218614
 20
-2.123134
  0
VERTEX
  8
PLAN_1
 62
     2
  6
CONTINUOUS
 10
-0.215343
 20
-2.120406
  0
VERTEX
  8
PLAN_1
 62
     2
  6
CONTINUOUS
 10
-0.205531
 20
-2.114957
  0
VERTEX
  8
PLAN_1
 62
     2
  6
CONTINUOUS
 10
-0.202807
 20
-2.113323
  0
VERTEX
  8
PLAN_1
 62
     2
  6
CONTINUOUS
 10
-0.200083
 20
-2.111685
  0
VERTEX
  8
PLAN_1
 62
     2
  6
CONTINUOUS
 10
-0.197902
 20
-2.110051
  0
VERTEX
  8
PLAN_1
 62
     2
  6
CONTINUOUS
 10
-0.195720
 20
-2.108417
  0
VERTEX
  8
PLAN_1
 62
     2
  6
CONTINUOUS
 10
-0.194087
 20
-2.106236
  0
VERTEX
  8
PLAN_1
 62
     2
  6
CONTINUOUS
 10
-0.192996
 20
-2.104055
  0
VERTEX
  8
PLAN_1
 62
     2
  6
CONTINUOUS
 10
-0.192453
 20
-2.101331
  0
VERTEX
  8
PLAN_1
 62
     2
  6
CONTINUOUS
 10
-0.191906
 20
-2.098059
  0
VERTEX
  8
PLAN_1
 62
     2
  6
CONTINUOUS
 10
-0.192453
 20
-2.095878
  0
VERTEX
  8
PLAN_1
 62
     2
  6
CONTINUOUS
 10
-0.192996
 20
-2.093701
  0
VERTEX
  8
PLAN_1
 62
     2
  6
CONTINUOUS
 10
-0.194087
 20
-2.091520
  0
VERTEX
  8
PLAN_1
 62
     2
  6
CONTINUOUS
 10
-0.195177
 20
-2.089339
  0
VERTEX
  8
PLAN_1
 62
     2
  6
CONTINUOUS
 10
-0.197358
 20
-2.087157
  0
VERTEX
  8
PLAN_1
 62
     2
  6
CONTINUOUS
 10
-0.200083
 20
-2.086067
  0
VERTEX
  8
PLAN_1
 62
     2
  6
CONTINUOUS
 10
-0.202807
 20
-2.084976
  0
VERTEX
  8
PLAN_1
 62
     2
  6
CONTINUOUS
 10
-0.206622
 20
-2.084976
  0
VERTEX
  8
PLAN_1
 62
     2
  6
CONTINUOUS
 10
-0.208803
 20
-2.084976
  0
VERTEX
  8
PLAN_1
 62
     2
  6
CONTINUOUS
 10
-0.210984
 20
-2.085524
  0
VERTEX
  8
PLAN_1
 62
     2
  6
CONTINUOUS
 10
-0.213161
 20
-2.086067
  0
VERTEX
  8
PLAN_1
 62
     2
  6
CONTINUOUS
 10
-0.214799
 20
-2.086614
  0
VERTEX
  8
PLAN_1
 62
     2
  6
CONTINUOUS
 10
-0.217524
 20
-2.089339
  0
VERTEX
  8
PLAN_1
 62
     2
  6
CONTINUOUS
 10
-0.219157
 20
-2.092063
  0
VERTEX
  8
PLAN_1
 62
     2
  6
CONTINUOUS
 10
-0.220248
 20
-2.094787
  0
VERTEX
  8
PLAN_1
 62
     2
  6
CONTINUOUS
 10
-0.220795
 20
-2.098059
  0
VERTEX
  8
PLAN_1
 62
     2
  6
CONTINUOUS
 10
-0.221339
 20
-2.100783
  0
VERTEX
  8
PLAN_1
 62
     2
  6
CONTINUOUS
 10
-0.221339
 20
-2.102965
  0
VERTEX
  8
PLAN_1
 62
     2
  6
CONTINUOUS
 10
-0.230606
 20
-2.102965
  0
SEQEND
  8
0
  0
POLYLINE
  8
PLAN_1
 62
     2
  6
CONTINUOUS
 66
     1
 40
0.003000
 41
0.003000
  0
VERTEX
  8
PLAN_1
 62
     2
  6
CONTINUOUS
 10
-0.161929
 20
-2.107327
  0
VERTEX
  8
PLAN_1
 62
     2
  6
CONTINUOUS
 10
-0.160839
 20
-2.106236
  0
VERTEX
  8
PLAN_1
 62
     2
  6
CONTINUOUS
 10
-0.159205
 20
-2.105689
  0
VERTEX
  8
PLAN_1
 62
     2
  6
CONTINUOUS
 10
-0.157567
 20
-2.104598
  0
VERTEX
  8
PLAN_1
 62
     2
  6
CONTINUOUS
 10
-0.155933
 20
-2.104055
  0
VERTEX
  8
PLAN_1
 62
     2
  6
CONTINUOUS
 10
-0.154299
 20
-2.103512
  0
VERTEX
  8
PLAN_1
 62
     2
  6
CONTINUOUS
 10
-0.152118
 20
-2.102965
  0
VERTEX
  8
PLAN_1
 62
     2
  6
CONTINUOUS
 10
-0.149937
 20
-2.102421
  0
VERTEX
  8
PLAN_1
 62
     2
  6
CONTINUOUS
 10
-0.147756
 20
-2.102421
  0
VERTEX
  8
PLAN_1
 62
     2
  6
CONTINUOUS
 10
-0.143398
 20
-2.102965
  0
VERTEX
  8
PLAN_1
 62
     2
  6
CONTINUOUS
 10
-0.139035
 20
-2.104055
  0
VERTEX
  8
PLAN_1
 62
     2
  6
CONTINUOUS
 10
-0.135220
 20
-2.106236
  0
VERTEX
  8
PLAN_1
 62
     2
  6
CONTINUOUS
 10
-0.131406
 20
-2.108417
  0
VERTEX
  8
PLAN_1
 62
     2
  6
CONTINUOUS
 10
-0.128134
 20
-2.111685
  0
VERTEX
  8
PLAN_1
 62
     2
  6
CONTINUOUS
 10
-0.125953
 20
-2.116047
  0
VERTEX
  8
PLAN_1
 62
     2
  6
CONTINUOUS
 10
-0.124866
 20
-2.118228
  0
VERTEX
  8
PLAN_1
 62
     2
  6
CONTINUOUS
 10
-0.124319
 20
-2.120406
  0
VERTEX
  8
PLAN_1
 62
     2
  6
CONTINUOUS
 10
-0.123776
 20
-2.123134
  0
VERTEX
  8
PLAN_1
 62
     2
  6
CONTINUOUS
 10
-0.123776
 20
-2.125858
  0
VERTEX
  8
PLAN_1
 62
     2
  6
CONTINUOUS
 10
-0.123776
 20
-2.129673
  0
VERTEX
  8
PLAN_1
 62
     2
  6
CONTINUOUS
 10
-0.124866
 20
-2.133488
  0
VERTEX
  8
PLAN_1
 62
     2
  6
CONTINUOUS
 10
-0.125953
 20
-2.137850
  0
VERTEX
  8
PLAN_1
 62
     2
  6
CONTINUOUS
 10
-0.128681
 20
-2.141665
  0
VERTEX
  8
PLAN_1
 62
     2
  6
CONTINUOUS
 10
-0.129772
 20
-2.143843
  0
VERTEX
  8
PLAN_1
 62
     2
  6
CONTINUOUS
 10
-0.131949
 20
-2.145480
  0
VERTEX
  8
PLAN_1
 62
     2
  6
CONTINUOUS
 10
-0.134130
 20
-2.147114
  0
VERTEX
  8
PLAN_1
 62
     2
  6
CONTINUOUS
 10
-0.136311
 20
-2.148748
  0
VERTEX
  8
PLAN_1
 62
     2
  6
CONTINUOUS
 10
-0.139583
 20
-2.149839
  0
VERTEX
  8
PLAN_1
 62
     2
  6
CONTINUOUS
 10
-0.142307
 20
-2.150929
  0
VERTEX
  8
PLAN_1
 62
     2
  6
CONTINUOUS
 10
-0.146122
 20
-2.151476
  0
VERTEX
  8
PLAN_1
 62
     2
  6
CONTINUOUS
 10
-0.150480
 20
-2.151476
  0
VERTEX
  8
PLAN_1
 62
     2
  6
CONTINUOUS
 10
-0.153752
 20
-2.151476
  0
VERTEX
  8
PLAN_1
 62
     2
  6
CONTINUOUS
 10
-0.157567
 20
-2.150929
  0
VERTEX
  8
PLAN_1
 62
     2
  6
CONTINUOUS
 10
-0.161382
 20
-2.149839
  0
VERTEX
  8
PLAN_1
 62
     2
  6
CONTINUOUS
 10
-0.165197
 20
-2.147657
  0
VERTEX
  8
PLAN_1
 62
     2
  6
CONTINUOUS
 10
-0.167925
 20
-2.144933
  0
VERTEX
  8
PLAN_1
 62
     2
  6
CONTINUOUS
 10
-0.170650
 20
-2.141665
  0
VERTEX
  8
PLAN_1
 62
     2
  6
CONTINUOUS
 10
-0.171740
 20
-2.139484
  0
VERTEX
  8
PLAN_1
 62
     2
  6
CONTINUOUS
 10
-0.172831
 20
-2.137303
  0
VERTEX
  8
PLAN_1
 62
     2
  6
CONTINUOUS
 10
-0.173374
 20
-2.134579
  0
VERTEX
  8
PLAN_1
 62
     2
  6
CONTINUOUS
 10
-0.173917
 20
-2.131307
  0
VERTEX
  8
PLAN_1
 62
     2
  6
CONTINUOUS
 10
-0.164654
 20
-2.131307
  0
VERTEX
  8
PLAN_1
 62
     2
  6
CONTINUOUS
 10
-0.164106
 20
-2.134579
  0
VERTEX
  8
PLAN_1
 62
     2
  6
CONTINUOUS
 10
-0.163020
 20
-2.136760
  0
VERTEX
  8
PLAN_1
 62
     2
  6
CONTINUOUS
 10
-0.161382
 20
-2.138937
  0
VERTEX
  8
PLAN_1
 62
     2
  6
CONTINUOUS
 10
-0.159205
 20
-2.140575
  0
VERTEX
  8
PLAN_1
 62
     2
  6
CONTINUOUS
 10
-0.157024
 20
-2.142209
  0
VERTEX
  8
PLAN_1
 62
     2
  6
CONTINUOUS
 10
-0.154843
 20
-2.143299
  0
VERTEX
  8
PLAN_1
 62
     2
  6
CONTINUOUS
 10
-0.152118
 20
-2.143843
  0
VERTEX
  8
PLAN_1
 62
     2
  6
CONTINUOUS
 10
-0.148846
 20
-2.143843
  0
VERTEX
  8
PLAN_1
 62
     2
  6
CONTINUOUS
 10
-0.145575
 20
-2.143299
  0
VERTEX
  8
PLAN_1
 62
     2
  6
CONTINUOUS
 10
-0.142307
 20
-2.142209
  0
VERTEX
  8
PLAN_1
 62
     2
  6
CONTINUOUS
 10
-0.140126
 20
-2.141118
  0
VERTEX
  8
PLAN_1
 62
     2
  6
CONTINUOUS
 10
-0.137945
 20
-2.138937
  0
VERTEX
  8
PLAN_1
 62
     2
  6
CONTINUOUS
 10
-0.135764
 20
-2.136213
  0
VERTEX
  8
PLAN_1
 62
     2
  6
CONTINUOUS
 10
-0.134677
 20
-2.133488
  0
VERTEX
  8
PLAN_1
 62
     2
  6
CONTINUOUS
 10
-0.133587
 20
-2.130217
  0
VERTEX
  8
PLAN_1
 62
     2
  6
CONTINUOUS
 10
-0.133587
 20
-2.126949
  0
VERTEX
  8
PLAN_1
 62
     2
  6
CONTINUOUS
 10
-0.134130
 20
-2.123134
  0
VERTEX
  8
PLAN_1
 62
     2
  6
CONTINUOUS
 10
-0.134677
 20
-2.119862
  0
VERTEX
  8
PLAN_1
 62
     2
  6
CONTINUOUS
 10
-0.136311
 20
-2.117138
  0
VERTEX
  8
PLAN_1
 62
     2
  6
CONTINUOUS
 10
-0.138492
 20
-2.114957
  0
VERTEX
  8
PLAN_1
 62
     2
  6
CONTINUOUS
 10
-0.140669
 20
-2.113323
  0
VERTEX
  8
PLAN_1
 62
     2
  6
CONTINUOUS
 10
-0.143398
 20
-2.111685
  0
VERTEX
  8
PLAN_1
 62
     2
  6
CONTINUOUS
 10
-0.146665
 20
-2.111142
  0
VERTEX
  8
PLAN_1
 62
     2
  6
CONTINUOUS
 10
-0.149937
 20
-2.110594
  0
VERTEX
  8
PLAN_1
 62
     2
  6
CONTINUOUS
 10
-0.151571
 20
-2.111142
  0
VERTEX
  8
PLAN_1
 62
     2
  6
CONTINUOUS
 10
-0.153752
 20
-2.111142
  0
VERTEX
  8
PLAN_1
 62
     2
  6
CONTINUOUS
 10
-0.155386
 20
-2.111685
  0
VERTEX
  8
PLAN_1
 62
     2
  6
CONTINUOUS
 10
-0.157024
 20
-2.112776
  0
VERTEX
  8
PLAN_1
 62
     2
  6
CONTINUOUS
 10
-0.158657
 20
-2.113866
  0
VERTEX
  8
PLAN_1
 62
     2
  6
CONTINUOUS
 10
-0.160291
 20
-2.114957
  0
VERTEX
  8
PLAN_1
 62
     2
  6
CONTINUOUS
 10
-0.161929
 20
-2.116047
  0
VERTEX
  8
PLAN_1
 62
     2
  6
CONTINUOUS
 10
-0.163020
 20
-2.117681
  0
VERTEX
  8
PLAN_1
 62
     2
  6
CONTINUOUS
 10
-0.171193
 20
-2.117138
  0
VERTEX
  8
PLAN_1
 62
     2
  6
CONTINUOUS
 10
-0.165744
 20
-2.077894
  0
VERTEX
  8
PLAN_1
 62
     2
  6
CONTINUOUS
 10
-0.127591
 20
-2.077894
  0
VERTEX
  8
PLAN_1
 62
     2
  6
CONTINUOUS
 10
-0.127591
 20
-2.087157
  0
VERTEX
  8
PLAN_1
 62
     2
  6
CONTINUOUS
 10
-0.158657
 20
-2.087157
  0
VERTEX
  8
PLAN_1
 62
     2
  6
CONTINUOUS
 10
-0.161929
 20
-2.107327
  0
SEQEND
  8
0
  0
POLYLINE
  8
PLAN_1
 62
     2
  6
CONTINUOUS
 66
     1
 40
0.004358
 41
0.004358
  0
VERTEX
  8
PLAN_1
 62
     2
  6
CONTINUOUS
 10
-2.248937
 20
-2.330795
  0
VERTEX
  8
PLAN_1
 62
     2
  6
CONTINUOUS
 10
0.323169
 20
-2.330795
  0
SEQEND
  8
0
  0
SOLID
  8
PLAN_1
 62
     2
 10
0.353146
 20
-2.330795
 11
0.293736
 21
-2.314992
 12
0.353146
 22
-2.330795
 13
0.293736
 23
-2.346602
  0
POLYLINE
  8
PLAN_1
 62
     2
  6
CONTINUOUS
 66
     1
 40
0.003000
 41
0.003000
  0
VERTEX
  8
PLAN_1
 62
     2
  6
CONTINUOUS
 10
0.353146
 20
-2.330795
  0
VERTEX
  8
PLAN_1
 62
     2
  6
CONTINUOUS
 10
0.293736
 20
-2.314992
  0
VERTEX
  8
PLAN_1
 62
     2
  6
CONTINUOUS
 10
0.293736
 20
-2.346602
  0
VERTEX
  8
PLAN_1
 62
     2
  6
CONTINUOUS
 10
0.353146
 20
-2.330795
  0
SEQEND
  8
0
  0
SOLID
  8
PLAN_1
 62
     2
 10
-2.278913
 20
-2.330795
 11
-2.219504
 21
-2.314992
 12
-2.278913
 22
-2.330795
 13
-2.219504
 23
-2.346602
  0
POLYLINE
  8
PLAN_1
 62
     2
  6
CONTINUOUS
 66
     1
 40
0.003000
 41
0.003000
  0
VERTEX
  8
PLAN_1
 62
     2
  6
CONTINUOUS
 10
-2.278913
 20
-2.330795
  0
VERTEX
  8
PLAN_1
 62
     2
  6
CONTINUOUS
 10
-2.219504
 20
-2.314992
  0
VERTEX
  8
PLAN_1
 62
     2
  6
CONTINUOUS
 10
-2.219504
 20
-2.346602
  0
VERTEX
  8
PLAN_1
 62
     2
  6
CONTINUOUS
 10
-2.278913
 20
-2.330795
  0
SEQEND
  8
0
  0
POLYLINE
  8
PLAN_1
 62
     2
  6
CONTINUOUS
 66
     1
 40
0.003000
 41
0.003000
  0
VERTEX
  8
PLAN_1
 62
     2
  6
CONTINUOUS
 10
-0.996406
 20
-2.253402
  0
VERTEX
  8
PLAN_1
 62
     2
  6
CONTINUOUS
 10
-0.996949
 20
-2.251220
  0
VERTEX
  8
PLAN_1
 62
     2
  6
CONTINUOUS
 10
-0.998039
 20
-2.249039
  0
VERTEX
  8
PLAN_1
 62
     2
  6
CONTINUOUS
 10
-0.999130
 20
-2.246858
  0
VERTEX
  8
PLAN_1
 62
     2
  6
CONTINUOUS
 10
-1.000220
 20
-2.245224
  0
VERTEX
  8
PLAN_1
 62
     2
  6
CONTINUOUS
 10
-1.001854
 20
-2.244134
  0
VERTEX
  8
PLAN_1
 62
     2
  6
CONTINUOUS
 10
-1.004035
 20
-2.243043
  0
VERTEX
  8
PLAN_1
 62
     2
  6
CONTINUOUS
 10
-1.006217
 20
-2.242500
  0
VERTEX
  8
PLAN_1
 62
     2
  6
CONTINUOUS
 10
-1.008941
 20
-2.241953
  0
VERTEX
  8
PLAN_1
 62
     2
  6
CONTINUOUS
 10
-1.011665
 20
-2.242500
  0
VERTEX
  8
PLAN_1
 62
     2
  6
CONTINUOUS
 10
-1.013846
 20
-2.243043
  0
VERTEX
  8
PLAN_1
 62
     2
  6
CONTINUOUS
 10
-1.016028
 20
-2.244134
  0
VERTEX
  8
PLAN_1
 62
     2
  6
CONTINUOUS
 10
-1.017661
 20
-2.245224
  0
VERTEX
  8
PLAN_1
 62
     2
  6
CONTINUOUS
 10
-1.020933
 20
-2.248496
  0
VERTEX
  8
PLAN_1
 62
     2
  6
CONTINUOUS
 10
-1.023110
 20
-2.252854
  0
VERTEX
  8
PLAN_1
 62
     2
  6
CONTINUOUS
 10
-1.024748
 20
-2.257217
  0
VERTEX
  8
PLAN_1
 62
     2
  6
CONTINUOUS
 10
-1.025839
 20
-2.261575
  0
VERTEX
  8
PLAN_1
 62
     2
  6
CONTINUOUS
 10
-1.026382
 20
-2.265937
  0
VERTEX
  8
PLAN_1
 62
     2
  6
CONTINUOUS
 10
-1.026382
 20
-2.269205
  0
VERTEX
  8
PLAN_1
 62
     2
  6
CONTINUOUS
 10
-1.025291
 20
-2.268114
  0
VERTEX
  8
PLAN_1
 62
     2
  6
CONTINUOUS
 10
-1.024201
 20
-2.266480
  0
VERTEX
  8
PLAN_1
 62
     2
  6
CONTINUOUS
 10
-1.022567
 20
-2.264846
  0
VERTEX
  8
PLAN_1
 62
     2
  6
CONTINUOUS
 10
-1.020386
 20
-2.263756
  0
VERTEX
  8
PLAN_1
 62
     2
  6
CONTINUOUS
 10
-1.018205
 20
-2.262122
  0
VERTEX
  8
PLAN_1
 62
     2
  6
CONTINUOUS
 10
-1.015480
 20
-2.261575
  0
VERTEX
  8
PLAN_1
 62
     2
  6
CONTINUOUS
 10
-1.012213
 20
-2.260484
  0
VERTEX
  8
PLAN_1
 62
     2
  6
CONTINUOUS
 10
-1.008941
 20
-2.260484
  0
VERTEX
  8
PLAN_1
 62
     2
  6
CONTINUOUS
 10
-1.005126
 20
-2.261031
  0
VERTEX
  8
PLAN_1
 62
     2
  6
CONTINUOUS
 10
-1.001311
 20
-2.261575
  0
VERTEX
  8
PLAN_1
 62
     2
  6
CONTINUOUS
 10
-0.997496
 20
-2.263213
  0
VERTEX
  8
PLAN_1
 62
     2
  6
CONTINUOUS
 10
-0.994224
 20
-2.265390
  0
VERTEX
  8
PLAN_1
 62
     2
  6
CONTINUOUS
 10
-0.990953
 20
-2.268661
  0
VERTEX
  8
PLAN_1
 62
     2
  6
CONTINUOUS
 10
-0.988228
 20
-2.272476
  0
VERTEX
  8
PLAN_1
 62
     2
  6
CONTINUOUS
 10
-0.987138
 20
-2.275201
  0
VERTEX
  8
PLAN_1
 62
     2
  6
CONTINUOUS
 10
-0.986594
 20
-2.277925
  0
VERTEX
  8
PLAN_1
 62
     2
  6
CONTINUOUS
 10
-0.986047
 20
-2.280654
  0
VERTEX
  8
PLAN_1
 62
     2
  6
CONTINUOUS
 10
-0.986047
 20
-2.283921
  0
VERTEX
  8
PLAN_1
 62
     2
  6
CONTINUOUS
 10
-0.986047
 20
-2.286650
  0
VERTEX
  8
PLAN_1
 62
     2
  6
CONTINUOUS
 10
-0.986594
 20
-2.288827
  0
VERTEX
  8
PLAN_1
 62
     2
  6
CONTINUOUS
 10
-0.987138
 20
-2.291555
  0
VERTEX
  8
PLAN_1
 62
     2
  6
CONTINUOUS
 10
-0.987685
 20
-2.293732
  0
VERTEX
  8
PLAN_1
 62
     2
  6
CONTINUOUS
 10
-0.988772
 20
-2.295913
  0
VERTEX
  8
PLAN_1
 62
     2
  6
CONTINUOUS
 10
-0.989862
 20
-2.298094
  0
VERTEX
  8
PLAN_1
 62
     2
  6
CONTINUOUS
 10
-0.991500
 20
-2.300276
  0
VERTEX
  8
PLAN_1
 62
     2
  6
CONTINUOUS
 10
-0.993134
 20
-2.301909
  0
VERTEX
  8
PLAN_1
 62
     2
  6
CONTINUOUS
 10
-0.994224
 20
-2.303543
  0
VERTEX
  8
PLAN_1
 62
     2
  6
CONTINUOUS
 10
-0.995858
 20
-2.305181
  0
VERTEX
  8
PLAN_1
 62
     2
  6
CONTINUOUS
 10
-0.998039
 20
-2.306272
  0
VERTEX
  8
PLAN_1
 62
     2
  6
CONTINUOUS
 10
-0.999673
 20
-2.307358
  0
VERTEX
  8
PLAN_1
 62
     2
  6
CONTINUOUS
 10
-1.002402
 20
-2.307906
  0
VERTEX
  8
PLAN_1
 62
     2
  6
CONTINUOUS
 10
-1.004579
 20
-2.308449
  0
VERTEX
  8
PLAN_1
 62
     2
  6
CONTINUOUS
 10
-1.007850
 20
-2.308996
  0
VERTEX
  8
PLAN_1
 62
     2
  6
CONTINUOUS
 10
-1.011665
 20
-2.308996
  0
VERTEX
  8
PLAN_1
 62
     2
  6
CONTINUOUS
 10
-1.013846
 20
-2.308996
  0
VERTEX
  8
PLAN_1
 62
     2
  6
CONTINUOUS
 10
-1.016028
 20
-2.308449
  0
VERTEX
  8
PLAN_1
 62
     2
  6
CONTINUOUS
 10
-1.018752
 20
-2.307906
  0
VERTEX
  8
PLAN_1
 62
     2
  6
CONTINUOUS
 10
-1.020933
 20
-2.306815
  0
VERTEX
  8
PLAN_1
 62
     2
  6
CONTINUOUS
 10
-1.023657
 20
-2.305181
  0
VERTEX
  8
PLAN_1
 62
     2
  6
CONTINUOUS
 10
-1.025839
 20
-2.303543
  0
VERTEX
  8
PLAN_1
 62
     2
  6
CONTINUOUS
 10
-1.028016
 20
-2.301366
  0
VERTEX
  8
PLAN_1
 62
     2
  6
CONTINUOUS
 10
-1.030197
 20
-2.298638
  0
VERTEX
  8
PLAN_1
 62
     2
  6
CONTINUOUS
 10
-1.031835
 20
-2.295913
  0
VERTEX
  8
PLAN_1
 62
     2
  6
CONTINUOUS
 10
-1.032921
 20
-2.293189
  0
VERTEX
  8
PLAN_1
 62
     2
  6
CONTINUOUS
 10
-1.034012
 20
-2.289917
  0
VERTEX
  8
PLAN_1
 62
     2
  6
CONTINUOUS
 10
-1.034559
 20
-2.286650
  0
VERTEX
  8
PLAN_1
 62
     2
  6
CONTINUOUS
 10
-1.035102
 20
-2.283378
  0
VERTEX
  8
PLAN_1
 62
     2
  6
CONTINUOUS
 10
-1.035650
 20
-2.280106
  0
VERTEX
  8
PLAN_1
 62
     2
  6
CONTINUOUS
 10
-1.035650
 20
-2.276839
  0
VERTEX
  8
PLAN_1
 62
     2
  6
CONTINUOUS
 10
-1.036193
 20
-2.273020
  0
VERTEX
  8
PLAN_1
 62
     2
  6
CONTINUOUS
 10
-1.035650
 20
-2.267028
  0
VERTEX
  8
PLAN_1
 62
     2
  6
CONTINUOUS
 10
-1.034559
 20
-2.260484
  0
VERTEX
  8
PLAN_1
 62
     2
  6
CONTINUOUS
 10
-1.032921
 20
-2.253945
  0
VERTEX
  8
PLAN_1
 62
     2
  6
CONTINUOUS
 10
-1.030744
 20
-2.247406
  0
VERTEX
  8
PLAN_1
 62
     2
  6
CONTINUOUS
 10
-1.029106
 20
-2.244677
  0
VERTEX
  8
PLAN_1
 62
     2
  6
CONTINUOUS
 10
-1.026929
 20
-2.241953
  0
VERTEX
  8
PLAN_1
 62
     2
  6
CONTINUOUS
 10
-1.024748
 20
-2.239772
  0
VERTEX
  8
PLAN_1
 62
     2
  6
CONTINUOUS
 10
-1.022567
 20
-2.237594
  0
VERTEX
  8
PLAN_1
 62
     2
  6
CONTINUOUS
 10
-1.019295
 20
-2.236504
  0
VERTEX
  8
PLAN_1
 62
     2
  6
CONTINUOUS
 10
-1.016571
 20
-2.234866
  0
VERTEX
  8
PLAN_1
 62
     2
  6
CONTINUOUS
 10
-1.012756
 20
-2.234323
  0
VERTEX
  8
PLAN_1
 62
     2
  6
CONTINUOUS
 10
-1.008941
 20
-2.233780
  0
VERTEX
  8
PLAN_1
 62
     2
  6
CONTINUOUS
 10
-1.005669
 20
-2.234323
  0
VERTEX
  8
PLAN_1
 62
     2
  6
CONTINUOUS
 10
-1.002402
 20
-2.234866
  0
VERTEX
  8
PLAN_1
 62
     2
  6
CONTINUOUS
 10
-0.998583
 20
-2.236504
  0
VERTEX
  8
PLAN_1
 62
     2
  6
CONTINUOUS
 10
-0.995315
 20
-2.238138
  0
VERTEX
  8
PLAN_1
 62
     2
  6
CONTINUOUS
 10
-0.992591
 20
-2.240862
  0
VERTEX
  8
PLAN_1
 62
     2
  6
CONTINUOUS
 10
-0.989862
 20
-2.244134
  0
VERTEX
  8
PLAN_1
 62
     2
  6
CONTINUOUS
 10
-0.988228
 20
-2.248496
  0
VERTEX
  8
PLAN_1
 62
     2
  6
CONTINUOUS
 10
-0.987685
 20
-2.253402
  0
VERTEX
  8
PLAN_1
 62
     2
  6
CONTINUOUS
 10
-0.996406
 20
-2.253402
  0
SEQEND
  8
0
  0
POLYLINE
  8
PLAN_1
 62
     2
  6
CONTINUOUS
 66
     1
 40
0.003000
 41
0.003000
  0
VERTEX
  8
PLAN_1
 62
     2
  6
CONTINUOUS
 10
-1.010031
 20
-2.300819
  0
VERTEX
  8
PLAN_1
 62
     2
  6
CONTINUOUS
 10
-1.006760
 20
-2.300819
  0
VERTEX
  8
PLAN_1
 62
     2
  6
CONTINUOUS
 10
-1.004035
 20
-2.299728
  0
VERTEX
  8
PLAN_1
 62
     2
  6
CONTINUOUS
 10
-1.001311
 20
-2.298094
  0
VERTEX
  8
PLAN_1
 62
     2
  6
CONTINUOUS
 10
-0.999130
 20
-2.296461
  0
VERTEX
  8
PLAN_1
 62
     2
  6
CONTINUOUS
 10
-0.997496
 20
-2.293732
  0
VERTEX
  8
PLAN_1
 62
     2
  6
CONTINUOUS
 10
-0.996406
 20
-2.291008
  0
VERTEX
  8
PLAN_1
 62
     2
  6
CONTINUOUS
 10
-0.995858
 20
-2.287736
  0
VERTEX
  8
PLAN_1
 62
     2
  6
CONTINUOUS
 10
-0.995315
 20
-2.283921
  0
VERTEX
  8
PLAN_1
 62
     2
  6
CONTINUOUS
 10
-0.995858
 20
-2.281744
  0
VERTEX
  8
PLAN_1
 62
     2
  6
CONTINUOUS
 10
-0.996406
 20
-2.279016
  0
VERTEX
  8
PLAN_1
 62
     2
  6
CONTINUOUS
 10
-0.996949
 20
-2.276291
  0
VERTEX
  8
PLAN_1
 62
     2
  6
CONTINUOUS
 10
-0.998583
 20
-2.274110
  0
VERTEX
  8
PLAN_1
 62
     2
  6
CONTINUOUS
 10
-1.000764
 20
-2.271933
  0
VERTEX
  8
PLAN_1
 62
     2
  6
CONTINUOUS
 10
-1.002945
 20
-2.270295
  0
VERTEX
  8
PLAN_1
 62
     2
  6
CONTINUOUS
 10
-1.006217
 20
-2.269205
  0
VERTEX
  8
PLAN_1
 62
     2
  6
CONTINUOUS
 10
-1.010031
 20
-2.268661
  0
VERTEX
  8
PLAN_1
 62
     2
  6
CONTINUOUS
 10
-1.013846
 20
-2.269205
  0
VERTEX
  8
PLAN_1
 62
     2
  6
CONTINUOUS
 10
-1.017118
 20
-2.269752
  0
VERTEX
  8
PLAN_1
 62
     2
  6
CONTINUOUS
 10
-1.019295
 20
-2.271386
  0
VERTEX
  8
PLAN_1
 62
     2
  6
CONTINUOUS
 10
-1.021476
 20
-2.273567
  0
VERTEX
  8
PLAN_1
 62
     2
  6
CONTINUOUS
 10
-1.023110
 20
-2.275748
  0
VERTEX
  8
PLAN_1
 62
     2
  6
CONTINUOUS
 10
-1.024201
 20
-2.278472
  0
VERTEX
  8
PLAN_1
 62
     2
  6
CONTINUOUS
 10
-1.024748
 20
-2.281744
  0
VERTEX
  8
PLAN_1
 62
     2
  6
CONTINUOUS
 10
-1.025291
 20
-2.284469
  0
VERTEX
  8
PLAN_1
 62
     2
  6
CONTINUOUS
 10
-1.024748
 20
-2.287736
  0
VERTEX
  8
PLAN_1
 62
     2
  6
CONTINUOUS
 10
-1.024201
 20
-2.290465
  0
VERTEX
  8
PLAN_1
 62
     2
  6
CONTINUOUS
 10
-1.023110
 20
-2.293189
  0
VERTEX
  8
PLAN_1
 62
     2
  6
CONTINUOUS
 10
-1.021476
 20
-2.295913
  0
VERTEX
  8
PLAN_1
 62
     2
  6
CONTINUOUS
 10
-1.019295
 20
-2.298094
  0
VERTEX
  8
PLAN_1
 62
     2
  6
CONTINUOUS
 10
-1.016571
 20
-2.299728
  0
VERTEX
  8
PLAN_1
 62
     2
  6
CONTINUOUS
 10
-1.013846
 20
-2.300276
  0
VERTEX
  8
PLAN_1
 62
     2
  6
CONTINUOUS
 10
-1.010031
 20
-2.300819
  0
SEQEND
  8
0
  0
POLYLINE
  8
PLAN_1
 62
     2
  6
CONTINUOUS
 66
     1
 40
0.003000
 41
0.003000
  0
VERTEX
  8
PLAN_1
 62
     2
  6
CONTINUOUS
 10
-0.977327
 20
-2.260484
  0
VERTEX
  8
PLAN_1
 62
     2
  6
CONTINUOUS
 10
-0.977327
 20
-2.256126
  0
VERTEX
  8
PLAN_1
 62
     2
  6
CONTINUOUS
 10
-0.976783
 20
-2.252311
  0
VERTEX
  8
PLAN_1
 62
     2
  6
CONTINUOUS
 10
-0.975693
 20
-2.249039
  0
VERTEX
  8
PLAN_1
 62
     2
  6
CONTINUOUS
 10
-0.974602
 20
-2.246315
  0
VERTEX
  8
PLAN_1
 62
     2
  6
CONTINUOUS
 10
-0.972969
 20
-2.243591
  0
VERTEX
  8
PLAN_1
 62
     2
  6
CONTINUOUS
 10
-0.971331
 20
-2.241409
  0
VERTEX
  8
PLAN_1
 62
     2
  6
CONTINUOUS
 10
-0.969697
 20
-2.239772
  0
VERTEX
  8
PLAN_1
 62
     2
  6
CONTINUOUS
 10
-0.967516
 20
-2.238138
  0
VERTEX
  8
PLAN_1
 62
     2
  6
CONTINUOUS
 10
-0.963701
 20
-2.235957
  0
VERTEX
  8
PLAN_1
 62
     2
  6
CONTINUOUS
 10
-0.959343
 20
-2.234866
  0
VERTEX
  8
PLAN_1
 62
     2
  6
CONTINUOUS
 10
-0.955524
 20
-2.234323
  0
VERTEX
  8
PLAN_1
 62
     2
  6
CONTINUOUS
 10
-0.952256
 20
-2.233780
  0
VERTEX
  8
PLAN_1
 62
     2
  6
CONTINUOUS
 10
-0.947350
 20
-2.234323
  0
VERTEX
  8
PLAN_1
 62
     2
  6
CONTINUOUS
 10
-0.942988
 20
-2.235413
  0
VERTEX
  8
PLAN_1
 62
     2
  6
CONTINUOUS
 10
-0.939173
 20
-2.237594
  0
VERTEX
  8
PLAN_1
 62
     2
  6
CONTINUOUS
 10
-0.935902
 20
-2.239772
  0
VERTEX
  8
PLAN_1
 62
     2
  6
CONTINUOUS
 10
-0.933177
 20
-2.243043
  0
VERTEX
  8
PLAN_1
 62
     2
  6
CONTINUOUS
 10
-0.930996
 20
-2.246858
  0
VERTEX
  8
PLAN_1
 62
     2
  6
CONTINUOUS
 10
-0.929909
 20
-2.251220
  0
VERTEX
  8
PLAN_1
 62
     2
  6
CONTINUOUS
 10
-0.929362
 20
-2.255579
  0
VERTEX
  8
PLAN_1
 62
     2
  6
CONTINUOUS
 10
-0.929909
 20
-2.260484
  0
VERTEX
  8
PLAN_1
 62
     2
  6
CONTINUOUS
 10
-0.930996
 20
-2.264299
  0
VERTEX
  8
PLAN_1
 62
     2
  6
CONTINUOUS
 10
-0.932634
 20
-2.267571
  0
VERTEX
  8
PLAN_1
 62
     2
  6
CONTINUOUS
 10
-0.934815
 20
-2.270843
  0
VERTEX
  8
PLAN_1
 62
     2
  6
CONTINUOUS
 10
-0.938083
 20
-2.273567
  0
VERTEX
  8
PLAN_1
 62
     2
  6
CONTINUOUS
 10
-0.941354
 20
-2.275748
  0
VERTEX
  8
PLAN_1
 62
     2
  6
CONTINUOUS
 10
-0.944626
 20
-2.277925
  0
VERTEX
  8
PLAN_1
 62
     2
  6
CONTINUOUS
 10
-0.948984
 20
-2.280106
  0
VERTEX
  8
PLAN_1
 62
     2
  6
CONTINUOUS
 10
-0.956614
 20
-2.284469
  0
VERTEX
  8
PLAN_1
 62
     2
  6
CONTINUOUS
 10
-0.959886
 20
-2.286650
  0
VERTEX
  8
PLAN_1
 62
     2
  6
CONTINUOUS
 10
-0.962610
 20
-2.288827
  0
VERTEX
  8
PLAN_1
 62
     2
  6
CONTINUOUS
 10
-0.964791
 20
-2.290465
  0
VERTEX
  8
PLAN_1
 62
     2
  6
CONTINUOUS
 10
-0.966425
 20
-2.292642
  0
VERTEX
  8
PLAN_1
 62
     2
  6
CONTINUOUS
 10
-0.967516
 20
-2.294280
  0
VERTEX
  8
PLAN_1
 62
     2
  6
CONTINUOUS
 10
-0.968063
 20
-2.295913
  0
VERTEX
  8
PLAN_1
 62
     2
  6
CONTINUOUS
 10
-0.968606
 20
-2.297547
  0
VERTEX
  8
PLAN_1
 62
     2
  6
CONTINUOUS
 10
-0.969154
 20
-2.298638
  0
VERTEX
  8
PLAN_1
 62
     2
  6
CONTINUOUS
 10
-0.929362
 20
-2.298638
  0
VERTEX
  8
PLAN_1
 62
     2
  6
CONTINUOUS
 10
-0.929362
 20
-2.307358
  0
VERTEX
  8
PLAN_1
 62
     2
  6
CONTINUOUS
 10
-0.979508
 20
-2.307358
  0
VERTEX
  8
PLAN_1
 62
     2
  6
CONTINUOUS
 10
-0.978965
 20
-2.301909
  0
VERTEX
  8
PLAN_1
 62
     2
  6
CONTINUOUS
 10
-0.977874
 20
-2.297004
  0
VERTEX
  8
PLAN_1
 62
     2
  6
CONTINUOUS
 10
-0.976236
 20
-2.292642
  0
VERTEX
  8
PLAN_1
 62
     2
  6
CONTINUOUS
 10
-0.974059
 20
-2.288827
  0
VERTEX
  8
PLAN_1
 62
     2
  6
CONTINUOUS
 10
-0.971878
 20
-2.285559
  0
VERTEX
  8
PLAN_1
 62
     2
  6
CONTINUOUS
 10
-0.969154
 20
-2.282831
  0
VERTEX
  8
PLAN_1
 62
     2
  6
CONTINUOUS
 10
-0.965882
 20
-2.280106
  0
VERTEX
  8
PLAN_1
 62
     2
  6
CONTINUOUS
 10
-0.962067
 20
-2.277925
  0
VERTEX
  8
PLAN_1
 62
     2
  6
CONTINUOUS
 10
-0.952256
 20
-2.272476
  0
VERTEX
  8
PLAN_1
 62
     2
  6
CONTINUOUS
 10
-0.949531
 20
-2.270843
  0
VERTEX
  8
PLAN_1
 62
     2
  6
CONTINUOUS
 10
-0.947350
 20
-2.269205
  0
VERTEX
  8
PLAN_1
 62
     2
  6
CONTINUOUS
 10
-0.944626
 20
-2.267571
  0
VERTEX
  8
PLAN_1
 62
     2
  6
CONTINUOUS
 10
-0.942988
 20
-2.265937
  0
VERTEX
  8
PLAN_1
 62
     2
  6
CONTINUOUS
 10
-0.941354
 20
-2.263756
  0
VERTEX
  8
PLAN_1
 62
     2
  6
CONTINUOUS
 10
-0.940264
 20
-2.261575
  0
VERTEX
  8
PLAN_1
 62
     2
  6
CONTINUOUS
 10
-0.939173
 20
-2.258850
  0
VERTEX
  8
PLAN_1
 62
     2
  6
CONTINUOUS
 10
-0.939173
 20
-2.255579
  0
VERTEX
  8
PLAN_1
 62
     2
  6
CONTINUOUS
 10
-0.939173
 20
-2.253402
  0
VERTEX
  8
PLAN_1
 62
     2
  6
CONTINUOUS
 10
-0.939720
 20
-2.250673
  0
VERTEX
  8
PLAN_1
 62
     2
  6
CONTINUOUS
 10
-0.940807
 20
-2.248496
  0
VERTEX
  8
PLAN_1
 62
     2
  6
CONTINUOUS
 10
-0.942445
 20
-2.246858
  0
VERTEX
  8
PLAN_1
 62
     2
  6
CONTINUOUS
 10
-0.944079
 20
-2.244677
  0
VERTEX
  8
PLAN_1
 62
     2
  6
CONTINUOUS
 10
-0.946803
 20
-2.243591
  0
VERTEX
  8
PLAN_1
 62
     2
  6
CONTINUOUS
 10
-0.950075
 20
-2.242500
  0
VERTEX
  8
PLAN_1
 62
     2
  6
CONTINUOUS
 10
-0.953346
 20
-2.241953
  0
VERTEX
  8
PLAN_1
 62
     2
  6
CONTINUOUS
 10
-0.956071
 20
-2.242500
  0
VERTEX
  8
PLAN_1
 62
     2
  6
CONTINUOUS
 10
-0.958252
 20
-2.243043
  0
VERTEX
  8
PLAN_1
 62
     2
  6
CONTINUOUS
 10
-0.959886
 20
-2.243591
  0
VERTEX
  8
PLAN_1
 62
     2
  6
CONTINUOUS
 10
-0.961520
 20
-2.244134
  0
VERTEX
  8
PLAN_1
 62
     2
  6
CONTINUOUS
 10
-0.964248
 20
-2.246315
  0
VERTEX
  8
PLAN_1
 62
     2
  6
CONTINUOUS
 10
-0.965882
 20
-2.249039
  0
VERTEX
  8
PLAN_1
 62
     2
  6
CONTINUOUS
 10
-0.966972
 20
-2.252311
  0
VERTEX
  8
PLAN_1
 62
     2
  6
CONTINUOUS
 10
-0.968063
 20
-2.255035
  0
VERTEX
  8
PLAN_1
 62
     2
  6
CONTINUOUS
 10
-0.968063
 20
-2.257760
  0
VERTEX
  8
PLAN_1
 62
     2
  6
CONTINUOUS
 10
-0.968063
 20
-2.260484
  0
VERTEX
  8
PLAN_1
 62
     2
  6
CONTINUOUS
 10
-0.977327
 20
-2.260484
  0
SEQEND
  8
0
  0
POLYLINE
  8
PLAN_1
 62
     2
  6
CONTINUOUS
 66
     1
 40
0.004358
 41
0.004358
  0
VERTEX
  8
PLAN_1
 62
     2
  6
CONTINUOUS
 10
-0.668827
 20
1.055071
  0
VERTEX
  8
PLAN_1
 62
     2
  6
CONTINUOUS
 10
-0.668827
 20
-2.196713
  0
SEQEND
  8
0
  0
POLYLINE
  8
PLAN_1
 62
     2
  6
CONTINUOUS
 66
     1
 40
0.004358
 41
0.004358
  0
VERTEX
  8
PLAN_1
 62
     2
  6
CONTINUOUS
 10
0.353146
 20
-1.460346
  0
VERTEX
  8
PLAN_1
 62
     2
  6
CONTINUOUS
 10
0.353146
 20
-2.354236
  0
SEQEND
  8
0
  0
POLYLINE
  8
PLAN_1
 62
     2
  6
CONTINUOUS
 66
     1
 40
0.004358
 41
0.004358
  0
VERTEX
  8
PLAN_1
 62
     2
  6
CONTINUOUS
 10
-2.278913
 20
3.163882
  0
VERTEX
  8
PLAN_1
 62
     2
  6
CONTINUOUS
 10
-2.278913
 20
-2.354236
  0
SEQEND
  8
0
  0
POLYLINE
  8
PLAN_1
 62
     2
  6
CONTINUOUS
 66
     1
 40
0.004358
 41
0.004358
  0
VERTEX
  8
PLAN_1
 62
     2
  6
CONTINUOUS
 10
0.385307
 20
-2.017937
  0
VERTEX
  8
PLAN_1
 62
     2
  6
CONTINUOUS
 10
0.545004
 20
-2.017937
  0
SEQEND
  8
0
  0
POLYLINE
  8
PLAN_1
 62
     2
  6
CONTINUOUS
 66
     1
 40
0.004358
 41
0.004358
  0
VERTEX
  8
PLAN_1
 62
     2
  6
CONTINUOUS
 10
0.521567
 20
-1.988504
  0
VERTEX
  8
PLAN_1
 62
     2
  6
CONTINUOUS
 10
0.521567
 20
3.897524
  0
SEQEND
  8
0
  0
SOLID
  8
PLAN_1
 62
     2
 10
0.521567
 20
3.926957
 11
0.505764
 21
3.868091
 12
0.521567
 22
3.926957
 13
0.537374
 23
3.868091
  0
POLYLINE
  8
PLAN_1
 62
     2
  6
CONTINUOUS
 66
     1
 40
0.003000
 41
0.003000
  0
VERTEX
  8
PLAN_1
 62
     2
  6
CONTINUOUS
 10
0.521567
 20
3.926957
  0
VERTEX
  8
PLAN_1
 62
     2
  6
CONTINUOUS
 10
0.505764
 20
3.868091
  0
VERTEX
  8
PLAN_1
 62
     2
  6
CONTINUOUS
 10
0.537374
 20
3.868091
  0
VERTEX
  8
PLAN_1
 62
     2
  6
CONTINUOUS
 10
0.521567
 20
3.926957
  0
SEQEND
  8
0
  0
SOLID
  8
PLAN_1
 62
     2
 10
0.521567
 20
-2.017937
 11
0.505764
 21
-1.958528
 12
0.521567
 22
-2.017937
 13
0.537374
 23
-1.958528
  0
POLYLINE
  8
PLAN_1
 62
     2
  6
CONTINUOUS
 66
     1
 40
0.003000
 41
0.003000
  0
VERTEX
  8
PLAN_1
 62
     2
  6
CONTINUOUS
 10
0.521567
 20
-2.017937
  0
VERTEX
  8
PLAN_1
 62
     2
  6
CONTINUOUS
 10
0.505764
 20
-1.958528
  0
VERTEX
  8
PLAN_1
 62
     2
  6
CONTINUOUS
 10
0.537374
 20
-1.958528
  0
VERTEX
  8
PLAN_1
 62
     2
  6
CONTINUOUS
 10
0.521567
 20
-2.017937
  0
SEQEND
  8
0
  0
POLYLINE
  8
PLAN_1
 62
     2
  6
CONTINUOUS
 66
     1
 40
0.003000
 41
0.003000
  0
VERTEX
  8
PLAN_1
 62
     2
  6
CONTINUOUS
 10
0.498130
 20
0.905185
  0
VERTEX
  8
PLAN_1
 62
     2
  6
CONTINUOUS
 10
0.498130
 20
0.895374
  0
VERTEX
  8
PLAN_1
 62
     2
  6
CONTINUOUS
 10
0.446350
 20
0.895374
  0
VERTEX
  8
PLAN_1
 62
     2
  6
CONTINUOUS
 10
0.446350
 20
0.878476
  0
VERTEX
  8
PLAN_1
 62
     2
  6
CONTINUOUS
 10
0.438720
 20
0.878476
  0
VERTEX
  8
PLAN_1
 62
     2
  6
CONTINUOUS
 10
0.438720
 20
0.882291
  0
VERTEX
  8
PLAN_1
 62
     2
  6
CONTINUOUS
 10
0.438177
 20
0.886106
  0
VERTEX
  8
PLAN_1
 62
     2
  6
CONTINUOUS
 10
0.437087
 20
0.888831
  0
VERTEX
  8
PLAN_1
 62
     2
  6
CONTINUOUS
 10
0.435996
 20
0.891555
  0
VERTEX
  8
PLAN_1
 62
     2
  6
CONTINUOUS
 10
0.434358
 20
0.893736
  0
VERTEX
  8
PLAN_1
 62
     2
  6
CONTINUOUS
 10
0.432181
 20
0.895374
  0
VERTEX
  8
PLAN_1
 62
     2
  6
CONTINUOUS
 10
0.428909
 20
0.896461
  0
VERTEX
  8
PLAN_1
 62
     2
  6
CONTINUOUS
 10
0.425094
 20
0.898098
  0
VERTEX
  8
PLAN_1
 62
     2
  6
CONTINUOUS
 10
0.425094
 20
0.905185
  0
VERTEX
  8
PLAN_1
 62
     2
  6
CONTINUOUS
 10
0.498130
 20
0.905185
  0
SEQEND
  8
0
  0
POLYLINE
  8
PLAN_1
 62
     2
  6
CONTINUOUS
 66
     1
 40
0.003000
 41
0.003000
  0
VERTEX
  8
PLAN_1
 62
     2
  6
CONTINUOUS
 10
0.480146
 20
0.969500
  0
VERTEX
  8
PLAN_1
 62
     2
  6
CONTINUOUS
 10
0.498130
 20
0.969500
  0
VERTEX
  8
PLAN_1
 62
     2
  6
CONTINUOUS
 10
0.498130
 20
0.960232
  0
VERTEX
  8
PLAN_1
 62
     2
  6
CONTINUOUS
 10
0.480146
 20
0.960232
  0
VERTEX
  8
PLAN_1
 62
     2
  6
CONTINUOUS
 10
0.480146
 20
0.928075
  0
VERTEX
  8
PLAN_1
 62
     2
  6
CONTINUOUS
 10
0.471425
 20
0.928075
  0
VERTEX
  8
PLAN_1
 62
     2
  6
CONTINUOUS
 10
0.425094
 20
0.961870
  0
VERTEX
  8
PLAN_1
 62
     2
  6
CONTINUOUS
 10
0.425094
 20
0.969500
  0
VERTEX
  8
PLAN_1
 62
     2
  6
CONTINUOUS
 10
0.472516
 20
0.969500
  0
VERTEX
  8
PLAN_1
 62
     2
  6
CONTINUOUS
 10
0.472516
 20
0.979854
  0
VERTEX
  8
PLAN_1
 62
     2
  6
CONTINUOUS
 10
0.480146
 20
0.979854
  0
VERTEX
  8
PLAN_1
 62
     2
  6
CONTINUOUS
 10
0.480146
 20
0.969500
  0
SEQEND
  8
0
  0
SOLID
  8
PLAN_1
 62
     2
 10
0.472516
 20
0.936795
 11
0.472516
 21
0.960232
 12
0.472516
 22
0.936795
 13
0.439264
 23
0.960232
  0
POLYLINE
  8
PLAN_1
 62
     2
  6
CONTINUOUS
 66
     1
 40
0.003000
 41
0.003000
  0
VERTEX
  8
PLAN_1
 62
     2
  6
CONTINUOUS
 10
0.472516
 20
0.936795
  0
VERTEX
  8
PLAN_1
 62
     2
  6
CONTINUOUS
 10
0.472516
 20
0.960232
  0
VERTEX
  8
PLAN_1
 62
     2
  6
CONTINUOUS
 10
0.439264
 20
0.960232
  0
VERTEX
  8
PLAN_1
 62
     2
  6
CONTINUOUS
 10
0.472516
 20
0.936795
  0
SEQEND
  8
0
  0
POLYLINE
  8
PLAN_1
 62
     2
  6
CONTINUOUS
 66
     1
 40
0.003000
 41
0.003000
  0
VERTEX
  8
PLAN_1
 62
     2
  6
CONTINUOUS
 10
0.499768
 20
1.012559
  0
VERTEX
  8
PLAN_1
 62
     2
  6
CONTINUOUS
 10
0.499768
 20
1.008744
  0
VERTEX
  8
PLAN_1
 62
     2
  6
CONTINUOUS
 10
0.499220
 20
1.005472
  0
VERTEX
  8
PLAN_1
 62
     2
  6
CONTINUOUS
 10
0.497587
 20
1.002201
  0
VERTEX
  8
PLAN_1
 62
     2
  6
CONTINUOUS
 10
0.496496
 20
0.999476
  0
VERTEX
  8
PLAN_1
 62
     2
  6
CONTINUOUS
 10
0.494315
 20
0.997295
  0
VERTEX
  8
PLAN_1
 62
     2
  6
CONTINUOUS
 10
0.492134
 20
0.995118
  0
VERTEX
  8
PLAN_1
 62
     2
  6
CONTINUOUS
 10
0.489409
 20
0.993480
  0
VERTEX
  8
PLAN_1
 62
     2
  6
CONTINUOUS
 10
0.486685
 20
0.991846
  0
VERTEX
  8
PLAN_1
 62
     2
  6
CONTINUOUS
 10
0.481236
 20
0.989665
  0
VERTEX
  8
PLAN_1
 62
     2
  6
CONTINUOUS
 10
0.474693
 20
0.988575
  0
VERTEX
  8
PLAN_1
 62
     2
  6
CONTINUOUS
 10
0.468154
 20
0.987484
  0
VERTEX
  8
PLAN_1
 62
     2
  6
CONTINUOUS
 10
0.462157
 20
0.987484
  0
VERTEX
  8
PLAN_1
 62
     2
  6
CONTINUOUS
 10
0.456709
 20
0.987484
  0
VERTEX
  8
PLAN_1
 62
     2
  6
CONTINUOUS
 10
0.450165
 20
0.988575
  0
VERTEX
  8
PLAN_1
 62
     2
  6
CONTINUOUS
 10
0.443626
 20
0.989665
  0
VERTEX
  8
PLAN_1
 62
     2
  6
CONTINUOUS
 10
0.438177
 20
0.991846
  0
VERTEX
  8
PLAN_1
 62
     2
  6
CONTINUOUS
 10
0.435449
 20
0.993480
  0
VERTEX
  8
PLAN_1
 62
     2
  6
CONTINUOUS
 10
0.432724
 20
0.995118
  0
VERTEX
  8
PLAN_1
 62
     2
  6
CONTINUOUS
 10
0.430543
 20
0.997295
  0
VERTEX
  8
PLAN_1
 62
     2
  6
CONTINUOUS
 10
0.428366
 20
0.999476
  0
VERTEX
  8
PLAN_1
 62
     2
  6
CONTINUOUS
 10
0.427276
 20
1.002201
  0
VERTEX
  8
PLAN_1
 62
     2
  6
CONTINUOUS
 10
0.425638
 20
1.005472
  0
VERTEX
  8
PLAN_1
 62
     2
  6
CONTINUOUS
 10
0.425094
 20
1.008744
  0
VERTEX
  8
PLAN_1
 62
     2
  6
CONTINUOUS
 10
0.425094
 20
1.012559
  0
VERTEX
  8
PLAN_1
 62
     2
  6
CONTINUOUS
 10
0.425094
 20
1.016374
  0
VERTEX
  8
PLAN_1
 62
     2
  6
CONTINUOUS
 10
0.425638
 20
1.019646
  0
VERTEX
  8
PLAN_1
 62
     2
  6
CONTINUOUS
 10
0.427276
 20
1.022370
  0
VERTEX
  8
PLAN_1
 62
     2
  6
CONTINUOUS
 10
0.428366
 20
1.025094
  0
VERTEX
  8
PLAN_1
 62
     2
  6
CONTINUOUS
 10
0.430543
 20
1.027819
  0
VERTEX
  8
PLAN_1
 62
     2
  6
CONTINUOUS
 10
0.432724
 20
1.029457
  0
VERTEX
  8
PLAN_1
 62
     2
  6
CONTINUOUS
 10
0.435449
 20
1.031634
  0
VERTEX
  8
PLAN_1
 62
     2
  6
CONTINUOUS
 10
0.438177
 20
1.032724
  0
VERTEX
  8
PLAN_1
 62
     2
  6
CONTINUOUS
 10
0.443626
 20
1.034906
  0
VERTEX
  8
PLAN_1
 62
     2
  6
CONTINUOUS
 10
0.450165
 20
1.036539
  0
VERTEX
  8
PLAN_1
 62
     2
  6
CONTINUOUS
 10
0.456709
 20
1.037087
  0
VERTEX
  8
PLAN_1
 62
     2
  6
CONTINUOUS
 10
0.462157
 20
1.037630
  0
VERTEX
  8
PLAN_1
 62
     2
  6
CONTINUOUS
 10
0.468154
 20
1.037087
  0
VERTEX
  8
PLAN_1
 62
     2
  6
CONTINUOUS
 10
0.474693
 20
1.036539
  0
VERTEX
  8
PLAN_1
 62
     2
  6
CONTINUOUS
 10
0.481236
 20
1.034906
  0
VERTEX
  8
PLAN_1
 62
     2
  6
CONTINUOUS
 10
0.486685
 20
1.032724
  0
VERTEX
  8
PLAN_1
 62
     2
  6
CONTINUOUS
 10
0.489409
 20
1.031634
  0
VERTEX
  8
PLAN_1
 62
     2
  6
CONTINUOUS
 10
0.492134
 20
1.029457
  0
VERTEX
  8
PLAN_1
 62
     2
  6
CONTINUOUS
 10
0.494315
 20
1.027819
  0
VERTEX
  8
PLAN_1
 62
     2
  6
CONTINUOUS
 10
0.496496
 20
1.025094
  0
VERTEX
  8
PLAN_1
 62
     2
  6
CONTINUOUS
 10
0.497587
 20
1.022370
  0
VERTEX
  8
PLAN_1
 62
     2
  6
CONTINUOUS
 10
0.499220
 20
1.019646
  0
VERTEX
  8
PLAN_1
 62
     2
  6
CONTINUOUS
 10
0.499768
 20
1.016374
  0
VERTEX
  8
PLAN_1
 62
     2
  6
CONTINUOUS
 10
0.499768
 20
1.012559
  0
SEQEND
  8
0
  0
POLYLINE
  8
PLAN_1
 62
     2
  6
CONTINUOUS
 66
     1
 40
0.003000
 41
0.003000
  0
VERTEX
  8
PLAN_1
 62
     2
  6
CONTINUOUS
 10
0.433272
 20
1.012559
  0
VERTEX
  8
PLAN_1
 62
     2
  6
CONTINUOUS
 10
0.433272
 20
1.010378
  0
VERTEX
  8
PLAN_1
 62
     2
  6
CONTINUOUS
 10
0.433815
 20
1.008744
  0
VERTEX
  8
PLAN_1
 62
     2
  6
CONTINUOUS
 10
0.434358
 20
1.007106
  0
VERTEX
  8
PLAN_1
 62
     2
  6
CONTINUOUS
 10
0.434906
 20
1.005472
  0
VERTEX
  8
PLAN_1
 62
     2
  6
CONTINUOUS
 10
0.437630
 20
1.002748
  0
VERTEX
  8
PLAN_1
 62
     2
  6
CONTINUOUS
 10
0.440902
 20
1.001114
  0
VERTEX
  8
PLAN_1
 62
     2
  6
CONTINUOUS
 10
0.445260
 20
0.999476
  0
VERTEX
  8
PLAN_1
 62
     2
  6
CONTINUOUS
 10
0.450165
 20
0.997843
  0
VERTEX
  8
PLAN_1
 62
     2
  6
CONTINUOUS
 10
0.456161
 20
0.997295
  0
VERTEX
  8
PLAN_1
 62
     2
  6
CONTINUOUS
 10
0.462157
 20
0.997295
  0
VERTEX
  8
PLAN_1
 62
     2
  6
CONTINUOUS
 10
0.468697
 20
0.997295
  0
VERTEX
  8
PLAN_1
 62
     2
  6
CONTINUOUS
 10
0.474693
 20
0.997843
  0
VERTEX
  8
PLAN_1
 62
     2
  6
CONTINUOUS
 10
0.479598
 20
0.999476
  0
VERTEX
  8
PLAN_1
 62
     2
  6
CONTINUOUS
 10
0.483961
 20
1.001114
  0
VERTEX
  8
PLAN_1
 62
     2
  6
CONTINUOUS
 10
0.487228
 20
1.002748
  0
VERTEX
  8
PLAN_1
 62
     2
  6
CONTINUOUS
 10
0.489957
 20
1.005472
  0
VERTEX
  8
PLAN_1
 62
     2
  6
CONTINUOUS
 10
0.490500
 20
1.007106
  0
VERTEX
  8
PLAN_1
 62
     2
  6
CONTINUOUS
 10
0.491047
 20
1.008744
  0
VERTEX
  8
PLAN_1
 62
     2
  6
CONTINUOUS
 10
0.491591
 20
1.010378
  0
VERTEX
  8
PLAN_1
 62
     2
  6
CONTINUOUS
 10
0.491591
 20
1.012559
  0
VERTEX
  8
PLAN_1
 62
     2
  6
CONTINUOUS
 10
0.491591
 20
1.014193
  0
VERTEX
  8
PLAN_1
 62
     2
  6
CONTINUOUS
 10
0.491047
 20
1.016374
  0
VERTEX
  8
PLAN_1
 62
     2
  6
CONTINUOUS
 10
0.490500
 20
1.018008
  0
VERTEX
  8
PLAN_1
 62
     2
  6
CONTINUOUS
 10
0.489957
 20
1.019098
  0
VERTEX
  8
PLAN_1
 62
     2
  6
CONTINUOUS
 10
0.487228
 20
1.021823
  0
VERTEX
  8
PLAN_1
 62
     2
  6
CONTINUOUS
 10
0.483961
 20
1.024004
  0
VERTEX
  8
PLAN_1
 62
     2
  6
CONTINUOUS
 10
0.479598
 20
1.025642
  0
VERTEX
  8
PLAN_1
 62
     2
  6
CONTINUOUS
 10
0.474693
 20
1.026728
  0
VERTEX
  8
PLAN_1
 62
     2
  6
CONTINUOUS
 10
0.468697
 20
1.027276
  0
VERTEX
  8
PLAN_1
 62
     2
  6
CONTINUOUS
 10
0.462157
 20
1.027819
  0
VERTEX
  8
PLAN_1
 62
     2
  6
CONTINUOUS
 10
0.456161
 20
1.027276
  0
VERTEX
  8
PLAN_1
 62
     2
  6
CONTINUOUS
 10
0.450165
 20
1.026728
  0
VERTEX
  8
PLAN_1
 62
     2
  6
CONTINUOUS
 10
0.445260
 20
1.025642
  0
VERTEX
  8
PLAN_1
 62
     2
  6
CONTINUOUS
 10
0.440902
 20
1.024004
  0
VERTEX
  8
PLAN_1
 62
     2
  6
CONTINUOUS
 10
0.437630
 20
1.021823
  0
VERTEX
  8
PLAN_1
 62
     2
  6
CONTINUOUS
 10
0.434906
 20
1.019098
  0
VERTEX
  8
PLAN_1
 62
     2
  6
CONTINUOUS
 10
0.434358
 20
1.018008
  0
VERTEX
  8
PLAN_1
 62
     2
  6
CONTINUOUS
 10
0.433815
 20
1.016374
  0
VERTEX
  8
PLAN_1
 62
     2
  6
CONTINUOUS
 10
0.433272
 20
1.014193
  0
VERTEX
  8
PLAN_1
 62
     2
  6
CONTINUOUS
 10
0.433272
 20
1.012559
  0
SEQEND
  8
0
  0
POLYLINE
  8
PLAN_1
 62
     2
  6
CONTINUOUS
 66
     1
 40
0.004358
 41
0.004358
  0
VERTEX
  8
PLAN_1
 62
     2
  6
CONTINUOUS
 10
-1.338697
 20
4.086657
  0
VERTEX
  8
PLAN_1
 62
     2
  6
CONTINUOUS
 10
0.323169
 20
4.086657
  0
SEQEND
  8
0
  0
SOLID
  8
PLAN_1
 62
     2
 10
0.353146
 20
4.086657
 11
0.293736
 21
4.102465
 12
0.353146
 22
4.086657
 13
0.293736
 23
4.070850
  0
POLYLINE
  8
PLAN_1
 62
     2
  6
CONTINUOUS
 66
     1
 40
0.003000
 41
0.003000
  0
VERTEX
  8
PLAN_1
 62
     2
  6
CONTINUOUS
 10
0.353146
 20
4.086657
  0
VERTEX
  8
PLAN_1
 62
     2
  6
CONTINUOUS
 10
0.293736
 20
4.102465
  0
VERTEX
  8
PLAN_1
 62
     2
  6
CONTINUOUS
 10
0.293736
 20
4.070850
  0
VERTEX
  8
PLAN_1
 62
     2
  6
CONTINUOUS
 10
0.353146
 20
4.086657
  0
SEQEND
  8
0
  0
SOLID
  8
PLAN_1
 62
     2
 10
-1.368130
 20
4.086657
 11
-1.309264
 21
4.102465
 12
-1.368130
 22
4.086657
 13
-1.309264
 23
4.070850
  0
POLYLINE
  8
PLAN_1
 62
     2
  6
CONTINUOUS
 66
     1
 40
0.003000
 41
0.003000
  0
VERTEX
  8
PLAN_1
 62
     2
  6
CONTINUOUS
 10
-1.368130
 20
4.086657
  0
VERTEX
  8
PLAN_1
 62
     2
  6
CONTINUOUS
 10
-1.309264
 20
4.102465
  0
VERTEX
  8
PLAN_1
 62
     2
  6
CONTINUOUS
 10
-1.309264
 20
4.070850
  0
VERTEX
  8
PLAN_1
 62
     2
  6
CONTINUOUS
 10
-1.368130
 20
4.086657
  0
SEQEND
  8
0
  0
POLYLINE
  8
PLAN_1
 62
     2
  6
CONTINUOUS
 66
     1
 40
0.003000
 41
0.003000
  0
VERTEX
  8
PLAN_1
 62
     2
  6
CONTINUOUS
 10
-0.521661
 20
4.128083
  0
VERTEX
  8
PLAN_1
 62
     2
  6
CONTINUOUS
 10
-0.521661
 20
4.110642
  0
VERTEX
  8
PLAN_1
 62
     2
  6
CONTINUOUS
 10
-0.530929
 20
4.110642
  0
VERTEX
  8
PLAN_1
 62
     2
  6
CONTINUOUS
 10
-0.530929
 20
4.128083
  0
VERTEX
  8
PLAN_1
 62
     2
  6
CONTINUOUS
 10
-0.563087
 20
4.128083
  0
VERTEX
  8
PLAN_1
 62
     2
  6
CONTINUOUS
 10
-0.563087
 20
4.137346
  0
VERTEX
  8
PLAN_1
 62
     2
  6
CONTINUOUS
 10
-0.529295
 20
4.183677
  0
VERTEX
  8
PLAN_1
 62
     2
  6
CONTINUOUS
 10
-0.521661
 20
4.183677
  0
VERTEX
  8
PLAN_1
 62
     2
  6
CONTINUOUS
 10
-0.521661
 20
4.136260
  0
VERTEX
  8
PLAN_1
 62
     2
  6
CONTINUOUS
 10
-0.511307
 20
4.136260
  0
VERTEX
  8
PLAN_1
 62
     2
  6
CONTINUOUS
 10
-0.511307
 20
4.128083
  0
VERTEX
  8
PLAN_1
 62
     2
  6
CONTINUOUS
 10
-0.521661
 20
4.128083
  0
SEQEND
  8
0
  0
SOLID
  8
PLAN_1
 62
     2
 10
-0.554366
 20
4.136260
 11
-0.530929
 21
4.136260
 12
-0.531472
 22
4.169508
 13
-0.530929
 23
4.169508
  0
POLYLINE
  8
PLAN_1
 62
     2
  6
CONTINUOUS
 66
     1
 40
0.003000
 41
0.003000
  0
VERTEX
  8
PLAN_1
 62
     2
  6
CONTINUOUS
 10
-0.554366
 20
4.136260
  0
VERTEX
  8
PLAN_1
 62
     2
  6
CONTINUOUS
 10
-0.530929
 20
4.136260
  0
VERTEX
  8
PLAN_1
 62
     2
  6
CONTINUOUS
 10
-0.530929
 20
4.169508
  0
VERTEX
  8
PLAN_1
 62
     2
  6
CONTINUOUS
 10
-0.531472
 20
4.169508
  0
VERTEX
  8
PLAN_1
 62
     2
  6
CONTINUOUS
 10
-0.554366
 20
4.136260
  0
SEQEND
  8
0
  0
POLYLINE
  8
PLAN_1
 62
     2
  6
CONTINUOUS
 66
     1
 40
0.003000
 41
0.003000
  0
VERTEX
  8
PLAN_1
 62
     2
  6
CONTINUOUS
 10
-0.470429
 20
4.110642
  0
VERTEX
  8
PLAN_1
 62
     2
  6
CONTINUOUS
 10
-0.480240
 20
4.110642
  0
VERTEX
  8
PLAN_1
 62
     2
  6
CONTINUOUS
 10
-0.480240
 20
4.162421
  0
VERTEX
  8
PLAN_1
 62
     2
  6
CONTINUOUS
 10
-0.497134
 20
4.162421
  0
VERTEX
  8
PLAN_1
 62
     2
  6
CONTINUOUS
 10
-0.497134
 20
4.169508
  0
VERTEX
  8
PLAN_1
 62
     2
  6
CONTINUOUS
 10
-0.493319
 20
4.170051
  0
VERTEX
  8
PLAN_1
 62
     2
  6
CONTINUOUS
 10
-0.489504
 20
4.170594
  0
VERTEX
  8
PLAN_1
 62
     2
  6
CONTINUOUS
 10
-0.486780
 20
4.171142
  0
VERTEX
  8
PLAN_1
 62
     2
  6
CONTINUOUS
 10
-0.484055
 20
4.172232
  0
VERTEX
  8
PLAN_1
 62
     2
  6
CONTINUOUS
 10
-0.481874
 20
4.173866
  0
VERTEX
  8
PLAN_1
 62
     2
  6
CONTINUOUS
 10
-0.480240
 20
4.176591
  0
VERTEX
  8
PLAN_1
 62
     2
  6
CONTINUOUS
 10
-0.478602
 20
4.179319
  0
VERTEX
  8
PLAN_1
 62
     2
  6
CONTINUOUS
 10
-0.477516
 20
4.183677
  0
VERTEX
  8
PLAN_1
 62
     2
  6
CONTINUOUS
 10
-0.470429
 20
4.183677
  0
VERTEX
  8
PLAN_1
 62
     2
  6
CONTINUOUS
 10
-0.470429
 20
4.110642
  0
SEQEND
  8
0
  0
POLYLINE
  8
PLAN_1
 62
     2
  6
CONTINUOUS
 66
     1
 40
0.004358
 41
0.004358
  0
VERTEX
  8
PLAN_1
 62
     2
  6
CONTINUOUS
 10
-2.007476
 20
4.267614
  0
VERTEX
  8
PLAN_1
 62
     2
  6
CONTINUOUS
 10
0.323169
 20
4.267614
  0
SEQEND
  8
0
  0
SOLID
  8
PLAN_1
 62
     2
 10
0.353146
 20
4.267614
 11
0.293736
 21
4.283421
 12
0.353146
 22
4.267614
 13
0.293736
 23
4.251811
  0
POLYLINE
  8
PLAN_1
 62
     2
  6
CONTINUOUS
 66
     1
 40
0.003000
 41
0.003000
  0
VERTEX
  8
PLAN_1
 62
     2
  6
CONTINUOUS
 10
0.353146
 20
4.267614
  0
VERTEX
  8
PLAN_1
 62
     2
  6
CONTINUOUS
 10
0.293736
 20
4.283421
  0
VERTEX
  8
PLAN_1
 62
     2
  6
CONTINUOUS
 10
0.293736
 20
4.251811
  0
VERTEX
  8
PLAN_1
 62
     2
  6
CONTINUOUS
 10
0.353146
 20
4.267614
  0
SEQEND
  8
0
  0
SOLID
  8
PLAN_1
 62
     2
 10
-2.036909
 20
4.267614
 11
-1.977500
 21
4.283421
 12
-2.036909
 22
4.267614
 13
-1.977500
 23
4.251811
  0
POLYLINE
  8
PLAN_1
 62
     2
  6
CONTINUOUS
 66
     1
 40
0.003000
 41
0.003000
  0
VERTEX
  8
PLAN_1
 62
     2
  6
CONTINUOUS
 10
-2.036909
 20
4.267614
  0
VERTEX
  8
PLAN_1
 62
     2
  6
CONTINUOUS
 10
-1.977500
 20
4.283421
  0
VERTEX
  8
PLAN_1
 62
     2
  6
CONTINUOUS
 10
-1.977500
 20
4.251811
  0
VERTEX
  8
PLAN_1
 62
     2
  6
CONTINUOUS
 10
-2.036909
 20
4.267614
  0
SEQEND
  8
0
  0
POLYLINE
  8
PLAN_1
 62
     2
  6
CONTINUOUS
 66
     1
 40
0.003000
 41
0.003000
  0
VERTEX
  8
PLAN_1
 62
     2
  6
CONTINUOUS
 10
-0.884669
 20
4.334110
  0
VERTEX
  8
PLAN_1
 62
     2
  6
CONTINUOUS
 10
-0.883031
 20
4.334657
  0
VERTEX
  8
PLAN_1
 62
     2
  6
CONTINUOUS
 10
-0.881945
 20
4.335748
  0
VERTEX
  8
PLAN_1
 62
     2
  6
CONTINUOUS
 10
-0.880307
 20
4.336291
  0
VERTEX
  8
PLAN_1
 62
     2
  6
CONTINUOUS
 10
-0.878673
 20
4.337382
  0
VERTEX
  8
PLAN_1
 62
     2
  6
CONTINUOUS
 10
-0.877039
 20
4.337929
  0
VERTEX
  8
PLAN_1
 62
     2
  6
CONTINUOUS
 10
-0.874858
 20
4.337929
  0
VERTEX
  8
PLAN_1
 62
     2
  6
CONTINUOUS
 10
-0.872677
 20
4.338472
  0
VERTEX
  8
PLAN_1
 62
     2
  6
CONTINUOUS
 10
-0.870496
 20
4.338472
  0
VERTEX
  8
PLAN_1
 62
     2
  6
CONTINUOUS
 10
-0.866138
 20
4.337929
  0
VERTEX
  8
PLAN_1
 62
     2
  6
CONTINUOUS
 10
-0.861776
 20
4.336839
  0
VERTEX
  8
PLAN_1
 62
     2
  6
CONTINUOUS
 10
-0.857417
 20
4.335201
  0
VERTEX
  8
PLAN_1
 62
     2
  6
CONTINUOUS
 10
-0.854146
 20
4.332476
  0
VERTEX
  8
PLAN_1
 62
     2
  6
CONTINUOUS
 10
-0.850874
 20
4.329209
  0
VERTEX
  8
PLAN_1
 62
     2
  6
CONTINUOUS
 10
-0.848697
 20
4.325390
  0
VERTEX
  8
PLAN_1
 62
     2
  6
CONTINUOUS
 10
-0.847606
 20
4.322665
  0
VERTEX
  8
PLAN_1
 62
     2
  6
CONTINUOUS
 10
-0.847059
 20
4.320484
  0
VERTEX
  8
PLAN_1
 62
     2
  6
CONTINUOUS
 10
-0.846516
 20
4.317760
  0
VERTEX
  8
PLAN_1
 62
     2
  6
CONTINUOUS
 10
-0.846516
 20
4.315035
  0
VERTEX
  8
PLAN_1
 62
     2
  6
CONTINUOUS
 10
-0.846516
 20
4.311764
  0
VERTEX
  8
PLAN_1
 62
     2
  6
CONTINUOUS
 10
-0.847059
 20
4.307949
  0
VERTEX
  8
PLAN_1
 62
     2
  6
CONTINUOUS
 10
-0.848697
 20
4.303591
  0
VERTEX
  8
PLAN_1
 62
     2
  6
CONTINUOUS
 10
-0.850874
 20
4.299228
  0
VERTEX
  8
PLAN_1
 62
     2
  6
CONTINUOUS
 10
-0.852512
 20
4.297047
  0
VERTEX
  8
PLAN_1
 62
     2
  6
CONTINUOUS
 10
-0.854689
 20
4.295413
  0
VERTEX
  8
PLAN_1
 62
     2
  6
CONTINUOUS
 10
-0.856327
 20
4.293780
  0
VERTEX
  8
PLAN_1
 62
     2
  6
CONTINUOUS
 10
-0.859051
 20
4.292142
  0
VERTEX
  8
PLAN_1
 62
     2
  6
CONTINUOUS
 10
-0.861776
 20
4.291051
  0
VERTEX
  8
PLAN_1
 62
     2
  6
CONTINUOUS
 10
-0.865047
 20
4.289965
  0
VERTEX
  8
PLAN_1
 62
     2
  6
CONTINUOUS
 10
-0.868862
 20
4.289417
  0
VERTEX
  8
PLAN_1
 62
     2
  6
CONTINUOUS
 10
-0.872677
 20
4.289417
  0
VERTEX
  8
PLAN_1
 62
     2
  6
CONTINUOUS
 10
-0.876492
 20
4.289417
  0
VERTEX
  8
PLAN_1
 62
     2
  6
CONTINUOUS
 10
-0.880307
 20
4.290508
  0
VERTEX
  8
PLAN_1
 62
     2
  6
CONTINUOUS
 10
-0.884122
 20
4.291598
  0
VERTEX
  8
PLAN_1
 62
     2
  6
CONTINUOUS
 10
-0.887394
 20
4.293232
  0
VERTEX
  8
PLAN_1
 62
     2
  6
CONTINUOUS
 10
-0.890665
 20
4.295957
  0
VERTEX
  8
PLAN_1
 62
     2
  6
CONTINUOUS
 10
-0.893390
 20
4.299776
  0
VERTEX
  8
PLAN_1
 62
     2
  6
CONTINUOUS
 10
-0.894480
 20
4.301953
  0
VERTEX
  8
PLAN_1
 62
     2
  6
CONTINUOUS
 10
-0.895571
 20
4.304134
  0
VERTEX
  8
PLAN_1
 62
     2
  6
CONTINUOUS
 10
-0.896114
 20
4.306858
  0
VERTEX
  8
PLAN_1
 62
     2
  6
CONTINUOUS
 10
-0.896661
 20
4.309587
  0
VERTEX
  8
PLAN_1
 62
     2
  6
CONTINUOUS
 10
-0.886850
 20
4.309587
  0
VERTEX
  8
PLAN_1
 62
     2
  6
CONTINUOUS
 10
-0.886303
 20
4.306858
  0
VERTEX
  8
PLAN_1
 62
     2
  6
CONTINUOUS
 10
-0.885213
 20
4.304134
  0
VERTEX
  8
PLAN_1
 62
     2
  6
CONTINUOUS
 10
-0.884122
 20
4.301953
  0
VERTEX
  8
PLAN_1
 62
     2
  6
CONTINUOUS
 10
-0.881945
 20
4.300319
  0
VERTEX
  8
PLAN_1
 62
     2
  6
CONTINUOUS
 10
-0.879764
 20
4.299228
  0
VERTEX
  8
PLAN_1
 62
     2
  6
CONTINUOUS
 10
-0.877039
 20
4.298138
  0
VERTEX
  8
PLAN_1
 62
     2
  6
CONTINUOUS
 10
-0.874311
 20
4.297594
  0
VERTEX
  8
PLAN_1
 62
     2
  6
CONTINUOUS
 10
-0.871587
 20
4.297594
  0
VERTEX
  8
PLAN_1
 62
     2
  6
CONTINUOUS
 10
-0.868315
 20
4.297594
  0
VERTEX
  8
PLAN_1
 62
     2
  6
CONTINUOUS
 10
-0.865047
 20
4.298685
  0
VERTEX
  8
PLAN_1
 62
     2
  6
CONTINUOUS
 10
-0.862323
 20
4.300319
  0
VERTEX
  8
PLAN_1
 62
     2
  6
CONTINUOUS
 10
-0.860142
 20
4.302500
  0
VERTEX
  8
PLAN_1
 62
     2
  6
CONTINUOUS
 10
-0.858508
 20
4.304681
  0
VERTEX
  8
PLAN_1
 62
     2
  6
CONTINUOUS
 10
-0.857417
 20
4.307406
  0
VERTEX
  8
PLAN_1
 62
     2
  6
CONTINUOUS
 10
-0.856327
 20
4.310673
  0
VERTEX
  8
PLAN_1
 62
     2
  6
CONTINUOUS
 10
-0.856327
 20
4.313945
  0
VERTEX
  8
PLAN_1
 62
     2
  6
CONTINUOUS
 10
-0.856327
 20
4.317760
  0
VERTEX
  8
PLAN_1
 62
     2
  6
CONTINUOUS
 10
-0.857417
 20
4.321031
  0
VERTEX
  8
PLAN_1
 62
     2
  6
CONTINUOUS
 10
-0.859051
 20
4.323756
  0
VERTEX
  8
PLAN_1
 62
     2
  6
CONTINUOUS
 10
-0.860685
 20
4.325937
  0
VERTEX
  8
PLAN_1
 62
     2
  6
CONTINUOUS
 10
-0.863409
 20
4.328118
  0
VERTEX
  8
PLAN_1
 62
     2
  6
CONTINUOUS
 10
-0.866138
 20
4.329209
  0
VERTEX
  8
PLAN_1
 62
     2
  6
CONTINUOUS
 10
-0.868862
 20
4.330295
  0
VERTEX
  8
PLAN_1
 62
     2
  6
CONTINUOUS
 10
-0.872134
 20
4.330295
  0
VERTEX
  8
PLAN_1
 62
     2
  6
CONTINUOUS
 10
-0.874311
 20
4.330295
  0
VERTEX
  8
PLAN_1
 62
     2
  6
CONTINUOUS
 10
-0.876492
 20
4.329752
  0
VERTEX
  8
PLAN_1
 62
     2
  6
CONTINUOUS
 10
-0.878126
 20
4.329209
  0
VERTEX
  8
PLAN_1
 62
     2
  6
CONTINUOUS
 10
-0.879764
 20
4.328661
  0
VERTEX
  8
PLAN_1
 62
     2
  6
CONTINUOUS
 10
-0.881398
 20
4.327571
  0
VERTEX
  8
PLAN_1
 62
     2
  6
CONTINUOUS
 10
-0.883031
 20
4.326480
  0
VERTEX
  8
PLAN_1
 62
     2
  6
CONTINUOUS
 10
-0.884669
 20
4.324846
  0
VERTEX
  8
PLAN_1
 62
     2
  6
CONTINUOUS
 10
-0.885760
 20
4.323213
  0
VERTEX
  8
PLAN_1
 62
     2
  6
CONTINUOUS
 10
-0.893933
 20
4.323756
  0
VERTEX
  8
PLAN_1
 62
     2
  6
CONTINUOUS
 10
-0.888484
 20
4.363000
  0
VERTEX
  8
PLAN_1
 62
     2
  6
CONTINUOUS
 10
-0.850331
 20
4.363000
  0
VERTEX
  8
PLAN_1
 62
     2
  6
CONTINUOUS
 10
-0.850331
 20
4.354280
  0
VERTEX
  8
PLAN_1
 62
     2
  6
CONTINUOUS
 10
-0.881398
 20
4.354280
  0
VERTEX
  8
PLAN_1
 62
     2
  6
CONTINUOUS
 10
-0.884669
 20
4.334110
  0
SEQEND
  8
0
  0
POLYLINE
  8
PLAN_1
 62
     2
  6
CONTINUOUS
 66
     1
 40
0.003000
 41
0.003000
  0
VERTEX
  8
PLAN_1
 62
     2
  6
CONTINUOUS
 10
-0.838339
 20
4.363000
  0
VERTEX
  8
PLAN_1
 62
     2
  6
CONTINUOUS
 10
-0.787650
 20
4.363000
  0
VERTEX
  8
PLAN_1
 62
     2
  6
CONTINUOUS
 10
-0.787650
 20
4.354823
  0
VERTEX
  8
PLAN_1
 62
     2
  6
CONTINUOUS
 10
-0.790921
 20
4.351555
  0
VERTEX
  8
PLAN_1
 62
     2
  6
CONTINUOUS
 10
-0.794736
 20
4.346650
  0
VERTEX
  8
PLAN_1
 62
     2
  6
CONTINUOUS
 10
-0.799094
 20
4.340106
  0
VERTEX
  8
PLAN_1
 62
     2
  6
CONTINUOUS
 10
-0.803457
 20
4.332476
  0
VERTEX
  8
PLAN_1
 62
     2
  6
CONTINUOUS
 10
-0.807815
 20
4.323756
  0
VERTEX
  8
PLAN_1
 62
     2
  6
CONTINUOUS
 10
-0.811630
 20
4.313945
  0
VERTEX
  8
PLAN_1
 62
     2
  6
CONTINUOUS
 10
-0.813268
 20
4.308496
  0
VERTEX
  8
PLAN_1
 62
     2
  6
CONTINUOUS
 10
-0.814902
 20
4.303043
  0
VERTEX
  8
PLAN_1
 62
     2
  6
CONTINUOUS
 10
-0.816535
 20
4.297594
  0
VERTEX
  8
PLAN_1
 62
     2
  6
CONTINUOUS
 10
-0.817626
 20
4.291598
  0
VERTEX
  8
PLAN_1
 62
     2
  6
CONTINUOUS
 10
-0.827437
 20
4.291598
  0
VERTEX
  8
PLAN_1
 62
     2
  6
CONTINUOUS
 10
-0.826346
 20
4.299228
  0
VERTEX
  8
PLAN_1
 62
     2
  6
CONTINUOUS
 10
-0.824169
 20
4.307406
  0
VERTEX
  8
PLAN_1
 62
     2
  6
CONTINUOUS
 10
-0.820898
 20
4.315579
  0
VERTEX
  8
PLAN_1
 62
     2
  6
CONTINUOUS
 10
-0.817083
 20
4.324303
  0
VERTEX
  8
PLAN_1
 62
     2
  6
CONTINUOUS
 10
-0.812720
 20
4.332476
  0
VERTEX
  8
PLAN_1
 62
     2
  6
CONTINUOUS
 10
-0.807815
 20
4.340106
  0
VERTEX
  8
PLAN_1
 62
     2
  6
CONTINUOUS
 10
-0.802909
 20
4.347740
  0
VERTEX
  8
PLAN_1
 62
     2
  6
CONTINUOUS
 10
-0.798004
 20
4.354280
  0
VERTEX
  8
PLAN_1
 62
     2
  6
CONTINUOUS
 10
-0.838339
 20
4.354280
  0
VERTEX
  8
PLAN_1
 62
     2
  6
CONTINUOUS
 10
-0.838339
 20
4.363000
  0
SEQEND
  8
0
  0
POLYLINE
  8
PLAN_1
 62
     2
  6
CONTINUOUS
 66
     1
 40
0.004358
 41
0.004358
  0
VERTEX
  8
PLAN_1
 62
     2
  6
CONTINUOUS
 10
-2.125756
 20
4.086657
  0
VERTEX
  8
PLAN_1
 62
     2
  6
CONTINUOUS
 10
-1.972051
 20
4.086657
  0
SEQEND
  8
0
  0
SOLID
  8
PLAN_1
 62
     2
 10
-1.942618
 20
4.086657
 11
-2.001480
 21
4.102465
 12
-1.942618
 22
4.086657
 13
-2.001480
 23
4.070850
  0
POLYLINE
  8
PLAN_1
 62
     2
  6
CONTINUOUS
 66
     1
 40
0.003000
 41
0.003000
  0
VERTEX
  8
PLAN_1
 62
     2
  6
CONTINUOUS
 10
-1.942618
 20
4.086657
  0
VERTEX
  8
PLAN_1
 62
     2
  6
CONTINUOUS
 10
-2.001480
 20
4.102465
  0
VERTEX
  8
PLAN_1
 62
     2
  6
CONTINUOUS
 10
-2.001480
 20
4.070850
  0
VERTEX
  8
PLAN_1
 62
     2
  6
CONTINUOUS
 10
-1.942618
 20
4.086657
  0
SEQEND
  8
0
  0
SOLID
  8
PLAN_1
 62
     2
 10
-2.155189
 20
4.086657
 11
-2.096323
 21
4.102465
 12
-2.155189
 22
4.086657
 13
-2.096323
 23
4.070850
  0
POLYLINE
  8
PLAN_1
 62
     2
  6
CONTINUOUS
 66
     1
 40
0.003000
 41
0.003000
  0
VERTEX
  8
PLAN_1
 62
     2
  6
CONTINUOUS
 10
-2.155189
 20
4.086657
  0
VERTEX
  8
PLAN_1
 62
     2
  6
CONTINUOUS
 10
-2.096323
 20
4.102465
  0
VERTEX
  8
PLAN_1
 62
     2
  6
CONTINUOUS
 10
-2.096323
 20
4.070850
  0
VERTEX
  8
PLAN_1
 62
     2
  6
CONTINUOUS
 10
-2.155189
 20
4.086657
  0
SEQEND
  8
0
  0
POLYLINE
  8
PLAN_1
 62
     2
  6
CONTINUOUS
 66
     1
 40
0.003000
 41
0.003000
  0
VERTEX
  8
PLAN_1
 62
     2
  6
CONTINUOUS
 10
-2.062528
 20
4.153154
  0
VERTEX
  8
PLAN_1
 62
     2
  6
CONTINUOUS
 10
-2.061437
 20
4.153701
  0
VERTEX
  8
PLAN_1
 62
     2
  6
CONTINUOUS
 10
-2.059803
 20
4.154791
  0
VERTEX
  8
PLAN_1
 62
     2
  6
CONTINUOUS
 10
-2.058713
 20
4.155335
  0
VERTEX
  8
PLAN_1
 62
     2
  6
CONTINUOUS
 10
-2.056531
 20
4.155878
  0
VERTEX
  8
PLAN_1
 62
     2
  6
CONTINUOUS
 10
-2.054898
 20
4.156425
  0
VERTEX
  8
PLAN_1
 62
     2
  6
CONTINUOUS
 10
-2.052717
 20
4.156969
  0
VERTEX
  8
PLAN_1
 62
     2
  6
CONTINUOUS
 10
-2.050535
 20
4.157516
  0
VERTEX
  8
PLAN_1
 62
     2
  6
CONTINUOUS
 10
-2.048358
 20
4.157516
  0
VERTEX
  8
PLAN_1
 62
     2
  6
CONTINUOUS
 10
-2.043996
 20
4.156969
  0
VERTEX
  8
PLAN_1
 62
     2
  6
CONTINUOUS
 10
-2.039638
 20
4.155878
  0
VERTEX
  8
PLAN_1
 62
     2
  6
CONTINUOUS
 10
-2.035819
 20
4.154244
  0
VERTEX
  8
PLAN_1
 62
     2
  6
CONTINUOUS
 10
-2.032004
 20
4.151520
  0
VERTEX
  8
PLAN_1
 62
     2
  6
CONTINUOUS
 10
-2.028736
 20
4.148248
  0
VERTEX
  8
PLAN_1
 62
     2
  6
CONTINUOUS
 10
-2.026555
 20
4.143890
  0
VERTEX
  8
PLAN_1
 62
     2
  6
CONTINUOUS
 10
-2.025465
 20
4.141709
  0
VERTEX
  8
PLAN_1
 62
     2
  6
CONTINUOUS
 10
-2.024921
 20
4.139528
  0
VERTEX
  8
PLAN_1
 62
     2
  6
CONTINUOUS
 10
-2.024374
 20
4.136803
  0
VERTEX
  8
PLAN_1
 62
     2
  6
CONTINUOUS
 10
-2.024374
 20
4.134079
  0
VERTEX
  8
PLAN_1
 62
     2
  6
CONTINUOUS
 10
-2.024374
 20
4.130807
  0
VERTEX
  8
PLAN_1
 62
     2
  6
CONTINUOUS
 10
-2.025465
 20
4.126449
  0
VERTEX
  8
PLAN_1
 62
     2
  6
CONTINUOUS
 10
-2.026555
 20
4.122630
  0
VERTEX
  8
PLAN_1
 62
     2
  6
CONTINUOUS
 10
-2.029280
 20
4.118272
  0
VERTEX
  8
PLAN_1
 62
     2
  6
CONTINUOUS
 10
-2.030370
 20
4.116091
  0
VERTEX
  8
PLAN_1
 62
     2
  6
CONTINUOUS
 10
-2.032551
 20
4.114457
  0
VERTEX
  8
PLAN_1
 62
     2
  6
CONTINUOUS
 10
-2.034732
 20
4.112819
  0
VERTEX
  8
PLAN_1
 62
     2
  6
CONTINUOUS
 10
-2.036909
 20
4.111185
  0
VERTEX
  8
PLAN_1
 62
     2
  6
CONTINUOUS
 10
-2.040181
 20
4.110094
  0
VERTEX
  8
PLAN_1
 62
     2
  6
CONTINUOUS
 10
-2.043453
 20
4.109004
  0
VERTEX
  8
PLAN_1
 62
     2
  6
CONTINUOUS
 10
-2.046720
 20
4.108461
  0
VERTEX
  8
PLAN_1
 62
     2
  6
CONTINUOUS
 10
-2.051083
 20
4.108461
  0
VERTEX
  8
PLAN_1
 62
     2
  6
CONTINUOUS
 10
-2.054354
 20
4.108461
  0
VERTEX
  8
PLAN_1
 62
     2
  6
CONTINUOUS
 10
-2.058169
 20
4.109004
  0
VERTEX
  8
PLAN_1
 62
     2
  6
CONTINUOUS
 10
-2.061984
 20
4.110642
  0
VERTEX
  8
PLAN_1
 62
     2
  6
CONTINUOUS
 10
-2.065799
 20
4.112276
  0
VERTEX
  8
PLAN_1
 62
     2
  6
CONTINUOUS
 10
-2.069067
 20
4.115000
  0
VERTEX
  8
PLAN_1
 62
     2
  6
CONTINUOUS
 10
-2.071248
 20
4.118272
  0
VERTEX
  8
PLAN_1
 62
     2
  6
CONTINUOUS
 10
-2.072339
 20
4.120453
  0
VERTEX
  8
PLAN_1
 62
     2
  6
CONTINUOUS
 10
-2.073429
 20
4.123177
  0
VERTEX
  8
PLAN_1
 62
     2
  6
CONTINUOUS
 10
-2.073972
 20
4.125902
  0
VERTEX
  8
PLAN_1
 62
     2
  6
CONTINUOUS
 10
-2.074520
 20
4.128626
  0
VERTEX
  8
PLAN_1
 62
     2
  6
CONTINUOUS
 10
-2.065252
 20
4.128626
  0
VERTEX
  8
PLAN_1
 62
     2
  6
CONTINUOUS
 10
-2.064709
 20
4.125358
  0
VERTEX
  8
PLAN_1
 62
     2
  6
CONTINUOUS
 10
-2.063618
 20
4.123177
  0
VERTEX
  8
PLAN_1
 62
     2
  6
CONTINUOUS
 10
-2.061984
 20
4.120996
  0
VERTEX
  8
PLAN_1
 62
     2
  6
CONTINUOUS
 10
-2.059803
 20
4.119362
  0
VERTEX
  8
PLAN_1
 62
     2
  6
CONTINUOUS
 10
-2.057622
 20
4.117724
  0
VERTEX
  8
PLAN_1
 62
     2
  6
CONTINUOUS
 10
-2.055441
 20
4.117181
  0
VERTEX
  8
PLAN_1
 62
     2
  6
CONTINUOUS
 10
-2.052717
 20
4.116638
  0
VERTEX
  8
PLAN_1
 62
     2
  6
CONTINUOUS
 10
-2.049449
 20
4.116091
  0
VERTEX
  8
PLAN_1
 62
     2
  6
CONTINUOUS
 10
-2.046177
 20
4.116638
  0
VERTEX
  8
PLAN_1
 62
     2
  6
CONTINUOUS
 10
-2.042906
 20
4.117724
  0
VERTEX
  8
PLAN_1
 62
     2
  6
CONTINUOUS
 10
-2.040724
 20
4.119362
  0
VERTEX
  8
PLAN_1
 62
     2
  6
CONTINUOUS
 10
-2.038547
 20
4.120996
  0
VERTEX
  8
PLAN_1
 62
     2
  6
CONTINUOUS
 10
-2.036366
 20
4.123720
  0
VERTEX
  8
PLAN_1
 62
     2
  6
CONTINUOUS
 10
-2.035276
 20
4.126449
  0
VERTEX
  8
PLAN_1
 62
     2
  6
CONTINUOUS
 10
-2.034185
 20
4.129717
  0
VERTEX
  8
PLAN_1
 62
     2
  6
CONTINUOUS
 10
-2.034185
 20
4.132988
  0
VERTEX
  8
PLAN_1
 62
     2
  6
CONTINUOUS
 10
-2.034732
 20
4.136803
  0
VERTEX
  8
PLAN_1
 62
     2
  6
CONTINUOUS
 10
-2.035276
 20
4.140075
  0
VERTEX
  8
PLAN_1
 62
     2
  6
CONTINUOUS
 10
-2.036909
 20
4.142799
  0
VERTEX
  8
PLAN_1
 62
     2
  6
CONTINUOUS
 10
-2.039091
 20
4.144980
  0
VERTEX
  8
PLAN_1
 62
     2
  6
CONTINUOUS
 10
-2.041272
 20
4.147157
  0
VERTEX
  8
PLAN_1
 62
     2
  6
CONTINUOUS
 10
-2.043996
 20
4.148248
  0
VERTEX
  8
PLAN_1
 62
     2
  6
CONTINUOUS
 10
-2.047268
 20
4.148795
  0
VERTEX
  8
PLAN_1
 62
     2
  6
CONTINUOUS
 10
-2.050535
 20
4.149339
  0
VERTEX
  8
PLAN_1
 62
     2
  6
CONTINUOUS
 10
-2.052173
 20
4.149339
  0
VERTEX
  8
PLAN_1
 62
     2
  6
CONTINUOUS
 10
-2.054354
 20
4.148795
  0
VERTEX
  8
PLAN_1
 62
     2
  6
CONTINUOUS
 10
-2.055988
 20
4.148248
  0
VERTEX
  8
PLAN_1
 62
     2
  6
CONTINUOUS
 10
-2.057622
 20
4.147705
  0
VERTEX
  8
PLAN_1
 62
     2
  6
CONTINUOUS
 10
-2.059260
 20
4.146614
  0
VERTEX
  8
PLAN_1
 62
     2
  6
CONTINUOUS
 10
-2.060894
 20
4.145524
  0
VERTEX
  8
PLAN_1
 62
     2
  6
CONTINUOUS
 10
-2.062528
 20
4.143890
  0
VERTEX
  8
PLAN_1
 62
     2
  6
CONTINUOUS
 10
-2.064161
 20
4.142252
  0
VERTEX
  8
PLAN_1
 62
     2
  6
CONTINUOUS
 10
-2.071795
 20
4.142799
  0
VERTEX
  8
PLAN_1
 62
     2
  6
CONTINUOUS
 10
-2.066343
 20
4.182043
  0
VERTEX
  8
PLAN_1
 62
     2
  6
CONTINUOUS
 10
-2.028189
 20
4.182043
  0
VERTEX
  8
PLAN_1
 62
     2
  6
CONTINUOUS
 10
-2.028189
 20
4.172776
  0
VERTEX
  8
PLAN_1
 62
     2
  6
CONTINUOUS
 10
-2.059260
 20
4.172776
  0
VERTEX
  8
PLAN_1
 62
     2
  6
CONTINUOUS
 10
-2.062528
 20
4.153154
  0
SEQEND
  8
0
  0
POLYLINE
  8
PLAN_1
 62
     2
  6
CONTINUOUS
 66
     1
 40
0.004358
 41
0.004358
  0
VERTEX
  8
PLAN_1
 62
     2
  6
CONTINUOUS
 10
-2.155189
 20
4.110642
  0
VERTEX
  8
PLAN_1
 62
     2
  6
CONTINUOUS
 10
-2.155189
 20
3.931862
  0
SEQEND
  8
0
  0
POLYLINE
  8
PLAN_1
 62
     2
  6
CONTINUOUS
 66
     1
 40
0.004358
 41
0.004358
  0
VERTEX
  8
PLAN_1
 62
     2
  6
CONTINUOUS
 10
-1.237319
 20
3.926957
  0
VERTEX
  8
PLAN_1
 62
     2
  6
CONTINUOUS
 10
0.545004
 20
3.926957
  0
SEQEND
  8
0
  0
POLYLINE
  8
PLAN_1
 62
     2
  6
CONTINUOUS
 66
     1
 40
0.004358
 41
0.004358
  0
VERTEX
  8
PLAN_1
 62
     2
  6
CONTINUOUS
 10
-1.942618
 20
4.110642
  0
VERTEX
  8
PLAN_1
 62
     2
  6
CONTINUOUS
 10
-1.942618
 20
3.931862
  0
SEQEND
  8
0
  0
POLYLINE
  8
PLAN_1
 62
     2
  6
CONTINUOUS
 66
     1
 40
0.004358
 41
0.004358
  0
VERTEX
  8
PLAN_1
 62
     2
  6
CONTINUOUS
 10
-1.368130
 20
4.110642
  0
VERTEX
  8
PLAN_1
 62
     2
  6
CONTINUOUS
 10
-1.368130
 20
3.960205
  0
SEQEND
  8
0
  0
POLYLINE
  8
PLAN_1
 62
     2
  6
CONTINUOUS
 66
     1
 40
0.004358
 41
0.004358
  0
VERTEX
  8
PLAN_1
 62
     2
  6
CONTINUOUS
 10
0.353146
 20
1.504197
  0
VERTEX
  8
PLAN_1
 62
     2
  6
CONTINUOUS
 10
0.353146
 20
3.898071
  0
SEQEND
  8
0
  0
POLYLINE
  8
PLAN_1
 62
     2
  6
CONTINUOUS
 66
     1
 40
0.004358
 41
0.004358
  0
VERTEX
  8
PLAN_1
 62
     2
  6
CONTINUOUS
 10
0.353146
 20
3.968925
  0
VERTEX
  8
PLAN_1
 62
     2
  6
CONTINUOUS
 10
0.353146
 20
4.291598
  0
SEQEND
  8
0
  0
POLYLINE
  8
PLAN_1
 62
     2
  6
CONTINUOUS
 66
     1
 40
0.004358
 41
0.004358
  0
VERTEX
  8
PLAN_1
 62
     2
  6
CONTINUOUS
 10
-2.036909
 20
4.205480
  0
VERTEX
  8
PLAN_1
 62
     2
  6
CONTINUOUS
 10
-2.036909
 20
4.291598
  0
SEQEND
  8
0
  0
ENDSEC
  0
EOF
