999
DXF file: C:\Users\sesa63760\Dev\_Creo\CAD\MCADID0000902_3D-CAD\drw0001_2.dxf
999
Pro/ENGINEER 2019471 by Parametric Technology Corporation
  0
SECTION
  2
HEADER
  9
$ACADVER
  1
AC1024
  9
$DWGCODEPAGE
  3
ANSI_1252
  9
$EXTMAX
 10
289.4676613631
 20
409.3899782136
 30
0.0
  9
$EXTMIN
 10
0.0
 20
0.0
 30
0.0
  9
$LIMMIN
 10
0.0
 20
0.0
  9
$LIMMAX
 10
289.4676613631
 20
409.3899782136
  9
$VIEWCTR
 10
144.7338306816
 20
204.6949891068
  9
$VIEWSIZE
 40
409.3899782136
  9
$CLAYER
  8
0
  9
$LTSCALE
 40
26.6861615428
  9
$CELTYPE
  6
BYLAYER
  9
$DIMSCALE
 40
1.0
  9
$DIMASZ
 40
3.4460435877
  9
$DIMEXO
 40
1.0
  9
$DIMDLI
 40
18.4377116114
  9
$DIMEXE
 40
1.0
  9
$DIMCEN
 40
4.3668264343
  9
$DIMLFAC
 40
1.0
  9
$DIMBLK
  1
_FILLED
  9
$DIMALT
 70
0
  9
$DIMALTF
 40
0.0393700787
  9
$DIMTXT
 40
4.8244610227
  9
$DIMTOL
 70
1
  9
$DIMLIM
 70
0
  9
$DIMTFAC
 40
1.0
  9
$DIMTP
 40
0.01
  9
$DIMTM
 40
0.01
  9
$DIMGAP
 40
0.625
  9
$DIMDSEP
 70
46
  9
$AUNITS
 70
0
  9
$PDMODE
 70
3
  9
$PDSIZE
 40
0.3125
  9
$HANDSEED
  5
3C6
  9
$TILEMODE
 70
1
  9
$MEASUREMENT
 70
1
  9
$INSUNITS
 70
4
  0
ENDSEC
  0
SECTION
  2
CLASSES
  0
CLASS
  1
ACDBDICTIONARYWDFLT
  2
AcDbDictionaryWithDefault
  3
AutoCAD 2000
 90
0
 91
1
280
0
281
0
  0
CLASS
  1
ACDBPLACEHOLDER
  2
AcDbPlaceHolder
  3
AutoCAD 2000
 90
0
 91
1
280
0
281
0
  0
CLASS
  1
LAYOUT
  2
AcDbLayout
  3
AutoCAD 2000
 90
0
 91
0
280
0
281
0
  0
ENDSEC
  0
SECTION
  2
TABLES
  0
TABLE
  2
VPORT
  5
8
100
AcDbSymbolTable
 70
2
  0
VPORT
  5
1F4
100
AcDbSymbolTableRecord
100
AcDbViewportTableRecord
  2
*ACTIVE
 70
0
 10
0.0
 20
0.0
 11
1.0
 21
1.0
 12
144.7338306816
 22
204.6949891068
 13
0.0
 23
0.0
 14
1.0
 24
1.0
 15
0.0
 25
0.0
 16
0.0
 26
0.0
 36
1.0
 17
0.0
 27
0.0
 37
0.0
 40
409.3899782136
 41
0.7070707071
 42
50.0
 43
0.0
 44
0.0
 50
0.0
 51
0.0
 71
0
 72
100
 73
1
 74
1
 75
0
 76
0
 77
0
 78
0
  0
ENDTAB
  0
TABLE
  2
LTYPE
  5
5
100
AcDbSymbolTable
 70
6
  0
LTYPE
  5
14
100
AcDbSymbolTableRecord
100
AcDbLinetypeTableRecord
  2
BYBLOCK
 70
0
  3

 72
65
 73
0
 40
0.0
  0
LTYPE
  5
15
100
AcDbSymbolTableRecord
100
AcDbLinetypeTableRecord
  2
BYLAYER
 70
0
  3

 72
65
 73
0
 40
0.0
  0
LTYPE
  5
16
100
AcDbSymbolTableRecord
100
AcDbLinetypeTableRecord
  2
CONTINUOUS
 70
64
  3
Solid line
 72
65
 73
0
 40
0.0
  0
LTYPE
  5
1F5
100
AcDbSymbolTableRecord
100
AcDbLinetypeTableRecord
  2
CENTER
 70
64
  3
____ _ ____ _ ____ _ ____ _ ____ _ ____ _ ____
 72
65
 73
4
 40
0.6
 49
0.375
 74
0
 49
-0.075
 74
0
 49
0.075
 74
0
 49
-0.075
 74
0
  0
LTYPE
  5
1F6
100
AcDbSymbolTableRecord
100
AcDbLinetypeTableRecord
  2
HIDDEN
 70
64
  3
- - - - - - - - - - - - - - - - - - - -
 72
65
 73
2
 40
0.2
 49
0.1
 74
0
 49
-0.1
 74
0
  0
LTYPE
  5
1F7
100
AcDbSymbolTableRecord
100
AcDbLinetypeTableRecord
  2
PHANTOM
 70
64
  3
_____ _ _ _____ _ _ _____ _ _ _____
 72
65
 73
6
 40
0.8
 49
0.45
 74
0
 49
-0.05
 74
0
 49
0.1
 74
0
 49
-0.05
 74
0
 49
0.1
 74
0
 49
-0.05
 74
0
  0
LTYPE
  5
1F8
100
AcDbSymbolTableRecord
100
AcDbLinetypeTableRecord
  2
DOT
 70
64
  3
. . . . . . . . . . . . . . . . . . . .
 72
65
 73
2
 40
0.2
 49
0.1
 74
0
 49
-0.1
 74
0
  0
LTYPE
  5
1F9
100
AcDbSymbolTableRecord
100
AcDbLinetypeTableRecord
  2
DASHED
 70
64
  3
- - - - - - - - - - - - - - - - - - - -
 72
65
 73
2
 40
0.2
 49
0.1
 74
0
 49
-0.1
 74
0
  0
ENDTAB
  0
TABLE
  2
LAYER
  5
2
100
AcDbSymbolTable
 70
36
  0
LAYER
  5
10
100
AcDbSymbolTableRecord
100
AcDbLayerTableRecord
  2
0
 70
0
 62
7
  6
CONTINUOUS
370
-3
390
F
  0
LAYER
  5
1FA
100
AcDbSymbolTableRecord
100
AcDbLayerTableRecord
  2
DEFAULT_1
 70
0
 62
7
  6
CENTER
370
-3
390
F
  0
LAYER
  5
1FB
100
AcDbSymbolTableRecord
100
AcDbLayerTableRecord
  2
DEFAULT_2
 70
0
 62
8
  6
HIDDEN
370
-3
390
F
  0
LAYER
  5
1FC
100
AcDbSymbolTableRecord
100
AcDbLayerTableRecord
  2
DEFAULT_3
 70
0
 62
7
  6
PHANTOM
370
-3
390
F
  0
LAYER
  5
1FD
100
AcDbSymbolTableRecord
100
AcDbLayerTableRecord
  2
00_COMPONENTS
 70
0
 62
7
  6
CONTINUOUS
370
-3
390
F
  0
LAYER
  5
1FE
100
AcDbSymbolTableRecord
100
AcDbLayerTableRecord
  2
01_1_DEFAULT_DATUMS
 70
0
 62
7
  6
CONTINUOUS
370
-3
390
F
  0
LAYER
  5
1FF
100
AcDbSymbolTableRecord
100
AcDbLayerTableRecord
  2
01_PLANES
 70
0
 62
7
  6
CONTINUOUS
370
-3
390
F
  0
LAYER
  5
200
100
AcDbSymbolTableRecord
100
AcDbLayerTableRecord
  2
02_COORD_SYS
 70
0
 62
7
  6
CONTINUOUS
370
-3
390
F
  0
LAYER
  5
201
100
AcDbSymbolTableRecord
100
AcDbLayerTableRecord
  2
03_AXES
 70
0
 62
7
  6
CONTINUOUS
370
-3
390
F
  0
LAYER
  5
202
100
AcDbSymbolTableRecord
100
AcDbLayerTableRecord
  2
04_POINTS
 70
0
 62
7
  6
CONTINUOUS
370
-3
390
F
  0
LAYER
  5
203
100
AcDbSymbolTableRecord
100
AcDbLayerTableRecord
  2
05_CURVES
 70
0
 62
7
  6
CONTINUOUS
370
-3
390
F
  0
LAYER
  5
204
100
AcDbSymbolTableRecord
100
AcDbLayerTableRecord
  2
06_SURFS
 70
0
 62
7
  6
CONTINUOUS
370
-3
390
F
  0
LAYER
  5
205
100
AcDbSymbolTableRecord
100
AcDbLayerTableRecord
  2
07_COSMETICS
 70
0
 62
7
  6
CONTINUOUS
370
-3
390
F
  0
LAYER
  5
206
100
AcDbSymbolTableRecord
100
AcDbLayerTableRecord
  2
10_NOTES
 70
0
 62
7
  6
CONTINUOUS
370
-3
390
F
  0
LAYER
  5
207
100
AcDbSymbolTableRecord
100
AcDbLayerTableRecord
  2
11_NOTES_PUB
 70
0
 62
7
  6
CONTINUOUS
370
-3
390
F
  0
LAYER
  5
208
100
AcDbSymbolTableRecord
100
AcDbLayerTableRecord
  2
13_REF_GTOL
 70
0
 62
7
  6
CONTINUOUS
370
-3
390
F
  0
LAYER
  5
209
100
AcDbSymbolTableRecord
100
AcDbLayerTableRecord
  2
16_MISC
 70
0
 62
7
  6
CONTINUOUS
370
-3
390
F
  0
LAYER
  5
20A
100
AcDbSymbolTableRecord
100
AcDbLayerTableRecord
  2
17_NO_PRINT
 70
0
 62
7
  6
CONTINUOUS
370
-3
390
F
  0
LAYER
  5
20B
100
AcDbSymbolTableRecord
100
AcDbLayerTableRecord
  2
18_DATUM_CAMS_JOINTS
 70
0
 62
7
  6
CONTINUOUS
370
-3
390
F
  0
LAYER
  5
20C
100
AcDbSymbolTableRecord
100
AcDbLayerTableRecord
  2
19_DATUM_FUNCTIONAL
 70
0
 62
7
  6
CONTINUOUS
370
-3
390
F
  0
LAYER
  5
20D
100
AcDbSymbolTableRecord
100
AcDbLayerTableRecord
  2
20_DATUM_KINEMATIC_SCHEME
 70
0
 62
7
  6
CONTINUOUS
370
-3
390
F
  0
ENDTAB
  0
TABLE
  2
STYLE
  5
3
100
AcDbSymbolTable
 70
1
  0
STYLE
  5
11
100
AcDbSymbolTableRecord
100
AcDbTextStyleTableRecord
  2
STANDARD
 70
0
 40
0.0
 41
0.8
 50
0.0
 71
0
 42
0.2
  3
txt
  4

  0
STYLE
  5
20E
100
AcDbSymbolTableRecord
100
AcDbTextStyleTableRecord
  2
TEXTSTYLE_1
 70
0
 40
0.0
 41
0.8
 50
0.0
 71
0
 42
0.2
  3
gdt
  4

  0
ENDTAB
  0
TABLE
  2
VIEW
  5
6
100
AcDbSymbolTable
 70
0
  0
ENDTAB
  0
TABLE
  2
UCS
  5
7
100
AcDbSymbolTable
 70
0
  0
ENDTAB
  0
TABLE
  2
APPID
  5
9
100
AcDbSymbolTable
 70
1
  0
APPID
  5
20F
100
AcDbSymbolTableRecord
100
AcDbRegAppTableRecord
  2
ACAD
 70
0
  0
ENDTAB
  0
TABLE
  2
BLOCK_RECORD
  5
1
100
AcDbSymbolTable
 70
0
  0
BLOCK_RECORD
  5
210
100
AcDbSymbolTableRecord
100
AcDbBlockTableRecord
  2
*Model_Space
  0
BLOCK_RECORD
  5
211
100
AcDbSymbolTableRecord
100
AcDbBlockTableRecord
  2
*Paper_Space
  0
BLOCK_RECORD
  5
212
100
AcDbSymbolTableRecord
100
AcDbBlockTableRecord
  2
_FILLED
  0
ENDTAB
  0
TABLE
  2
DIMSTYLE
  5
A
100
AcDbSymbolTable
 70
1
100
AcDbDimStyleTable
 71
0
  0
DIMSTYLE
105
213
100
AcDbSymbolTableRecord
100
AcDbDimStyleTableRecord
  2
STANDARD
 70
0
  3

  4

 40
1.0
 41
3.4460435877
 42
1.0
 43
0.38
 44
1.0
 45
0.0
 46
0.0
 47
0.01
 48
0.01
140
4.8244610227
141
0.09
142
0.0
143
25.4
144
1.0
145
0.0
146
1.0
147
0.625
 71
1
 72
0
 73
0
 74
0
 75
0
 76
0
 77
1
 78
8
 79
2
170
0
171
1
172
0
173
0
174
0
175
0
176
0
177
0
178
0
270
2
179
2
271
2
272
2
273
2
274
2
275
0
280
0
281
0
282
0
283
1
284
8
285
0
286
0
287
3
288
0
340
11
278
46
341
212
342
212
343
212
344
212
  0
ENDTAB
  0
ENDSEC
  0
SECTION
  2
BLOCKS
  0
BLOCK
  5
20
100
AcDbEntity
  8
0
100
AcDbBlockBegin
  2
*Model_Space
 70
0
 10
0.0
 20
0.0
 30
0.0
  3
*Model_Space
  1

  0
ENDBLK
  5
21
100
AcDbEntity
  8
0
100
AcDbBlockEnd
  0
BLOCK
  5
1C
100
AcDbEntity
  8
0
100
AcDbBlockBegin
  2
*Paper_Space
 70
0
 10
0.0
 20
0.0
 30
0.0
  3
*Paper_Space
  1

  0
ENDBLK
  5
1D
100
AcDbEntity
  8
0
100
AcDbBlockEnd
  0
BLOCK
  5
214
100
AcDbEntity
  8
0
100
AcDbBlockBegin
  2
_FILLED
 70
64
 10
0.0
 20
0.0
  3
_FILLED
  1

  0
SOLID
  5
215
100
AcDbEntity
  8
0
  6
BYBLOCK
 62
0
100
AcDbTrace
 10
0.0
 20
0.0
 11
-1.0
 21
0.25
 12
-1.0
 22
-0.25
 13
-1.0
 23
-0.25
  0
ENDBLK
  5
216
100
AcDbEntity
  8
0
  6
BYBLOCK
 62
0
100
AcDbBlockEnd
  0
ENDSEC
  0
SECTION
  2
ENTITIES
  0
LINE
  5
217
100
AcDbEntity
  8
0
100
AcDbLine
 62
7
  6
CONTINUOUS
 10
31.73818798
 20
102.5433551199
 11
31.73818798
 21
99.5433551199
  0
LINE
  5
218
100
AcDbEntity
  8
0
100
AcDbLine
 62
7
  6
CONTINUOUS
 10
33.73818798
 20
102.5433551199
 11
33.73818798
 21
99.5433551199
  0
LINE
  5
219
100
AcDbEntity
  8
0
100
AcDbLine
 62
7
  6
CONTINUOUS
 10
33.93818798
 20
164.5433551199
 11
33.93818798
 21
167.5433551199
  0
LINE
  5
21A
100
AcDbEntity
  8
0
100
AcDbLine
 62
7
  6
CONTINUOUS
 10
33.1572983874
 20
180.0433551199
 11
33.1572139883
 21
179.5608048682
  0
LINE
  5
21B
100
AcDbEntity
  8
0
100
AcDbLine
 62
7
  6
CONTINUOUS
 10
31.73818798
 20
167.5433551199
 11
32.1578465726
 21
179.5608048682
  0
LINE
  5
21C
100
AcDbEntity
  8
0
100
AcDbLine
 62
7
  6
CONTINUOUS
 10
33.1572373996
 20
179.5608048682
 11
32.737578807
 21
167.5433551199
  0
LINE
  5
21D
100
AcDbEntity
  8
0
100
AcDbLine
 62
7
  6
CONTINUOUS
 10
42.7143705774
 20
180.0433551199
 11
42.68818798
 21
181.5433551199
  0
LINE
  5
21E
100
AcDbEntity
  8
0
100
AcDbLine
 62
7
  6
CONTINUOUS
 10
43.2163708105
 20
277.5433551199
 11
43.2120073767
 21
278.0433551199
  0
LINE
  5
21F
100
AcDbEntity
  8
0
100
AcDbLine
 62
7
  6
CONTINUOUS
 10
35.93818798
 20
164.5433551199
 11
35.93818798
 21
167.5433551199
  0
LINE
  5
220
100
AcDbEntity
  8
0
100
AcDbLine
 62
7
  6
CONTINUOUS
 10
41.73818798
 20
180.0433551199
 11
41.73818798
 21
167.5433551199
  0
LINE
  5
221
100
AcDbEntity
  8
0
100
AcDbLine
 62
7
  6
CONTINUOUS
 10
41.93818798
 20
167.5433551199
 11
41.93818798
 21
164.5433551199
  0
LINE
  5
222
100
AcDbEntity
  8
0
100
AcDbLine
 62
7
  6
CONTINUOUS
 10
42.2177740889
 20
277.1538259003
 11
42.2177740889
 21
277.5433551199
  0
LINE
  5
223
100
AcDbEntity
  8
0
100
AcDbLine
 62
7
  6
CONTINUOUS
 10
44.43818798
 20
180.0433551199
 11
44.438187985
 21
277.5433551199
  0
LINE
  5
224
100
AcDbEntity
  8
0
100
AcDbLine
 62
7
  6
CONTINUOUS
 10
35.18818798
 20
181.5433551199
 11
35.1620053826
 21
180.0433551199
  0
LINE
  5
225
100
AcDbEntity
  8
0
100
AcDbLine
 62
7
  6
CONTINUOUS
 10
41.23818798
 20
278.0433551199
 11
41.6390902455
 21
285.6930260466
  0
LINE
  5
226
100
AcDbEntity
  8
0
100
AcDbLine
 62
7
  6
CONTINUOUS
 10
36.2070411689
 20
181.5433551199
 11
41.2183219928
 21
277.1642895025
  0
LINE
  5
227
100
AcDbEntity
  8
0
100
AcDbLine
 62
7
  6
CONTINUOUS
 10
42.086129392
 20
285.6930262888
 11
41.6850478238
 21
278.0433552953
  0
LINE
  5
228
100
AcDbEntity
  8
0
100
AcDbLine
 62
7
  6
CONTINUOUS
 10
42.2177740889
 20
277.1538258991
 11
37.2070416391
 21
181.5433551199
  0
LINE
  5
229
100
AcDbEntity
  8
0
100
AcDbLine
 62
7
  6
CONTINUOUS
 10
48.7446127321
 20
288.8848100048
 11
49.713355496
 21
307.3695230981
  0
LINE
  5
22A
100
AcDbEntity
  8
0
100
AcDbLine
 62
7
  6
CONTINUOUS
 10
31.73818798
 20
99.5433551199
 11
49.93818798
 21
99.5433551199
  0
LINE
  5
22B
100
AcDbEntity
  8
0
100
AcDbLine
 62
7
  6
CONTINUOUS
 10
243.53818798
 20
99.5433551199
 11
261.73818798
 21
99.5433551199
  0
LINE
  5
22C
100
AcDbEntity
  8
0
100
AcDbLine
 62
7
  6
CONTINUOUS
 10
44.7582096784
 20
277.5461481585
 11
44.7538706189
 21
278.0433551199
  0
LINE
  5
22D
100
AcDbEntity
  8
0
100
AcDbLine
 62
7
  6
CONTINUOUS
 10
52.7338245461
 20
278.0433551199
 11
52.73818798
 21
277.5433551199
  0
LINE
  5
22E
100
AcDbEntity
  8
0
100
AcDbLine
 62
7
  6
CONTINUOUS
 10
47.93818798
 20
102.5433551199
 11
47.93818798
 21
167.5433551199
  0
LINE
  5
22F
100
AcDbEntity
  8
0
100
AcDbLine
 62
7
  6
CONTINUOUS
 10
49.93818798
 20
166.5433551199
 11
49.93818798
 21
167.5433551199
  0
LINE
  5
230
100
AcDbEntity
  8
0
100
AcDbLine
 62
7
  6
CONTINUOUS
 10
50.93818798
 20
100.5433551199
 11
50.93818798
 21
163.5433551199
  0
LINE
  5
231
100
AcDbEntity
  8
0
100
AcDbLine
 62
7
  6
CONTINUOUS
 10
47.1572983874
 20
180.0433551199
 11
47.1572139883
 21
179.5608048682
  0
LINE
  5
232
100
AcDbEntity
  8
0
100
AcDbLine
 62
7
  6
CONTINUOUS
 10
49.5978108541
 20
180.5302666457
 11
52.1279877984
 21
277.1538258992
  0
LINE
  5
233
100
AcDbEntity
  8
0
100
AcDbLine
 62
7
  6
CONTINUOUS
 10
45.73818798
 20
167.5433551199
 11
46.1578465726
 21
179.5608048682
  0
LINE
  5
234
100
AcDbEntity
  8
0
100
AcDbLine
 62
7
  6
CONTINUOUS
 10
47.1572373996
 20
179.5608048682
 11
46.737578807
 21
167.5433551199
  0
LINE
  5
235
100
AcDbEntity
  8
0
100
AcDbLine
 62
7
  6
CONTINUOUS
 10
31.73818798
 20
102.5433551199
 11
47.93818798
 21
102.5433551199
  0
LINE
  5
236
100
AcDbEntity
  8
0
100
AcDbLine
 62
7
  6
CONTINUOUS
 10
245.53818798
 20
102.5433551199
 11
261.73818798
 21
102.5433551199
  0
LINE
  5
237
100
AcDbEntity
  8
0
100
AcDbLine
 62
7
  6
CONTINUOUS
 10
60.7459995171
 20
163.5512284034
 11
61.2381558963
 21
101.0434933011
  0
LINE
  5
238
100
AcDbEntity
  8
0
100
AcDbLine
 62
7
  6
CONTINUOUS
 10
63.2381569853
 20
101.0354818363
 11
63.7303764429
 21
163.5512284035
  0
LINE
  5
239
100
AcDbEntity
  8
0
100
AcDbLine
 62
7
  6
CONTINUOUS
 10
62.73818798
 20
277.5433551199
 11
62.7425514139
 21
278.0433551199
  0
LINE
  5
23A
100
AcDbEntity
  8
0
100
AcDbLine
 62
7
  6
CONTINUOUS
 10
73.7459995171
 20
163.5512284034
 11
74.2381558963
 21
101.0434933011
  0
LINE
  5
23B
100
AcDbEntity
  8
0
100
AcDbLine
 62
7
  6
CONTINUOUS
 10
72.5030113198
 20
277.5433551199
 11
72.5009977093
 21
278.0433551199
  0
LINE
  5
23C
100
AcDbEntity
  8
0
100
AcDbLine
 62
7
  6
CONTINUOUS
 10
76.258448535
 20
277.5433551199
 11
76.2564334877
 21
278.0433551653
  0
LINE
  5
23D
100
AcDbEntity
  8
0
100
AcDbLine
 62
7
  6
CONTINUOUS
 10
76.2381569852
 20
101.0354818363
 11
76.7303764429
 21
163.5512284035
  0
LINE
  5
23E
100
AcDbEntity
  8
0
100
AcDbLine
 62
7
  6
CONTINUOUS
 10
86.7459995171
 20
163.5512284035
 11
87.2381558963
 21
101.0434933011
  0
LINE
  5
23F
100
AcDbEntity
  8
0
100
AcDbLine
 62
7
  6
CONTINUOUS
 10
89.2381569852
 20
101.0354818363
 11
89.7303764429
 21
163.5512284035
  0
LINE
  5
240
100
AcDbEntity
  8
0
100
AcDbLine
 62
7
  6
CONTINUOUS
 10
90.2434244995
 20
308.1433551199
 11
90.23818798
 21
307.8433551199
  0
LINE
  5
241
100
AcDbEntity
  8
0
100
AcDbLine
 62
7
  6
CONTINUOUS
 10
99.7459995172
 20
163.5512284035
 11
100.2381558963
 21
101.0434933011
  0
LINE
  5
242
100
AcDbEntity
  8
0
100
AcDbLine
 62
7
  6
CONTINUOUS
 10
106.2384204413
 20
307.8434679402
 11
106.2383993733
 21
307.2528696567
  0
LINE
  5
243
100
AcDbEntity
  8
0
100
AcDbLine
 62
7
  6
CONTINUOUS
 10
102.2381569852
 20
101.0354818363
 11
102.7303764429
 21
163.5512284035
  0
LINE
  5
244
100
AcDbEntity
  8
0
100
AcDbLine
 62
7
  6
CONTINUOUS
 10
110.7329514605
 20
308.1433551199
 11
110.73818798
 21
307.8433551199
  0
LINE
  5
245
100
AcDbEntity
  8
0
100
AcDbLine
 62
7
  6
CONTINUOUS
 10
112.7459995171
 20
163.5512284034
 11
113.2381558963
 21
101.0434933011
  0
LINE
  5
246
100
AcDbEntity
  8
0
100
AcDbLine
 62
7
  6
CONTINUOUS
 10
115.2381569852
 20
101.0354818363
 11
115.7303764429
 21
163.5512284034
  0
LINE
  5
247
100
AcDbEntity
  8
0
100
AcDbLine
 62
7
  6
CONTINUOUS
 10
259.53818798
 20
164.5433551199
 11
248.53818798
 21
164.5433551199
  0
LINE
  5
248
100
AcDbEntity
  8
0
100
AcDbLine
 62
7
  6
CONTINUOUS
 10
241.53818798
 20
164.5433551199
 11
233.730345448
 21
164.5433551199
  0
LINE
  5
249
100
AcDbEntity
  8
0
100
AcDbLine
 62
7
  6
CONTINUOUS
 10
228.7460305118
 20
164.5433551199
 11
220.7303454481
 21
164.5433551199
  0
LINE
  5
24A
100
AcDbEntity
  8
0
100
AcDbLine
 62
7
  6
CONTINUOUS
 10
215.7460305119
 20
164.5433551199
 11
207.730345448
 21
164.5433551199
  0
LINE
  5
24B
100
AcDbEntity
  8
0
100
AcDbLine
 62
7
  6
CONTINUOUS
 10
202.7460305118
 20
164.5433551199
 11
194.7303454481
 21
164.5433551199
  0
LINE
  5
24C
100
AcDbEntity
  8
0
100
AcDbLine
 62
7
  6
CONTINUOUS
 10
189.7460305119
 20
164.5433551199
 11
181.730345448
 21
164.5433551199
  0
LINE
  5
24D
100
AcDbEntity
  8
0
100
AcDbLine
 62
7
  6
CONTINUOUS
 10
176.7460305118
 20
164.5433551199
 11
168.7303454481
 21
164.5433551199
  0
LINE
  5
24E
100
AcDbEntity
  8
0
100
AcDbLine
 62
7
  6
CONTINUOUS
 10
163.7460305119
 20
164.5433551199
 11
155.7303454482
 21
164.5433551199
  0
LINE
  5
24F
100
AcDbEntity
  8
0
100
AcDbLine
 62
7
  6
CONTINUOUS
 10
150.7460305119
 20
164.5433551199
 11
142.7303454481
 21
164.5433551199
  0
LINE
  5
250
100
AcDbEntity
  8
0
100
AcDbLine
 62
7
  6
CONTINUOUS
 10
137.7460305119
 20
164.5433551199
 11
129.7303454481
 21
164.5433551199
  0
LINE
  5
251
100
AcDbEntity
  8
0
100
AcDbLine
 62
7
  6
CONTINUOUS
 10
124.7460305119
 20
164.5433551199
 11
116.7303454481
 21
164.5433551199
  0
LINE
  5
252
100
AcDbEntity
  8
0
100
AcDbLine
 62
7
  6
CONTINUOUS
 10
111.7460305119
 20
164.5433551199
 11
103.7303454482
 21
164.5433551199
  0
LINE
  5
253
100
AcDbEntity
  8
0
100
AcDbLine
 62
7
  6
CONTINUOUS
 10
98.7460305119
 20
164.5433551199
 11
90.7303454481
 21
164.5433551199
  0
LINE
  5
254
100
AcDbEntity
  8
0
100
AcDbLine
 62
7
  6
CONTINUOUS
 10
85.7460305119
 20
164.5433551199
 11
77.7303454481
 21
164.5433551199
  0
LINE
  5
255
100
AcDbEntity
  8
0
100
AcDbLine
 62
7
  6
CONTINUOUS
 10
72.7460305119
 20
164.5433551199
 11
64.7303454481
 21
164.5433551199
  0
LINE
  5
256
100
AcDbEntity
  8
0
100
AcDbLine
 62
7
  6
CONTINUOUS
 10
59.7460305119
 20
164.5433551199
 11
51.93818798
 21
164.5433551199
  0
LINE
  5
257
100
AcDbEntity
  8
0
100
AcDbLine
 62
7
  6
CONTINUOUS
 10
44.93818798
 20
164.5433551199
 11
33.93818798
 21
164.5433551199
  0
LINE
  5
258
100
AcDbEntity
  8
0
100
AcDbLine
 62
7
  6
CONTINUOUS
 10
47.93818798
 20
166.5433551199
 11
49.93818798
 21
166.5433551199
  0
LINE
  5
259
100
AcDbEntity
  8
0
100
AcDbLine
 62
7
  6
CONTINUOUS
 10
243.53818798
 20
166.5433551199
 11
245.53818798
 21
166.5433551199
  0
LINE
  5
25A
100
AcDbEntity
  8
0
100
AcDbLine
 62
7
  6
CONTINUOUS
 10
31.73818798
 20
167.5433551199
 11
261.73818798
 21
167.5433551199
  0
LINE
  5
25B
100
AcDbEntity
  8
0
100
AcDbLine
 62
7
  6
CONTINUOUS
 10
125.7459995171
 20
163.5512284034
 11
126.2381558963
 21
101.0434933011
  0
LINE
  5
25C
100
AcDbEntity
  8
0
100
AcDbLine
 62
7
  6
CONTINUOUS
 10
33.1572373996
 20
179.5608048682
 11
46.1578465726
 21
179.5608048682
  0
LINE
  5
25D
100
AcDbEntity
  8
0
100
AcDbLine
 62
7
  6
CONTINUOUS
 10
47.1572373996
 20
179.5608048682
 11
246.3191385604
 21
179.5608048682
  0
LINE
  5
25E
100
AcDbEntity
  8
0
100
AcDbLine
 62
7
  6
CONTINUOUS
 10
247.3185293875
 20
179.5608048682
 11
260.3191385604
 21
179.5608048682
  0
LINE
  5
25F
100
AcDbEntity
  8
0
100
AcDbLine
 62
7
  6
CONTINUOUS
 10
32.6575419861
 20
180.0433551199
 11
260.8188339739
 21
180.0433551199
  0
LINE
  5
260
100
AcDbEntity
  8
0
100
AcDbLine
 62
7
  6
CONTINUOUS
 10
242.9753778027
 20
180.5206736258
 11
50.5009981574
 21
180.5206736258
  0
LINE
  5
261
100
AcDbEntity
  8
0
100
AcDbLine
 62
7
  6
CONTINUOUS
 10
250.7705044549
 20
180.5302666457
 11
243.878565106
 21
180.5302666457
  0
LINE
  5
262
100
AcDbEntity
  8
0
100
AcDbLine
 62
7
  6
CONTINUOUS
 10
49.5978108541
 20
180.5302666457
 11
42.7058715051
 21
180.5302666457
  0
LINE
  5
263
100
AcDbEntity
  8
0
100
AcDbLine
 62
7
  6
CONTINUOUS
 10
35.18818798
 20
181.5433551199
 11
42.68818798
 21
181.5433551199
  0
LINE
  5
264
100
AcDbEntity
  8
0
100
AcDbLine
 62
7
  6
CONTINUOUS
 10
250.78818798
 20
181.5433551199
 11
258.28818798
 21
181.5433551199
  0
LINE
  5
265
100
AcDbEntity
  8
0
100
AcDbLine
 62
7
  6
CONTINUOUS
 10
128.2381569852
 20
101.0354818363
 11
128.7303764429
 21
163.5512284034
  0
LINE
  5
266
100
AcDbEntity
  8
0
100
AcDbLine
 62
7
  6
CONTINUOUS
 10
138.7459995171
 20
163.5512284035
 11
138.7700076855
 21
160.5020019984
  0
LINE
  5
267
100
AcDbEntity
  8
0
100
AcDbLine
 62
7
  6
CONTINUOUS
 10
139.2114178392
 20
104.4394370747
 11
139.2381558963
 21
101.043493301
  0
LINE
  5
268
100
AcDbEntity
  8
0
100
AcDbLine
 62
7
  6
CONTINUOUS
 10
141.2381569852
 20
101.0354818361
 11
141.264991721
 21
104.4437045566
  0
LINE
  5
269
100
AcDbEntity
  8
0
100
AcDbLine
 62
7
  6
CONTINUOUS
 10
141.7064018747
 20
160.5062694807
 11
141.7303764429
 21
163.5512284036
  0
LINE
  5
26A
100
AcDbEntity
  8
0
100
AcDbLine
 62
7
  6
CONTINUOUS
 10
151.7459995172
 20
163.5512284031
 11
152.2381558963
 21
101.043493301
  0
LINE
  5
26B
100
AcDbEntity
  8
0
100
AcDbLine
 62
7
  6
CONTINUOUS
 10
154.2381569852
 20
101.0354818361
 11
154.7303764429
 21
163.5512284031
  0
LINE
  5
26C
100
AcDbEntity
  8
0
100
AcDbLine
 62
7
  6
CONTINUOUS
 10
164.7459995172
 20
163.5512284034
 11
165.2381558963
 21
101.043493301
  0
LINE
  5
26D
100
AcDbEntity
  8
0
100
AcDbLine
 62
7
  6
CONTINUOUS
 10
167.2381569853
 20
101.0354818363
 11
167.7303764429
 21
163.5512284036
  0
LINE
  5
26E
100
AcDbEntity
  8
0
100
AcDbLine
 62
7
  6
CONTINUOUS
 10
175.3826527651
 20
307.3608048682
 11
176.1276838726
 21
286.0259053715
  0
LINE
  5
26F
100
AcDbEntity
  8
0
100
AcDbLine
 62
7
  6
CONTINUOUS
 10
177.745999517
 20
163.5512284035
 11
178.2381558963
 21
101.043493301
  0
LINE
  5
270
100
AcDbEntity
  8
0
100
AcDbLine
 62
7
  6
CONTINUOUS
 10
176.3111623091
 20
295.0803176112
 11
176.6440823666
 21
285.5470481707
  0
LINE
  5
271
100
AcDbEntity
  8
0
100
AcDbLine
 62
7
  6
CONTINUOUS
 10
180.2381569853
 20
101.0354818364
 11
180.7303764428
 21
163.5512284036
  0
LINE
  5
272
100
AcDbEntity
  8
0
100
AcDbLine
 62
7
  6
CONTINUOUS
 10
190.7459995172
 20
163.5512284034
 11
191.2381558963
 21
101.043493301
  0
LINE
  5
273
100
AcDbEntity
  8
0
100
AcDbLine
 62
7
  6
CONTINUOUS
 10
193.2381569853
 20
101.0354818363
 11
193.7303764429
 21
163.5512284036
  0
LINE
  5
274
100
AcDbEntity
  8
0
100
AcDbLine
 62
7
  6
CONTINUOUS
 10
203.745999517
 20
163.5512284035
 11
204.2381558963
 21
101.043493301
  0
LINE
  5
275
100
AcDbEntity
  8
0
100
AcDbLine
 62
7
  6
CONTINUOUS
 10
206.2381569853
 20
101.0354818364
 11
206.7303764428
 21
163.5512284036
  0
LINE
  5
276
100
AcDbEntity
  8
0
100
AcDbLine
 62
7
  6
CONTINUOUS
 10
216.7459995172
 20
163.5512284034
 11
217.2381558963
 21
101.043493301
  0
LINE
  5
277
100
AcDbEntity
  8
0
100
AcDbLine
 62
7
  6
CONTINUOUS
 10
215.3064489049
 20
277.5433551199
 11
215.308388667
 21
278.0433551634
  0
LINE
  5
278
100
AcDbEntity
  8
0
100
AcDbLine
 62
7
  6
CONTINUOUS
 10
218.9570202766
 20
277.5433551199
 11
218.9589575095
 21
278.0433551199
  0
LINE
  5
279
100
AcDbEntity
  8
0
100
AcDbLine
 62
7
  6
CONTINUOUS
 10
219.2381569853
 20
101.0354818363
 11
219.7303764429
 21
163.5512284036
  0
LINE
  5
27A
100
AcDbEntity
  8
0
100
AcDbLine
 62
7
  6
CONTINUOUS
 10
42.2177740889
 20
277.1538258991
 11
52.1279877956
 21
277.1538257937
  0
LINE
  5
27B
100
AcDbEntity
  8
0
100
AcDbLine
 62
7
  6
CONTINUOUS
 10
241.3483881644
 20
277.1538257937
 11
251.2586018711
 21
277.1538258992
  0
LINE
  5
27C
100
AcDbEntity
  8
0
100
AcDbLine
 62
7
  6
CONTINUOUS
 10
53.0337373147
 20
277.1615002803
 11
240.4426386498
 21
277.1615002803
  0
LINE
  5
27D
100
AcDbEntity
  8
0
100
AcDbLine
 62
7
  6
CONTINUOUS
 10
41.6177738067
 20
277.5433551199
 11
251.8586021533
 21
277.5433551199
  0
LINE
  5
27E
100
AcDbEntity
  8
0
100
AcDbLine
 62
7
  6
CONTINUOUS
 10
228.7338245461
 20
278.0433551199
 11
228.73818798
 21
277.5433551199
  0
LINE
  5
27F
100
AcDbEntity
  8
0
100
AcDbLine
 62
7
  6
CONTINUOUS
 10
229.745999517
 20
163.5512284035
 11
230.2381558963
 21
101.043493301
  0
LINE
  5
280
100
AcDbEntity
  8
0
100
AcDbLine
 62
7
  6
CONTINUOUS
 10
230.23818798
 20
287.3433551199
 11
230.23818798
 21
285.5433551199
  0
LINE
  5
281
100
AcDbEntity
  8
0
100
AcDbLine
 62
7
  6
CONTINUOUS
 10
41.23818798
 20
278.0433551199
 11
252.23818798
 21
278.0433551199
  0
LINE
  5
282
100
AcDbEntity
  8
0
100
AcDbLine
 62
7
  6
CONTINUOUS
 10
175.1907235746
 20
285.069523098
 11
243.8631992652
 21
285.069523098
  0
LINE
  5
283
100
AcDbEntity
  8
0
100
AcDbLine
 62
7
  6
CONTINUOUS
 10
176.5383307066
 20
285.5433551199
 11
242.8598156103
 21
285.5433551199
  0
LINE
  5
284
100
AcDbEntity
  8
0
100
AcDbLine
 62
7
  6
CONTINUOUS
 10
233.1696110859
 20
286.6433551199
 11
234.3067648741
 21
286.6433551199
  0
LINE
  5
285
100
AcDbEntity
  8
0
100
AcDbLine
 62
7
  6
CONTINUOUS
 10
237.23818798
 20
286.6433551199
 11
237.8067648741
 21
286.6433551199
  0
LINE
  5
286
100
AcDbEntity
  8
0
100
AcDbLine
 62
7
  6
CONTINUOUS
 10
230.23818798
 20
287.3433551199
 11
233.1512809408
 21
287.3433551199
  0
LINE
  5
287
100
AcDbEntity
  8
0
100
AcDbLine
 62
7
  6
CONTINUOUS
 10
233.73818798
 20
287.3433551199
 11
237.2379718278
 21
287.3433551199
  0
LINE
  5
288
100
AcDbEntity
  8
0
100
AcDbLine
 62
7
  6
CONTINUOUS
 10
237.8250950192
 20
287.3433551199
 11
240.7379718278
 21
287.3433551199
  0
LINE
  5
289
100
AcDbEntity
  8
0
100
AcDbLine
 62
7
  6
CONTINUOUS
 10
230.7382169672
 20
287.8433551199
 11
233.13818798
 21
287.8433551199
  0
LINE
  5
28A
100
AcDbEntity
  8
0
100
AcDbLine
 62
7
  6
CONTINUOUS
 10
234.2382169672
 20
287.8433551199
 11
236.7380027067
 21
287.8433551199
  0
LINE
  5
28B
100
AcDbEntity
  8
0
100
AcDbLine
 62
7
  6
CONTINUOUS
 10
237.83818798
 20
287.8433551199
 11
240.2380027067
 21
287.8433551199
  0
LINE
  5
28C
100
AcDbEntity
  8
0
100
AcDbLine
 62
7
  6
CONTINUOUS
 10
233.1696110859
 20
286.6433551199
 11
233.13818798
 21
287.8433551199
  0
LINE
  5
28D
100
AcDbEntity
  8
0
100
AcDbLine
 62
7
  6
CONTINUOUS
 10
233.73818798
 20
287.3433551199
 11
233.73818798
 21
286.6433551199
  0
LINE
  5
28E
100
AcDbEntity
  8
0
100
AcDbLine
 62
7
  6
CONTINUOUS
 10
237.23818798
 20
285.5433551199
 11
237.23818798
 21
287.3433551199
  0
LINE
  5
28F
100
AcDbEntity
  8
0
100
AcDbLine
 62
7
  6
CONTINUOUS
 10
240.73818798
 20
285.5433551199
 11
240.73818798
 21
287.3433551199
  0
LINE
  5
290
100
AcDbEntity
  8
0
100
AcDbLine
 62
7
  6
CONTINUOUS
 10
232.2381569853
 20
101.0354818364
 11
232.7303764428
 21
163.5512284036
  0
LINE
  5
291
100
AcDbEntity
  8
0
100
AcDbLine
 62
7
  6
CONTINUOUS
 10
238.73818798
 20
277.5433551199
 11
238.7425514139
 21
278.0433551199
  0
LINE
  5
292
100
AcDbEntity
  8
0
100
AcDbLine
 62
7
  6
CONTINUOUS
 10
234.33818798
 20
287.8433551199
 11
234.3067648741
 21
286.6433551199
  0
LINE
  5
293
100
AcDbEntity
  8
0
100
AcDbLine
 62
7
  6
CONTINUOUS
 10
237.83818798
 20
287.8433551199
 11
237.8067648741
 21
286.6433551199
  0
LINE
  5
294
100
AcDbEntity
  8
0
100
AcDbLine
 62
7
  6
CONTINUOUS
 10
242.8321793492
 20
285.5443201994
 11
242.928187295
 21
288.2936280509
  0
LINE
  5
295
100
AcDbEntity
  8
0
100
AcDbLine
 62
7
  6
CONTINUOUS
 10
243.3486920875
 20
286.0259053715
 11
243.4222118447
 21
288.1312357615
  0
LINE
  5
296
100
AcDbEntity
  8
0
100
AcDbLine
 62
7
  6
CONTINUOUS
 10
243.9704832824
 20
288.1399534794
 11
243.8632001679
 21
285.0695230482
  0
LINE
  5
297
100
AcDbEntity
  8
0
100
AcDbLine
 62
7
  6
CONTINUOUS
 10
246.738797153
 20
167.5433551199
 11
246.3191385604
 21
179.5608048682
  0
LINE
  5
298
100
AcDbEntity
  8
0
100
AcDbLine
 62
7
  6
CONTINUOUS
 10
247.3185293875
 20
179.5608048682
 11
247.73818798
 21
167.5433551199
  0
LINE
  5
299
100
AcDbEntity
  8
0
100
AcDbLine
 62
7
  6
CONTINUOUS
 10
241.3483881616
 20
277.1538258992
 11
243.878565106
 21
180.5302666457
  0
LINE
  5
29A
100
AcDbEntity
  8
0
100
AcDbLine
 62
7
  6
CONTINUOUS
 10
242.53818798
 20
163.5433551199
 11
242.53818798
 21
100.5433551199
  0
LINE
  5
29B
100
AcDbEntity
  8
0
100
AcDbLine
 62
7
  6
CONTINUOUS
 10
243.53818798
 20
166.5433551199
 11
243.53818798
 21
167.5433551199
  0
LINE
  5
29C
100
AcDbEntity
  8
0
100
AcDbLine
 62
7
  6
CONTINUOUS
 10
245.53818798
 20
102.5433551199
 11
245.53818798
 21
167.5433551199
  0
LINE
  5
29D
100
AcDbEntity
  8
0
100
AcDbLine
 62
7
  6
CONTINUOUS
 10
246.3191385601
 20
180.0433551199
 11
246.3191385601
 21
179.5608048682
  0
LINE
  5
29E
100
AcDbEntity
  8
0
100
AcDbLine
 62
7
  6
CONTINUOUS
 10
249.0381872928
 20
180.0433551199
 11
249.03818798
 21
277.5433551199
  0
LINE
  5
29F
100
AcDbEntity
  8
0
100
AcDbLine
 62
7
  6
CONTINUOUS
 10
251.258602063
 20
277.1538258996
 11
251.2586017562
 21
277.5433551199
  0
LINE
  5
2A0
100
AcDbEntity
  8
0
100
AcDbLine
 62
7
  6
CONTINUOUS
 10
251.53818798
 20
164.5433551199
 11
251.53818798
 21
167.5433551199
  0
LINE
  5
2A1
100
AcDbEntity
  8
0
100
AcDbLine
 62
7
  6
CONTINUOUS
 10
248.6023582329
 20
277.5433551199
 11
248.6067216668
 21
278.0433551199
  0
LINE
  5
2A2
100
AcDbEntity
  8
0
100
AcDbLine
 62
7
  6
CONTINUOUS
 10
250.2600051495
 20
277.5433551199
 11
250.2643685834
 21
278.0433551199
  0
LINE
  5
2A3
100
AcDbEntity
  8
0
100
AcDbLine
 62
7
  6
CONTINUOUS
 10
250.78818798
 20
181.5433551199
 11
250.7620053826
 21
180.0433551199
  0
LINE
  5
2A4
100
AcDbEntity
  8
0
100
AcDbLine
 62
7
  6
CONTINUOUS
 10
50.6158466649
 20
307.369523098
 11
88.0369022206
 21
307.369523098
  0
LINE
  5
2A5
100
AcDbEntity
  8
0
100
AcDbLine
 62
7
  6
CONTINUOUS
 10
122.9856782171
 20
307.369523098
 11
174.4112440588
 21
307.369523098
  0
LINE
  5
2A6
100
AcDbEntity
  8
0
100
AcDbLine
 62
7
  6
CONTINUOUS
 10
50.2126702634
 20
307.8433551199
 11
174.8829573516
 21
307.8433551199
  0
LINE
  5
2A7
100
AcDbEntity
  8
0
100
AcDbLine
 62
7
  6
CONTINUOUS
 10
139.1753222595
 20
307.9022903233
 11
133.3010537005
 21
307.9022903233
  0
LINE
  5
2A8
100
AcDbEntity
  8
0
100
AcDbLine
 62
7
  6
CONTINUOUS
 10
110.7329514605
 20
308.1433551199
 11
90.2434244995
 21
308.1433551199
  0
LWPOLYLINE
  5
2A9
100
AcDbEntity
  8
0
100
AcDbPolyline
 62
7
  6
CONTINUOUS
 90
4
 70
0
 10
106.2367250468
 20
307.2528629927
 10
100.3869543041
 20
307.3014118194
 10
93.9371380882
 20
307.5100520207
 10
88.0907777057
 20
307.8433463965
  0
LINE
  5
2AA
100
AcDbEntity
  8
0
100
AcDbLine
 62
7
  6
CONTINUOUS
 10
256.2693343209
 20
181.5433551199
 11
251.2586018711
 21
277.1538258992
  0
LINE
  5
2AB
100
AcDbEntity
  8
0
100
AcDbLine
 62
7
  6
CONTINUOUS
 10
251.7913281362
 20
278.0433552953
 11
251.3902465715
 21
285.6930262245
  0
LINE
  5
2AC
100
AcDbEntity
  8
0
100
AcDbLine
 62
7
  6
CONTINUOUS
 10
252.2580539672
 20
277.1642895025
 11
257.2693347912
 21
181.5433551199
  0
LINE
  5
2AD
100
AcDbEntity
  8
0
100
AcDbLine
 62
7
  6
CONTINUOUS
 10
251.8372857145
 20
285.6930260464
 11
252.23818798
 21
278.0433551199
  0
LINE
  5
2AE
100
AcDbEntity
  8
0
100
AcDbLine
 62
7
  6
CONTINUOUS
 10
260.738797153
 20
167.5433551199
 11
260.3191385604
 21
179.5608048682
  0
LINE
  5
2AF
100
AcDbEntity
  8
0
100
AcDbLine
 62
7
  6
CONTINUOUS
 10
261.3185293875
 20
179.5608048682
 11
261.73818798
 21
167.5433551199
  0
LINE
  5
2B0
100
AcDbEntity
  8
0
100
AcDbLine
 62
7
  6
CONTINUOUS
 10
258.3143705774
 20
180.0433551199
 11
258.28818798
 21
181.5433551199
  0
LINE
  5
2B1
100
AcDbEntity
  8
0
100
AcDbLine
 62
7
  6
CONTINUOUS
 10
251.73818798
 20
167.5433551199
 11
251.7381886254
 21
180.0433551199
  0
LINE
  5
2B2
100
AcDbEntity
  8
0
100
AcDbLine
 62
7
  6
CONTINUOUS
 10
257.53818798
 20
164.5433551199
 11
257.53818798
 21
167.5433551199
  0
LINE
  5
2B3
100
AcDbEntity
  8
0
100
AcDbLine
 62
7
  6
CONTINUOUS
 10
259.53818798
 20
164.5433551199
 11
259.53818798
 21
167.5433551199
  0
LINE
  5
2B4
100
AcDbEntity
  8
0
100
AcDbLine
 62
7
  6
CONTINUOUS
 10
259.73818798
 20
102.5433551199
 11
259.73818798
 21
99.5433551199
  0
LINE
  5
2B5
100
AcDbEntity
  8
0
100
AcDbLine
 62
7
  6
CONTINUOUS
 10
260.3191385601
 20
180.0433551199
 11
260.3191385601
 21
179.5608048682
  0
LINE
  5
2B6
100
AcDbEntity
  8
0
100
AcDbLine
 62
7
  6
CONTINUOUS
 10
261.73818798
 20
102.5433551199
 11
261.73818798
 21
99.5433551199
  0
LWPOLYLINE
  5
2B7
100
AcDbEntity
  8
0
100
AcDbPolyline
 62
7
  6
CONTINUOUS
 90
4
 70
0
 10
122.9781739275
 20
307.8433551121
 10
117.6006550695
 20
307.5353422023
 10
111.6190948114
 20
307.3246808967
 10
106.2367235126
 20
307.2528697138
  0
ARC
  5
2B8
100
AcDbEntity
  8
0
100
AcDbCircle
 62
7
  6
CONTINUOUS
 10
88.23818798
 20
101.0433551199
 40
1.0
100
AcDbArc
 50
180.4511105813
 51
359.5488894187
  0
ARC
  5
2B9
100
AcDbEntity
  8
0
100
AcDbCircle
 62
7
  6
CONTINUOUS
 10
75.23818798
 20
101.0433551199
 40
1.0
100
AcDbArc
 50
180.4511105813
 51
359.5488894187
  0
ARC
  5
2BA
100
AcDbEntity
  8
0
100
AcDbCircle
 62
7
  6
CONTINUOUS
 10
62.23818798
 20
101.0433551199
 40
1.0
100
AcDbArc
 50
180.4511105813
 51
359.5488894187
  0
ARC
  5
2BB
100
AcDbEntity
  8
0
100
AcDbCircle
 62
7
  6
CONTINUOUS
 10
49.93818798
 20
100.5433551199
 40
1.0
100
AcDbArc
 50
270.0
 51
360.0
  0
ARC
  5
2BC
100
AcDbEntity
  8
0
100
AcDbCircle
 62
7
  6
CONTINUOUS
 10
146.736240626
 20
-304.0096741009
 40
600.0790970211
100
AcDbArc
 50
99.4295548993
 51
99.9231760776
  0
ARC
  5
2BD
100
AcDbEntity
  8
0
100
AcDbCircle
 62
7
  6
CONTINUOUS
 10
114.23818798
 20
101.0433551199
 40
1.0
100
AcDbArc
 50
180.4511105813
 51
359.5488894187
  0
ARC
  5
2BE
100
AcDbEntity
  8
0
100
AcDbCircle
 62
7
  6
CONTINUOUS
 10
101.23818798
 20
101.0433551199
 40
1.0
100
AcDbArc
 50
180.4511105813
 51
359.5488894187
  0
ARC
  5
2BF
100
AcDbEntity
  8
0
100
AcDbCircle
 62
7
  6
CONTINUOUS
 10
127.23818798
 20
101.0433551199
 40
1.0
100
AcDbArc
 50
180.4511105813
 51
359.5488894187
  0
ARC
  5
2C0
100
AcDbEntity
  8
0
100
AcDbCircle
 62
7
  6
CONTINUOUS
 10
140.23818798
 20
101.0433551199
 40
1.0
100
AcDbArc
 50
180.4511105813
 51
359.5488894187
  0
ARC
  5
2C1
100
AcDbEntity
  8
0
100
AcDbCircle
 62
7
  6
CONTINUOUS
 10
141.7928092265
 20
107.9747784219
 40
0.7
100
AcDbArc
 50
135.1335808256
 51
223.9641980151
  0
ARC
  5
2C2
100
AcDbEntity
  8
0
100
AcDbCircle
 62
7
  6
CONTINUOUS
 10
140.7851260103
 20
107.002886177
 40
0.7
100
AcDbArc
 50
315.1335808199
 51
43.9641980157
  0
ARC
  5
2C3
100
AcDbEntity
  8
0
100
AcDbCircle
 62
7
  6
CONTINUOUS
 10
141.7773808046
 20
106.0152473648
 40
0.7
100
AcDbArc
 50
135.1335808256
 51
223.9641980157
  0
ARC
  5
2C4
100
AcDbEntity
  8
0
100
AcDbCircle
 62
7
  6
CONTINUOUS
 10
140.7696975884
 20
105.0433551199
 40
0.7
100
AcDbArc
 50
322.6789922506
 51
43.9641980151
  0
ARC
  5
2C5
100
AcDbEntity
  8
0
100
AcDbCircle
 62
7
  6
CONTINUOUS
 10
139.7066783716
 20
105.0433551199
 40
0.7
100
AcDbArc
 50
136.0358019833
 51
217.3210082277
  0
ARC
  5
2C6
100
AcDbEntity
  8
0
100
AcDbCircle
 62
7
  6
CONTINUOUS
 10
138.6989951555
 20
106.0152473648
 40
0.7
100
AcDbArc
 50
316.035801983
 51
44.8664191773
  0
ARC
  5
2C7
100
AcDbEntity
  8
0
100
AcDbCircle
 62
7
  6
CONTINUOUS
 10
139.6912499497
 20
107.002886177
 40
0.7
100
AcDbArc
 50
136.0358019843
 51
224.8664191801
  0
ARC
  5
2C8
100
AcDbEntity
  8
0
100
AcDbCircle
 62
7
  6
CONTINUOUS
 10
138.6835667336
 20
107.9747784219
 40
0.7
100
AcDbArc
 50
316.0358019826
 51
44.8664191767
  0
ARC
  5
2C9
100
AcDbEntity
  8
0
100
AcDbCircle
 62
7
  6
CONTINUOUS
 10
141.5649488224
 20
104.4370750899
 40
0.3
100
AcDbArc
 50
142.6789917722
 51
179.5488894201
  0
ARC
  5
2CA
100
AcDbEntity
  8
0
100
AcDbCircle
 62
7
  6
CONTINUOUS
 10
138.9114271376
 20
104.4370750899
 40
0.3
100
AcDbArc
 50
0.4511105799
 51
37.3210082277
  0
ARC
  5
2CB
100
AcDbEntity
  8
0
100
AcDbCircle
 62
7
  6
CONTINUOUS
 10
141.8545229141
 20
115.8129026504
 40
0.7
100
AcDbArc
 50
135.1335808193
 51
223.9641980151
  0
ARC
  5
2CC
100
AcDbEntity
  8
0
100
AcDbCircle
 62
7
  6
CONTINUOUS
 10
140.8468396979
 20
114.8410104054
 40
0.7
100
AcDbArc
 50
315.1335808251
 51
43.9641980151
  0
ARC
  5
2CD
100
AcDbEntity
  8
0
100
AcDbCircle
 62
7
  6
CONTINUOUS
 10
141.8390944922
 20
113.8533715933
 40
0.7
100
AcDbArc
 50
135.1335808198
 51
223.9641980151
  0
ARC
  5
2CE
100
AcDbEntity
  8
0
100
AcDbCircle
 62
7
  6
CONTINUOUS
 10
140.831411276
 20
112.8814793483
 40
0.7
100
AcDbArc
 50
315.1335808256
 51
43.9641980157
  0
ARC
  5
2CF
100
AcDbEntity
  8
0
100
AcDbCircle
 62
7
  6
CONTINUOUS
 10
141.8236660703
 20
111.8938405362
 40
0.7
100
AcDbArc
 50
135.1335808198
 51
223.9641980157
  0
ARC
  5
2D0
100
AcDbEntity
  8
0
100
AcDbCircle
 62
7
  6
CONTINUOUS
 10
140.8159828541
 20
110.9219482912
 40
0.7
100
AcDbArc
 50
315.1335808199
 51
43.9641980151
  0
ARC
  5
2D1
100
AcDbEntity
  8
0
100
AcDbCircle
 62
7
  6
CONTINUOUS
 10
141.8082376484
 20
109.9343094791
 40
0.7
100
AcDbArc
 50
135.133580825
 51
223.9641980151
  0
ARC
  5
2D2
100
AcDbEntity
  8
0
100
AcDbCircle
 62
7
  6
CONTINUOUS
 10
140.8005544322
 20
108.9624172341
 40
0.7
100
AcDbArc
 50
315.1335808193
 51
43.9641980151
  0
ARC
  5
2D3
100
AcDbEntity
  8
0
100
AcDbCircle
 62
7
  6
CONTINUOUS
 10
139.6758215278
 20
108.9624172341
 40
0.7
100
AcDbArc
 50
136.0358019849
 51
224.8664191807
  0
ARC
  5
2D4
100
AcDbEntity
  8
0
100
AcDbCircle
 62
7
  6
CONTINUOUS
 10
138.6681383116
 20
109.9343094791
 40
0.7
100
AcDbArc
 50
316.0358019838
 51
44.8664191761
  0
ARC
  5
2D5
100
AcDbEntity
  8
0
100
AcDbCircle
 62
7
  6
CONTINUOUS
 10
139.6603931059
 20
110.9219482912
 40
0.7
100
AcDbArc
 50
136.0358019849
 51
224.8664191801
  0
ARC
  5
2D6
100
AcDbEntity
  8
0
100
AcDbCircle
 62
7
  6
CONTINUOUS
 10
138.6527098897
 20
111.8938405362
 40
0.7
100
AcDbArc
 50
316.0358019837
 51
44.8664191807
  0
ARC
  5
2D7
100
AcDbEntity
  8
0
100
AcDbCircle
 62
7
  6
CONTINUOUS
 10
139.644964684
 20
112.8814793483
 40
0.7
100
AcDbArc
 50
136.0358019843
 51
224.8664191744
  0
ARC
  5
2D8
100
AcDbEntity
  8
0
100
AcDbCircle
 62
7
  6
CONTINUOUS
 10
138.6372814678
 20
113.8533715933
 40
0.7
100
AcDbArc
 50
316.0358019849
 51
44.8664191801
  0
ARC
  5
2D9
100
AcDbEntity
  8
0
100
AcDbCircle
 62
7
  6
CONTINUOUS
 10
139.6295362621
 20
114.8410104054
 40
0.7
100
AcDbArc
 50
136.0358019849
 51
224.866419175
  0
ARC
  5
2DA
100
AcDbEntity
  8
0
100
AcDbCircle
 62
7
  6
CONTINUOUS
 10
138.6218530459
 20
115.8129026504
 40
0.7
100
AcDbArc
 50
316.0358019855
 51
44.8664191801
  0
ARC
  5
2DB
100
AcDbEntity
  8
0
100
AcDbCircle
 62
7
  6
CONTINUOUS
 10
139.6141078402
 20
116.8005414625
 40
0.7
100
AcDbArc
 50
136.0358019849
 51
224.8664191744
  0
ARC
  5
2DC
100
AcDbEntity
  8
0
100
AcDbCircle
 62
7
  6
CONTINUOUS
 10
138.606424624
 20
117.7724337075
 40
0.7
100
AcDbArc
 50
316.035801986
 51
44.8664191784
  0
ARC
  5
2DD
100
AcDbEntity
  8
0
100
AcDbCircle
 62
7
  6
CONTINUOUS
 10
139.5986794182
 20
118.7600725197
 40
0.7
100
AcDbArc
 50
136.0358019843
 51
224.8664191801
  0
ARC
  5
2DE
100
AcDbEntity
  8
0
100
AcDbCircle
 62
7
  6
CONTINUOUS
 10
138.5909962021
 20
119.7319647646
 40
0.7
100
AcDbArc
 50
316.0358019815
 51
44.8664191778
  0
ARC
  5
2DF
100
AcDbEntity
  8
0
100
AcDbCircle
 62
7
  6
CONTINUOUS
 10
139.5832509963
 20
120.7196035768
 40
0.7
100
AcDbArc
 50
136.0358019849
 51
224.8664191807
  0
ARC
  5
2E0
100
AcDbEntity
  8
0
100
AcDbCircle
 62
7
  6
CONTINUOUS
 10
138.5755677802
 20
121.6914958217
 40
0.7
100
AcDbArc
 50
316.0358019821
 51
44.8664191778
  0
ARC
  5
2E1
100
AcDbEntity
  8
0
100
AcDbCircle
 62
7
  6
CONTINUOUS
 10
139.5678225744
 20
122.6791346339
 40
0.7
100
AcDbArc
 50
136.0358019849
 51
224.8664191801
  0
ARC
  5
2E2
100
AcDbEntity
  8
0
100
AcDbCircle
 62
7
  6
CONTINUOUS
 10
138.5601393583
 20
123.6510268789
 40
0.7
100
AcDbArc
 50
316.035801982
 51
44.8664191767
  0
ARC
  5
2E3
100
AcDbEntity
  8
0
100
AcDbCircle
 62
7
  6
CONTINUOUS
 10
139.5523941525
 20
124.638665691
 40
0.7
100
AcDbArc
 50
136.0358019843
 51
224.8664191801
  0
ARC
  5
2E4
100
AcDbEntity
  8
0
100
AcDbCircle
 62
7
  6
CONTINUOUS
 10
138.5447109363
 20
125.610557936
 40
0.7
100
AcDbArc
 50
316.0358019838
 51
44.8664191755
  0
ARC
  5
2E5
100
AcDbEntity
  8
0
100
AcDbCircle
 62
7
  6
CONTINUOUS
 10
139.5369657306
 20
126.5981967481
 40
0.7
100
AcDbArc
 50
136.0358019843
 51
224.8664191802
  0
ARC
  5
2E6
100
AcDbEntity
  8
0
100
AcDbCircle
 62
7
  6
CONTINUOUS
 10
138.5292825144
 20
127.5700889931
 40
0.7
100
AcDbArc
 50
316.0358019843
 51
44.8664191807
  0
ARC
  5
2E7
100
AcDbEntity
  8
0
100
AcDbCircle
 62
7
  6
CONTINUOUS
 10
139.5215373087
 20
128.5577278052
 40
0.7
100
AcDbArc
 50
136.0358019849
 51
224.866419175
  0
ARC
  5
2E8
100
AcDbEntity
  8
0
100
AcDbCircle
 62
7
  6
CONTINUOUS
 10
138.5138540925
 20
129.5296200502
 40
0.7
100
AcDbArc
 50
316.0358019843
 51
44.8664191801
  0
ARC
  5
2E9
100
AcDbEntity
  8
0
100
AcDbCircle
 62
7
  6
CONTINUOUS
 10
139.5061088868
 20
130.5172588623
 40
0.7
100
AcDbArc
 50
136.0358019843
 51
224.8664191744
  0
ARC
  5
2EA
100
AcDbEntity
  8
0
100
AcDbCircle
 62
7
  6
CONTINUOUS
 10
138.4984256706
 20
131.4891511073
 40
0.7
100
AcDbArc
 50
316.0358019855
 51
44.8664191796
  0
ARC
  5
2EB
100
AcDbEntity
  8
0
100
AcDbCircle
 62
7
  6
CONTINUOUS
 10
141.9162366018
 20
123.6510268789
 40
0.7
100
AcDbArc
 50
135.1335808256
 51
223.9641980157
  0
ARC
  5
2EC
100
AcDbEntity
  8
0
100
AcDbCircle
 62
7
  6
CONTINUOUS
 10
140.9085533856
 20
122.6791346339
 40
0.7
100
AcDbArc
 50
315.1335808199
 51
43.9641980151
  0
ARC
  5
2ED
100
AcDbEntity
  8
0
100
AcDbCircle
 62
7
  6
CONTINUOUS
 10
141.9008081799
 20
121.6914958217
 40
0.7
100
AcDbArc
 50
135.133580825
 51
223.9641980151
  0
ARC
  5
2EE
100
AcDbEntity
  8
0
100
AcDbCircle
 62
7
  6
CONTINUOUS
 10
140.8931249637
 20
120.7196035768
 40
0.7
100
AcDbArc
 50
315.1335808193
 51
43.9641980151
  0
ARC
  5
2EF
100
AcDbEntity
  8
0
100
AcDbCircle
 62
7
  6
CONTINUOUS
 10
141.8853797579
 20
119.7319647646
 40
0.7
100
AcDbArc
 50
135.1335808198
 51
223.9641980208
  0
ARC
  5
2F0
100
AcDbEntity
  8
0
100
AcDbCircle
 62
7
  6
CONTINUOUS
 10
140.8776965418
 20
118.7600725197
 40
0.7
100
AcDbArc
 50
315.1335808199
 51
43.9641980157
  0
ARC
  5
2F1
100
AcDbEntity
  8
0
100
AcDbCircle
 62
7
  6
CONTINUOUS
 10
141.869951336
 20
117.7724337075
 40
0.7
100
AcDbArc
 50
135.1335808198
 51
223.9641980157
  0
ARC
  5
2F2
100
AcDbEntity
  8
0
100
AcDbCircle
 62
7
  6
CONTINUOUS
 10
140.8622681198
 20
116.8005414625
 40
0.7
100
AcDbArc
 50
315.1335808256
 51
43.9641980151
  0
ARC
  5
2F3
100
AcDbEntity
  8
0
100
AcDbCircle
 62
7
  6
CONTINUOUS
 10
141.9779502894
 20
131.4891511073
 40
0.7
100
AcDbArc
 50
135.1335808198
 51
223.9641980151
  0
ARC
  5
2F4
100
AcDbEntity
  8
0
100
AcDbCircle
 62
7
  6
CONTINUOUS
 10
140.9702670732
 20
130.5172588623
 40
0.7
100
AcDbArc
 50
315.1335808256
 51
43.9641980157
  0
ARC
  5
2F5
100
AcDbEntity
  8
0
100
AcDbCircle
 62
7
  6
CONTINUOUS
 10
141.9625218675
 20
129.5296200502
 40
0.7
100
AcDbArc
 50
135.1335808198
 51
223.9641980157
  0
ARC
  5
2F6
100
AcDbEntity
  8
0
100
AcDbCircle
 62
7
  6
CONTINUOUS
 10
140.9548386513
 20
128.5577278052
 40
0.7
100
AcDbArc
 50
315.1335808251
 51
43.9641980151
  0
ARC
  5
2F7
100
AcDbEntity
  8
0
100
AcDbCircle
 62
7
  6
CONTINUOUS
 10
141.9470934456
 20
127.5700889931
 40
0.7
100
AcDbArc
 50
135.1335808198
 51
223.9641980151
  0
ARC
  5
2F8
100
AcDbEntity
  8
0
100
AcDbCircle
 62
7
  6
CONTINUOUS
 10
140.9394102294
 20
126.5981967481
 40
0.7
100
AcDbArc
 50
315.1335808199
 51
43.9641980157
  0
ARC
  5
2F9
100
AcDbEntity
  8
0
100
AcDbCircle
 62
7
  6
CONTINUOUS
 10
141.9316650237
 20
125.610557936
 40
0.7
100
AcDbArc
 50
135.1335808256
 51
223.9641980151
  0
ARC
  5
2FA
100
AcDbEntity
  8
0
100
AcDbCircle
 62
7
  6
CONTINUOUS
 10
140.9239818075
 20
124.638665691
 40
0.7
100
AcDbArc
 50
315.1335808199
 51
43.9641980157
  0
ARC
  5
2FB
100
AcDbEntity
  8
0
100
AcDbCircle
 62
7
  6
CONTINUOUS
 10
44.93818798
 20
161.5433551199
 40
3.0
100
AcDbArc
 50
0.0
 51
90.0
  0
ARC
  5
2FC
100
AcDbEntity
  8
0
100
AcDbCircle
 62
7
  6
CONTINUOUS
 10
43.6363493151
 20
285.5883541343
 40
2.0
100
AcDbArc
 50
99.9280352771
 51
176.9999999974
  0
ARC
  5
2FD
100
AcDbEntity
  8
0
100
AcDbCircle
 62
7
  6
CONTINUOUS
 10
48.1895459904
 20
289.2385181668
 40
1.2985840023
100
AcDbArc
 50
283.8777157771
 51
286.6136106525
  0
ARC
  5
2FE
100
AcDbEntity
  8
0
100
AcDbCircle
 62
7
  6
CONTINUOUS
 10
48.1958415438
 20
289.2126626831
 40
1.2719732559
100
AcDbArc
 50
280.2588827049
 51
283.88175472
  0
ARC
  5
2FF
100
AcDbEntity
  8
0
100
AcDbCircle
 62
7
  6
CONTINUOUS
 10
85.7460305119
 20
163.5433551199
 40
1.0
100
AcDbArc
 50
0.4511105813
 51
90.0
  0
ARC
  5
300
100
AcDbEntity
  8
0
100
AcDbCircle
 62
7
  6
CONTINUOUS
 10
77.7303454481
 20
163.5433551199
 40
1.0
100
AcDbArc
 50
90.0
 51
179.5488894181
  0
ARC
  5
301
100
AcDbEntity
  8
0
100
AcDbCircle
 62
7
  6
CONTINUOUS
 10
72.7460305119
 20
163.5433551199
 40
1.0
100
AcDbArc
 50
0.4511105808
 51
90.0
  0
ARC
  5
302
100
AcDbEntity
  8
0
100
AcDbCircle
 62
7
  6
CONTINUOUS
 10
64.7303454481
 20
163.5433551199
 40
1.0
100
AcDbArc
 50
90.0
 51
179.5488894181
  0
ARC
  5
303
100
AcDbEntity
  8
0
100
AcDbCircle
 62
7
  6
CONTINUOUS
 10
59.7460305119
 20
163.5433551199
 40
1.0
100
AcDbArc
 50
0.4511105795
 51
90.0
  0
ARC
  5
304
100
AcDbEntity
  8
0
100
AcDbCircle
 62
7
  6
CONTINUOUS
 10
51.93818798
 20
163.5433551199
 40
1.0
100
AcDbArc
 50
90.0
 51
180.0
  0
ARC
  5
305
100
AcDbEntity
  8
0
100
AcDbCircle
 62
7
  6
CONTINUOUS
 10
50.2126702634
 20
307.3433551199
 40
0.5
100
AcDbArc
 50
90.0
 51
176.9999999949
  0
ARC
  5
306
100
AcDbEntity
  8
0
100
AcDbCircle
 62
7
  6
CONTINUOUS
 10
48.2452979647
 20
288.9109779829
 40
0.5
100
AcDbArc
 50
279.440200689
 51
357.0
  0
ARC
  5
307
100
AcDbEntity
  8
0
100
AcDbCircle
 62
7
  6
CONTINUOUS
 10
49.0979821916
 20
180.5433551199
 40
0.5
100
AcDbArc
 50
270.0
 51
358.5
  0
ARC
  5
308
100
AcDbEntity
  8
0
100
AcDbCircle
 62
7
  6
CONTINUOUS
 10
32.6573329661
 20
179.5433610485
 40
0.4997866673
100
AcDbArc
 50
89.9760477951
 51
177.9926179629
  0
ARC
  5
309
100
AcDbEntity
  8
0
100
AcDbCircle
 62
7
  6
CONTINUOUS
 10
46.6573329661
 20
179.5433610485
 40
0.4997866673
100
AcDbArc
 50
89.976047795
 51
177.9998429831
  0
ARC
  5
30A
100
AcDbEntity
  8
0
100
AcDbCircle
 62
7
  6
CONTINUOUS
 10
52.5278507284
 20
277.1433551199
 40
0.4
100
AcDbArc
 50
90.0
 51
178.4999999345
  0
ARC
  5
30B
100
AcDbEntity
  8
0
100
AcDbCircle
 62
7
  6
CONTINUOUS
 10
41.6177852506
 20
277.1433463154
 40
0.3999978488
100
AcDbArc
 50
90.0016391826
 51
176.9988263915
  0
ARC
  5
30C
100
AcDbEntity
  8
0
100
AcDbCircle
 62
7
  6
CONTINUOUS
 10
111.7460305119
 20
163.5433551199
 40
1.0
100
AcDbArc
 50
0.4511105802
 51
90.0
  0
ARC
  5
30D
100
AcDbEntity
  8
0
100
AcDbCircle
 62
7
  6
CONTINUOUS
 10
103.7303454482
 20
163.5433551199
 40
1.0
100
AcDbArc
 50
90.0
 51
179.5488894181
  0
ARC
  5
30E
100
AcDbEntity
  8
0
100
AcDbCircle
 62
7
  6
CONTINUOUS
 10
98.7460305119
 20
163.5433551199
 40
1.0
100
AcDbArc
 50
0.4511105818
 51
90.0
  0
ARC
  5
30F
100
AcDbEntity
  8
0
100
AcDbCircle
 62
7
  6
CONTINUOUS
 10
90.7303454481
 20
163.5433551199
 40
1.0
100
AcDbArc
 50
90.0
 51
179.5488894181
  0
ARC
  5
310
100
AcDbEntity
  8
0
100
AcDbCircle
 62
7
  6
CONTINUOUS
 10
124.7460305119
 20
163.5433551199
 40
1.0
100
AcDbArc
 50
0.4511105802
 51
90.0
  0
ARC
  5
311
100
AcDbEntity
  8
0
100
AcDbCircle
 62
7
  6
CONTINUOUS
 10
116.7303454481
 20
163.5433551199
 40
1.0
100
AcDbArc
 50
90.0
 51
179.548889421
  0
ARC
  5
312
100
AcDbEntity
  8
0
100
AcDbCircle
 62
7
  6
CONTINUOUS
 10
139.4906804649
 20
132.4767899194
 40
0.7
100
AcDbArc
 50
136.0358019843
 51
224.8664191744
  0
ARC
  5
313
100
AcDbEntity
  8
0
100
AcDbCircle
 62
7
  6
CONTINUOUS
 10
138.4829972487
 20
133.4486821644
 40
0.7
100
AcDbArc
 50
316.0358019866
 51
44.8664191784
  0
ARC
  5
314
100
AcDbEntity
  8
0
100
AcDbCircle
 62
7
  6
CONTINUOUS
 10
139.4752520429
 20
134.4363209766
 40
0.7
100
AcDbArc
 50
136.0358019849
 51
224.8664191807
  0
ARC
  5
315
100
AcDbEntity
  8
0
100
AcDbCircle
 62
7
  6
CONTINUOUS
 10
138.4675688268
 20
135.4082132215
 40
0.7
100
AcDbArc
 50
316.0358019809
 51
44.8664191778
  0
ARC
  5
316
100
AcDbEntity
  8
0
100
AcDbCircle
 62
7
  6
CONTINUOUS
 10
139.459823621
 20
136.3958520337
 40
0.7
100
AcDbArc
 50
136.0358019843
 51
224.8664191801
  0
ARC
  5
317
100
AcDbEntity
  8
0
100
AcDbCircle
 62
7
  6
CONTINUOUS
 10
138.4521404049
 20
137.3677442786
 40
0.7
100
AcDbArc
 50
316.0358019821
 51
44.8664191773
  0
ARC
  5
318
100
AcDbEntity
  8
0
100
AcDbCircle
 62
7
  6
CONTINUOUS
 10
139.4443951991
 20
138.3553830908
 40
0.7
100
AcDbArc
 50
136.0358019843
 51
224.8664191801
  0
ARC
  5
319
100
AcDbEntity
  8
0
100
AcDbCircle
 62
7
  6
CONTINUOUS
 10
138.436711983
 20
139.3272753358
 40
0.7
100
AcDbArc
 50
316.0358019826
 51
44.8664191784
  0
ARC
  5
31A
100
AcDbEntity
  8
0
100
AcDbCircle
 62
7
  6
CONTINUOUS
 10
139.4289667772
 20
140.3149141479
 40
0.7
100
AcDbArc
 50
136.0358019843
 51
224.866419179
  0
ARC
  5
31B
100
AcDbEntity
  8
0
100
AcDbCircle
 62
7
  6
CONTINUOUS
 10
138.421283561
 20
141.2868063929
 40
0.7
100
AcDbArc
 50
316.0358019843
 51
44.8664191784
  0
ARC
  5
31C
100
AcDbEntity
  8
0
100
AcDbCircle
 62
7
  6
CONTINUOUS
 10
139.4135383553
 20
142.274445205
 40
0.7
100
AcDbArc
 50
136.0358019849
 51
224.8664191778
  0
ARC
  5
31D
100
AcDbEntity
  8
0
100
AcDbCircle
 62
7
  6
CONTINUOUS
 10
138.4058551391
 20
143.24633745
 40
0.7
100
AcDbArc
 50
316.0358019837
 51
44.8664191784
  0
ARC
  5
31E
100
AcDbEntity
  8
0
100
AcDbCircle
 62
7
  6
CONTINUOUS
 10
139.3981099334
 20
144.2339762621
 40
0.7
100
AcDbArc
 50
136.0358019849
 51
224.8664191767
  0
ARC
  5
31F
100
AcDbEntity
  8
0
100
AcDbCircle
 62
7
  6
CONTINUOUS
 10
138.3904267172
 20
145.2058685071
 40
0.7
100
AcDbArc
 50
316.0358019843
 51
44.8664191784
  0
ARC
  5
320
100
AcDbEntity
  8
0
100
AcDbCircle
 62
7
  6
CONTINUOUS
 10
139.3826815115
 20
146.1935073192
 40
0.7
100
AcDbArc
 50
136.0358019866
 51
224.8664191767
  0
ARC
  5
321
100
AcDbEntity
  8
0
100
AcDbCircle
 62
7
  6
CONTINUOUS
 10
138.3749982953
 20
147.1653995642
 40
0.7
100
AcDbArc
 50
316.0358019838
 51
44.866419179
  0
ARC
  5
322
100
AcDbEntity
  8
0
100
AcDbCircle
 62
7
  6
CONTINUOUS
 10
142.0396639771
 20
139.3272753358
 40
0.7
100
AcDbArc
 50
135.1335808256
 51
223.9641980151
  0
ARC
  5
323
100
AcDbEntity
  8
0
100
AcDbCircle
 62
7
  6
CONTINUOUS
 10
141.0319807609
 20
138.3553830908
 40
0.7
100
AcDbArc
 50
315.1335808199
 51
43.9641980157
  0
ARC
  5
324
100
AcDbEntity
  8
0
100
AcDbCircle
 62
7
  6
CONTINUOUS
 10
142.0242355552
 20
137.3677442786
 40
0.7
100
AcDbArc
 50
135.1335808256
 51
223.9641980157
  0
ARC
  5
325
100
AcDbEntity
  8
0
100
AcDbCircle
 62
7
  6
CONTINUOUS
 10
141.016552339
 20
136.3958520337
 40
0.7
100
AcDbArc
 50
315.1335808199
 51
43.9641980151
  0
ARC
  5
326
100
AcDbEntity
  8
0
100
AcDbCircle
 62
7
  6
CONTINUOUS
 10
142.0088071332
 20
135.4082132215
 40
0.7
100
AcDbArc
 50
135.1335808198
 51
223.9641980214
  0
ARC
  5
327
100
AcDbEntity
  8
0
100
AcDbCircle
 62
7
  6
CONTINUOUS
 10
141.0011239171
 20
134.4363209766
 40
0.7
100
AcDbArc
 50
315.1335808193
 51
43.9641980151
  0
ARC
  5
328
100
AcDbEntity
  8
0
100
AcDbCircle
 62
7
  6
CONTINUOUS
 10
141.9933787113
 20
133.4486821644
 40
0.7
100
AcDbArc
 50
135.1335808198
 51
223.9641980151
  0
ARC
  5
329
100
AcDbEntity
  8
0
100
AcDbCircle
 62
7
  6
CONTINUOUS
 10
140.9856954951
 20
132.4767899194
 40
0.7
100
AcDbArc
 50
315.1335808256
 51
43.9641980157
  0
ARC
  5
32A
100
AcDbEntity
  8
0
100
AcDbCircle
 62
7
  6
CONTINUOUS
 10
142.1013776647
 20
147.1653995642
 40
0.7
100
AcDbArc
 50
135.1335808193
 51
223.9641980151
  0
ARC
  5
32B
100
AcDbEntity
  8
0
100
AcDbCircle
 62
7
  6
CONTINUOUS
 10
141.0936944485
 20
146.1935073192
 40
0.7
100
AcDbArc
 50
315.1335808251
 51
43.9641980151
  0
ARC
  5
32C
100
AcDbEntity
  8
0
100
AcDbCircle
 62
7
  6
CONTINUOUS
 10
142.0859492428
 20
145.2058685071
 40
0.7
100
AcDbArc
 50
135.1335808198
 51
223.9641980151
  0
ARC
  5
32D
100
AcDbEntity
  8
0
100
AcDbCircle
 62
7
  6
CONTINUOUS
 10
141.0782660266
 20
144.2339762621
 40
0.7
100
AcDbArc
 50
315.1335808256
 51
43.9641980157
  0
ARC
  5
32E
100
AcDbEntity
  8
0
100
AcDbCircle
 62
7
  6
CONTINUOUS
 10
142.0705208209
 20
143.24633745
 40
0.7
100
AcDbArc
 50
135.1335808198
 51
223.9641980157
  0
ARC
  5
32F
100
AcDbEntity
  8
0
100
AcDbCircle
 62
7
  6
CONTINUOUS
 10
141.0628376047
 20
142.274445205
 40
0.7
100
AcDbArc
 50
315.1335808199
 51
43.9641980151
  0
ARC
  5
330
100
AcDbEntity
  8
0
100
AcDbCircle
 62
7
  6
CONTINUOUS
 10
142.055092399
 20
141.2868063929
 40
0.7
100
AcDbArc
 50
135.133580825
 51
223.9641980151
  0
ARC
  5
331
100
AcDbEntity
  8
0
100
AcDbCircle
 62
7
  6
CONTINUOUS
 10
141.0474091828
 20
140.3149141479
 40
0.7
100
AcDbArc
 50
315.1335808193
 51
43.9641980151
  0
ARC
  5
332
100
AcDbEntity
  8
0
100
AcDbCircle
 62
7
  6
CONTINUOUS
 10
129.7303454481
 20
163.5433551199
 40
1.0
100
AcDbArc
 50
90.0
 51
179.548889421
  0
ARC
  5
333
100
AcDbEntity
  8
0
100
AcDbCircle
 62
7
  6
CONTINUOUS
 10
142.1630913524
 20
155.0035237927
 40
0.7
100
AcDbArc
 50
135.1335808256
 51
223.9641980157
  0
ARC
  5
334
100
AcDbEntity
  8
0
100
AcDbCircle
 62
7
  6
CONTINUOUS
 10
141.1554081362
 20
154.0316315477
 40
0.7
100
AcDbArc
 50
315.1335808199
 51
43.9641980151
  0
ARC
  5
335
100
AcDbEntity
  8
0
100
AcDbCircle
 62
7
  6
CONTINUOUS
 10
142.1476629305
 20
153.0439927355
 40
0.7
100
AcDbArc
 50
135.133580825
 51
223.9641980151
  0
ARC
  5
336
100
AcDbEntity
  8
0
100
AcDbCircle
 62
7
  6
CONTINUOUS
 10
141.1399797143
 20
152.0721004906
 40
0.7
100
AcDbArc
 50
315.1335808199
 51
43.9641980157
  0
ARC
  5
337
100
AcDbEntity
  8
0
100
AcDbCircle
 62
7
  6
CONTINUOUS
 10
142.1322345085
 20
151.0844616784
 40
0.7
100
AcDbArc
 50
135.1335808198
 51
223.9641980208
  0
ARC
  5
338
100
AcDbEntity
  8
0
100
AcDbCircle
 62
7
  6
CONTINUOUS
 10
141.1245512924
 20
150.1125694335
 40
0.7
100
AcDbArc
 50
315.1335808199
 51
43.9641980157
  0
ARC
  5
339
100
AcDbEntity
  8
0
100
AcDbCircle
 62
7
  6
CONTINUOUS
 10
142.1168060866
 20
149.1249306213
 40
0.7
100
AcDbArc
 50
135.1335808198
 51
223.9641980157
  0
ARC
  5
33A
100
AcDbEntity
  8
0
100
AcDbCircle
 62
7
  6
CONTINUOUS
 10
141.1091228704
 20
148.1530383764
 40
0.7
100
AcDbArc
 50
315.1335808256
 51
43.9641980151
  0
ARC
  5
33B
100
AcDbEntity
  8
0
100
AcDbCircle
 62
7
  6
CONTINUOUS
 10
139.3672530896
 20
148.1530383764
 40
0.7
100
AcDbArc
 50
136.0358019872
 51
224.8664191755
  0
ARC
  5
33C
100
AcDbEntity
  8
0
100
AcDbCircle
 62
7
  6
CONTINUOUS
 10
138.3595698734
 20
149.1249306213
 40
0.7
100
AcDbArc
 50
316.0358019837
 51
44.8664191778
  0
ARC
  5
33D
100
AcDbEntity
  8
0
100
AcDbCircle
 62
7
  6
CONTINUOUS
 10
139.3518246676
 20
150.1125694335
 40
0.7
100
AcDbArc
 50
136.0358019815
 51
224.8664191807
  0
ARC
  5
33E
100
AcDbEntity
  8
0
100
AcDbCircle
 62
7
  6
CONTINUOUS
 10
138.3441414515
 20
151.0844616784
 40
0.7
100
AcDbArc
 50
316.0358019843
 51
44.8664191784
  0
ARC
  5
33F
100
AcDbEntity
  8
0
100
AcDbCircle
 62
7
  6
CONTINUOUS
 10
139.3363962457
 20
152.0721004906
 40
0.7
100
AcDbArc
 50
136.035801982
 51
224.8664191796
  0
ARC
  5
340
100
AcDbEntity
  8
0
100
AcDbCircle
 62
7
  6
CONTINUOUS
 10
138.3287130296
 20
153.0439927355
 40
0.7
100
AcDbArc
 50
316.0358019843
 51
44.8664191784
  0
ARC
  5
341
100
AcDbEntity
  8
0
100
AcDbCircle
 62
7
  6
CONTINUOUS
 10
139.3209678238
 20
154.0316315477
 40
0.7
100
AcDbArc
 50
136.0358019837
 51
224.8664191796
  0
ARC
  5
342
100
AcDbEntity
  8
0
100
AcDbCircle
 62
7
  6
CONTINUOUS
 10
138.3132846077
 20
155.0035237927
 40
0.7
100
AcDbArc
 50
316.0358019832
 51
44.8664191784
  0
ARC
  5
343
100
AcDbEntity
  8
0
100
AcDbCircle
 62
7
  6
CONTINUOUS
 10
142.7303454481
 20
163.5433551199
 40
1.0
100
AcDbArc
 50
90.0
 51
179.5488894124
  0
ARC
  5
344
100
AcDbEntity
  8
0
100
AcDbCircle
 62
7
  6
CONTINUOUS
 10
137.7460305119
 20
163.5433551199
 40
1.0
100
AcDbArc
 50
0.4511105825
 51
90.0
  0
ARC
  5
345
100
AcDbEntity
  8
0
100
AcDbCircle
 62
7
  6
CONTINUOUS
 10
141.2016934019
 20
159.910224719
 40
0.7
100
AcDbArc
 50
315.1335808242
 51
36.418787061
  0
ARC
  5
346
100
AcDbEntity
  8
0
100
AcDbCircle
 62
7
  6
CONTINUOUS
 10
142.1939481962
 20
158.9225859069
 40
0.7
100
AcDbArc
 50
135.1335808207
 51
223.9641980151
  0
ARC
  5
347
100
AcDbEntity
  8
0
100
AcDbCircle
 62
7
  6
CONTINUOUS
 10
141.18626498
 20
157.9506936619
 40
0.7
100
AcDbArc
 50
315.1335808199
 51
43.9641980157
  0
ARC
  5
348
100
AcDbEntity
  8
0
100
AcDbCircle
 62
7
  6
CONTINUOUS
 10
142.1785197743
 20
156.9630548498
 40
0.7
100
AcDbArc
 50
135.1335808256
 51
223.9641980151
  0
ARC
  5
349
100
AcDbEntity
  8
0
100
AcDbCircle
 62
7
  6
CONTINUOUS
 10
141.1708365581
 20
155.9911626048
 40
0.7
100
AcDbArc
 50
315.1335808199
 51
43.9641980157
  0
ARC
  5
34A
100
AcDbEntity
  8
0
100
AcDbCircle
 62
7
  6
CONTINUOUS
 10
139.3055394019
 20
155.9911626048
 40
0.7
100
AcDbArc
 50
136.0358019837
 51
224.8664191784
  0
ARC
  5
34B
100
AcDbEntity
  8
0
100
AcDbCircle
 62
7
  6
CONTINUOUS
 10
138.2978561857
 20
156.9630548498
 40
0.7
100
AcDbArc
 50
316.0358019843
 51
44.8664191778
  0
ARC
  5
34C
100
AcDbEntity
  8
0
100
AcDbCircle
 62
7
  6
CONTINUOUS
 10
139.29011098
 20
157.9506936619
 40
0.7
100
AcDbArc
 50
136.0358019843
 51
224.8664191778
  0
ARC
  5
34D
100
AcDbEntity
  8
0
100
AcDbCircle
 62
7
  6
CONTINUOUS
 10
138.2824277638
 20
158.9225859069
 40
0.7
100
AcDbArc
 50
316.0358019843
 51
44.8664191784
  0
ARC
  5
34E
100
AcDbEntity
  8
0
100
AcDbCircle
 62
7
  6
CONTINUOUS
 10
139.2746825581
 20
159.910224719
 40
0.7
100
AcDbArc
 50
143.5812120845
 51
224.8664191773
  0
ARC
  5
34F
100
AcDbEntity
  8
0
100
AcDbCircle
 62
7
  6
CONTINUOUS
 10
142.0063925763
 20
160.5039074953
 40
0.3
100
AcDbArc
 50
180.0
 51
216.4187870647
  0
ARC
  5
350
100
AcDbEntity
  8
0
100
AcDbCircle
 62
7
  6
CONTINUOUS
 10
138.4699833838
 20
160.5039074953
 40
0.3
100
AcDbArc
 50
323.5812129342
 51
360.0
  0
ARC
  5
351
100
AcDbEntity
  8
0
100
AcDbCircle
 62
7
  6
CONTINUOUS
 10
136.23818798
 20
298.3433551199
 40
10.0
100
AcDbArc
 50
72.9195950896
 51
107.0804049104
  0
ARC
  5
352
100
AcDbEntity
  8
0
100
AcDbCircle
 62
7
  6
CONTINUOUS
 10
138.8816088316
 20
306.946396803
 40
1.0
100
AcDbArc
 50
65.7736809489
 51
72.9195950896
  0
ARC
  5
353
100
AcDbEntity
  8
0
100
AcDbCircle
 62
7
  6
CONTINUOUS
 10
133.5947671285
 20
306.946396803
 40
1.0
100
AcDbArc
 50
107.0804049104
 51
114.226319051
  0
ARC
  5
354
100
AcDbEntity
  8
0
100
AcDbCircle
 62
7
  6
CONTINUOUS
 10
105.4742793767
 20
567.7541946752
 40
260.9748573152
100
AcDbArc
 50
270.1665928392
 51
273.8474638008
  0
ARC
  5
355
100
AcDbEntity
  8
0
100
AcDbCircle
 62
7
  6
CONTINUOUS
 10
146.7401120003
 20
-304.0098339346
 40
600.0792582864
100
AcDbArc
 50
80.0768243576
 51
80.6753012776
  0
ARC
  5
356
100
AcDbEntity
  8
0
100
AcDbCircle
 62
7
  6
CONTINUOUS
 10
146.73818798
 20
-303.4566448801
 40
600.0
100
AcDbArc
 50
80.0719647229
 51
87.2260678245
  0
ARC
  5
357
100
AcDbEntity
  8
0
100
AcDbCircle
 62
7
  6
CONTINUOUS
 10
146.73818798
 20
-303.4566448801
 40
600.0
100
AcDbArc
 50
99.434176477
 51
99.9280352774
  0
ARC
  5
358
100
AcDbEntity
  8
0
100
AcDbCircle
 62
7
  6
CONTINUOUS
 10
231.23818798
 20
101.0433551199
 40
1.0
100
AcDbArc
 50
180.4511105813
 51
359.5488894187
  0
ARC
  5
359
100
AcDbEntity
  8
0
100
AcDbCircle
 62
7
  6
CONTINUOUS
 10
218.23818798
 20
101.0433551199
 40
1.0
100
AcDbArc
 50
180.4511105813
 51
359.5488894187
  0
ARC
  5
35A
100
AcDbEntity
  8
0
100
AcDbCircle
 62
7
  6
CONTINUOUS
 10
205.23818798
 20
101.0433551199
 40
1.0
100
AcDbArc
 50
180.4511105813
 51
359.5488894187
  0
ARC
  5
35B
100
AcDbEntity
  8
0
100
AcDbCircle
 62
7
  6
CONTINUOUS
 10
192.23818798
 20
101.0433551199
 40
1.0
100
AcDbArc
 50
180.4511105813
 51
359.5488894187
  0
ARC
  5
35C
100
AcDbEntity
  8
0
100
AcDbCircle
 62
7
  6
CONTINUOUS
 10
179.23818798
 20
101.0433551199
 40
1.0
100
AcDbArc
 50
180.4511105813
 51
359.5488894187
  0
ARC
  5
35D
100
AcDbEntity
  8
0
100
AcDbCircle
 62
7
  6
CONTINUOUS
 10
166.23818798
 20
101.0433551199
 40
1.0
100
AcDbArc
 50
180.4511105813
 51
359.5488894187
  0
ARC
  5
35E
100
AcDbEntity
  8
0
100
AcDbCircle
 62
7
  6
CONTINUOUS
 10
153.23818798
 20
101.0433551199
 40
1.0
100
AcDbArc
 50
180.4511105813
 51
359.5488894187
  0
ARC
  5
35F
100
AcDbEntity
  8
0
100
AcDbCircle
 62
7
  6
CONTINUOUS
 10
243.53818798
 20
100.5433551199
 40
1.0
100
AcDbArc
 50
180.0
 51
270.0
  0
ARC
  5
360
100
AcDbEntity
  8
0
100
AcDbCircle
 62
7
  6
CONTINUOUS
 10
202.7460305118
 20
163.5433551199
 40
1.0
100
AcDbArc
 50
0.451110582
 51
90.0
  0
ARC
  5
361
100
AcDbEntity
  8
0
100
AcDbCircle
 62
7
  6
CONTINUOUS
 10
194.7303454481
 20
163.5433551199
 40
1.0
100
AcDbArc
 50
90.0
 51
179.5488894124
  0
ARC
  5
362
100
AcDbEntity
  8
0
100
AcDbCircle
 62
7
  6
CONTINUOUS
 10
189.7460305119
 20
163.5433551199
 40
1.0
100
AcDbArc
 50
0.4511105784
 51
90.0
  0
ARC
  5
363
100
AcDbEntity
  8
0
100
AcDbCircle
 62
7
  6
CONTINUOUS
 10
181.730345448
 20
163.5433551199
 40
1.0
100
AcDbArc
 50
90.0
 51
179.5488894125
  0
ARC
  5
364
100
AcDbEntity
  8
0
100
AcDbCircle
 62
7
  6
CONTINUOUS
 10
176.7460305118
 20
163.5433551199
 40
1.0
100
AcDbArc
 50
0.451110582
 51
90.0
  0
ARC
  5
365
100
AcDbEntity
  8
0
100
AcDbCircle
 62
7
  6
CONTINUOUS
 10
168.7303454481
 20
163.5433551199
 40
1.0
100
AcDbArc
 50
90.0
 51
179.5488894124
  0
ARC
  5
366
100
AcDbEntity
  8
0
100
AcDbCircle
 62
7
  6
CONTINUOUS
 10
163.7460305119
 20
163.5433551199
 40
1.0
100
AcDbArc
 50
0.4511105785
 51
90.0
  0
ARC
  5
367
100
AcDbEntity
  8
0
100
AcDbCircle
 62
7
  6
CONTINUOUS
 10
155.7303454482
 20
163.5433551199
 40
1.0
100
AcDbArc
 50
90.0
 51
179.548889441
  0
ARC
  5
368
100
AcDbEntity
  8
0
100
AcDbCircle
 62
7
  6
CONTINUOUS
 10
150.7460305119
 20
163.5433551199
 40
1.0
100
AcDbArc
 50
0.4511105621
 51
90.0
  0
ARC
  5
369
100
AcDbEntity
  8
0
100
AcDbCircle
 62
7
  6
CONTINUOUS
 10
179.5361214524
 20
305.6234693034
 40
10.8008332083
100
AcDbArc
 50
250.039649624
 51
250.3807086935
  0
ARC
  5
36A
100
AcDbEntity
  8
0
100
AcDbCircle
 62
7
  6
CONTINUOUS
 10
174.8829573516
 20
307.3433551199
 40
0.5
100
AcDbArc
 50
2.0000000004
 51
90.0
  0
ARC
  5
36B
100
AcDbEntity
  8
0
100
AcDbCircle
 62
7
  6
CONTINUOUS
 10
176.627379286
 20
286.0433551199
 40
0.5
100
AcDbArc
 50
182.0
 51
270.0
  0
ARC
  5
36C
100
AcDbEntity
  8
0
100
AcDbCircle
 62
7
  6
CONTINUOUS
 10
252.8149721685
 20
205.0370342322
 40
72.1335842241
100
AcDbArc
 50
90.7365362182
 51
91.2363224647
  0
ARC
  5
36D
100
AcDbEntity
  8
0
100
AcDbCircle
 62
7
  6
CONTINUOUS
 10
248.53818798
 20
161.5433551199
 40
3.0
100
AcDbArc
 50
90.0
 51
180.0
  0
ARC
  5
36E
100
AcDbEntity
  8
0
100
AcDbCircle
 62
7
  6
CONTINUOUS
 10
241.53818798
 20
163.5433551199
 40
1.0
100
AcDbArc
 50
0.0
 51
90.0
  0
ARC
  5
36F
100
AcDbEntity
  8
0
100
AcDbCircle
 62
7
  6
CONTINUOUS
 10
233.730345448
 20
163.5433551199
 40
1.0
100
AcDbArc
 50
90.0
 51
179.5488894125
  0
ARC
  5
370
100
AcDbEntity
  8
0
100
AcDbCircle
 62
7
  6
CONTINUOUS
 10
228.7460305118
 20
163.5433551199
 40
1.0
100
AcDbArc
 50
0.451110582
 51
90.0
  0
ARC
  5
371
100
AcDbEntity
  8
0
100
AcDbCircle
 62
7
  6
CONTINUOUS
 10
220.7303454481
 20
163.5433551199
 40
1.0
100
AcDbArc
 50
90.0
 51
179.5488894124
  0
ARC
  5
372
100
AcDbEntity
  8
0
100
AcDbCircle
 62
7
  6
CONTINUOUS
 10
215.7460305119
 20
163.5433551199
 40
1.0
100
AcDbArc
 50
0.4511105784
 51
90.0
  0
ARC
  5
373
100
AcDbEntity
  8
0
100
AcDbCircle
 62
7
  6
CONTINUOUS
 10
207.730345448
 20
163.5433551199
 40
1.0
100
AcDbArc
 50
90.0
 51
179.5488894125
  0
ARC
  5
374
100
AcDbEntity
  8
0
100
AcDbCircle
 62
7
  6
CONTINUOUS
 10
244.3783937685
 20
180.5433551199
 40
0.5
100
AcDbArc
 50
181.5
 51
270.0
  0
ARC
  5
375
100
AcDbEntity
  8
0
100
AcDbCircle
 62
7
  6
CONTINUOUS
 10
246.8188339739
 20
179.5433551199
 40
0.5
100
AcDbArc
 50
1.9999999996
 51
90.0
  0
ARC
  5
376
100
AcDbEntity
  8
0
100
AcDbCircle
 62
7
  6
CONTINUOUS
 10
260.8188339739
 20
179.5433551199
 40
0.5
100
AcDbArc
 50
2.0072470368
 51
90.0
  0
ARC
  5
377
100
AcDbEntity
  8
0
100
AcDbCircle
 62
7
  6
CONTINUOUS
 10
240.8529707152
 20
235.453589237
 40
41.709934561
100
AcDbArc
 50
89.8289680932
 51
90.5636555339
  0
ARC
  5
378
100
AcDbEntity
  8
0
100
AcDbCircle
 62
7
  6
CONTINUOUS
 10
238.6689501484
 20
288.979744493
 40
5.3676347223
100
AcDbArc
 50
350.9988329833
 51
352.3167979187
  0
ARC
  5
379
100
AcDbEntity
  8
0
100
AcDbCircle
 62
7
  6
CONTINUOUS
 10
243.8285551905
 20
285.8462100273
 40
2.2981302416
100
AcDbArc
 50
86.4592699539
 51
88.0213357248
  0
ARC
  5
37A
100
AcDbEntity
  8
0
100
AcDbCircle
 62
7
  6
CONTINUOUS
 10
249.840026645
 20
285.5883541343
 40
2.0
100
AcDbArc
 50
3.0
 51
80.0719647289
  0
ARC
  5
37B
100
AcDbEntity
  8
0
100
AcDbCircle
 62
7
  6
CONTINUOUS
 10
234.23818798
 20
287.3433551199
 40
0.5
100
AcDbArc
 50
90.0
 51
180.0
  0
ARC
  5
37C
100
AcDbEntity
  8
0
100
AcDbCircle
 62
7
  6
CONTINUOUS
 10
240.23818798
 20
287.3433551199
 40
0.5
100
AcDbArc
 50
0.0
 51
90.0
  0
ARC
  5
37D
100
AcDbEntity
  8
0
100
AcDbCircle
 62
7
  6
CONTINUOUS
 10
230.73818798
 20
287.3433551199
 40
0.5
100
AcDbArc
 50
90.0
 51
180.0
  0
ARC
  5
37E
100
AcDbEntity
  8
0
100
AcDbCircle
 62
7
  6
CONTINUOUS
 10
236.73818798
 20
287.3433551199
 40
0.5
100
AcDbArc
 50
0.0
 51
90.0
  0
ARC
  5
37F
100
AcDbEntity
  8
0
100
AcDbCircle
 62
7
  6
CONTINUOUS
 10
242.848996674
 20
286.0433551199
 40
0.5
100
AcDbArc
 50
270.0
 51
357.9999999945
  0
ARC
  5
380
100
AcDbEntity
  8
0
100
AcDbCircle
 62
7
  6
CONTINUOUS
 10
243.9219072582
 20
288.1137860131
 40
0.5
100
AcDbArc
 50
80.670729281
 51
178.0
  0
ARC
  5
381
100
AcDbEntity
  8
0
100
AcDbCircle
 62
7
  6
CONTINUOUS
 10
240.9485252316
 20
277.1433551199
 40
0.4
100
AcDbArc
 50
1.5000001574
 51
90.0
  0
ARC
  5
382
100
AcDbEntity
  8
0
100
AcDbCircle
 62
7
  6
CONTINUOUS
 10
251.8585914436
 20
277.1433497849
 40
0.3999959896
100
AcDbArc
 50
3.0006828377
 51
89.9984659692
  0
SPLINE
  5
383
100
AcDbEntity
  8
0
100
AcDbSpline
 62
7
  6
CONTINUOUS
 70
0
 71
3
 72
8
 73
4
 74
0
 42
0.0000001
 43
0.0000001
 44
0.0000000001
 40
0.0
 40
0.0
 40
0.0
 40
0.0
 40
1.0
 40
1.0
 40
1.0
 40
1.0
 10
242.859804114
 20
285.5433551383
 30
0.0
 10
242.9589502769
 20
285.5433551277
 30
0.0
 10
243.0622526722
 20
285.5763485581
 30
0.0
 10
243.1432406488
 20
285.6335404218
 30
0.0
  0
SPLINE
  5
384
100
AcDbEntity
  8
0
100
AcDbSpline
 62
7
  6
CONTINUOUS
 70
0
 71
3
 72
11
 73
7
 74
0
 42
0.0000001
 43
0.0000001
 44
0.0000000001
 40
0.0
 40
0.0
 40
0.0
 40
0.0
 40
0.371076491
 40
0.6656880645
 40
0.8753811283
 40
1.0
 40
1.0
 40
1.0
 40
1.0
 10
48.4223813465
 20
287.9610242921
 30
0.0
 10
48.4133401848
 20
288.0175343229
 30
0.0
 10
48.3988816155
 20
288.1190303556
 30
0.0
 10
48.3831943592
 20
288.2536937067
 30
0.0
 10
48.3790323712
 20
288.3495695634
 30
0.0
 10
48.377265885
 20
288.4027461656
 30
0.0
 10
48.3837437759
 20
288.4208407235
 30
0.0
  0
SPLINE
  5
385
100
AcDbEntity
  8
0
100
AcDbSpline
 62
7
  6
CONTINUOUS
 70
0
 71
3
 72
9
 73
5
 74
0
 42
0.0000001
 43
0.0000001
 44
0.0000000001
 40
0.0
 40
0.0
 40
0.0
 40
0.0
 40
0.6012982005
 40
1.0
 40
1.0
 40
1.0
 40
1.0
 10
48.3837437759
 20
288.4208407235
 30
0.0
 10
48.3843907304
 20
288.4226478481
 30
0.0
 10
48.3855798076
 20
288.4256197868
 30
0.0
 10
48.3882836866
 20
288.4278842879
 30
0.0
 10
48.3895391316
 20
288.4280932708
 30
0.0
  0
SPLINE
  5
386
100
AcDbEntity
  8
0
100
AcDbSpline
 62
7
  6
CONTINUOUS
 70
0
 71
3
 72
13
 73
9
 74
0
 42
0.0000001
 43
0.0000001
 44
0.0000000001
 40
0.0
 40
0.0
 40
0.0
 40
0.0
 40
0.0227128466
 40
0.0830278011
 40
0.1738343762
 40
0.2868564239
 40
0.5944198189
 40
1.0
 40
1.0
 40
1.0
 40
1.0
 10
106.2367235126
 20
307.2528697138
 30
0.0
 10
106.2331277531
 20
307.2528587737
 30
0.0
 10
106.2326195358
 20
307.2333134757
 30
0.0
 10
106.2276396392
 20
307.2117428226
 30
0.0
 10
106.2257690469
 20
307.1671293414
 30
0.0
 10
106.2215011656
 20
307.0877577766
 30
0.0
 10
106.2187617483
 20
306.9559194424
 30
0.0
 10
106.2178700926
 20
306.8433830744
 30
0.0
 10
106.2179252645
 20
306.779173817
 30
0.0
  0
SPLINE
  5
387
100
AcDbEntity
  8
0
100
AcDbSpline
 62
7
  6
CONTINUOUS
 70
0
 71
3
 72
13
 73
9
 74
0
 42
0.0000001
 43
0.0000001
 44
0.0000000001
 40
0.0
 40
0.0
 40
0.0
 40
0.0
 40
0.3696750082
 40
0.701343715
 40
0.8258518047
 40
0.9170230711
 40
0.9744151191
 40
1.0
 40
1.0
 40
1.0
 40
1.0
 10
50.6158464351
 20
307.3695231679
 30
0.0
 10
50.6161451075
 20
307.4287201973
 30
0.0
 10
50.6189012776
 20
307.5408553357
 30
0.0
 10
50.6266534234
 20
307.6734622146
 30
0.0
 10
50.6367478652
 20
307.7597989167
 30
0.0
 10
50.6451541975
 20
307.8041315886
 30
0.0
 10
50.6518533083
 20
307.8285580175
 30
0.0
 10
50.6598190082
 20
307.8433551251
 30
0.0
 10
50.6639160344
 20
307.8433551199
 30
0.0
  0
SPLINE
  5
388
100
AcDbEntity
  8
0
100
AcDbSpline
 62
7
  6
CONTINUOUS
 70
0
 71
3
 72
14
 73
10
 74
0
 42
0.0000001
 43
0.0000001
 44
0.0000000001
 40
0.0
 40
0.0
 40
0.0
 40
0.0
 40
0.3829169719
 40
0.5565193037
 40
0.7068180232
 40
0.8294863194
 40
0.9206470708
 40
0.9777678919
 40
1.0
 40
1.0
 40
1.0
 40
1.0
 10
88.0447819322
 20
307.369523098
 30
0.0
 10
88.0383966773
 20
307.4301518838
 30
0.0
 10
88.0460140852
 20
307.5195487738
 30
0.0
 10
88.0604883814
 20
307.6308045403
 30
0.0
 10
88.0669573569
 20
307.702015411
 30
0.0
 10
88.071950821
 20
307.7587545924
 30
0.0
 10
88.0766887858
 20
307.8040577631
 30
0.0
 10
88.0825468895
 20
307.826171059
 30
0.0
 10
88.0861561787
 20
307.8433551199
 30
0.0
 10
88.089695746
 20
307.8433551199
 30
0.0
  0
SPLINE
  5
389
100
AcDbEntity
  8
0
100
AcDbSpline
 62
7
  6
CONTINUOUS
 70
0
 71
3
 72
9
 73
5
 74
0
 42
0.0000001
 43
0.0000001
 44
0.0000000001
 40
0.0
 40
0.0
 40
0.0
 40
0.0
 40
0.2239446577
 40
1.0
 40
1.0
 40
1.0
 40
1.0
 10
48.3895228471
 20
288.4280897372
 30
0.0
 10
48.4377073587
 20
288.4360880797
 30
0.0
 10
48.6494876144
 20
288.494815061
 30
0.0
 10
48.8327868753
 20
288.6204405902
 30
0.0
 10
48.9756419023
 20
288.7112280947
 30
0.0
  0
SPLINE
  5
38A
100
AcDbEntity
  8
0
100
AcDbSpline
 62
7
  6
CONTINUOUS
 70
0
 71
3
 72
9
 73
5
 74
0
 42
0.0000001
 43
0.0000001
 44
0.0000000001
 40
0.0
 40
0.0
 40
0.0
 40
0.0
 40
0.2214923355
 40
1.0
 40
1.0
 40
1.0
 40
1.0
 10
48.9756419023
 20
288.7112280947
 30
0.0
 10
49.0248986528
 20
288.7425318405
 30
0.0
 10
49.2478129105
 20
288.8830724236
 30
0.0
 10
49.47817443
 20
289.011386992
 30
0.0
 10
49.658046605
 20
289.1100058439
 30
0.0
  0
SPLINE
  5
38B
100
AcDbEntity
  8
0
100
AcDbSpline
 62
7
  6
CONTINUOUS
 70
0
 71
3
 72
16
 73
12
 74
0
 42
0.0000001
 43
0.0000001
 44
0.0000000001
 40
0.0
 40
0.0
 40
0.0
 40
0.0
 40
0.0046348544
 40
0.018484441
 40
0.041751827
 40
0.0742607081
 40
0.1657046182
 40
0.2892882159
 40
0.4402812277
 40
0.6131302893
 40
1.0
 40
1.0
 40
1.0
 40
1.0
 10
48.7446135957
 20
288.8848141814
 30
0.0
 10
48.7445362024
 20
288.8833610066
 30
0.0
 10
48.7537860022
 20
288.8843413478
 30
0.0
 10
48.7634852869
 20
288.8851824358
 30
0.0
 10
48.7868733622
 20
288.8896237833
 30
0.0
 10
48.8309959303
 20
288.8987283691
 30
0.0
 10
48.9075494413
 20
288.9164694625
 30
0.0
 10
49.0188217002
 20
288.9435786865
 30
0.0
 10
49.1551757355
 20
288.9779748463
 30
0.0
 10
49.3711892306
 20
289.0337034424
 30
0.0
 10
49.5410989531
 20
289.0786961345
 30
0.0
 10
49.6584281388
 20
289.1101336104
 30
0.0
  0
SPLINE
  5
38C
100
AcDbEntity
  8
0
100
AcDbSpline
 62
7
  6
CONTINUOUS
 70
0
 71
3
 72
16
 73
12
 74
0
 42
0.0000001
 43
0.0000001
 44
0.0000000001
 40
0.0
 40
0.0
 40
0.0
 40
0.0
 40
0.3892089702
 40
0.5618926929
 40
0.7118321059
 40
0.8340859795
 40
0.9246938724
 40
0.9570317378
 40
0.9803988929
 40
0.99468245
 40
1.0
 40
1.0
 40
1.0
 40
1.0
 10
50.6158455814
 20
307.3695228082
 30
0.0
 10
50.4986936158
 20
307.3722381783
 30
0.0
 10
50.3295332031
 20
307.3756797901
 30
0.0
 10
50.1152680864
 20
307.3781754002
 30
0.0
 10
49.9812298875
 20
307.3788677628
 30
0.0
 10
49.8722564067
 20
307.3783449194
 30
0.0
 10
49.7978749757
 20
307.3772061282
 30
0.0
 10
49.754632661
 20
307.3751311128
 30
0.0
 10
49.7323067462
 20
307.3740022591
 30
0.0
 10
49.7218188803
 20
307.3718716461
 30
0.0
 10
49.7134446734
 20
307.3711175114
 30
0.0
 10
49.7133685477
 20
307.3695183089
 30
0.0
  0
SPLINE
  5
38D
100
AcDbEntity
  8
0
100
AcDbSpline
 62
7
  6
CONTINUOUS
 70
0
 71
3
 72
14
 73
10
 74
0
 42
0.0000001
 43
0.0000001
 44
0.0000000001
 40
0.0
 40
0.0
 40
0.0
 40
0.0
 40
0.0192620336
 40
0.0784624977
 40
0.1701674477
 40
0.2935850744
 40
0.4441041244
 40
0.6163086631
 40
1.0
 40
1.0
 40
1.0
 40
1.0
 10
243.4222118414
 20
288.1312356648
 30
0.0
 10
243.4221026168
 20
288.1281092588
 30
0.0
 10
243.4426631022
 20
288.1388224926
 30
0.0
 10
243.4608378815
 20
288.1419954476
 30
0.0
 10
243.5103083048
 20
288.1443605171
 30
0.0
 10
243.567579816
 20
288.1469305322
 30
0.0
 10
243.6407969618
 20
288.146761932
 30
0.0
 10
243.7552001577
 20
288.1460129026
 30
0.0
 10
243.8456077063
 20
288.1445017409
 30
0.0
 10
243.9079035205
 20
288.1429700169
 30
0.0
  0
SPLINE
  5
38E
100
AcDbEntity
  8
0
100
AcDbSpline
 62
7
  6
CONTINUOUS
 70
0
 71
3
 72
8
 73
4
 74
0
 42
0.0000001
 43
0.0000001
 44
0.0000000001
 40
0.0
 40
0.0
 40
0.0
 40
0.0
 40
1.0
 40
1.0
 40
1.0
 40
1.0
 10
176.2853759806
 20
295.3322052926
 30
0.0
 10
176.2429573361
 20
295.3428846599
 30
0.0
 10
176.2008136917
 20
295.3546816209
 30
0.0
 10
176.1589040256
 20
295.367210395
 30
0.0
  0
SPLINE
  5
38F
100
AcDbEntity
  8
0
100
AcDbSpline
 62
7
  6
CONTINUOUS
 70
0
 71
3
 72
9
 73
5
 74
0
 42
0.0000001
 43
0.0000001
 44
0.0000000001
 40
0.0
 40
0.0
 40
0.0
 40
0.0
 40
0.2688389736
 40
1.0
 40
1.0
 40
1.0
 40
1.0
 10
176.1589040256
 20
295.367210395
 30
0.0
 10
176.1363517055
 20
295.3739523462
 30
0.0
 10
176.0527047816
 20
295.3998384117
 30
0.0
 10
175.969848297
 20
295.4282115058
 30
0.0
 10
175.9095393116
 20
295.4496843651
 30
0.0
  0
SPLINE
  5
390
100
AcDbEntity
  8
0
100
AcDbSpline
 62
7
  6
CONTINUOUS
 70
0
 71
3
 72
9
 73
5
 74
0
 42
0.0000001
 43
0.0000001
 44
0.0000000001
 40
0.0
 40
0.0
 40
0.0
 40
0.0
 40
0.275963355
 40
1.0
 40
1.0
 40
1.0
 40
1.0
 10
176.3100287579
 20
295.8137853979
 30
0.0
 10
176.3104734105
 20
295.8581381203
 30
0.0
 10
176.2951076071
 20
295.4927233657
 30
0.0
 10
176.2911218848
 20
295.4484644632
 30
0.0
 10
176.2853792632
 20
295.3322335057
 30
0.0
  0
SPLINE
  5
391
100
AcDbEntity
  8
0
100
AcDbSpline
 62
7
  6
CONTINUOUS
 70
0
 71
3
 72
11
 73
7
 74
0
 42
0.0000001
 43
0.0000001
 44
0.0000000001
 40
0.0
 40
0.0
 40
0.0
 40
0.0
 40
0.0710978746
 40
0.2702071544
 40
0.5836835698
 40
1.0
 40
1.0
 40
1.0
 40
1.0
 10
243.0084583653
 20
288.7693809729
 30
0.0
 10
243.0084705193
 20
288.7808156189
 30
0.0
 10
242.9946981334
 20
288.6852464783
 30
0.0
 10
242.9845463126
 20
288.6409448525
 30
0.0
 10
242.9569668229
 20
288.4673104643
 30
0.0
 10
242.9389450958
 20
288.3597173258
 30
0.0
 10
242.9281895645
 20
288.2936307705
 30
0.0
  0
SPLINE
  5
392
100
AcDbEntity
  8
0
100
AcDbSpline
 62
7
  6
CONTINUOUS
 70
0
 71
3
 72
9
 73
5
 74
0
 42
0.0000001
 43
0.0000001
 44
0.0000000001
 40
0.0
 40
0.0
 40
0.0
 40
0.0
 40
0.3504293455
 40
1.0
 40
1.0
 40
1.0
 40
1.0
 10
243.3486989813
 20
286.0259021271
 30
0.0
 10
243.3486719562
 20
286.0251084822
 30
0.0
 10
243.3504938572
 20
286.0231517829
 30
0.0
 10
243.3525742824
 20
286.022472039
 30
0.0
 10
243.353965271
 20
286.0219904843
 30
0.0
  0
SPLINE
  5
393
100
AcDbEntity
  8
0
100
AcDbSpline
 62
7
  6
CONTINUOUS
 70
0
 71
3
 72
14
 73
10
 74
0
 42
0.0000001
 43
0.0000001
 44
0.0000000001
 40
0.0
 40
0.0
 40
0.0
 40
0.0
 40
0.0218474535
 40
0.080643431
 40
0.1743588593
 40
0.2992366285
 40
0.4503589837
 40
0.6219104294
 40
1.0
 40
1.0
 40
1.0
 40
1.0
 10
243.4222127829
 20
288.1312401809
 30
0.0
 10
243.4223586287
 20
288.1350287259
 30
0.0
 10
243.4033923935
 20
288.1393689142
 30
0.0
 10
243.3809532652
 20
288.1521077352
 30
0.0
 10
243.3325335747
 20
288.1673737129
 30
0.0
 10
243.2729684892
 20
288.1881382937
 30
0.0
 10
243.1985816893
 20
288.2117989843
 30
0.0
 10
243.0826617663
 20
288.248015775
 30
0.0
 10
242.9911814795
 20
288.2752770954
 30
0.0
 10
242.9281883162
 20
288.293631591
 30
0.0
  0
SPLINE
  5
394
100
AcDbEntity
  8
0
100
AcDbSpline
 62
7
  6
CONTINUOUS
 70
0
 71
3
 72
9
 73
5
 74
0
 42
0.0000001
 43
0.0000001
 44
0.0000000001
 40
0.0
 40
0.0
 40
0.0
 40
0.0
 40
0.4935970739
 40
1.0
 40
1.0
 40
1.0
 40
1.0
 10
176.538334524
 20
285.5433278823
 30
0.0
 10
176.4594346215
 20
285.5433754742
 30
0.0
 10
176.2969137434
 20
285.5883618633
 30
0.0
 10
176.180103781
 20
285.7088443531
 30
0.0
 10
176.1392580678
 20
285.7787301667
 30
0.0
  0
SPLINE
  5
395
100
AcDbEntity
  8
0
100
AcDbSpline
 62
7
  6
CONTINUOUS
 70
0
 71
3
 72
8
 73
4
 74
0
 42
0.0000001
 43
0.0000001
 44
0.0000000001
 40
0.0
 40
0.0
 40
0.0
 40
0.0
 40
1.0
 40
1.0
 40
1.0
 40
1.0
 10
176.1392580678
 20
285.7787301667
 30
0.0
 10
176.0972525314
 20
285.8506004034
 30
0.0
 10
176.0724812362
 20
285.9350823479
 30
0.0
 10
176.0684991723
 20
286.0182324482
 30
0.0
  0
SPLINE
  5
396
100
AcDbEntity
  8
0
100
AcDbSpline
 62
7
  6
CONTINUOUS
 70
0
 71
3
 72
9
 73
5
 74
0
 42
0.0000001
 43
0.0000001
 44
0.0000000001
 40
0.0
 40
0.0
 40
0.0
 40
0.0
 40
0.2500459684
 40
1.0
 40
1.0
 40
1.0
 40
1.0
 10
242.928187295
 20
288.2936280509
 30
0.0
 10
237.41345386
 20
289.1900853482
 30
0.0
 10
215.3095567501
 20
292.4669681555
 30
0.0
 10
193.0222672173
 20
294.5063041369
 30
0.0
 10
176.2853786016
 20
295.3322167491
 30
0.0
  0
SPLINE
  5
397
100
AcDbEntity
  8
0
100
AcDbSpline
 62
7
  6
CONTINUOUS
 70
0
 71
3
 72
8
 73
4
 74
0
 42
0.0000001
 43
0.0000001
 44
0.0000000001
 40
0.0
 40
0.0
 40
0.0
 40
0.0
 40
1.0
 40
1.0
 40
1.0
 40
1.0
 10
176.2853786016
 20
295.3322167491
 30
0.0
 10
176.299362188
 20
295.2489780634
 30
0.0
 10
176.3083011261
 20
295.1646741942
 30
0.0
 10
176.3111623091
 20
295.0803176112
 30
0.0
  0
SPLINE
  5
398
100
AcDbEntity
  8
0
100
AcDbSpline
 62
7
  6
CONTINUOUS
 70
0
 71
3
 72
16
 73
12
 74
0
 42
0.0000001
 43
0.0000001
 44
0.0000000001
 40
0.0
 40
0.0
 40
0.0
 40
0.0
 40
0.0054365267
 40
0.0199788103
 40
0.0437434711
 40
0.0766021518
 40
0.1685112743
 40
0.2920946584
 40
0.4429686942
 40
0.6156858147
 40
1.0
 40
1.0
 40
1.0
 40
1.0
 10
175.382640503
 20
307.360803283
 30
0.0
 10
175.3825808022
 20
307.3625636308
 30
0.0
 10
175.373441538
 20
307.3635876915
 30
0.0
 10
175.3619538842
 20
307.3660322145
 30
0.0
 10
175.3375587941
 20
307.3675914344
 30
0.0
 10
175.2903385406
 20
307.3703634582
 30
0.0
 10
175.209292017
 20
307.372415205
 30
0.0
 10
175.0908824322
 20
307.3740632449
 30
0.0
 10
174.9459023106
 20
307.3745726448
 30
0.0
 10
174.7165935424
 20
307.3738111613
 30
0.0
 10
174.5361149741
 20
307.3715653341
 30
0.0
 10
174.4116189999
 20
307.3695362592
 30
0.0
  0
SPLINE
  5
399
100
AcDbEntity
  8
0
100
AcDbSpline
 62
7
  6
CONTINUOUS
 70
0
 71
3
 72
9
 73
5
 74
0
 42
0.0000001
 43
0.0000001
 44
0.0000000001
 40
0.0
 40
0.0
 40
0.0
 40
0.0
 40
0.7423130091
 40
1.0
 40
1.0
 40
1.0
 40
1.0
 10
176.0685836679
 20
286.0182350919
 30
0.0
 10
176.083362147
 20
286.0190288582
 30
0.0
 10
176.0963333829
 20
286.0236281402
 30
0.0
 10
176.1278593882
 20
286.0207710115
 30
0.0
 10
176.127685346
 20
286.0259056676
 30
0.0
  0
SPLINE
  5
39A
100
AcDbEntity
  8
0
100
AcDbSpline
 62
7
  6
CONTINUOUS
 70
0
 71
3
 72
12
 73
8
 74
0
 42
0.0000001
 43
0.0000001
 44
0.0000000001
 40
0.0
 40
0.0
 40
0.0
 40
0.0
 40
0.2962772134
 40
0.5799622051
 40
0.8325109313
 40
0.9321938282
 40
1.0
 40
1.0
 40
1.0
 40
1.0
 10
175.1903529494
 20
285.0695112231
 30
0.0
 10
175.2691914341
 20
285.1711065391
 30
0.0
 10
175.428114838
 20
285.3665931864
 30
0.0
 10
175.6565016582
 20
285.6456559951
 30
0.0
 10
175.8395526053
 20
285.8549452639
 30
0.0
 10
175.9738379534
 20
285.97532921
 30
0.0
 10
176.0393032552
 20
286.0152079691
 30
0.0
 10
176.0685778152
 20
286.0182357164
 30
0.0
  0
LINE
  5
39B
100
AcDbEntity
  8
0
100
AcDbLine
 62
7
  6
CONTINUOUS
 10
175.1903529494
 20
285.0695112231
 11
174.4116189999
 21
307.3695362592
  0
SPLINE
  5
39C
100
AcDbEntity
  8
0
100
AcDbSpline
 62
7
  6
CONTINUOUS
 70
0
 71
3
 72
9
 73
5
 74
0
 42
0.0000001
 43
0.0000001
 44
0.0000000001
 40
0.0
 40
0.0
 40
0.0
 40
0.0
 40
0.5004079201
 40
1.0
 40
1.0
 40
1.0
 40
1.0
 10
251.3902462225
 20
285.6930260468
 30
0.0
 10
251.3729100921
 20
286.0228911144
 30
0.0
 10
251.1050652536
 20
286.6898415867
 30
0.0
 10
250.4751460118
 20
287.0352000259
 30
0.0
 10
250.1503029915
 20
287.0920597354
 30
0.0
  0
SPLINE
  5
39D
100
AcDbEntity
  8
0
100
AcDbSpline
 62
7
  6
CONTINUOUS
 70
0
 71
3
 72
9
 73
5
 74
0
 42
0.0000001
 43
0.0000001
 44
0.0000000001
 40
0.0
 40
0.0
 40
0.0
 40
0.0
 40
0.4994432285
 40
1.0
 40
1.0
 40
1.0
 40
1.0
 10
43.3260729685
 20
287.0920597354
 30
0.0
 10
43.0013270814
 20
287.0352167314
 30
0.0
 10
42.3714140896
 20
286.6899465384
 30
0.0
 10
42.1034639785
 20
286.0229893037
 30
0.0
 10
42.0861297375
 20
285.6930260468
 30
0.0
  0
SPLINE
  5
39E
100
AcDbEntity
  8
0
100
AcDbSpline
 62
7
  6
CONTINUOUS
 70
0
 71
3
 72
11
 73
7
 74
0
 42
0.0000001
 43
0.0000001
 44
0.0000000001
 40
0.0
 40
0.0
 40
0.0
 40
0.0
 40
0.2497332707
 40
0.5002055623
 40
0.7499906271
 40
1.0
 40
1.0
 40
1.0
 40
1.0
 10
49.6580310224
 20
289.1100331801
 30
0.0
 10
49.6003138684
 20
288.9891806408
 30
0.0
 10
49.4713705399
 20
288.7530905631
 30
0.0
 10
49.2330613128
 20
288.4275072796
 30
0.0
 10
48.9365910016
 20
288.1493662478
 30
0.0
 10
48.6893127783
 20
288.0324710444
 30
0.0
 10
48.5608319464
 20
287.9941439667
 30
0.0
  0
SPLINE
  5
39F
100
AcDbEntity
  8
0
100
AcDbSpline
 62
7
  6
CONTINUOUS
 70
0
 71
3
 72
8
 73
4
 74
0
 42
0.0000001
 43
0.0000001
 44
0.0000000001
 40
0.0
 40
0.0
 40
0.0
 40
0.0
 40
1.0
 40
1.0
 40
1.0
 40
1.0
 10
50.6158455814
 20
307.3695228082
 30
0.0
 10
50.2962100124
 20
301.2830460304
 30
0.0
 10
49.9774525118
 20
295.1965231696
 30
0.0
 10
49.6584599412
 20
289.1100126584
 30
0.0
  0
SPLINE
  5
3A0
100
AcDbEntity
  8
0
100
AcDbSpline
 62
7
  6
CONTINUOUS
 70
0
 71
3
 72
9
 73
5
 74
0
 42
0.0000001
 43
0.0000001
 44
0.0000000001
 40
0.0
 40
0.0
 40
0.0
 40
0.0
 40
0.2501169346
 40
1.0
 40
1.0
 40
1.0
 40
1.0
 10
106.2330889106
 20
306.7791426167
 30
0.0
 10
104.7150573516
 20
306.7746251663
 30
0.0
 10
98.645756684
 20
306.8094330582
 30
0.0
 10
92.5774458642
 20
307.0571621039
 30
0.0
 10
88.0368526244
 20
307.3688128207
 30
0.0
  0
SPLINE
  5
3A1
100
AcDbEntity
  8
0
100
AcDbSpline
 62
7
  6
CONTINUOUS
 70
0
 71
3
 72
9
 73
5
 74
0
 42
0.0000001
 43
0.0000001
 44
0.0000000001
 40
0.0
 40
0.0
 40
0.0
 40
0.0
 40
0.2595367033
 40
1.0
 40
1.0
 40
1.0
 40
1.0
 10
243.8632001679
 20
285.0695230482
 30
0.0
 10
243.8312991242
 20
285.1380901206
 30
0.0
 10
243.7036859247
 20
285.4000342108
 30
0.0
 10
243.5735775236
 20
285.6609835139
 30
0.0
 10
243.4684073992
 20
285.8493748211
 30
0.0
  0
SPLINE
  5
3A2
100
AcDbEntity
  8
0
100
AcDbSpline
 62
7
  6
CONTINUOUS
 70
0
 71
3
 72
9
 73
5
 74
0
 42
0.0000001
 43
0.0000001
 44
0.0000000001
 40
0.0
 40
0.0
 40
0.0
 40
0.0
 40
0.6405218027
 40
1.0
 40
1.0
 40
1.0
 40
1.0
 10
243.4684073992
 20
285.8493748211
 30
0.0
 10
243.4468037428
 20
285.8880734638
 30
0.0
 10
243.411554998
 20
285.9464648284
 30
0.0
 10
243.3738344253
 20
286.007029353
 30
0.0
 10
243.3539657544
 20
286.021994109
 30
0.0
  0
SPLINE
  5
3A3
100
AcDbEntity
  8
0
100
AcDbSpline
 62
7
  6
CONTINUOUS
 70
0
 71
3
 72
13
 73
9
 74
0
 42
0.0000001
 43
0.0000001
 44
0.0000000001
 40
0.0
 40
0.0
 40
0.0
 40
0.0
 40
0.2826200008
 40
0.5617457418
 40
0.6964853594
 40
0.824185506
 40
0.9341642247
 40
1.0
 40
1.0
 40
1.0
 40
1.0
 10
243.8631992653
 20
285.069523098
 30
0.0
 10
243.7700295397
 20
285.1171473747
 30
0.0
 10
243.5856102694
 20
285.2132331221
 30
0.0
 10
243.354367426
 20
285.3276752224
 30
0.0
 10
243.1736073646
 20
285.4138871434
 30
0.0
 10
243.0482795835
 20
285.4729261606
 30
0.0
 10
242.9451969077
 20
285.5133810402
 30
0.0
 10
242.8841903415
 20
285.5433551199
 30
0.0
 10
242.859815616
 20
285.5433551199
 30
0.0
  0
SPLINE
  5
3A4
100
AcDbEntity
  8
0
100
AcDbSpline
 62
7
  6
CONTINUOUS
 70
0
 71
3
 72
9
 73
5
 74
0
 42
0.0000001
 43
0.0000001
 44
0.0000000001
 40
0.0
 40
0.0
 40
0.0
 40
0.0
 40
0.453597353
 40
1.0
 40
1.0
 40
1.0
 40
1.0
 10
176.5383306265
 20
285.5433551199
 30
0.0
 10
176.4451670587
 20
285.5433551199
 30
0.0
 10
176.2443532068
 20
285.481767594
 30
0.0
 10
176.0518401317
 20
285.415078239
 30
0.0
 10
175.9468082384
 20
285.3755474752
 30
0.0
  0
SPLINE
  5
3A5
100
AcDbEntity
  8
0
100
AcDbSpline
 62
7
  6
CONTINUOUS
 70
0
 71
3
 72
9
 73
5
 74
0
 42
0.0000001
 43
0.0000001
 44
0.0000000001
 40
0.0
 40
0.0
 40
0.0
 40
0.0
 40
0.2445577395
 40
1.0
 40
1.0
 40
1.0
 40
1.0
 10
175.9468082384
 20
285.3755474752
 30
0.0
 10
175.8845745835
 20
285.3521246477
 30
0.0
 10
175.6308052288
 20
285.2544267233
 30
0.0
 10
175.3811385181
 20
285.1465531425
 30
0.0
 10
175.1907235747
 20
285.069523098
 30
0.0
  0
SPLINE
  5
3A6
100
AcDbEntity
  8
0
100
AcDbSpline
 62
7
  6
CONTINUOUS
 70
0
 71
3
 72
13
 73
9
 74
0
 42
0.0000001
 43
0.0000001
 44
0.0000000001
 40
0.0
 40
0.0
 40
0.0
 40
0.0
 40
0.0196630146
 40
0.0758979947
 40
0.1669147107
 40
0.2898046911
 40
0.6153381865
 40
1.0
 40
1.0
 40
1.0
 40
1.0
 10
122.9788782744
 20
307.8433551199
 30
0.0
 10
122.9757685621
 20
307.8433551199
 30
0.0
 10
122.9785149134
 20
307.824508503
 30
0.0
 10
122.9739106769
 20
307.8045411162
 30
0.0
 10
122.9740812203
 20
307.7583761865
 30
0.0
 10
122.9698210748
 20
307.6749686837
 30
0.0
 10
122.9827770971
 20
307.5428595944
 30
0.0
 10
122.9942355496
 20
307.429234163
 30
0.0
 10
122.9825988765
 20
307.369523098
 30
0.0
  0
SPLINE
  5
3A7
100
AcDbEntity
  8
0
100
AcDbSpline
 62
7
  6
CONTINUOUS
 70
0
 71
3
 72
14
 73
10
 74
0
 42
0.0000001
 43
0.0000001
 44
0.0000000001
 40
0.0
 40
0.0
 40
0.0
 40
0.0
 40
0.0197604408
 40
0.0759435393
 40
0.1670348379
 40
0.2900991805
 40
0.440724447
 40
0.6141386979
 40
1.0
 40
1.0
 40
1.0
 40
1.0
 10
174.3974051453
 20
307.8430268043
 30
0.0
 10
174.4005273985
 20
307.8430950344
 30
0.0
 10
174.3990180692
 20
307.8244216018
 30
0.0
 10
174.4042677455
 20
307.8044194664
 30
0.0
 10
174.4047045491
 20
307.7582771134
 30
0.0
 10
174.4073754607
 20
307.7021170252
 30
0.0
 10
174.4087734983
 20
307.6309446413
 30
0.0
 10
174.410632964
 20
307.5189885668
 30
0.0
 10
174.4111549488
 20
307.4305046553
 30
0.0
 10
174.4112437305
 20
307.3695220561
 30
0.0
  0
SPLINE
  5
3A8
100
AcDbEntity
  8
0
100
AcDbSpline
 62
7
  6
CONTINUOUS
 70
0
 71
3
 72
13
 73
9
 74
0
 42
0.0000001
 43
0.0000001
 44
0.0000000001
 40
0.0
 40
0.0
 40
0.0
 40
0.0
 40
0.4067062446
 40
0.7129875119
 40
0.8258308547
 40
0.9166928811
 40
0.9767886253
 40
1.0
 40
1.0
 40
1.0
 40
1.0
 10
251.3902457986
 20
285.6930254611
 30
0.0
 10
251.4509361267
 20
285.6958969036
 30
0.0
 10
251.5570638336
 20
285.6999344377
 30
0.0
 10
251.681333521
 20
285.7025405731
 30
0.0
 10
251.7562502584
 20
285.7015919966
 30
0.0
 10
251.7980920614
 20
285.7009460969
 30
0.0
 10
251.8191222557
 20
285.6974119219
 30
0.0
 10
251.837077493
 20
285.6964876361
 30
0.0
 10
251.8372725638
 20
285.6930255588
 30
0.0
  0
SPLINE
  5
3A9
100
AcDbEntity
  8
0
100
AcDbSpline
 62
7
  6
CONTINUOUS
 70
0
 71
3
 72
8
 73
4
 74
0
 42
0.0000001
 43
0.0000001
 44
0.0000000001
 40
0.0
 40
0.0
 40
0.0
 40
0.0
 40
1.0
 40
1.0
 40
1.0
 40
1.0
 10
243.1432406488
 20
285.6335404218
 30
0.0
 10
243.1981051974
 20
285.6722845158
 30
0.0
 10
243.2458612262
 20
285.723434016
 30
0.0
 10
243.2807369255
 20
285.7808353149
 30
0.0
  0
SPLINE
  5
3AA
100
AcDbEntity
  8
0
100
AcDbSpline
 62
7
  6
CONTINUOUS
 70
0
 71
3
 72
8
 73
4
 74
0
 42
0.0000001
 43
0.0000001
 44
0.0000000001
 40
0.0
 40
0.0
 40
0.0
 40
0.0
 40
1.0
 40
1.0
 40
1.0
 40
1.0
 10
243.2807369255
 20
285.7808353149
 30
0.0
 10
243.3243594082
 20
285.8526327905
 30
0.0
 10
243.3503987923
 20
285.9380626586
 30
0.0
 10
243.3539536483
 20
286.0219981189
 30
0.0
  0
SPLINE
  5
3AB
100
AcDbEntity
  8
0
100
AcDbSpline
 62
7
  6
CONTINUOUS
 70
0
 71
3
 72
9
 73
5
 74
0
 42
0.0000001
 43
0.0000001
 44
0.0000000001
 40
0.0
 40
0.0
 40
0.0
 40
0.0
 40
0.2996282048
 40
1.0
 40
1.0
 40
1.0
 40
1.0
 10
244.0029620956
 20
288.6071723915
 30
0.0
 10
244.0094183377
 20
288.6061117194
 30
0.0
 10
244.0127802674
 20
288.5763255054
 30
0.0
 10
244.0138105592
 20
288.5588499921
 30
0.0
 10
244.0137548596
 20
288.5435565238
 30
0.0
  0
SPLINE
  5
3AC
100
AcDbEntity
  8
0
100
AcDbSpline
 62
7
  6
CONTINUOUS
 70
0
 71
3
 72
8
 73
4
 74
0
 42
0.0000001
 43
0.0000001
 44
0.0000000001
 40
0.0
 40
0.0
 40
0.0
 40
0.0
 40
1.0
 40
1.0
 40
1.0
 40
1.0
 10
244.0137548596
 20
288.5435565238
 30
0.0
 10
244.0136647281
 20
288.5188090829
 30
0.0
 10
244.0123451727
 20
288.4940675693
 30
0.0
 10
244.0106289814
 20
288.4693795429
 30
0.0
  0
SPLINE
  5
3AD
100
AcDbEntity
  8
0
100
AcDbSpline
 62
7
  6
CONTINUOUS
 70
0
 71
3
 72
12
 73
8
 74
0
 42
0.0000001
 43
0.0000001
 44
0.0000000001
 40
0.0
 40
0.0
 40
0.0
 40
0.0
 40
0.3994385301
 40
0.7026751639
 40
0.9089289067
 40
0.9712498119
 40
1.0
 40
1.0
 40
1.0
 40
1.0
 10
250.1503030735
 20
287.0920596571
 30
0.0
 10
250.1607289804
 20
287.1539797167
 30
0.0
 10
250.1772273756
 20
287.2638327568
 30
0.0
 10
250.1929178718
 20
287.4039441257
 30
0.0
 10
250.1974843828
 20
287.4975258356
 30
0.0
 10
250.1945594646
 20
287.5400934926
 30
0.0
 10
250.1893002552
 20
287.5576220538
 30
0.0
 10
250.1848489316
 20
287.5584042431
 30
0.0
  0
SPLINE
  5
3AE
100
AcDbEntity
  8
0
100
AcDbSpline
 62
7
  6
CONTINUOUS
 70
0
 71
3
 72
9
 73
5
 74
0
 42
0.0000001
 43
0.0000001
 44
0.0000000001
 40
0.0
 40
0.0
 40
0.0
 40
0.0
 40
0.2048617963
 40
1.0
 40
1.0
 40
1.0
 40
1.0
 10
244.0106289814
 20
288.469379543
 30
0.0
 10
244.0096417417
 20
288.4551777467
 30
0.0
 10
244.0040259023
 20
288.3859096633
 30
0.0
 10
243.995773557
 20
288.316875476
 30
0.0
 10
243.9883966029
 20
288.2621151109
 30
0.0
  0
SPLINE
  5
3AF
100
AcDbEntity
  8
0
100
AcDbSpline
 62
7
  6
CONTINUOUS
 70
0
 71
3
 72
13
 73
9
 74
0
 42
0.0000001
 43
0.0000001
 44
0.0000000001
 40
0.0
 40
0.0
 40
0.0
 40
0.0
 40
0.4067150549
 40
0.7129975689
 40
0.8258390453
 40
0.9166998803
 40
0.9767930086
 40
1.0
 40
1.0
 40
1.0
 40
1.0
 10
42.0861298549
 20
285.6930258782
 30
0.0
 10
42.0254372811
 20
285.695897594
 30
0.0
 10
41.9193066237
 20
285.6999347806
 30
0.0
 10
41.795033182
 20
285.7025408404
 30
0.0
 10
41.7201163953
 20
285.7015924527
 30
0.0
 10
41.6782732155
 20
285.7009457993
 30
0.0
 10
41.6572468962
 20
285.6974128718
 30
0.0
 10
41.6392895167
 20
285.6964867898
 30
0.0
 10
41.6390964438
 20
285.6930252027
 30
0.0
  0
SPLINE
  5
3B0
100
AcDbEntity
  8
0
100
AcDbSpline
 62
7
  6
CONTINUOUS
 70
0
 71
3
 72
12
 73
8
 74
0
 42
0.0000001
 43
0.0000001
 44
0.0000000001
 40
0.0
 40
0.0
 40
0.0
 40
0.0
 40
0.3993311797
 40
0.7025152621
 40
0.9088556143
 40
0.9713344519
 40
1.0
 40
1.0
 40
1.0
 40
1.0
 10
43.3260736265
 20
287.0920594369
 30
0.0
 10
43.3156512752
 20
287.1539640614
 30
0.0
 10
43.2991799223
 20
287.2637829728
 30
0.0
 10
43.2834053875
 20
287.4039198148
 30
0.0
 10
43.2789930746
 20
287.497469529
 30
0.0
 10
43.2817364317
 20
287.5401326457
 30
0.0
 10
43.2870862464
 20
287.5576120394
 30
0.0
 10
43.2915239767
 20
287.5583951413
 30
0.0
  0
SPLINE
  5
3B1
100
AcDbEntity
  8
0
100
AcDbSpline
 62
7
  6
CONTINUOUS
 70
0
 71
3
 72
14
 73
10
 74
0
 42
0.0000001
 43
0.0000001
 44
0.0000000001
 40
0.0
 40
0.0
 40
0.0
 40
0.0
 40
0.0232462336
 40
0.0862738476
 40
0.1815524453
 40
0.298778238
 40
0.435744164
 40
0.6020030952
 40
1.0
 40
1.0
 40
1.0
 40
1.0
 10
175.811437221
 20
295.0803727914
 30
0.0
 10
175.8116670735
 20
295.0765020769
 30
0.0
 10
175.8333744929
 20
295.0782002349
 30
0.0
 10
175.8570571542
 20
295.0731949891
 30
0.0
 10
175.9063080582
 20
295.0737805643
 30
0.0
 10
175.9633573541
 20
295.0728604392
 30
0.0
 10
176.0339171273
 20
295.0735413903
 30
0.0
 10
176.1506731536
 20
295.0753014271
 30
0.0
 10
176.2448460001
 20
295.077993977
 30
0.0
 10
176.3111929702
 20
295.0802971041
 30
0.0
  0
SPLINE
  5
3B2
100
AcDbEntity
  8
0
100
AcDbSpline
 62
7
  6
CONTINUOUS
 70
0
 71
3
 72
12
 73
8
 74
0
 42
0.0000001
 43
0.0000001
 44
0.0000000001
 40
0.0
 40
0.0
 40
0.0
 40
0.0
 40
0.0262832421
 40
0.0844812251
 40
0.2984380176
 40
0.6192911941
 40
1.0
 40
1.0
 40
1.0
 40
1.0
 10
240.4051960742
 20
277.543346205
 30
0.0
 10
240.4085861932
 20
277.5433447777
 30
0.0
 10
240.4151312561
 20
277.5312170257
 30
0.0
 10
240.4238071642
 20
277.496898409
 30
0.0
 10
240.4336438447
 20
277.4178925772
 30
0.0
 10
240.4404097713
 20
277.3015436898
 30
0.0
 10
240.4424330563
 20
277.2106044142
 30
0.0
 10
240.4426370351
 20
277.1614994706
 30
0.0
  0
SPLINE
  5
3B3
100
AcDbEntity
  8
0
100
AcDbSpline
 62
7
  6
CONTINUOUS
 70
0
 71
3
 72
12
 73
8
 74
0
 42
0.0000001
 43
0.0000001
 44
0.0000000001
 40
0.0
 40
0.0
 40
0.0
 40
0.0
 40
0.3805827776
 40
0.7013316457
 40
0.9154225024
 40
0.9736895865
 40
1.0
 40
1.0
 40
1.0
 40
1.0
 10
53.033736912
 20
277.1615004757
 30
0.0
 10
53.033942425
 20
277.2105901975
 30
0.0
 10
53.0359586139
 20
277.301503092
 30
0.0
 10
53.0427258846
 20
277.4178371125
 30
0.0
 10
53.0525588702
 20
277.4968693922
 30
0.0
 10
53.0612433686
 20
277.5312032969
 30
0.0
 10
53.0677849411
 20
277.5433577046
 30
0.0
 10
53.0711786369
 20
277.5433583655
 30
0.0
  0
SPLINE
  5
3B4
100
AcDbEntity
  8
0
100
AcDbSpline
 62
7
  6
CONTINUOUS
 70
0
 71
3
 72
16
 73
12
 74
0
 42
0.0000001
 43
0.0000001
 44
0.0000000001
 40
0.0
 40
0.0
 40
0.0
 40
0.0
 40
0.0051556033
 40
0.0196868927
 40
0.0435615138
 40
0.0766203958
 40
0.1691090506
 40
0.293336814
 40
0.4447201756
 40
0.6175646971
 40
1.0
 40
1.0
 40
1.0
 40
1.0
 10
46.1578465987
 20
179.5608056164
 30
0.0
 10
46.1579007214
 20
179.5625229988
 30
0.0
 10
46.1677646829
 20
179.5621215909
 30
0.0
 10
46.1790946921
 20
179.5647157891
 30
0.0
 10
46.2046301217
 20
179.5650724689
 30
0.0
 10
46.2533727219
 20
179.5669965285
 30
0.0
 10
46.3373633851
 20
179.5676841067
 30
0.0
 10
46.4596981696
 20
179.5682119033
 30
0.0
 10
46.6092811466
 20
179.5676158514
 30
0.0
 10
46.8447345864
 20
179.5656768854
 30
0.0
 10
47.0298005129
 20
179.5630252636
 30
0.0
 10
47.1572374007
 20
179.5608048996
 30
0.0
  0
SPLINE
  5
3B5
100
AcDbEntity
  8
0
100
AcDbSpline
 62
7
  6
CONTINUOUS
 70
0
 71
3
 72
16
 73
12
 74
0
 42
0.0000001
 43
0.0000001
 44
0.0000000001
 40
0.0
 40
0.0
 40
0.0
 40
0.0
 40
0.3824377559
 40
0.5552830894
 40
0.706666197
 40
0.8308931979
 40
0.9233807302
 40
0.9564389734
 40
0.9803128518
 40
0.9948438083
 40
1.0
 40
1.0
 40
1.0
 40
1.0
 10
246.3191385344
 20
179.5608056138
 30
0.0
 10
246.4465762534
 20
179.563025738
 30
0.0
 10
246.631643262
 20
179.5656774491
 30
0.0
 10
246.8670977692
 20
179.567616173
 30
0.0
 10
247.0166805854
 20
179.5682119292
 30
0.0
 10
247.1390149591
 20
179.5676838322
 30
0.0
 10
247.2230041386
 20
179.5669960651
 30
0.0
 10
247.2717468086
 20
179.5650719761
 30
0.0
 10
247.2972801287
 20
179.5647152882
 30
0.0
 10
247.3086126891
 20
179.5621209795
 30
0.0
 10
247.3184740516
 20
179.5625224372
 30
0.0
 10
247.3185293864
 20
179.560804897
 30
0.0
  0
SPLINE
  5
3B6
100
AcDbEntity
  8
0
100
AcDbSpline
 62
7
  6
CONTINUOUS
 70
0
 71
3
 72
9
 73
5
 74
0
 42
0.0000001
 43
0.0000001
 44
0.0000000001
 40
0.0
 40
0.0
 40
0.0
 40
0.0
 40
0.2753287328
 40
1.0
 40
1.0
 40
1.0
 40
1.0
 10
42.217774045
 20
277.1538250629
 30
0.0
 10
42.1529263273
 20
277.1551840577
 30
0.0
 10
41.9173928481
 20
277.1598506483
 30
0.0
 10
41.6818413692
 20
277.1637627699
 30
0.0
 10
41.5111326289
 20
277.1655496594
 30
0.0
  0
SPLINE
  5
3B7
100
AcDbEntity
  8
0
100
AcDbSpline
 62
7
  6
CONTINUOUS
 70
0
 71
3
 72
13
 73
9
 74
0
 42
0.0000001
 43
0.0000001
 44
0.0000000001
 40
0.0
 40
0.0
 40
0.0
 40
0.0
 40
0.4239256947
 40
0.7394924741
 40
0.8522350572
 40
0.9335959725
 40
0.982991449
 40
1.0
 40
1.0
 40
1.0
 40
1.0
 10
41.5111326289
 20
277.1655496594
 30
0.0
 10
41.4697421531
 20
277.1659829132
 30
0.0
 10
41.3978278434
 20
277.1664076344
 30
0.0
 10
41.3137867284
 20
277.1672324039
 30
0.0
 10
41.2651395362
 20
277.1661143927
 30
0.0
 10
41.2394931672
 20
277.16696619
 30
0.0
 10
41.228435447
 20
277.1641064058
 30
0.0
 10
41.2184179197
 20
277.1659467119
 30
0.0
 10
41.2183219532
 20
277.1642887464
 30
0.0
  0
SPLINE
  5
3B8
100
AcDbEntity
  8
0
100
AcDbSpline
 62
7
  6
CONTINUOUS
 70
0
 71
3
 72
9
 73
5
 74
0
 42
0.0000001
 43
0.0000001
 44
0.0000000001
 40
0.0
 40
0.0
 40
0.0
 40
0.0
 40
0.2800426878
 40
1.0
 40
1.0
 40
1.0
 40
1.0
 10
53.0337260522
 20
277.1615054533
 30
0.0
 10
52.9734934407
 20
277.1620267587
 30
0.0
 10
52.7584081772
 20
277.1635550678
 30
0.0
 10
52.5433068725
 20
277.1640014071
 30
0.0
 10
52.3884554823
 20
277.1626990486
 30
0.0
  0
SPLINE
  5
3B9
100
AcDbEntity
  8
0
100
AcDbSpline
 62
7
  6
CONTINUOUS
 70
0
 71
3
 72
13
 73
9
 74
0
 42
0.0000001
 43
0.0000001
 44
0.0000000001
 40
0.0
 40
0.0
 40
0.0
 40
0.0
 40
0.425129021
 40
0.7400648613
 40
0.8523484406
 40
0.9333390986
 40
0.9825689334
 40
1.0
 40
1.0
 40
1.0
 40
1.0
 10
52.3884554823
 20
277.1626990486
 30
0.0
 10
52.3515022943
 20
277.1623882583
 30
0.0
 10
52.2874186111
 20
277.1615474492
 30
0.0
 10
52.2126473989
 20
277.160280691
 30
0.0
 10
52.1694377902
 20
277.1581199825
 30
0.0
 10
52.1468299212
 20
277.1575291343
 30
0.0
 10
52.1368640082
 20
277.1551155163
 30
0.0
 10
52.1281299154
 20
277.1553379124
 30
0.0
 10
52.1281131118
 20
277.1538228038
 30
0.0
  0
SPLINE
  5
3BA
100
AcDbEntity
  8
0
100
AcDbSpline
 62
7
  6
CONTINUOUS
 70
0
 71
3
 72
14
 73
10
 74
0
 42
0.0000001
 43
0.0000001
 44
0.0000000001
 40
0.0
 40
0.0
 40
0.0
 40
0.0
 40
0.0190621206
 40
0.0744667297
 40
0.1649201866
 40
0.287167547
 40
0.4372497008
 40
0.6101915193
 40
1.0
 40
1.0
 40
1.0
 40
1.0
 10
49.5979362545
 20
180.5302669022
 30
0.0
 10
49.5977267051
 20
180.5245225855
 30
0.0
 10
49.6333934135
 20
180.5294069451
 30
0.0
 10
49.6705136035
 20
180.520105989
 30
0.0
 10
49.7582825091
 20
180.521715997
 30
0.0
 10
49.8647370961
 20
180.518500156
 30
0.0
 10
50.0000729571
 20
180.5182933167
 30
0.0
 10
50.2145682228
 20
180.5180545796
 30
0.0
 10
50.3844549543
 20
180.5193350515
 30
0.0
 10
50.5019933521
 20
180.520656852
 30
0.0
  0
SPLINE
  5
3BB
100
AcDbEntity
  8
0
100
AcDbSpline
 62
7
  6
CONTINUOUS
 70
0
 71
3
 72
8
 73
4
 74
0
 42
0.0000001
 43
0.0000001
 44
0.0000000001
 40
0.0
 40
0.0
 40
0.0
 40
0.0
 40
1.0
 40
1.0
 40
1.0
 40
1.0
 10
53.0337260522
 20
277.1615054533
 30
0.0
 10
52.1886010581
 20
244.9479210818
 30
0.0
 10
51.3456086084
 20
212.7342807961
 30
0.0
 10
50.5019933521
 20
180.520656852
 30
0.0
  0
SPLINE
  5
3BC
100
AcDbEntity
  8
0
100
AcDbSpline
 62
7
  6
CONTINUOUS
 70
0
 71
3
 72
8
 73
4
 74
0
 42
0.0000001
 43
0.0000001
 44
0.0000000001
 40
0.0
 40
0.0
 40
0.0
 40
0.0
 40
1.0
 40
1.0
 40
1.0
 40
1.0
 10
242.9753891958
 20
180.5206747076
 30
0.0
 10
242.1302642889
 20
212.734261933
 30
0.0
 10
241.2877749243
 20
244.9479182661
 30
0.0
 10
240.4426498081
 20
277.161505486
 30
0.0
  0
SPLINE
  5
3BD
100
AcDbEntity
  8
0
100
AcDbSpline
 62
7
  6
CONTINUOUS
 70
0
 71
3
 72
13
 73
9
 74
0
 42
0.0000001
 43
0.0000001
 44
0.0000000001
 40
0.0
 40
0.0
 40
0.0
 40
0.0
 40
0.0174782757
 40
0.0675334369
 40
0.1498564952
 40
0.2637628548
 40
0.5798567157
 40
1.0
 40
1.0
 40
1.0
 40
1.0
 10
241.348262733
 20
277.1538219658
 30
0.0
 10
241.3482386281
 20
277.1559844677
 30
0.0
 10
241.3354060221
 20
277.1549152921
 30
0.0
 10
241.3211907637
 20
277.1585424954
 30
0.0
 10
241.2883726426
 20
277.1587650069
 30
0.0
 10
241.2264167237
 20
277.1613942009
 30
0.0
 10
241.1202007329
 20
277.1623950075
 30
0.0
 10
241.02946279
 20
277.163155
 30
0.0
 10
240.9774776005
 20
277.1633379669
 30
0.0
  0
SPLINE
  5
3BE
100
AcDbEntity
  8
0
100
AcDbSpline
 62
7
  6
CONTINUOUS
 70
0
 71
3
 72
14
 73
10
 74
0
 42
0.0000001
 43
0.0000001
 44
0.0000000001
 40
0.0
 40
0.0
 40
0.0
 40
0.0
 40
0.3899974139
 40
0.562979628
 40
0.7130714304
 40
0.8352970724
 40
0.9257006062
 40
0.9810320803
 40
1.0
 40
1.0
 40
1.0
 40
1.0
 10
242.9753891958
 20
180.5206747076
 30
0.0
 10
243.0928531676
 20
180.5193356915
 30
0.0
 10
243.2626241149
 20
180.5180515043
 30
0.0
 10
243.4769411641
 20
180.518293114
 30
0.0
 10
243.6121595498
 20
180.518505924
 30
0.0
 10
243.7184089378
 20
180.5217230878
 30
0.0
 10
243.806192706
 20
180.52012561
 30
0.0
 10
243.842937591
 20
180.5293901997
 30
0.0
 10
243.8787703831
 20
180.5245379499
 30
0.0
 10
243.8784399774
 20
180.5302417387
 30
0.0
  0
SPLINE
  5
3BF
100
AcDbEntity
  8
0
100
AcDbSpline
 62
7
  6
CONTINUOUS
 70
0
 71
3
 72
16
 73
12
 74
0
 42
0.0000001
 43
0.0000001
 44
0.0000000001
 40
0.0
 40
0.0
 40
0.0
 40
0.0
 40
0.3824376747
 40
0.5552822958
 40
0.7066647391
 40
0.8308920166
 40
0.9233797217
 40
0.956437786
 40
0.9803117704
 40
0.9948431432
 40
1.0
 40
1.0
 40
1.0
 40
1.0
 10
260.3191385419
 20
179.5608053989
 30
0.0
 10
260.4465762249
 20
179.5630252409
 30
0.0
 10
260.6316429296
 20
179.565677268
 30
0.0
 10
260.8670969583
 20
179.5676160006
 30
0.0
 10
261.0166793144
 20
179.5682117526
 30
0.0
 10
261.1390138154
 20
179.567683737
 30
0.0
 10
261.2230026152
 20
179.5669962651
 30
0.0
 10
261.2717459543
 20
179.5650717566
 30
0.0
 10
261.2972783113
 20
179.5647153327
 30
0.0
 10
261.3086130848
 20
179.5621202134
 30
0.0
 10
261.3184730617
 20
179.5625226287
 30
0.0
 10
261.3185293864
 20
179.5608048991
 30
0.0
  0
SPLINE
  5
3C0
100
AcDbEntity
  8
0
100
AcDbSpline
 62
7
  6
CONTINUOUS
 70
0
 71
3
 72
12
 73
8
 74
0
 42
0.0000001
 43
0.0000001
 44
0.0000000001
 40
0.0
 40
0.0
 40
0.0
 40
0.0
 40
0.0253805953
 40
0.0825128577
 40
0.2977402244
 40
0.6297968115
 40
1.0
 40
1.0
 40
1.0
 40
1.0
 10
243.0232376776
 20
180.0433551203
 30
0.0
 10
243.0191448427
 20
180.0433558967
 30
0.0
 10
243.0112191392
 20
180.0581927945
 30
0.0
 10
242.9996559373
 20
180.1007182764
 30
0.0
 10
242.9865806223
 20
180.2014888609
 30
0.0
 10
242.9784725987
 20
180.347170715
 30
0.0
 10
242.97563728
 20
180.4609758209
 30
0.0
 10
242.9753776785
 20
180.5206736423
 30
0.0
  0
SPLINE
  5
3C1
100
AcDbEntity
  8
0
100
AcDbSpline
 62
7
  6
CONTINUOUS
 70
0
 71
3
 72
12
 73
8
 74
0
 42
0.0000001
 43
0.0000001
 44
0.0000000001
 40
0.0
 40
0.0
 40
0.0
 40
0.0
 40
0.0253839453
 40
0.0825173301
 40
0.2977444322
 40
0.6297991416
 40
1.0
 40
1.0
 40
1.0
 40
1.0
 10
50.4531286104
 20
180.0433551203
 30
0.0
 10
50.4572220114
 20
180.0433558902
 30
0.0
 10
50.4651506072
 20
180.0581912967
 30
0.0
 10
50.4767164313
 20
180.100718981
 30
0.0
 10
50.4897950958
 20
180.2014878504
 30
0.0
 10
50.4979036909
 20
180.3471709126
 30
0.0
 10
50.5007386681
 20
180.4609758005
 30
0.0
 10
50.500997684
 20
180.5206736258
 30
0.0
  0
SPLINE
  5
3C2
100
AcDbEntity
  8
0
100
AcDbSpline
 62
7
  6
CONTINUOUS
 70
0
 71
3
 72
16
 73
12
 74
0
 42
0.0000001
 43
0.0000001
 44
0.0000000001
 40
0.0
 40
0.0
 40
0.0
 40
0.0
 40
0.0051556033
 40
0.0196868927
 40
0.0435615138
 40
0.0766203958
 40
0.1691090506
 40
0.293336814
 40
0.4447201756
 40
0.6175646971
 40
1.0
 40
1.0
 40
1.0
 40
1.0
 10
32.1578465987
 20
179.5608056164
 30
0.0
 10
32.1579007214
 20
179.5625229988
 30
0.0
 10
32.1677646829
 20
179.5621215909
 30
0.0
 10
32.1790946921
 20
179.5647157891
 30
0.0
 10
32.2046301217
 20
179.5650724689
 30
0.0
 10
32.2533727219
 20
179.5669965285
 30
0.0
 10
32.3373633851
 20
179.5676841067
 30
0.0
 10
32.4596981696
 20
179.5682119033
 30
0.0
 10
32.6092811466
 20
179.5676158514
 30
0.0
 10
32.8447345864
 20
179.5656768854
 30
0.0
 10
33.0298005129
 20
179.5630252636
 30
0.0
 10
33.1572374007
 20
179.5608048996
 30
0.0
  0
SPLINE
  5
3C3
100
AcDbEntity
  8
0
100
AcDbSpline
 62
7
  6
CONTINUOUS
 70
0
 71
3
 72
13
 73
9
 74
0
 42
0.0000001
 43
0.0000001
 44
0.0000000001
 40
0.0
 40
0.0
 40
0.0
 40
0.0
 40
0.0171581352
 40
0.0671667469
 40
0.1494732476
 40
0.263371589
 40
0.5797309254
 40
1.0
 40
1.0
 40
1.0
 40
1.0
 10
252.2580539424
 20
277.164289975
 30
0.0
 10
252.2579312342
 20
277.1664051321
 30
0.0
 10
252.2450588365
 20
277.1637160756
 30
0.0
 10
252.2309632545
 20
277.1674629263
 30
0.0
 10
252.198136257
 20
277.1661069649
 30
0.0
 10
252.1362826351
 20
277.1673703483
 30
0.0
 10
252.0302033807
 20
277.1660147844
 30
0.0
 10
251.9396132342
 20
277.1653048007
 30
0.0
 10
251.8877217755
 20
277.1646584806
 30
0.0
  0
ENDSEC
  0
SECTION
  2
OBJECTS
  0
DICTIONARY
  5
C
100
AcDbDictionary
280
0
281
1
  3
ACAD_GROUP
350
D
  3
ACAD_MLINESTYLE
350
17
  3
ACAD_LAYOUT
350
1A
  3
ACAD_PLOTSETTINGS
350
19
  3
ACAD_PLOTSTYLENAME
350
E
  0
DICTIONARY
  5
D
102
{ACAD_REACTORS
330
C
102
}
100
AcDbDictionary
280
0
281
1
  0
ACDBDICTIONARYWDFLT
  5
E
102
{ACAD_REACTORS
330
C
102
}
100
AcDbDictionary
281
1
  3
Normal
350
F
100
AcDbDictionaryWithDefault
340
F
  0
DICTIONARY
  5
17
102
{ACAD_REACTORS
330
C
102
}
100
AcDbDictionary
280
0
281
1
  3
Standard
350
18
  0
DICTIONARY
  5
19
102
{ACAD_REACTORS
330
C
102
}
100
AcDbDictionary
281
1
  0
DICTIONARY
  5
1A
102
{ACAD_REACTORS
330
C
102
}
100
AcDbDictionary
281
1
  3
Model
350
3C4
  3
Layout1
350
3C5
  0
ACDBPLACEHOLDER
  5
F
102
{ACAD_REACTORS
330
E
102
}
  0
MLINESTYLE
  5
18
102
{ACAD_REACTORS
330
17
102
}
100
AcDbMlineStyle
  2
STANDARD
 70
0
  3

 62
256
 51
90.0
 52
90.0
 71
2
 49
0.5
 62
256
  6
BYLAYER
 49
-0.5
 62
256
  6
BYLAYER
  0
LAYOUT
  5
3C4
102
{ACAD_REACTORS
330
1A
102
}
100
AcDbPlotSettings
  1

  2
none_device
  4

  6

 40
0.0
 41
0.0
 42
0.0
 43
0.0
 44
210.0
 45
297.0
 46
0.0
 47
0.0
 48
0.0
 49
0.0
140
0.0
141
0.0
142
1.0
143
1.0
 70
1024
 72
1
 73
0
 74
0
  7

 75
0
147
1.0
148
0.0
149
0.0
100
AcDbLayout
  1
Model
 70
0
 71
0
 10
0.0
 20
0.0
 11
210.0
 21
297.0
 12
0.0
 22
0.0
 32
0.0
 14
0.0
 24
0.0
 34
0.0
 15
0.0
 25
0.0
 35
0.0
146
0.0
 13
0.0
 23
0.0
 33
0.0
 16
1.0
 26
0.0
 36
0.0
 17
0.0
 27
1.0
 37
0.0
 76
0
330
210
345
0
346
0
  0
LAYOUT
  5
3C5
102
{ACAD_REACTORS
330
1A
102
}
100
AcDbPlotSettings
  1

  2
none_device
  4

  6

 40
0.0
 41
0.0
 42
0.0
 43
0.0
 44
210.0
 45
297.0
 46
0.0
 47
0.0
 48
0.0
 49
0.0
140
0.0
141
0.0
142
1.0
143
1.0
 70
0
 72
1
 73
0
 74
0
  7

 75
0
147
1.0
148
0.0
149
0.0
100
AcDbLayout
  1
Layout1
 70
0
 71
1
 10
0.0
 20
0.0
 11
210.0
 21
297.0
 12
0.0
 22
0.0
 32
0.0
 14
0.0
 24
0.0
 34
0.0
 15
0.0
 25
0.0
 35
0.0
146
0.0
 13
0.0
 23
0.0
 33
0.0
 16
1.0
 26
0.0
 36
0.0
 17
0.0
 27
1.0
 37
0.0
 76
0
330
211
345
0
346
0
  0
ENDSEC
  0
EOF
