999
DXF file: C:\Users\sesa63760\Dev\_Creo\CAD\MCADID0000895_3D-CAD\drw0001_5.dxf
999
Pro/ENGINEER 2019471 by Parametric Technology Corporation
  0
SECTION
  2
HEADER
  9
$ACADVER
  1
AC1024
  9
$DWGCODEPAGE
  3
ANSI_1252
  9
$EXTMAX
 10
1258.5550494047
 20
1779.9564270153
 30
0.0
  9
$EXTMIN
 10
0.0
 20
0.0
 30
0.0
  9
$LIMMIN
 10
0.0
 20
0.0
  9
$LIMMAX
 10
1258.5550494047
 20
1779.9564270153
  9
$VIEWCTR
 10
629.2775247024
 20
889.9782135076
  9
$VIEWSIZE
 40
1779.9564270153
  9
$CLAYER
  8
0
  9
$LTSCALE
 40
116.0267893165
  9
$CELTYPE
  6
BYLAYER
  9
$DIMSCALE
 40
1.0
  9
$DIMASZ
 40
14.9827982072
  9
$DIMEXO
 40
1.0
  9
$DIMDLI
 40
80.1639635278
  9
$DIMEXE
 40
1.0
  9
$DIMCEN
 40
18.9862018882
  9
$DIMLFAC
 40
1.0
  9
$DIMBLK
  1
_FILLED
  9
$DIMALT
 70
0
  9
$DIMALTF
 40
0.0393700787
  9
$DIMTXT
 40
20.9759174901
  9
$DIMTOL
 70
1
  9
$DIMLIM
 70
0
  9
$DIMTFAC
 40
1.0
  9
$DIMTP
 40
0.01
  9
$DIMTM
 40
0.01
  9
$DIMGAP
 40
0.625
  9
$DIMDSEP
 70
46
  9
$AUNITS
 70
0
  9
$PDMODE
 70
3
  9
$PDSIZE
 40
0.3125
  9
$HANDSEED
  5
475
  9
$TILEMODE
 70
1
  9
$MEASUREMENT
 70
1
  9
$INSUNITS
 70
4
  0
ENDSEC
  0
SECTION
  2
CLASSES
  0
CLASS
  1
ACDBDICTIONARYWDFLT
  2
AcDbDictionaryWithDefault
  3
AutoCAD 2000
 90
0
 91
1
280
0
281
0
  0
CLASS
  1
ACDBPLACEHOLDER
  2
AcDbPlaceHolder
  3
AutoCAD 2000
 90
0
 91
1
280
0
281
0
  0
CLASS
  1
LAYOUT
  2
AcDbLayout
  3
AutoCAD 2000
 90
0
 91
0
280
0
281
0
  0
ENDSEC
  0
SECTION
  2
TABLES
  0
TABLE
  2
VPORT
  5
8
100
AcDbSymbolTable
 70
2
  0
VPORT
  5
1F4
100
AcDbSymbolTableRecord
100
AcDbViewportTableRecord
  2
*ACTIVE
 70
0
 10
0.0
 20
0.0
 11
1.0
 21
1.0
 12
629.2775247024
 22
889.9782135076
 13
0.0
 23
0.0
 14
1.0
 24
1.0
 15
0.0
 25
0.0
 16
0.0
 26
0.0
 36
1.0
 17
0.0
 27
0.0
 37
0.0
 40
1779.9564270153
 41
0.7070707071
 42
50.0
 43
0.0
 44
0.0
 50
0.0
 51
0.0
 71
0
 72
100
 73
1
 74
1
 75
0
 76
0
 77
0
 78
0
  0
ENDTAB
  0
TABLE
  2
LTYPE
  5
5
100
AcDbSymbolTable
 70
6
  0
LTYPE
  5
14
100
AcDbSymbolTableRecord
100
AcDbLinetypeTableRecord
  2
BYBLOCK
 70
0
  3

 72
65
 73
0
 40
0.0
  0
LTYPE
  5
15
100
AcDbSymbolTableRecord
100
AcDbLinetypeTableRecord
  2
BYLAYER
 70
0
  3

 72
65
 73
0
 40
0.0
  0
LTYPE
  5
16
100
AcDbSymbolTableRecord
100
AcDbLinetypeTableRecord
  2
CONTINUOUS
 70
64
  3
Solid line
 72
65
 73
0
 40
0.0
  0
LTYPE
  5
1F5
100
AcDbSymbolTableRecord
100
AcDbLinetypeTableRecord
  2
CENTER
 70
64
  3
____ _ ____ _ ____ _ ____ _ ____ _ ____ _ ____
 72
65
 73
4
 40
0.6
 49
0.375
 74
0
 49
-0.075
 74
0
 49
0.075
 74
0
 49
-0.075
 74
0
  0
LTYPE
  5
1F6
100
AcDbSymbolTableRecord
100
AcDbLinetypeTableRecord
  2
HIDDEN
 70
64
  3
- - - - - - - - - - - - - - - - - - - -
 72
65
 73
2
 40
0.2
 49
0.1
 74
0
 49
-0.1
 74
0
  0
LTYPE
  5
1F7
100
AcDbSymbolTableRecord
100
AcDbLinetypeTableRecord
  2
PHANTOM
 70
64
  3
_____ _ _ _____ _ _ _____ _ _ _____
 72
65
 73
6
 40
0.8
 49
0.45
 74
0
 49
-0.05
 74
0
 49
0.1
 74
0
 49
-0.05
 74
0
 49
0.1
 74
0
 49
-0.05
 74
0
  0
LTYPE
  5
1F8
100
AcDbSymbolTableRecord
100
AcDbLinetypeTableRecord
  2
DOT
 70
64
  3
. . . . . . . . . . . . . . . . . . . .
 72
65
 73
2
 40
0.2
 49
0.1
 74
0
 49
-0.1
 74
0
  0
LTYPE
  5
1F9
100
AcDbSymbolTableRecord
100
AcDbLinetypeTableRecord
  2
DASHED
 70
64
  3
- - - - - - - - - - - - - - - - - - - -
 72
65
 73
2
 40
0.2
 49
0.1
 74
0
 49
-0.1
 74
0
  0
ENDTAB
  0
TABLE
  2
LAYER
  5
2
100
AcDbSymbolTable
 70
36
  0
LAYER
  5
10
100
AcDbSymbolTableRecord
100
AcDbLayerTableRecord
  2
0
 70
0
 62
7
  6
CONTINUOUS
370
-3
390
F
  0
LAYER
  5
1FA
100
AcDbSymbolTableRecord
100
AcDbLayerTableRecord
  2
DEFAULT_1
 70
0
 62
7
  6
CENTER
370
-3
390
F
  0
LAYER
  5
1FB
100
AcDbSymbolTableRecord
100
AcDbLayerTableRecord
  2
DEFAULT_2
 70
0
 62
8
  6
HIDDEN
370
-3
390
F
  0
LAYER
  5
1FC
100
AcDbSymbolTableRecord
100
AcDbLayerTableRecord
  2
DEFAULT_3
 70
0
 62
7
  6
PHANTOM
370
-3
390
F
  0
LAYER
  5
1FD
100
AcDbSymbolTableRecord
100
AcDbLayerTableRecord
  2
00_COMPONENTS
 70
0
 62
7
  6
CONTINUOUS
370
-3
390
F
  0
LAYER
  5
1FE
100
AcDbSymbolTableRecord
100
AcDbLayerTableRecord
  2
01_1_DEFAULT_DATUMS
 70
0
 62
7
  6
CONTINUOUS
370
-3
390
F
  0
LAYER
  5
1FF
100
AcDbSymbolTableRecord
100
AcDbLayerTableRecord
  2
01_PLANES
 70
0
 62
7
  6
CONTINUOUS
370
-3
390
F
  0
LAYER
  5
200
100
AcDbSymbolTableRecord
100
AcDbLayerTableRecord
  2
02_COORD_SYS
 70
0
 62
7
  6
CONTINUOUS
370
-3
390
F
  0
LAYER
  5
201
100
AcDbSymbolTableRecord
100
AcDbLayerTableRecord
  2
03_AXES
 70
0
 62
7
  6
CONTINUOUS
370
-3
390
F
  0
LAYER
  5
202
100
AcDbSymbolTableRecord
100
AcDbLayerTableRecord
  2
04_POINTS
 70
0
 62
7
  6
CONTINUOUS
370
-3
390
F
  0
LAYER
  5
203
100
AcDbSymbolTableRecord
100
AcDbLayerTableRecord
  2
05_CURVES
 70
0
 62
7
  6
CONTINUOUS
370
-3
390
F
  0
LAYER
  5
204
100
AcDbSymbolTableRecord
100
AcDbLayerTableRecord
  2
06_SURFS
 70
0
 62
7
  6
CONTINUOUS
370
-3
390
F
  0
LAYER
  5
205
100
AcDbSymbolTableRecord
100
AcDbLayerTableRecord
  2
07_COSMETICS
 70
0
 62
7
  6
CONTINUOUS
370
-3
390
F
  0
LAYER
  5
206
100
AcDbSymbolTableRecord
100
AcDbLayerTableRecord
  2
10_NOTES
 70
0
 62
7
  6
CONTINUOUS
370
-3
390
F
  0
LAYER
  5
207
100
AcDbSymbolTableRecord
100
AcDbLayerTableRecord
  2
11_NOTES_PUB
 70
0
 62
7
  6
CONTINUOUS
370
-3
390
F
  0
LAYER
  5
208
100
AcDbSymbolTableRecord
100
AcDbLayerTableRecord
  2
13_REF_GTOL
 70
0
 62
7
  6
CONTINUOUS
370
-3
390
F
  0
LAYER
  5
209
100
AcDbSymbolTableRecord
100
AcDbLayerTableRecord
  2
16_MISC
 70
0
 62
7
  6
CONTINUOUS
370
-3
390
F
  0
LAYER
  5
20A
100
AcDbSymbolTableRecord
100
AcDbLayerTableRecord
  2
17_NO_PRINT
 70
0
 62
7
  6
CONTINUOUS
370
-3
390
F
  0
LAYER
  5
20B
100
AcDbSymbolTableRecord
100
AcDbLayerTableRecord
  2
18_DATUM_CAMS_JOINTS
 70
0
 62
7
  6
CONTINUOUS
370
-3
390
F
  0
LAYER
  5
20C
100
AcDbSymbolTableRecord
100
AcDbLayerTableRecord
  2
19_DATUM_FUNCTIONAL
 70
0
 62
7
  6
CONTINUOUS
370
-3
390
F
  0
LAYER
  5
20D
100
AcDbSymbolTableRecord
100
AcDbLayerTableRecord
  2
20_DATUM_KINEMATIC_SCHEME
 70
0
 62
7
  6
CONTINUOUS
370
-3
390
F
  0
ENDTAB
  0
TABLE
  2
STYLE
  5
3
100
AcDbSymbolTable
 70
1
  0
STYLE
  5
11
100
AcDbSymbolTableRecord
100
AcDbTextStyleTableRecord
  2
STANDARD
 70
0
 40
0.0
 41
0.8
 50
0.0
 71
0
 42
0.2
  3
txt
  4

  0
STYLE
  5
20E
100
AcDbSymbolTableRecord
100
AcDbTextStyleTableRecord
  2
TEXTSTYLE_1
 70
0
 40
0.0
 41
0.8
 50
0.0
 71
0
 42
0.2
  3
gdt
  4

  0
ENDTAB
  0
TABLE
  2
VIEW
  5
6
100
AcDbSymbolTable
 70
0
  0
ENDTAB
  0
TABLE
  2
UCS
  5
7
100
AcDbSymbolTable
 70
0
  0
ENDTAB
  0
TABLE
  2
APPID
  5
9
100
AcDbSymbolTable
 70
1
  0
APPID
  5
20F
100
AcDbSymbolTableRecord
100
AcDbRegAppTableRecord
  2
ACAD
 70
0
  0
ENDTAB
  0
TABLE
  2
BLOCK_RECORD
  5
1
100
AcDbSymbolTable
 70
0
  0
BLOCK_RECORD
  5
210
100
AcDbSymbolTableRecord
100
AcDbBlockTableRecord
  2
*Model_Space
  0
BLOCK_RECORD
  5
211
100
AcDbSymbolTableRecord
100
AcDbBlockTableRecord
  2
*Paper_Space
  0
BLOCK_RECORD
  5
212
100
AcDbSymbolTableRecord
100
AcDbBlockTableRecord
  2
_FILLED
  0
ENDTAB
  0
TABLE
  2
DIMSTYLE
  5
A
100
AcDbSymbolTable
 70
1
100
AcDbDimStyleTable
 71
0
  0
DIMSTYLE
105
213
100
AcDbSymbolTableRecord
100
AcDbDimStyleTableRecord
  2
STANDARD
 70
0
  3

  4

 40
1.0
 41
14.9827982072
 42
1.0
 43
0.38
 44
1.0
 45
0.0
 46
0.0
 47
0.01
 48
0.01
140
20.9759174901
141
0.09
142
0.0
143
25.4
144
1.0
145
0.0
146
1.0
147
0.625
 71
1
 72
0
 73
0
 74
0
 75
0
 76
0
 77
1
 78
8
 79
2
170
0
171
1
172
0
173
0
174
0
175
0
176
0
177
0
178
0
270
2
179
2
271
2
272
2
273
2
274
2
275
0
280
0
281
0
282
0
283
1
284
8
285
0
286
0
287
3
288
0
340
11
278
46
341
212
342
212
343
212
344
212
  0
ENDTAB
  0
ENDSEC
  0
SECTION
  2
BLOCKS
  0
BLOCK
  5
20
100
AcDbEntity
  8
0
100
AcDbBlockBegin
  2
*Model_Space
 70
0
 10
0.0
 20
0.0
 30
0.0
  3
*Model_Space
  1

  0
ENDBLK
  5
21
100
AcDbEntity
  8
0
100
AcDbBlockEnd
  0
BLOCK
  5
1C
100
AcDbEntity
  8
0
100
AcDbBlockBegin
  2
*Paper_Space
 70
0
 10
0.0
 20
0.0
 30
0.0
  3
*Paper_Space
  1

  0
ENDBLK
  5
1D
100
AcDbEntity
  8
0
100
AcDbBlockEnd
  0
BLOCK
  5
214
100
AcDbEntity
  8
0
100
AcDbBlockBegin
  2
_FILLED
 70
64
 10
0.0
 20
0.0
  3
_FILLED
  1

  0
SOLID
  5
215
100
AcDbEntity
  8
0
  6
BYBLOCK
 62
0
100
AcDbTrace
 10
0.0
 20
0.0
 11
-1.0
 21
0.25
 12
-1.0
 22
-0.25
 13
-1.0
 23
-0.25
  0
ENDBLK
  5
216
100
AcDbEntity
  8
0
  6
BYBLOCK
 62
0
100
AcDbBlockEnd
  0
ENDSEC
  0
SECTION
  2
ENTITIES
  0
LINE
  5
217
100
AcDbEntity
  8
0
100
AcDbLine
 62
7
  6
CONTINUOUS
 10
146.7067186021
 20
716.472011318
 11
146.7067186021
 21
784.872011318
  0
LINE
  5
218
100
AcDbEntity
  8
0
100
AcDbLine
 62
7
  6
CONTINUOUS
 10
168.1067186021
 20
1043.5492580108
 11
168.1067186021
 21
1049.3947646253
  0
LINE
  5
219
100
AcDbEntity
  8
0
100
AcDbLine
 62
7
  6
CONTINUOUS
 10
168.3999124021
 20
1043.2468006804
 11
168.3999124021
 21
1049.6972219556
  0
LINE
  5
21A
100
AcDbEntity
  8
0
100
AcDbLine
 62
7
  6
CONTINUOUS
 10
168.9067186021
 20
1043.2105933477
 11
168.9067186021
 21
1043.235211838
  0
LINE
  5
21B
100
AcDbEntity
  8
0
100
AcDbLine
 62
7
  6
CONTINUOUS
 10
168.9067186021
 20
1049.708810798
 11
168.9067186021
 21
1049.7334292883
  0
LINE
  5
21C
100
AcDbEntity
  8
0
100
AcDbLine
 62
7
  6
CONTINUOUS
 10
170.6067186021
 20
1049.7720076826
 11
170.6067186021
 21
1043.1720149534
  0
LINE
  5
21D
100
AcDbEntity
  8
0
100
AcDbLine
 62
7
  6
CONTINUOUS
 10
171.4067186021
 20
1042.9720575669
 11
171.4067186021
 21
1049.9719650691
  0
LINE
  5
21E
100
AcDbEntity
  8
0
100
AcDbLine
 62
7
  6
CONTINUOUS
 10
172.2067186021
 20
1049.9719650691
 11
172.2067186021
 21
1042.9720575669
  0
LINE
  5
21F
100
AcDbEntity
  8
0
100
AcDbLine
 62
7
  6
CONTINUOUS
 10
173.4067186021
 20
1043.302011318
 11
173.4067186021
 21
1049.642011318
  0
LINE
  5
220
100
AcDbEntity
  8
0
100
AcDbLine
 62
7
  6
CONTINUOUS
 10
173.6067186021
 20
1023.572011318
 11
173.6067186021
 21
1056.772011318
  0
LINE
  5
221
100
AcDbEntity
  8
0
100
AcDbLine
 62
7
  6
CONTINUOUS
 10
174.7067186021
 20
829.872011318
 11
174.7067186021
 21
827.872011318
  0
LINE
  5
222
100
AcDbEntity
  8
0
100
AcDbLine
 62
7
  6
CONTINUOUS
 10
174.7067186021
 20
795.3745887061
 11
174.7067186021
 21
809.872011318
  0
LINE
  5
223
100
AcDbEntity
  8
0
100
AcDbLine
 62
7
  6
CONTINUOUS
 10
175.1067186021
 20
1023.572011318
 11
175.1067186021
 21
1058.4543682802
  0
LINE
  5
224
100
AcDbEntity
  8
0
100
AcDbLine
 62
7
  6
CONTINUOUS
 10
175.7067186021
 20
795.6425378985
 11
175.7067186021
 21
831.872011318
  0
LINE
  5
225
100
AcDbEntity
  8
0
100
AcDbLine
 62
7
  6
CONTINUOUS
 10
175.8951432597
 20
1043.1835866605
 11
175.8951432597
 21
1048.572011318
  0
LINE
  5
226
100
AcDbEntity
  8
0
100
AcDbLine
 62
7
  6
CONTINUOUS
 10
177.1067186021
 20
1039.472011318
 11
177.1067186021
 21
1048.572011318
  0
LINE
  5
227
100
AcDbEntity
  8
0
100
AcDbLine
 62
7
  6
CONTINUOUS
 10
178.6067186021
 20
1039.472011318
 11
178.6067186021
 21
1048.572011318
  0
LINE
  5
228
100
AcDbEntity
  8
0
100
AcDbLine
 62
7
  6
CONTINUOUS
 10
179.4067186021
 20
1048.572011318
 11
179.4067186021
 21
1041.8220512005
  0
LINE
  5
229
100
AcDbEntity
  8
0
100
AcDbLine
 62
7
  6
CONTINUOUS
 10
180.2067186021
 20
1048.472011318
 11
180.2067186021
 21
1044.472011318
  0
LINE
  5
22A
100
AcDbEntity
  8
0
100
AcDbLine
 62
7
  6
CONTINUOUS
 10
180.6067186021
 20
1048.0719696215
 11
180.6067186021
 21
1044.8720530146
  0
LINE
  5
22B
100
AcDbEntity
  8
0
100
AcDbLine
 62
7
  6
CONTINUOUS
 10
188.6067186021
 20
834.972011318
 11
188.6067186021
 21
833.472011318
  0
LINE
  5
22C
100
AcDbEntity
  8
0
100
AcDbLine
 62
7
  6
CONTINUOUS
 10
191.6067186021
 20
834.972011318
 11
191.6067186021
 21
833.472011318
  0
LINE
  5
22D
100
AcDbEntity
  8
0
100
AcDbLine
 62
7
  6
CONTINUOUS
 10
194.311030268
 20
1030.6997681316
 11
194.3220590722
 21
1030.7399605105
  0
LINE
  5
22E
100
AcDbEntity
  8
0
100
AcDbLine
 62
7
  6
CONTINUOUS
 10
195.0588059683
 20
840.9776947992
 11
195.0588059683
 21
847.9663278369
  0
LINE
  5
22F
100
AcDbEntity
  8
0
100
AcDbLine
 62
7
  6
CONTINUOUS
 10
195.0588059683
 20
859.4776947992
 11
195.0588059683
 21
866.4663278369
  0
LINE
  5
230
100
AcDbEntity
  8
0
100
AcDbLine
 62
7
  6
CONTINUOUS
 10
195.0588059683
 20
1028.9776947992
 11
195.0588059683
 21
1035.9663278369
  0
LINE
  5
231
100
AcDbEntity
  8
0
100
AcDbLine
 62
7
  6
CONTINUOUS
 10
195.1067186021
 20
840.8591980762
 11
195.1067186021
 21
840.9093691075
  0
LINE
  5
232
100
AcDbEntity
  8
0
100
AcDbLine
 62
7
  6
CONTINUOUS
 10
195.1067186021
 20
848.0346535286
 11
195.1067186021
 21
848.0848245599
  0
LINE
  5
233
100
AcDbEntity
  8
0
100
AcDbLine
 62
7
  6
CONTINUOUS
 10
195.1067186021
 20
859.3591980762
 11
195.1067186021
 21
859.4093691075
  0
LINE
  5
234
100
AcDbEntity
  8
0
100
AcDbLine
 62
7
  6
CONTINUOUS
 10
195.1067186021
 20
866.5346535286
 11
195.1067186021
 21
866.5848245599
  0
LINE
  5
235
100
AcDbEntity
  8
0
100
AcDbLine
 62
7
  6
CONTINUOUS
 10
195.1067186021
 20
1028.8591980762
 11
195.1067186021
 21
1028.9093691075
  0
LINE
  5
236
100
AcDbEntity
  8
0
100
AcDbLine
 62
7
  6
CONTINUOUS
 10
195.1067186021
 20
1036.0346535286
 11
195.1067186021
 21
1036.0848245599
  0
LINE
  5
237
100
AcDbEntity
  8
0
100
AcDbLine
 62
7
  6
CONTINUOUS
 10
195.8969463735
 20
840.472011318
 11
195.8969463735
 21
848.472011318
  0
LINE
  5
238
100
AcDbEntity
  8
0
100
AcDbLine
 62
7
  6
CONTINUOUS
 10
195.8969463735
 20
858.972011318
 11
195.8969463735
 21
866.972011318
  0
LINE
  5
239
100
AcDbEntity
  8
0
100
AcDbLine
 62
7
  6
CONTINUOUS
 10
195.8969463735
 20
1028.472011318
 11
195.8969463735
 21
1036.472011318
  0
LINE
  5
23A
100
AcDbEntity
  8
0
100
AcDbLine
 62
7
  6
CONTINUOUS
 10
197.1067186021
 20
835.272011318
 11
197.1067186021
 21
1048.572011318
  0
LINE
  5
23B
100
AcDbEntity
  8
0
100
AcDbLine
 62
7
  6
CONTINUOUS
 10
197.9067186021
 20
832.472011318
 11
197.9067186021
 21
833.8472306331
  0
LINE
  5
23C
100
AcDbEntity
  8
0
100
AcDbLine
 62
7
  6
CONTINUOUS
 10
198.6067186021
 20
835.272011318
 11
198.6067186021
 21
839.472011318
  0
LINE
  5
23D
100
AcDbEntity
  8
0
100
AcDbLine
 62
7
  6
CONTINUOUS
 10
198.9067186021
 20
839.472011318
 11
198.9067186021
 21
1048.572011318
  0
LINE
  5
23E
100
AcDbEntity
  8
0
100
AcDbLine
 62
7
  6
CONTINUOUS
 10
200.2067186021
 20
835.272011318
 11
200.2067186021
 21
839.472011318
  0
LINE
  5
23F
100
AcDbEntity
  8
0
100
AcDbLine
 62
7
  6
CONTINUOUS
 10
200.9067186021
 20
833.8472306331
 11
200.9067186021
 21
832.472011318
  0
LINE
  5
240
100
AcDbEntity
  8
0
100
AcDbLine
 62
7
  6
CONTINUOUS
 10
202.0067186021
 20
833.472011318
 11
202.0067186021
 21
838.972011318
  0
LINE
  5
241
100
AcDbEntity
  8
0
100
AcDbLine
 62
7
  6
CONTINUOUS
 10
207.1067186021
 20
1046.472011318
 11
207.1067186021
 21
842.472011318
  0
LINE
  5
242
100
AcDbEntity
  8
0
100
AcDbLine
 62
7
  6
CONTINUOUS
 10
212.2067186021
 20
1060.072011318
 11
212.2067186021
 21
1061.272011318
  0
LINE
  5
243
100
AcDbEntity
  8
0
100
AcDbLine
 62
7
  6
CONTINUOUS
 10
212.2067186021
 20
1063.272011318
 11
212.2067186021
 21
1065.3553260916
  0
LINE
  5
244
100
AcDbEntity
  8
0
100
AcDbLine
 62
7
  6
CONTINUOUS
 10
212.7067186021
 20
1058.572011318
 11
212.7067186021
 21
1060.072011318
  0
LINE
  5
245
100
AcDbEntity
  8
0
100
AcDbLine
 62
7
  6
CONTINUOUS
 10
213.0067186021
 20
1063.272011318
 11
213.0067186021
 21
1061.272011318
  0
LINE
  5
246
100
AcDbEntity
  8
0
100
AcDbLine
 62
7
  6
CONTINUOUS
 10
214.8067186021
 20
1067.2762653218
 11
214.8067186021
 21
1067.2632292902
  0
LINE
  5
247
100
AcDbEntity
  8
0
100
AcDbLine
 62
7
  6
CONTINUOUS
 10
217.6067186021
 20
1066.462011318
 11
217.6067186021
 21
1067.8417141722
  0
LINE
  5
248
100
AcDbEntity
  8
0
100
AcDbLine
 62
7
  6
CONTINUOUS
 10
218.8067186021
 20
1066.462011318
 11
218.8067186021
 21
1067.8417141722
  0
LINE
  5
249
100
AcDbEntity
  8
0
100
AcDbLine
 62
7
  6
CONTINUOUS
 10
221.6067186021
 20
1067.2632292902
 11
221.6067186021
 21
1067.2762653218
  0
LINE
  5
24A
100
AcDbEntity
  8
0
100
AcDbLine
 62
7
  6
CONTINUOUS
 10
223.4067186021
 20
1061.272011318
 11
223.4067186021
 21
1063.272011318
  0
LINE
  5
24B
100
AcDbEntity
  8
0
100
AcDbLine
 62
7
  6
CONTINUOUS
 10
223.7067186021
 20
1058.572011318
 11
223.7067186021
 21
1060.072011318
  0
LINE
  5
24C
100
AcDbEntity
  8
0
100
AcDbLine
 62
7
  6
CONTINUOUS
 10
224.2067186021
 20
1060.072011318
 11
224.2067186021
 21
1061.272011318
  0
LINE
  5
24D
100
AcDbEntity
  8
0
100
AcDbLine
 62
7
  6
CONTINUOUS
 10
224.2067186021
 20
1063.272011318
 11
224.2067186021
 21
1065.3553260916
  0
LINE
  5
24E
100
AcDbEntity
  8
0
100
AcDbLine
 62
7
  6
CONTINUOUS
 10
194.311030268
 20
861.1997681316
 11
194.3220590722
 21
861.2399605105
  0
LINE
  5
24F
100
AcDbEntity
  8
0
100
AcDbLine
 62
7
  6
CONTINUOUS
 10
194.311030268
 20
842.6997681316
 11
194.3220590722
 21
842.7399605105
  0
LINE
  5
250
100
AcDbEntity
  8
0
100
AcDbLine
 62
7
  6
CONTINUOUS
 10
180.6067186021
 20
1044.872011318
 11
180.2067186021
 21
1044.472011318
  0
LINE
  5
251
100
AcDbEntity
  8
0
100
AcDbLine
 62
7
  6
CONTINUOUS
 10
210.797179671
 20
831.872011318
 11
210.2860046615
 21
833.276453114
  0
LINE
  5
252
100
AcDbEntity
  8
0
100
AcDbLine
 62
7
  6
CONTINUOUS
 10
256.3567186021
 20
831.872011318
 11
256.3567186021
 21
832.512011318
  0
LINE
  5
253
100
AcDbEntity
  8
0
100
AcDbLine
 62
7
  6
CONTINUOUS
 10
263.8567186021
 20
831.872011318
 11
263.8567186021
 21
832.512011318
  0
LINE
  5
254
100
AcDbEntity
  8
0
100
AcDbLine
 62
7
  6
CONTINUOUS
 10
218.6162575333
 20
831.872011318
 11
219.1274325428
 21
833.276453114
  0
LINE
  5
255
100
AcDbEntity
  8
0
100
AcDbLine
 62
7
  6
CONTINUOUS
 10
175.1067186021
 20
1057.560543905
 11
174.7666599704
 21
1058.4543682802
  0
LINE
  5
256
100
AcDbEntity
  8
0
100
AcDbLine
 62
7
  6
CONTINUOUS
 10
275.5520412453
 20
832.6586601678
 11
276.2710485054
 21
831.872011318
  0
LINE
  5
257
100
AcDbEntity
  8
0
100
AcDbLine
 62
7
  6
CONTINUOUS
 10
292.0520412453
 20
832.6586601678
 11
292.7710485054
 21
831.872011318
  0
LINE
  5
258
100
AcDbEntity
  8
0
100
AcDbLine
 62
7
  6
CONTINUOUS
 10
302.0520412453
 20
832.6586601678
 11
302.7710485054
 21
831.872011318
  0
LINE
  5
259
100
AcDbEntity
  8
0
100
AcDbLine
 62
7
  6
CONTINUOUS
 10
317.7710485054
 20
831.872011318
 11
317.0520412453
 21
832.6586601678
  0
LINE
  5
25A
100
AcDbEntity
  8
0
100
AcDbLine
 62
7
  6
CONTINUOUS
 10
150.8047948135
 20
788.9700875294
 11
146.7067186021
 21
784.872011318
  0
LINE
  5
25B
100
AcDbEntity
  8
0
100
AcDbLine
 62
7
  6
CONTINUOUS
 10
204.1067186021
 20
839.472011318
 11
207.1067186021
 21
842.472011318
  0
LINE
  5
25C
100
AcDbEntity
  8
0
100
AcDbLine
 62
7
  6
CONTINUOUS
 10
271.8613959589
 20
832.6586601678
 11
271.1423886988
 21
831.872011318
  0
LINE
  5
25D
100
AcDbEntity
  8
0
100
AcDbLine
 62
7
  6
CONTINUOUS
 10
287.6423886988
 20
831.872011318
 11
288.3613959589
 21
832.6586601678
  0
LINE
  5
25E
100
AcDbEntity
  8
0
100
AcDbLine
 62
7
  6
CONTINUOUS
 10
297.6423886988
 20
831.872011318
 11
298.3613959589
 21
832.6586601678
  0
LINE
  5
25F
100
AcDbEntity
  8
0
100
AcDbLine
 62
7
  6
CONTINUOUS
 10
180.6067186021
 20
1048.072011318
 11
180.2067186021
 21
1048.472011318
  0
LINE
  5
260
100
AcDbEntity
  8
0
100
AcDbLine
 62
7
  6
CONTINUOUS
 10
417.0520412453
 20
832.6586601678
 11
417.7710485054
 21
831.872011318
  0
LINE
  5
261
100
AcDbEntity
  8
0
100
AcDbLine
 62
7
  6
CONTINUOUS
 10
313.3613959589
 20
832.6586601678
 11
312.6423886988
 21
831.872011318
  0
LINE
  5
262
100
AcDbEntity
  8
0
100
AcDbLine
 62
7
  6
CONTINUOUS
 10
146.7067186021
 20
716.472011318
 11
1146.7067186021
 21
716.472011318
  0
LINE
  5
263
100
AcDbEntity
  8
0
100
AcDbLine
 62
7
  6
CONTINUOUS
 10
1146.7067186021
 20
718.772011318
 11
146.7067186021
 21
718.772011318
  0
LINE
  5
264
100
AcDbEntity
  8
0
100
AcDbLine
 62
7
  6
CONTINUOUS
 10
207.1067186021
 20
1046.472011318
 11
205.0067186021
 21
1048.572011318
  0
LINE
  5
265
100
AcDbEntity
  8
0
100
AcDbLine
 62
7
  6
CONTINUOUS
 10
432.7710485054
 20
831.872011318
 11
432.0520412453
 21
832.6586601678
  0
LINE
  5
266
100
AcDbEntity
  8
0
100
AcDbLine
 62
7
  6
CONTINUOUS
 10
493.2067186021
 20
1060.072011318
 11
493.2067186021
 21
1061.272011318
  0
LINE
  5
267
100
AcDbEntity
  8
0
100
AcDbLine
 62
7
  6
CONTINUOUS
 10
493.2067186021
 20
1063.272011318
 11
493.2067186021
 21
1065.3553260916
  0
LINE
  5
268
100
AcDbEntity
  8
0
100
AcDbLine
 62
7
  6
CONTINUOUS
 10
493.7067186021
 20
1058.572011318
 11
493.7067186021
 21
1060.072011318
  0
LINE
  5
269
100
AcDbEntity
  8
0
100
AcDbLine
 62
7
  6
CONTINUOUS
 10
494.0067186021
 20
1063.272011318
 11
494.0067186021
 21
1061.272011318
  0
LINE
  5
26A
100
AcDbEntity
  8
0
100
AcDbLine
 62
7
  6
CONTINUOUS
 10
495.8067186021
 20
1067.2762653218
 11
495.8067186021
 21
1067.2632292902
  0
LINE
  5
26B
100
AcDbEntity
  8
0
100
AcDbLine
 62
7
  6
CONTINUOUS
 10
498.6067186021
 20
1066.462011318
 11
498.6067186021
 21
1067.8417141722
  0
LINE
  5
26C
100
AcDbEntity
  8
0
100
AcDbLine
 62
7
  6
CONTINUOUS
 10
499.8067186021
 20
1066.462011318
 11
499.8067186021
 21
1067.8417141722
  0
LINE
  5
26D
100
AcDbEntity
  8
0
100
AcDbLine
 62
7
  6
CONTINUOUS
 10
502.6067186021
 20
1067.2632292902
 11
502.6067186021
 21
1067.2762653218
  0
LINE
  5
26E
100
AcDbEntity
  8
0
100
AcDbLine
 62
7
  6
CONTINUOUS
 10
504.4067186021
 20
1061.272011318
 11
504.4067186021
 21
1063.272011318
  0
LINE
  5
26F
100
AcDbEntity
  8
0
100
AcDbLine
 62
7
  6
CONTINUOUS
 10
504.7067186021
 20
1058.572011318
 11
504.7067186021
 21
1060.072011318
  0
LINE
  5
270
100
AcDbEntity
  8
0
100
AcDbLine
 62
7
  6
CONTINUOUS
 10
505.2067186021
 20
1060.072011318
 11
505.2067186021
 21
1061.272011318
  0
LINE
  5
271
100
AcDbEntity
  8
0
100
AcDbLine
 62
7
  6
CONTINUOUS
 10
505.2067186021
 20
1063.272011318
 11
505.2067186021
 21
1065.3553260916
  0
LINE
  5
272
100
AcDbEntity
  8
0
100
AcDbLine
 62
7
  6
CONTINUOUS
 10
1110.4467833053
 20
725.572011318
 11
1112.966653899
 21
725.572011318
  0
LINE
  5
273
100
AcDbEntity
  8
0
100
AcDbLine
 62
7
  6
CONTINUOUS
 10
1139.4467833053
 20
725.572011318
 11
1141.966653899
 21
725.572011318
  0
LINE
  5
274
100
AcDbEntity
  8
0
100
AcDbLine
 62
7
  6
CONTINUOUS
 10
1109.7751916445
 20
726.572011318
 11
1113.6382455598
 21
726.572011318
  0
LINE
  5
275
100
AcDbEntity
  8
0
100
AcDbLine
 62
7
  6
CONTINUOUS
 10
1138.7751916445
 20
726.572011318
 11
1142.6382455598
 21
726.572011318
  0
LINE
  5
276
100
AcDbEntity
  8
0
100
AcDbLine
 62
7
  6
CONTINUOUS
 10
1142.1045895361
 20
728.062011318
 11
1139.3088476681
 21
728.062011318
  0
LINE
  5
277
100
AcDbEntity
  8
0
100
AcDbLine
 62
7
  6
CONTINUOUS
 10
412.6423886988
 20
831.872011318
 11
413.3613959589
 21
832.6586601678
  0
LINE
  5
278
100
AcDbEntity
  8
0
100
AcDbLine
 62
7
  6
CONTINUOUS
 10
428.3613959589
 20
832.6586601678
 11
427.6423886988
 21
831.872011318
  0
LINE
  5
279
100
AcDbEntity
  8
0
100
AcDbLine
 62
7
  6
CONTINUOUS
 10
552.0520412453
 20
832.6586601678
 11
552.7710485054
 21
831.872011318
  0
LINE
  5
27A
100
AcDbEntity
  8
0
100
AcDbLine
 62
7
  6
CONTINUOUS
 10
1138.2779575002
 20
805.1938080877
 11
1145.3067186021
 21
805.1938080877
  0
LINE
  5
27B
100
AcDbEntity
  8
0
100
AcDbLine
 62
7
  6
CONTINUOUS
 10
1144.3067186021
 20
807.1938080877
 11
1145.3067186021
 21
807.1938080877
  0
LINE
  5
27C
100
AcDbEntity
  8
0
100
AcDbLine
 62
7
  6
CONTINUOUS
 10
1145.3067186021
 20
808.1938080877
 11
1144.3067186021
 21
808.1938080877
  0
LINE
  5
27D
100
AcDbEntity
  8
0
100
AcDbLine
 62
7
  6
CONTINUOUS
 10
174.7067186021
 20
809.872011318
 11
175.7067186021
 21
809.872011318
  0
LINE
  5
27E
100
AcDbEntity
  8
0
100
AcDbLine
 62
7
  6
CONTINUOUS
 10
1144.1067186021
 20
810.562011318
 11
1138.2779575002
 21
810.562011318
  0
LINE
  5
27F
100
AcDbEntity
  8
0
100
AcDbLine
 62
7
  6
CONTINUOUS
 10
1144.3067186021
 20
810.862011318
 11
1144.1067186021
 21
810.862011318
  0
LINE
  5
280
100
AcDbEntity
  8
0
100
AcDbLine
 62
7
  6
CONTINUOUS
 10
175.7067186021
 20
811.4193201246
 11
1118.0067186021
 21
811.4193201246
  0
LINE
  5
281
100
AcDbEntity
  8
0
100
AcDbLine
 62
7
  6
CONTINUOUS
 10
1118.0067186021
 20
813.0456657213
 11
175.7067186021
 21
813.0456657213
  0
LINE
  5
282
100
AcDbEntity
  8
0
100
AcDbLine
 62
7
  6
CONTINUOUS
 10
1144.3067186021
 20
814.122011318
 11
1145.3067186021
 21
814.122011318
  0
LINE
  5
283
100
AcDbEntity
  8
0
100
AcDbLine
 62
7
  6
CONTINUOUS
 10
175.7067186021
 20
814.2841433524
 11
1118.0067186021
 21
814.2841433524
  0
LINE
  5
284
100
AcDbEntity
  8
0
100
AcDbLine
 62
7
  6
CONTINUOUS
 10
1118.0067186021
 20
814.4962753867
 11
175.7067186021
 21
814.4962753867
  0
LINE
  5
285
100
AcDbEntity
  8
0
100
AcDbLine
 62
7
  6
CONTINUOUS
 10
175.7067186021
 20
814.872011318
 11
1118.0067186021
 21
814.872011318
  0
LINE
  5
286
100
AcDbEntity
  8
0
100
AcDbLine
 62
7
  6
CONTINUOUS
 10
1144.3067186021
 20
817.382011318
 11
1144.1067186021
 21
817.382011318
  0
LINE
  5
287
100
AcDbEntity
  8
0
100
AcDbLine
 62
7
  6
CONTINUOUS
 10
1144.1067186021
 20
817.682011318
 11
1138.2779575002
 21
817.682011318
  0
LINE
  5
288
100
AcDbEntity
  8
0
100
AcDbLine
 62
7
  6
CONTINUOUS
 10
1118.0067186021
 20
819.172011318
 11
1144.0067186021
 21
819.172011318
  0
LINE
  5
289
100
AcDbEntity
  8
0
100
AcDbLine
 62
7
  6
CONTINUOUS
 10
1118.0067186021
 20
820.172011318
 11
1144.0067186021
 21
820.172011318
  0
LINE
  5
28A
100
AcDbEntity
  8
0
100
AcDbLine
 62
7
  6
CONTINUOUS
 10
1145.3067186021
 20
821.622011318
 11
1144.3067186021
 21
821.622011318
  0
LINE
  5
28B
100
AcDbEntity
  8
0
100
AcDbLine
 62
7
  6
CONTINUOUS
 10
567.7710485054
 20
831.872011318
 11
567.0520412453
 21
832.6586601678
  0
LINE
  5
28C
100
AcDbEntity
  8
0
100
AcDbLine
 62
7
  6
CONTINUOUS
 10
603.7067186021
 20
831.872011318
 11
603.7067186021
 21
833.472011318
  0
LINE
  5
28D
100
AcDbEntity
  8
0
100
AcDbLine
 62
7
  6
CONTINUOUS
 10
607.7067186021
 20
833.472011318
 11
607.7067186021
 21
831.872011318
  0
LINE
  5
28E
100
AcDbEntity
  8
0
100
AcDbLine
 62
7
  6
CONTINUOUS
 10
547.6423886988
 20
831.872011318
 11
548.3613959589
 21
832.6586601678
  0
LINE
  5
28F
100
AcDbEntity
  8
0
100
AcDbLine
 62
7
  6
CONTINUOUS
 10
175.7067186021
 20
827.872011318
 11
174.7067186021
 21
827.872011318
  0
LINE
  5
290
100
AcDbEntity
  8
0
100
AcDbLine
 62
7
  6
CONTINUOUS
 10
175.7067186021
 20
829.572011318
 11
1118.0067186021
 21
829.572011318
  0
LINE
  5
291
100
AcDbEntity
  8
0
100
AcDbLine
 62
7
  6
CONTINUOUS
 10
174.7067186021
 20
829.872011318
 11
175.7067186021
 21
829.872011318
  0
LINE
  5
292
100
AcDbEntity
  8
0
100
AcDbLine
 62
7
  6
CONTINUOUS
 10
1118.0067186021
 20
831.872011318
 11
175.7067186021
 21
831.872011318
  0
LINE
  5
293
100
AcDbEntity
  8
0
100
AcDbLine
 62
7
  6
CONTINUOUS
 10
1118.3067186021
 20
832.372011318
 11
1083.6067186021
 21
832.372011318
  0
LINE
  5
294
100
AcDbEntity
  8
0
100
AcDbLine
 62
7
  6
CONTINUOUS
 10
1082.5067186021
 20
832.472011318
 11
1079.5067186021
 21
832.472011318
  0
LINE
  5
295
100
AcDbEntity
  8
0
100
AcDbLine
 62
7
  6
CONTINUOUS
 10
197.9067186021
 20
832.472011318
 11
200.9067186021
 21
832.472011318
  0
LINE
  5
296
100
AcDbEntity
  8
0
100
AcDbLine
 62
7
  6
CONTINUOUS
 10
256.35676767
 20
832.512011318
 11
263.8566695343
 21
832.512011318
  0
LINE
  5
297
100
AcDbEntity
  8
0
100
AcDbLine
 62
7
  6
CONTINUOUS
 10
271.8613959589
 20
832.6586601678
 11
275.5520412453
 21
832.6586601678
  0
LINE
  5
298
100
AcDbEntity
  8
0
100
AcDbLine
 62
7
  6
CONTINUOUS
 10
288.3613959589
 20
832.6586601678
 11
292.0520412453
 21
832.6586601678
  0
LINE
  5
299
100
AcDbEntity
  8
0
100
AcDbLine
 62
7
  6
CONTINUOUS
 10
298.3613959589
 20
832.6586601678
 11
302.0520412453
 21
832.6586601678
  0
LINE
  5
29A
100
AcDbEntity
  8
0
100
AcDbLine
 62
7
  6
CONTINUOUS
 10
313.3613959589
 20
832.6586601678
 11
317.0520412453
 21
832.6586601678
  0
LINE
  5
29B
100
AcDbEntity
  8
0
100
AcDbLine
 62
7
  6
CONTINUOUS
 10
413.3613959589
 20
832.6586601678
 11
417.0520412453
 21
832.6586601678
  0
LINE
  5
29C
100
AcDbEntity
  8
0
100
AcDbLine
 62
7
  6
CONTINUOUS
 10
428.3613959589
 20
832.6586601678
 11
432.0520412453
 21
832.6586601678
  0
LINE
  5
29D
100
AcDbEntity
  8
0
100
AcDbLine
 62
7
  6
CONTINUOUS
 10
548.3613959589
 20
832.6586601678
 11
552.0520412453
 21
832.6586601678
  0
LINE
  5
29E
100
AcDbEntity
  8
0
100
AcDbLine
 62
7
  6
CONTINUOUS
 10
563.3613959589
 20
832.6586601678
 11
567.0520412453
 21
832.6586601678
  0
LINE
  5
29F
100
AcDbEntity
  8
0
100
AcDbLine
 62
7
  6
CONTINUOUS
 10
688.3662054305
 20
832.6586601678
 11
692.0568507169
 21
832.6586601678
  0
LINE
  5
2A0
100
AcDbEntity
  8
0
100
AcDbLine
 62
7
  6
CONTINUOUS
 10
702.3613959589
 20
832.6586601678
 11
706.0520412453
 21
832.6586601678
  0
LINE
  5
2A1
100
AcDbEntity
  8
0
100
AcDbLine
 62
7
  6
CONTINUOUS
 10
779.3662054306
 20
832.6586601678
 11
783.056850717
 21
832.6586601678
  0
LINE
  5
2A2
100
AcDbEntity
  8
0
100
AcDbLine
 62
7
  6
CONTINUOUS
 10
791.1646968178
 20
832.6586601678
 11
797.0520412453
 21
832.6586601678
  0
LINE
  5
2A3
100
AcDbEntity
  8
0
100
AcDbLine
 62
7
  6
CONTINUOUS
 10
210.2860046615
 20
833.276453114
 11
219.1274325428
 21
833.276453114
  0
LINE
  5
2A4
100
AcDbEntity
  8
0
100
AcDbLine
 62
7
  6
CONTINUOUS
 10
852.2860046615
 20
833.276453114
 11
861.1274325428
 21
833.276453114
  0
LINE
  5
2A5
100
AcDbEntity
  8
0
100
AcDbLine
 62
7
  6
CONTINUOUS
 10
942.2860046615
 20
833.276453114
 11
951.1274325428
 21
833.276453114
  0
LINE
  5
2A6
100
AcDbEntity
  8
0
100
AcDbLine
 62
7
  6
CONTINUOUS
 10
1042.2860046615
 20
833.276453114
 11
1051.1274325428
 21
833.276453114
  0
LINE
  5
2A7
100
AcDbEntity
  8
0
100
AcDbLine
 62
7
  6
CONTINUOUS
 10
1053.9860046615
 20
833.276453114
 11
1062.8274325428
 21
833.276453114
  0
LINE
  5
2A8
100
AcDbEntity
  8
0
100
AcDbLine
 62
7
  6
CONTINUOUS
 10
188.6067186021
 20
833.472011318
 11
196.8067186021
 21
833.472011318
  0
LINE
  5
2A9
100
AcDbEntity
  8
0
100
AcDbLine
 62
7
  6
CONTINUOUS
 10
202.0067186021
 20
833.472011318
 11
1078.4067186021
 21
833.472011318
  0
LINE
  5
2AA
100
AcDbEntity
  8
0
100
AcDbLine
 62
7
  6
CONTINUOUS
 10
1083.6067186021
 20
833.872011318
 11
1118.3067186021
 21
833.872011318
  0
LINE
  5
2AB
100
AcDbEntity
  8
0
100
AcDbLine
 62
7
  6
CONTINUOUS
 10
1083.3067186021
 20
834.972011318
 11
1081.8067186021
 21
834.972011318
  0
LINE
  5
2AC
100
AcDbEntity
  8
0
100
AcDbLine
 62
7
  6
CONTINUOUS
 10
188.6067186021
 20
834.972011318
 11
196.8067186021
 21
834.972011318
  0
LINE
  5
2AD
100
AcDbEntity
  8
0
100
AcDbLine
 62
7
  6
CONTINUOUS
 10
197.1067186021
 20
835.472011318
 11
198.6067186021
 21
835.472011318
  0
LINE
  5
2AE
100
AcDbEntity
  8
0
100
AcDbLine
 62
7
  6
CONTINUOUS
 10
1083.3067186021
 20
835.972011318
 11
1086.3067186021
 21
835.972011318
  0
LINE
  5
2AF
100
AcDbEntity
  8
0
100
AcDbLine
 62
7
  6
CONTINUOUS
 10
1089.3067186021
 20
836.972011318
 11
1086.3067186021
 21
836.972011318
  0
LINE
  5
2B0
100
AcDbEntity
  8
0
100
AcDbLine
 62
7
  6
CONTINUOUS
 10
1081.8067186021
 20
837.472011318
 11
1080.2067186021
 21
837.472011318
  0
LINE
  5
2B1
100
AcDbEntity
  8
0
100
AcDbLine
 62
7
  6
CONTINUOUS
 10
198.6067186021
 20
837.472011318
 11
200.2067186021
 21
837.472011318
  0
LINE
  5
2B2
100
AcDbEntity
  8
0
100
AcDbLine
 62
7
  6
CONTINUOUS
 10
1088.8067186021
 20
839.472011318
 11
1081.8067186021
 21
839.472011318
  0
LINE
  5
2B3
100
AcDbEntity
  8
0
100
AcDbLine
 62
7
  6
CONTINUOUS
 10
204.1067186021
 20
839.472011318
 11
197.1067186021
 21
839.472011318
  0
LINE
  5
2B4
100
AcDbEntity
  8
0
100
AcDbLine
 62
7
  6
CONTINUOUS
 10
1089.3067186021
 20
839.972011318
 11
1090.3067186021
 21
839.972011318
  0
LINE
  5
2B5
100
AcDbEntity
  8
0
100
AcDbLine
 62
7
  6
CONTINUOUS
 10
197.1067186021
 20
840.472011318
 11
195.8969463735
 21
840.472011318
  0
LINE
  5
2B6
100
AcDbEntity
  8
0
100
AcDbLine
 62
7
  6
CONTINUOUS
 10
1090.3124033582
 20
840.9776960741
 11
1091.8067186021
 21
840.9776960741
  0
LINE
  5
2B7
100
AcDbEntity
  8
0
100
AcDbLine
 62
7
  6
CONTINUOUS
 10
1091.8067186021
 20
841.472011318
 11
1095.8067186021
 21
841.472011318
  0
LINE
  5
2B8
100
AcDbEntity
  8
0
100
AcDbLine
 62
7
  6
CONTINUOUS
 10
194.3126892576
 20
842.8339368921
 11
194.2451922567
 21
842.8339368921
  0
LINE
  5
2B9
100
AcDbEntity
  8
0
100
AcDbLine
 62
7
  6
CONTINUOUS
 10
1080.2067186021
 20
842.972011318
 11
207.1067186021
 21
842.972011318
  0
LINE
  5
2BA
100
AcDbEntity
  8
0
100
AcDbLine
 62
7
  6
CONTINUOUS
 10
194.2451922567
 20
846.110085744
 11
194.313215585
 21
846.110085744
  0
LINE
  5
2BB
100
AcDbEntity
  8
0
100
AcDbLine
 62
7
  6
CONTINUOUS
 10
195.8969463735
 20
848.472011318
 11
197.1067186021
 21
848.472011318
  0
LINE
  5
2BC
100
AcDbEntity
  8
0
100
AcDbLine
 62
7
  6
CONTINUOUS
 10
1091.8067186021
 20
851.472011318
 11
1095.8067186021
 21
851.472011318
  0
LINE
  5
2BD
100
AcDbEntity
  8
0
100
AcDbLine
 62
7
  6
CONTINUOUS
 10
1091.8067186021
 20
855.472011318
 11
1095.8067186021
 21
855.472011318
  0
LINE
  5
2BE
100
AcDbEntity
  8
0
100
AcDbLine
 62
7
  6
CONTINUOUS
 10
197.1067186021
 20
858.972011318
 11
195.8969463735
 21
858.972011318
  0
LINE
  5
2BF
100
AcDbEntity
  8
0
100
AcDbLine
 62
7
  6
CONTINUOUS
 10
194.3126892576
 20
861.3339368921
 11
194.2451922567
 21
861.3339368921
  0
LINE
  5
2C0
100
AcDbEntity
  8
0
100
AcDbLine
 62
7
  6
CONTINUOUS
 10
563.3613959589
 20
832.6586601678
 11
562.6423886988
 21
831.872011318
  0
LINE
  5
2C1
100
AcDbEntity
  8
0
100
AcDbLine
 62
7
  6
CONTINUOUS
 10
194.2451922567
 20
864.610085744
 11
194.313215585
 21
864.610085744
  0
LINE
  5
2C2
100
AcDbEntity
  8
0
100
AcDbLine
 62
7
  6
CONTINUOUS
 10
1091.8067186021
 20
865.472011318
 11
1095.8067186021
 21
865.472011318
  0
LINE
  5
2C3
100
AcDbEntity
  8
0
100
AcDbLine
 62
7
  6
CONTINUOUS
 10
195.8969463735
 20
866.972011318
 11
197.1067186021
 21
866.972011318
  0
LINE
  5
2C4
100
AcDbEntity
  8
0
100
AcDbLine
 62
7
  6
CONTINUOUS
 10
692.0568507169
 20
832.6586601678
 11
692.775857977
 21
831.872011318
  0
LINE
  5
2C5
100
AcDbEntity
  8
0
100
AcDbLine
 62
7
  6
CONTINUOUS
 10
706.7710485054
 20
831.872011318
 11
706.0520412453
 21
832.6586601678
  0
LINE
  5
2C6
100
AcDbEntity
  8
0
100
AcDbLine
 62
7
  6
CONTINUOUS
 10
1112.4067186021
 20
1043.702011318
 11
1111.4067186021
 21
1043.302011318
  0
LINE
  5
2C7
100
AcDbEntity
  8
0
100
AcDbLine
 62
7
  6
CONTINUOUS
 10
175.7067186021
 20
795.6425378985
 11
150.8047948135
 21
788.9700875294
  0
LINE
  5
2C8
100
AcDbEntity
  8
0
100
AcDbLine
 62
7
  6
CONTINUOUS
 10
172.2067186021
 20
1043.602011318
 11
173.4067186021
 21
1043.302011318
  0
LINE
  5
2C9
100
AcDbEntity
  8
0
100
AcDbLine
 62
7
  6
CONTINUOUS
 10
1142.6086423908
 20
788.9700875294
 11
1118.0067186021
 21
795.5621531408
  0
LINE
  5
2CA
100
AcDbEntity
  8
0
100
AcDbLine
 62
7
  6
CONTINUOUS
 10
688.3662054305
 20
832.6586601678
 11
687.6471981704
 21
831.872011318
  0
LINE
  5
2CB
100
AcDbEntity
  8
0
100
AcDbLine
 62
7
  6
CONTINUOUS
 10
1091.8067186021
 20
939.472011318
 11
1095.8067186021
 21
939.472011318
  0
LINE
  5
2CC
100
AcDbEntity
  8
0
100
AcDbLine
 62
7
  6
CONTINUOUS
 10
1091.8067186021
 20
949.472011318
 11
1095.8067186021
 21
949.472011318
  0
LINE
  5
2CD
100
AcDbEntity
  8
0
100
AcDbLine
 62
7
  6
CONTINUOUS
 10
1091.8067186021
 20
952.072011318
 11
1095.8067186021
 21
952.072011318
  0
LINE
  5
2CE
100
AcDbEntity
  8
0
100
AcDbLine
 62
7
  6
CONTINUOUS
 10
1091.8067186021
 20
963.072011318
 11
1095.8067186021
 21
963.072011318
  0
LINE
  5
2CF
100
AcDbEntity
  8
0
100
AcDbLine
 62
7
  6
CONTINUOUS
 10
783.056850717
 20
832.6586601678
 11
783.7758579771
 21
831.872011318
  0
LINE
  5
2D0
100
AcDbEntity
  8
0
100
AcDbLine
 62
7
  6
CONTINUOUS
 10
797.7710485054
 20
831.872011318
 11
797.0520412453
 21
832.6586601678
  0
LINE
  5
2D1
100
AcDbEntity
  8
0
100
AcDbLine
 62
7
  6
CONTINUOUS
 10
702.3613959589
 20
832.6586601678
 11
701.6423886988
 21
831.872011318
  0
LINE
  5
2D2
100
AcDbEntity
  8
0
100
AcDbLine
 62
7
  6
CONTINUOUS
 10
1091.8067186021
 20
973.072011318
 11
1095.8067186021
 21
973.072011318
  0
LINE
  5
2D3
100
AcDbEntity
  8
0
100
AcDbLine
 62
7
  6
CONTINUOUS
 10
1091.8067186021
 20
984.072011318
 11
1095.8067186021
 21
984.072011318
  0
LINE
  5
2D4
100
AcDbEntity
  8
0
100
AcDbLine
 62
7
  6
CONTINUOUS
 10
1091.8067186021
 20
994.072011318
 11
1095.8067186021
 21
994.072011318
  0
LINE
  5
2D5
100
AcDbEntity
  8
0
100
AcDbLine
 62
7
  6
CONTINUOUS
 10
1094.5067186021
 20
998.4214934372
 11
1091.8067186021
 21
998.4214934372
  0
LINE
  5
2D6
100
AcDbEntity
  8
0
100
AcDbLine
 62
7
  6
CONTINUOUS
 10
1094.5067186021
 20
1000.1185644078
 11
1091.8067186021
 21
1000.1185644078
  0
LINE
  5
2D7
100
AcDbEntity
  8
0
100
AcDbLine
 62
7
  6
CONTINUOUS
 10
817.9472777613
 20
831.9598792837
 11
817.1088001302
 21
832.7983569148
  0
LINE
  5
2D8
100
AcDbEntity
  8
0
100
AcDbLine
 62
7
  6
CONTINUOUS
 10
774.2067186021
 20
1060.072011318
 11
774.2067186021
 21
1061.272011318
  0
LINE
  5
2D9
100
AcDbEntity
  8
0
100
AcDbLine
 62
7
  6
CONTINUOUS
 10
774.2067186021
 20
1063.272011318
 11
774.2067186021
 21
1065.3553260916
  0
LINE
  5
2DA
100
AcDbEntity
  8
0
100
AcDbLine
 62
7
  6
CONTINUOUS
 10
774.7067186021
 20
1058.572011318
 11
774.7067186021
 21
1060.072011318
  0
LINE
  5
2DB
100
AcDbEntity
  8
0
100
AcDbLine
 62
7
  6
CONTINUOUS
 10
775.0067186021
 20
1063.272011318
 11
775.0067186021
 21
1061.272011318
  0
LINE
  5
2DC
100
AcDbEntity
  8
0
100
AcDbLine
 62
7
  6
CONTINUOUS
 10
776.8067186021
 20
1067.2762653218
 11
776.8067186021
 21
1067.2632292902
  0
LINE
  5
2DD
100
AcDbEntity
  8
0
100
AcDbLine
 62
7
  6
CONTINUOUS
 10
779.6067186021
 20
1066.462011318
 11
779.6067186021
 21
1067.8417141722
  0
LINE
  5
2DE
100
AcDbEntity
  8
0
100
AcDbLine
 62
7
  6
CONTINUOUS
 10
780.8067186021
 20
1066.462011318
 11
780.8067186021
 21
1067.8417141722
  0
LINE
  5
2DF
100
AcDbEntity
  8
0
100
AcDbLine
 62
7
  6
CONTINUOUS
 10
783.6067186021
 20
1067.2632292902
 11
783.6067186021
 21
1067.2762653218
  0
LINE
  5
2E0
100
AcDbEntity
  8
0
100
AcDbLine
 62
7
  6
CONTINUOUS
 10
785.4067186021
 20
1061.272011318
 11
785.4067186021
 21
1063.272011318
  0
LINE
  5
2E1
100
AcDbEntity
  8
0
100
AcDbLine
 62
7
  6
CONTINUOUS
 10
785.7067186021
 20
1058.572011318
 11
785.7067186021
 21
1060.072011318
  0
LINE
  5
2E2
100
AcDbEntity
  8
0
100
AcDbLine
 62
7
  6
CONTINUOUS
 10
786.2067186021
 20
1060.072011318
 11
786.2067186021
 21
1061.272011318
  0
LINE
  5
2E3
100
AcDbEntity
  8
0
100
AcDbLine
 62
7
  6
CONTINUOUS
 10
786.2067186021
 20
1063.272011318
 11
786.2067186021
 21
1065.3553260916
  0
LINE
  5
2E4
100
AcDbEntity
  8
0
100
AcDbLine
 62
7
  6
CONTINUOUS
 10
779.3662054306
 20
832.6586601678
 11
778.6471981705
 21
831.872011318
  0
LINE
  5
2E5
100
AcDbEntity
  8
0
100
AcDbLine
 62
7
  6
CONTINUOUS
 10
1091.8067186021
 20
1005.072011318
 11
1095.8067186021
 21
1005.072011318
  0
LINE
  5
2E6
100
AcDbEntity
  8
0
100
AcDbLine
 62
7
  6
CONTINUOUS
 10
1091.8067186021
 20
1015.072011318
 11
1095.8067186021
 21
1015.072011318
  0
LINE
  5
2E7
100
AcDbEntity
  8
0
100
AcDbLine
 62
7
  6
CONTINUOUS
 10
1091.8067186021
 20
1023.472011318
 11
1095.8067186021
 21
1023.472011318
  0
LINE
  5
2E8
100
AcDbEntity
  8
0
100
AcDbLine
 62
7
  6
CONTINUOUS
 10
1107.6067186021
 20
1023.572011318
 11
1106.1067186021
 21
1023.572011318
  0
LINE
  5
2E9
100
AcDbEntity
  8
0
100
AcDbLine
 62
7
  6
CONTINUOUS
 10
173.6067186021
 20
1023.572011318
 11
175.1067186021
 21
1023.572011318
  0
LINE
  5
2EA
100
AcDbEntity
  8
0
100
AcDbLine
 62
7
  6
CONTINUOUS
 10
197.1067186021
 20
1028.472011318
 11
195.8969463735
 21
1028.472011318
  0
LINE
  5
2EB
100
AcDbEntity
  8
0
100
AcDbLine
 62
7
  6
CONTINUOUS
 10
1107.6067186021
 20
1028.572011318
 11
1106.1067186021
 21
1028.572011318
  0
LINE
  5
2EC
100
AcDbEntity
  8
0
100
AcDbLine
 62
7
  6
CONTINUOUS
 10
173.6067186021
 20
1028.572011318
 11
175.1067186021
 21
1028.572011318
  0
LINE
  5
2ED
100
AcDbEntity
  8
0
100
AcDbLine
 62
7
  6
CONTINUOUS
 10
194.3126892576
 20
1030.8339368921
 11
194.2451922567
 21
1030.8339368921
  0
LINE
  5
2EE
100
AcDbEntity
  8
0
100
AcDbLine
 62
7
  6
CONTINUOUS
 10
1091.8067186021
 20
1033.472011318
 11
1095.8067186021
 21
1033.472011318
  0
LINE
  5
2EF
100
AcDbEntity
  8
0
100
AcDbLine
 62
7
  6
CONTINUOUS
 10
194.2451922567
 20
1034.110085744
 11
194.313215585
 21
1034.110085744
  0
LINE
  5
2F0
100
AcDbEntity
  8
0
100
AcDbLine
 62
7
  6
CONTINUOUS
 10
195.8969463735
 20
1036.472011318
 11
197.1067186021
 21
1036.472011318
  0
LINE
  5
2F1
100
AcDbEntity
  8
0
100
AcDbLine
 62
7
  6
CONTINUOUS
 10
1091.8067186021
 20
1037.472011318
 11
1095.8067186021
 21
1037.472011318
  0
LINE
  5
2F2
100
AcDbEntity
  8
0
100
AcDbLine
 62
7
  6
CONTINUOUS
 10
168.9067186021
 20
1043.2105897148
 11
170.6067186021
 21
1043.172011318
  0
LINE
  5
2F3
100
AcDbEntity
  8
0
100
AcDbLine
 62
7
  6
CONTINUOUS
 10
168.9067186021
 20
1043.235211838
 11
168.3999124021
 21
1043.2468006804
  0
LINE
  5
2F4
100
AcDbEntity
  8
0
100
AcDbLine
 62
7
  6
CONTINUOUS
 10
800.5067186021
 20
833.472011318
 11
800.5067186021
 21
831.872011318
  0
LINE
  5
2F5
100
AcDbEntity
  8
0
100
AcDbLine
 62
7
  6
CONTINUOUS
 10
805.5067186021
 20
833.472011318
 11
805.5067186021
 21
831.872011318
  0
LINE
  5
2F6
100
AcDbEntity
  8
0
100
AcDbLine
 62
7
  6
CONTINUOUS
 10
791.1646968178
 20
832.6586601678
 11
790.4456895577
 21
831.872011318
  0
LINE
  5
2F7
100
AcDbEntity
  8
0
100
AcDbLine
 62
7
  6
CONTINUOUS
 10
793.3613959589
 20
832.6586601678
 11
792.6423886988
 21
831.872011318
  0
LINE
  5
2F8
100
AcDbEntity
  8
0
100
AcDbLine
 62
7
  6
CONTINUOUS
 10
168.3999124021
 20
1049.6972219556
 11
168.9067186021
 21
1049.708810798
  0
LINE
  5
2F9
100
AcDbEntity
  8
0
100
AcDbLine
 62
7
  6
CONTINUOUS
 10
168.9067186021
 20
1049.7334329212
 11
170.6067186021
 21
1049.772011318
  0
LINE
  5
2FA
100
AcDbEntity
  8
0
100
AcDbLine
 62
7
  6
CONTINUOUS
 10
177.1067186021
 20
1039.472011318
 11
178.6067186021
 21
1039.472011318
  0
LINE
  5
2FB
100
AcDbEntity
  8
0
100
AcDbLine
 62
7
  6
CONTINUOUS
 10
1100.3067186021
 20
1041.472011318
 11
1101.8067186021
 21
1041.472011318
  0
LINE
  5
2FC
100
AcDbEntity
  8
0
100
AcDbLine
 62
7
  6
CONTINUOUS
 10
1100.3067186021
 20
1041.822011318
 11
1099.5067186021
 21
1041.822011318
  0
LINE
  5
2FD
100
AcDbEntity
  8
0
100
AcDbLine
 62
7
  6
CONTINUOUS
 10
178.6067186021
 20
1041.822011318
 11
179.4067186021
 21
1041.822011318
  0
LINE
  5
2FE
100
AcDbEntity
  8
0
100
AcDbLine
 62
7
  6
CONTINUOUS
 10
177.1067186021
 20
1042.472011318
 11
178.6067186021
 21
1042.472011318
  0
LINE
  5
2FF
100
AcDbEntity
  8
0
100
AcDbLine
 62
7
  6
CONTINUOUS
 10
171.4067186021
 20
1042.972011318
 11
172.2067186021
 21
1042.972011318
  0
LINE
  5
300
100
AcDbEntity
  8
0
100
AcDbLine
 62
7
  6
CONTINUOUS
 10
1111.4067186021
 20
1043.302011318
 11
1107.6067186021
 21
1043.302011318
  0
LINE
  5
301
100
AcDbEntity
  8
0
100
AcDbLine
 62
7
  6
CONTINUOUS
 10
1106.1067186021
 20
1043.302011318
 11
1102.8429514789
 21
1043.302011318
  0
LINE
  5
302
100
AcDbEntity
  8
0
100
AcDbLine
 62
7
  6
CONTINUOUS
 10
173.4067186021
 20
1043.302011318
 11
173.6067186021
 21
1043.302011318
  0
LINE
  5
303
100
AcDbEntity
  8
0
100
AcDbLine
 62
7
  6
CONTINUOUS
 10
175.1067186021
 20
1043.302011318
 11
175.8951432597
 21
1043.302011318
  0
LINE
  5
304
100
AcDbEntity
  8
0
100
AcDbLine
 62
7
  6
CONTINUOUS
 10
170.6067186021
 20
1043.372011318
 11
171.4067186021
 21
1043.372011318
  0
LINE
  5
305
100
AcDbEntity
  8
0
100
AcDbLine
 62
7
  6
CONTINUOUS
 10
180.2067186021
 20
1044.472011318
 11
179.4067186021
 21
1044.472011318
  0
LINE
  5
306
100
AcDbEntity
  8
0
100
AcDbLine
 62
7
  6
CONTINUOUS
 10
1100.3067186021
 20
1044.472011318
 11
1101.8067186021
 21
1044.472011318
  0
LINE
  5
307
100
AcDbEntity
  8
0
100
AcDbLine
 62
7
  6
CONTINUOUS
 10
207.1067186021
 20
1045.972011318
 11
1080.2067186021
 21
1045.972011318
  0
LINE
  5
308
100
AcDbEntity
  8
0
100
AcDbLine
 62
7
  6
CONTINUOUS
 10
1091.8067186021
 20
1047.472011318
 11
1095.8067186021
 21
1047.472011318
  0
LINE
  5
309
100
AcDbEntity
  8
0
100
AcDbLine
 62
7
  6
CONTINUOUS
 10
1090.3067186021
 20
1047.972011318
 11
1091.8067186021
 21
1047.972011318
  0
LINE
  5
30A
100
AcDbEntity
  8
0
100
AcDbLine
 62
7
  6
CONTINUOUS
 10
175.1067186021
 20
1048.572011318
 11
1106.1067186021
 21
1048.572011318
  0
LINE
  5
30B
100
AcDbEntity
  8
0
100
AcDbLine
 62
7
  6
CONTINUOUS
 10
170.6067186021
 20
1049.572011318
 11
171.4067186021
 21
1049.572011318
  0
LINE
  5
30C
100
AcDbEntity
  8
0
100
AcDbLine
 62
7
  6
CONTINUOUS
 10
1111.4067186021
 20
1049.642011318
 11
1107.6067186021
 21
1049.642011318
  0
LINE
  5
30D
100
AcDbEntity
  8
0
100
AcDbLine
 62
7
  6
CONTINUOUS
 10
173.4067186021
 20
1049.642011318
 11
173.6067186021
 21
1049.642011318
  0
LINE
  5
30E
100
AcDbEntity
  8
0
100
AcDbLine
 62
7
  6
CONTINUOUS
 10
171.4067186021
 20
1049.972011318
 11
172.2067186021
 21
1049.972011318
  0
LINE
  5
30F
100
AcDbEntity
  8
0
100
AcDbLine
 62
7
  6
CONTINUOUS
 10
175.1067186021
 20
1056.772011318
 11
1106.1067186021
 21
1056.772011318
  0
LINE
  5
310
100
AcDbEntity
  8
0
100
AcDbLine
 62
7
  6
CONTINUOUS
 10
1105.8067186021
 20
1058.572011318
 11
175.4067186021
 21
1058.572011318
  0
LINE
  5
311
100
AcDbEntity
  8
0
100
AcDbLine
 62
7
  6
CONTINUOUS
 10
1067.2066399609
 20
1060.072011318
 11
1055.2067972434
 21
1060.072011318
  0
LINE
  5
312
100
AcDbEntity
  8
0
100
AcDbLine
 62
7
  6
CONTINUOUS
 10
786.2066399609
 20
1060.072011318
 11
774.2067972434
 21
1060.072011318
  0
LINE
  5
313
100
AcDbEntity
  8
0
100
AcDbLine
 62
7
  6
CONTINUOUS
 10
505.2066399609
 20
1060.072011318
 11
493.2067972434
 21
1060.072011318
  0
LINE
  5
314
100
AcDbEntity
  8
0
100
AcDbLine
 62
7
  6
CONTINUOUS
 10
224.2066399609
 20
1060.072011318
 11
212.2067972434
 21
1060.072011318
  0
LINE
  5
315
100
AcDbEntity
  8
0
100
AcDbLine
 62
7
  6
CONTINUOUS
 10
212.2067972434
 20
1061.272011318
 11
224.2066399609
 21
1061.272011318
  0
LINE
  5
316
100
AcDbEntity
  8
0
100
AcDbLine
 62
7
  6
CONTINUOUS
 10
493.2067972434
 20
1061.272011318
 11
505.2066399609
 21
1061.272011318
  0
LINE
  5
317
100
AcDbEntity
  8
0
100
AcDbLine
 62
7
  6
CONTINUOUS
 10
774.2067972434
 20
1061.272011318
 11
786.2066399609
 21
1061.272011318
  0
LINE
  5
318
100
AcDbEntity
  8
0
100
AcDbLine
 62
7
  6
CONTINUOUS
 10
1055.2067972434
 20
1061.272011318
 11
1067.2066399609
 21
1061.272011318
  0
LINE
  5
319
100
AcDbEntity
  8
0
100
AcDbLine
 62
7
  6
CONTINUOUS
 10
1067.2066399609
 20
1063.272011318
 11
1055.2067972434
 21
1063.272011318
  0
LINE
  5
31A
100
AcDbEntity
  8
0
100
AcDbLine
 62
7
  6
CONTINUOUS
 10
786.2066399609
 20
1063.272011318
 11
774.2067972434
 21
1063.272011318
  0
LINE
  5
31B
100
AcDbEntity
  8
0
100
AcDbLine
 62
7
  6
CONTINUOUS
 10
505.2066399609
 20
1063.272011318
 11
493.2067972434
 21
1063.272011318
  0
LINE
  5
31C
100
AcDbEntity
  8
0
100
AcDbLine
 62
7
  6
CONTINUOUS
 10
224.2066399609
 20
1063.272011318
 11
212.2067972434
 21
1063.272011318
  0
LINE
  5
31D
100
AcDbEntity
  8
0
100
AcDbLine
 62
7
  6
CONTINUOUS
 10
212.2067186021
 20
1065.3553261129
 11
224.2067186021
 21
1065.3553261129
  0
LINE
  5
31E
100
AcDbEntity
  8
0
100
AcDbLine
 62
7
  6
CONTINUOUS
 10
493.2067186021
 20
1065.3553261129
 11
505.2067186021
 21
1065.3553261129
  0
LINE
  5
31F
100
AcDbEntity
  8
0
100
AcDbLine
 62
7
  6
CONTINUOUS
 10
774.2067186021
 20
1065.3553261129
 11
786.2067186021
 21
1065.3553261129
  0
LINE
  5
320
100
AcDbEntity
  8
0
100
AcDbLine
 62
7
  6
CONTINUOUS
 10
1055.2067186021
 20
1065.3553261129
 11
1067.2067186021
 21
1065.3553261129
  0
LINE
  5
321
100
AcDbEntity
  8
0
100
AcDbLine
 62
7
  6
CONTINUOUS
 10
218.2067186021
 20
1066.1868055629
 11
223.7623639169
 21
1066.1867455373
  0
LINE
  5
322
100
AcDbEntity
  8
0
100
AcDbLine
 62
7
  6
CONTINUOUS
 10
499.2067186021
 20
1066.1868055629
 11
504.7623639169
 21
1066.1867455373
  0
LINE
  5
323
100
AcDbEntity
  8
0
100
AcDbLine
 62
7
  6
CONTINUOUS
 10
1061.2067186021
 20
1066.1868055629
 11
1055.6511631245
 21
1066.1868055629
  0
LINE
  5
324
100
AcDbEntity
  8
0
100
AcDbLine
 62
7
  6
CONTINUOUS
 10
780.2067186021
 20
1066.1868055629
 11
774.6511631245
 21
1066.1868055629
  0
LINE
  5
325
100
AcDbEntity
  8
0
100
AcDbLine
 62
7
  6
CONTINUOUS
 10
499.2067186021
 20
1066.1868055629
 11
493.6511631245
 21
1066.1868055629
  0
LINE
  5
326
100
AcDbEntity
  8
0
100
AcDbLine
 62
7
  6
CONTINUOUS
 10
218.2067186021
 20
1066.1868055629
 11
212.6511631245
 21
1066.1868055629
  0
LINE
  5
327
100
AcDbEntity
  8
0
100
AcDbLine
 62
7
  6
CONTINUOUS
 10
780.2067186021
 20
1066.1868055629
 11
785.7623639169
 21
1066.1867455373
  0
LINE
  5
328
100
AcDbEntity
  8
0
100
AcDbLine
 62
7
  6
CONTINUOUS
 10
1061.2067186021
 20
1066.1868055629
 11
1066.7623639169
 21
1066.1867455373
  0
LINE
  5
329
100
AcDbEntity
  8
0
100
AcDbLine
 62
7
  6
CONTINUOUS
 10
217.6067186021
 20
1066.462011318
 11
218.8067186021
 21
1066.462011318
  0
LINE
  5
32A
100
AcDbEntity
  8
0
100
AcDbLine
 62
7
  6
CONTINUOUS
 10
498.6067186021
 20
1066.462011318
 11
499.8067186021
 21
1066.462011318
  0
LINE
  5
32B
100
AcDbEntity
  8
0
100
AcDbLine
 62
7
  6
CONTINUOUS
 10
779.6067186021
 20
1066.462011318
 11
780.8067186021
 21
1066.462011318
  0
LINE
  5
32C
100
AcDbEntity
  8
0
100
AcDbLine
 62
7
  6
CONTINUOUS
 10
1060.6067186021
 20
1066.462011318
 11
1061.8067186021
 21
1066.462011318
  0
LINE
  5
32D
100
AcDbEntity
  8
0
100
AcDbLine
 62
7
  6
CONTINUOUS
 10
852.797179671
 20
831.872011318
 11
852.2860046615
 21
833.276453114
  0
LINE
  5
32E
100
AcDbEntity
  8
0
100
AcDbLine
 62
7
  6
CONTINUOUS
 10
860.6162575333
 20
831.872011318
 11
861.1274325428
 21
833.276453114
  0
LINE
  5
32F
100
AcDbEntity
  8
0
100
AcDbLine
 62
7
  6
CONTINUOUS
 10
172.2067186021
 20
1049.342011318
 11
173.4067186021
 21
1049.642011318
  0
LINE
  5
330
100
AcDbEntity
  8
0
100
AcDbLine
 62
7
  6
CONTINUOUS
 10
1146.7067186021
 20
784.872011318
 11
1142.6086423908
 21
788.9700875294
  0
LINE
  5
331
100
AcDbEntity
  8
0
100
AcDbLine
 62
7
  6
CONTINUOUS
 10
942.797179671
 20
831.872011318
 11
942.2860046615
 21
833.276453114
  0
LINE
  5
332
100
AcDbEntity
  8
0
100
AcDbLine
 62
7
  6
CONTINUOUS
 10
950.6162575333
 20
831.872011318
 11
951.1274325428
 21
833.276453114
  0
LINE
  5
333
100
AcDbEntity
  8
0
100
AcDbLine
 62
7
  6
CONTINUOUS
 10
1112.4067186021
 20
1049.242011318
 11
1111.4067186021
 21
1049.642011318
  0
LINE
  5
334
100
AcDbEntity
  8
0
100
AcDbLine
 62
7
  6
CONTINUOUS
 10
1088.8067186021
 20
839.472011318
 11
1091.8067186021
 21
842.472011318
  0
LINE
  5
335
100
AcDbEntity
  8
0
100
AcDbLine
 62
7
  6
CONTINUOUS
 10
1042.797179671
 20
831.872011318
 11
1042.2860046615
 21
833.276453114
  0
LINE
  5
336
100
AcDbEntity
  8
0
100
AcDbLine
 62
7
  6
CONTINUOUS
 10
1019.7067186021
 20
831.872011318
 11
1019.7067186021
 21
833.472011318
  0
LINE
  5
337
100
AcDbEntity
  8
0
100
AcDbLine
 62
7
  6
CONTINUOUS
 10
1023.7067186021
 20
833.472011318
 11
1023.7067186021
 21
831.872011318
  0
LINE
  5
338
100
AcDbEntity
  8
0
100
AcDbLine
 62
7
  6
CONTINUOUS
 10
1106.4467772338
 20
1058.4543682801
 11
1106.1067186021
 21
1057.5605439049
  0
LINE
  5
339
100
AcDbEntity
  8
0
100
AcDbLine
 62
7
  6
CONTINUOUS
 10
1054.497179671
 20
831.872011318
 11
1053.9860046615
 21
833.276453114
  0
LINE
  5
33A
100
AcDbEntity
  8
0
100
AcDbLine
 62
7
  6
CONTINUOUS
 10
1055.2067186021
 20
1060.072011318
 11
1055.2067186021
 21
1061.272011318
  0
LINE
  5
33B
100
AcDbEntity
  8
0
100
AcDbLine
 62
7
  6
CONTINUOUS
 10
1055.2067186021
 20
1063.272011318
 11
1055.2067186021
 21
1065.3553260916
  0
LINE
  5
33C
100
AcDbEntity
  8
0
100
AcDbLine
 62
7
  6
CONTINUOUS
 10
1055.7067186021
 20
1058.572011318
 11
1055.7067186021
 21
1060.072011318
  0
LINE
  5
33D
100
AcDbEntity
  8
0
100
AcDbLine
 62
7
  6
CONTINUOUS
 10
1056.0067186021
 20
1063.272011318
 11
1056.0067186021
 21
1061.272011318
  0
LINE
  5
33E
100
AcDbEntity
  8
0
100
AcDbLine
 62
7
  6
CONTINUOUS
 10
1057.8067186021
 20
1067.2762653218
 11
1057.8067186021
 21
1067.2632292902
  0
LINE
  5
33F
100
AcDbEntity
  8
0
100
AcDbLine
 62
7
  6
CONTINUOUS
 10
1060.6067186021
 20
1066.462011318
 11
1060.6067186021
 21
1067.8417141722
  0
LINE
  5
340
100
AcDbEntity
  8
0
100
AcDbLine
 62
7
  6
CONTINUOUS
 10
1061.8067186021
 20
1066.462011318
 11
1061.8067186021
 21
1067.8417141722
  0
LINE
  5
341
100
AcDbEntity
  8
0
100
AcDbLine
 62
7
  6
CONTINUOUS
 10
1064.6067186021
 20
1067.2632292902
 11
1064.6067186021
 21
1067.2762653218
  0
LINE
  5
342
100
AcDbEntity
  8
0
100
AcDbLine
 62
7
  6
CONTINUOUS
 10
1066.4067186021
 20
1061.272011318
 11
1066.4067186021
 21
1063.272011318
  0
LINE
  5
343
100
AcDbEntity
  8
0
100
AcDbLine
 62
7
  6
CONTINUOUS
 10
1066.7067186021
 20
1058.572011318
 11
1066.7067186021
 21
1060.072011318
  0
LINE
  5
344
100
AcDbEntity
  8
0
100
AcDbLine
 62
7
  6
CONTINUOUS
 10
1067.2067186021
 20
1060.072011318
 11
1067.2067186021
 21
1061.272011318
  0
LINE
  5
345
100
AcDbEntity
  8
0
100
AcDbLine
 62
7
  6
CONTINUOUS
 10
1067.2067186021
 20
1063.272011318
 11
1067.2067186021
 21
1065.3553260916
  0
LINE
  5
346
100
AcDbEntity
  8
0
100
AcDbLine
 62
7
  6
CONTINUOUS
 10
1050.6162575333
 20
831.872011318
 11
1051.1274325428
 21
833.276453114
  0
LINE
  5
347
100
AcDbEntity
  8
0
100
AcDbLine
 62
7
  6
CONTINUOUS
 10
1062.3162575333
 20
831.872011318
 11
1062.8274325428
 21
833.276453114
  0
LINE
  5
348
100
AcDbEntity
  8
0
100
AcDbLine
 62
7
  6
CONTINUOUS
 10
1091.8067186021
 20
1046.472011318
 11
1089.7067186022
 21
1048.572011318
  0
LINE
  5
349
100
AcDbEntity
  8
0
100
AcDbLine
 62
7
  6
CONTINUOUS
 10
1078.4067186021
 20
1048.572011318
 11
1078.4067186021
 21
833.472011318
  0
LINE
  5
34A
100
AcDbEntity
  8
0
100
AcDbLine
 62
7
  6
CONTINUOUS
 10
1079.5067186021
 20
832.472011318
 11
1079.5067186021
 21
833.8472306331
  0
LINE
  5
34B
100
AcDbEntity
  8
0
100
AcDbLine
 62
7
  6
CONTINUOUS
 10
1080.2067186021
 20
835.272011318
 11
1080.2067186021
 21
1048.572011318
  0
LINE
  5
34C
100
AcDbEntity
  8
0
100
AcDbLine
 62
7
  6
CONTINUOUS
 10
1081.8067186021
 20
835.272011318
 11
1081.8067186021
 21
1048.572011318
  0
LINE
  5
34D
100
AcDbEntity
  8
0
100
AcDbLine
 62
7
  6
CONTINUOUS
 10
1082.5067186021
 20
832.8276799837
 11
1082.5067186021
 21
832.472011318
  0
LINE
  5
34E
100
AcDbEntity
  8
0
100
AcDbLine
 62
7
  6
CONTINUOUS
 10
1083.3067186021
 20
839.472011318
 11
1083.3067186021
 21
834.172011318
  0
LINE
  5
34F
100
AcDbEntity
  8
0
100
AcDbLine
 62
7
  6
CONTINUOUS
 10
1083.6067186021
 20
839.472011318
 11
1083.6067186021
 21
1048.572011318
  0
LINE
  5
350
100
AcDbEntity
  8
0
100
AcDbLine
 62
7
  6
CONTINUOUS
 10
1086.3067186021
 20
839.472011318
 11
1086.3067186021
 21
835.972011318
  0
LINE
  5
351
100
AcDbEntity
  8
0
100
AcDbLine
 62
7
  6
CONTINUOUS
 10
1089.3067186021
 20
839.972011318
 11
1089.3067186021
 21
836.972011318
  0
LINE
  5
352
100
AcDbEntity
  8
0
100
AcDbLine
 62
7
  6
CONTINUOUS
 10
1090.3067186021
 20
1048.572011318
 11
1090.3067186021
 21
1047.972011318
  0
LINE
  5
353
100
AcDbEntity
  8
0
100
AcDbLine
 62
7
  6
CONTINUOUS
 10
1090.3067186021
 20
840.972011318
 11
1090.3067186021
 21
839.9720965247
  0
LINE
  5
354
100
AcDbEntity
  8
0
100
AcDbLine
 62
7
  6
CONTINUOUS
 10
1091.8067186021
 20
840.9776960741
 11
1091.8067186021
 21
1047.9720055081
  0
LINE
  5
355
100
AcDbEntity
  8
0
100
AcDbLine
 62
7
  6
CONTINUOUS
 10
1094.5067186021
 20
994.072011318
 11
1094.5067186021
 21
1005.072011318
  0
LINE
  5
356
100
AcDbEntity
  8
0
100
AcDbLine
 62
7
  6
CONTINUOUS
 10
1095.8067186021
 20
1047.4719276281
 11
1095.8067186021
 21
1037.472095008
  0
LINE
  5
357
100
AcDbEntity
  8
0
100
AcDbLine
 62
7
  6
CONTINUOUS
 10
1095.8067186021
 20
1033.4719276281
 11
1095.8067186021
 21
1023.472095008
  0
LINE
  5
358
100
AcDbEntity
  8
0
100
AcDbLine
 62
7
  6
CONTINUOUS
 10
1095.8067186021
 20
1015.0719276281
 11
1095.8067186021
 21
1005.072095008
  0
LINE
  5
359
100
AcDbEntity
  8
0
100
AcDbLine
 62
7
  6
CONTINUOUS
 10
1095.8067186021
 20
994.0719276281
 11
1095.8067186021
 21
984.072095008
  0
LINE
  5
35A
100
AcDbEntity
  8
0
100
AcDbLine
 62
7
  6
CONTINUOUS
 10
1095.8067186021
 20
973.0719276281
 11
1095.8067186021
 21
963.072095008
  0
LINE
  5
35B
100
AcDbEntity
  8
0
100
AcDbLine
 62
7
  6
CONTINUOUS
 10
1095.8067186021
 20
952.0719276281
 11
1095.8067186021
 21
939.472095008
  0
LINE
  5
35C
100
AcDbEntity
  8
0
100
AcDbLine
 62
7
  6
CONTINUOUS
 10
1095.8067186021
 20
865.4719276281
 11
1095.8067186021
 21
855.472095008
  0
LINE
  5
35D
100
AcDbEntity
  8
0
100
AcDbLine
 62
7
  6
CONTINUOUS
 10
1095.8067186021
 20
851.4719276281
 11
1095.8067186021
 21
841.472095008
  0
LINE
  5
35E
100
AcDbEntity
  8
0
100
AcDbLine
 62
7
  6
CONTINUOUS
 10
1099.5067186021
 20
1041.8220704638
 11
1099.5067186021
 21
1048.572011318
  0
LINE
  5
35F
100
AcDbEntity
  8
0
100
AcDbLine
 62
7
  6
CONTINUOUS
 10
1100.3067186021
 20
1041.472011318
 11
1100.3067186021
 21
1048.572011318
  0
LINE
  5
360
100
AcDbEntity
  8
0
100
AcDbLine
 62
7
  6
CONTINUOUS
 10
1101.8067186021
 20
1048.572011318
 11
1101.8067186021
 21
1041.472011318
  0
LINE
  5
361
100
AcDbEntity
  8
0
100
AcDbLine
 62
7
  6
CONTINUOUS
 10
1102.8429514789
 20
1048.572011318
 11
1102.8429514789
 21
1043.1082441947
  0
LINE
  5
362
100
AcDbEntity
  8
0
100
AcDbLine
 62
7
  6
CONTINUOUS
 10
1106.1067186021
 20
1023.572011318
 11
1106.1067186021
 21
1058.4543682801
  0
LINE
  5
363
100
AcDbEntity
  8
0
100
AcDbLine
 62
7
  6
CONTINUOUS
 10
1107.6067186021
 20
1023.572011318
 11
1107.6067186021
 21
1056.772011318
  0
LINE
  5
364
100
AcDbEntity
  8
0
100
AcDbLine
 62
7
  6
CONTINUOUS
 10
1111.4067186021
 20
1049.642011318
 11
1111.4067186021
 21
1043.302011318
  0
LINE
  5
365
100
AcDbEntity
  8
0
100
AcDbLine
 62
7
  6
CONTINUOUS
 10
1112.4067186021
 20
1049.2419664383
 11
1112.4067186021
 21
1043.7020561978
  0
LINE
  5
366
100
AcDbEntity
  8
0
100
AcDbLine
 62
7
  6
CONTINUOUS
 10
1115.3067186021
 20
833.872011318
 11
1115.3067186021
 21
832.372011318
  0
LINE
  5
367
100
AcDbEntity
  8
0
100
AcDbLine
 62
7
  6
CONTINUOUS
 10
1118.0067186021
 20
795.5621531408
 11
1118.0067186021
 21
831.872011318
  0
LINE
  5
368
100
AcDbEntity
  8
0
100
AcDbLine
 62
7
  6
CONTINUOUS
 10
1118.3067186021
 20
833.872011318
 11
1118.3067186021
 21
832.372011318
  0
LINE
  5
369
100
AcDbEntity
  8
0
100
AcDbLine
 62
7
  6
CONTINUOUS
 10
1138.2779575002
 20
805.1938080877
 11
1138.2779575002
 21
820.172011318
  0
LINE
  5
36A
100
AcDbEntity
  8
0
100
AcDbLine
 62
7
  6
CONTINUOUS
 10
1144.0067186021
 20
805.1938080877
 11
1144.0067186021
 21
787.572011318
  0
LINE
  5
36B
100
AcDbEntity
  8
0
100
AcDbLine
 62
7
  6
CONTINUOUS
 10
1144.1067186021
 20
817.6819652333
 11
1144.1067186021
 21
810.5620574028
  0
LINE
  5
36C
100
AcDbEntity
  8
0
100
AcDbLine
 62
7
  6
CONTINUOUS
 10
1144.3067186021
 20
805.1938080877
 11
1144.3067186021
 21
821.622011318
  0
LINE
  5
36D
100
AcDbEntity
  8
0
100
AcDbLine
 62
7
  6
CONTINUOUS
 10
1145.3067186022
 20
786.272011318
 11
1145.3067186022
 21
821.622011318
  0
LINE
  5
36E
100
AcDbEntity
  8
0
100
AcDbLine
 62
7
  6
CONTINUOUS
 10
1146.7067186021
 20
716.472011318
 11
1146.7067186021
 21
784.872011318
  0
CIRCLE
  5
36F
100
AcDbEntity
  8
0
100
AcDbCircle
 62
7
  6
CONTINUOUS
 10
163.7067186021
 20
748.472011318
 40
8.0
  0
CIRCLE
  5
370
100
AcDbEntity
  8
0
100
AcDbCircle
 62
7
  6
CONTINUOUS
 10
152.7067186021
 20
726.872011318
 40
3.0
  0
CIRCLE
  5
371
100
AcDbEntity
  8
0
100
AcDbCircle
 62
7
  6
CONTINUOUS
 10
152.7067186021
 20
726.872011318
 40
2.0
  0
CIRCLE
  5
372
100
AcDbEntity
  8
0
100
AcDbCircle
 62
7
  6
CONTINUOUS
 10
173.7067186021
 20
726.872011318
 40
3.0
  0
CIRCLE
  5
373
100
AcDbEntity
  8
0
100
AcDbCircle
 62
7
  6
CONTINUOUS
 10
173.7067186021
 20
726.872011318
 40
2.0
  0
CIRCLE
  5
374
100
AcDbEntity
  8
0
100
AcDbCircle
 62
7
  6
CONTINUOUS
 10
184.7067186021
 20
734.872011318
 40
3.0
  0
CIRCLE
  5
375
100
AcDbEntity
  8
0
100
AcDbCircle
 62
7
  6
CONTINUOUS
 10
184.7067186021
 20
734.872011318
 40
2.0
  0
CIRCLE
  5
376
100
AcDbEntity
  8
0
100
AcDbCircle
 62
7
  6
CONTINUOUS
 10
184.7067186021
 20
794.872011318
 40
3.0
  0
CIRCLE
  5
377
100
AcDbEntity
  8
0
100
AcDbCircle
 62
7
  6
CONTINUOUS
 10
184.7067186021
 20
794.872011318
 40
2.0
  0
CIRCLE
  5
378
100
AcDbEntity
  8
0
100
AcDbCircle
 62
7
  6
CONTINUOUS
 10
211.7067186021
 20
821.872011318
 40
3.0
  0
ARC
  5
379
100
AcDbEntity
  8
0
100
AcDbCircle
 62
7
  6
CONTINUOUS
 10
196.7038809981
 20
843.8835627664
 40
2.5716248011
100
AcDbArc
 50
185.9405889682
 51
190.566554629
  0
ARC
  5
37A
100
AcDbEntity
  8
0
100
AcDbCircle
 62
7
  6
CONTINUOUS
 10
196.7007161367
 20
843.8820197753
 40
2.5682308284
100
AcDbArc
 50
190.5456627037
 51
191.0540502432
  0
ARC
  5
37B
100
AcDbEntity
  8
0
100
AcDbCircle
 62
7
  6
CONTINUOUS
 10
196.5187915668
 20
843.8635464286
 40
2.3854578311
100
AcDbArc
 50
184.8014835322
 51
185.9225121295
  0
ARC
  5
37C
100
AcDbEntity
  8
0
100
AcDbCircle
 62
7
  6
CONTINUOUS
 10
196.3663723904
 20
843.8510253816
 40
2.2325255008
100
AcDbArc
 50
183.2812909603
 51
184.8086934493
  0
ARC
  5
37D
100
AcDbEntity
  8
0
100
AcDbCircle
 62
7
  6
CONTINUOUS
 10
196.2133504459
 20
843.8419249263
 40
2.0792335602
100
AcDbArc
 50
182.6039296831
 51
183.2722839184
  0
CIRCLE
  5
37E
100
AcDbEntity
  8
0
100
AcDbCircle
 62
7
  6
CONTINUOUS
 10
211.7067186021
 20
821.872011318
 40
2.0
  0
ARC
  5
37F
100
AcDbEntity
  8
0
100
AcDbCircle
 62
7
  6
CONTINUOUS
 10
196.8067186021
 20
835.272011318
 40
1.8
100
AcDbArc
 50
270.0
 51
360.0
  0
ARC
  5
380
100
AcDbEntity
  8
0
100
AcDbCircle
 62
7
  6
CONTINUOUS
 10
202.0067186021
 20
835.272011318
 40
1.8
100
AcDbArc
 50
180.0
 51
270.0
  0
ARC
  5
381
100
AcDbEntity
  8
0
100
AcDbCircle
 62
7
  6
CONTINUOUS
 10
192.9513692284
 20
842.6341107965
 40
1.3766482119
100
AcDbArc
 50
8.2424728091
 51
8.9517388993
  0
ARC
  5
382
100
AcDbEntity
  8
0
100
AcDbCircle
 62
7
  6
CONTINUOUS
 10
195.2694694713
 20
843.8495254902
 40
1.1347388758
100
AcDbArc
 50
175.4139515243
 51
176.2152096029
  0
ARC
  5
383
100
AcDbEntity
  8
0
100
AcDbCircle
 62
7
  6
CONTINUOUS
 10
195.9110037899
 20
841.5242871585
 40
1.0124249772
100
AcDbArc
 50
212.6757636115
 51
214.2504407048
  0
ARC
  5
384
100
AcDbEntity
  8
0
100
AcDbCircle
 62
7
  6
CONTINUOUS
 10
195.9100264742
 20
841.5236417948
 40
1.0112539244
100
AcDbArc
 50
214.2513810098
 51
215.8278852062
  0
ARC
  5
385
100
AcDbEntity
  8
0
100
AcDbCircle
 62
7
  6
CONTINUOUS
 10
195.9091691521
 20
841.5230053424
 40
1.0101862769
100
AcDbArc
 50
215.8270805597
 51
217.4052475571
  0
ARC
  5
386
100
AcDbEntity
  8
0
100
AcDbCircle
 62
7
  6
CONTINUOUS
 10
195.8969463735
 20
841.472011318
 40
1.0
100
AcDbArc
 50
217.7931978244
 51
270.0
  0
ARC
  5
387
100
AcDbEntity
  8
0
100
AcDbCircle
 62
7
  6
CONTINUOUS
 10
196.8067186021
 20
835.272011318
 40
0.3
100
AcDbArc
 50
270.0
 51
360.0
  0
ARC
  5
388
100
AcDbEntity
  8
0
100
AcDbCircle
 62
7
  6
CONTINUOUS
 10
196.7096518471
 20
845.0603223565
 40
2.5773211368
100
AcDbArc
 50
168.9473543674
 51
169.4540097426
  0
ARC
  5
389
100
AcDbEntity
  8
0
100
AcDbCircle
 62
7
  6
CONTINUOUS
 10
196.6816786962
 20
845.0630696803
 40
2.5492705147
100
AcDbArc
 50
171.190110861
 51
174.0661165466
  0
ARC
  5
38A
100
AcDbEntity
  8
0
100
AcDbCircle
 62
7
  6
CONTINUOUS
 10
196.522706519
 20
845.0800606549
 40
2.3893936391
100
AcDbArc
 50
174.0772733416
 51
175.1964308834
  0
ARC
  5
38B
100
AcDbEntity
  8
0
100
AcDbCircle
 62
7
  6
CONTINUOUS
 10
196.3635716797
 20
845.0931801296
 40
2.2297191284
100
AcDbArc
 50
175.1899414102
 51
176.719300071
  0
ARC
  5
38C
100
AcDbEntity
  8
0
100
AcDbCircle
 62
7
  6
CONTINUOUS
 10
196.2160225947
 20
845.1019634992
 40
2.0819092273
100
AcDbArc
 50
176.7282464025
 51
177.3957195621
  0
ARC
  5
38D
100
AcDbEntity
  8
0
100
AcDbCircle
 62
7
  6
CONTINUOUS
 10
192.9800620229
 20
846.3056382724
 40
1.3476401124
100
AcDbArc
 50
351.2858813888
 51
351.6873840576
  0
ARC
  5
38E
100
AcDbEntity
  8
0
100
AcDbCircle
 62
7
  6
CONTINUOUS
 10
195.2693588089
 20
845.0945414875
 40
1.1346327143
100
AcDbArc
 50
183.787443824
 51
184.5889577615
  0
ARC
  5
38F
100
AcDbEntity
  8
0
100
AcDbCircle
 62
7
  6
CONTINUOUS
 10
193.2182181804
 20
846.2717482749
 40
1.1070867767
100
AcDbArc
 50
351.640947623
 51
353.3905579222
  0
ARC
  5
390
100
AcDbEntity
  8
0
100
AcDbCircle
 62
7
  6
CONTINUOUS
 10
195.9110037893
 20
847.419735478
 40
1.0124249764
100
AcDbArc
 50
145.7495592945
 51
147.3242363889
  0
ARC
  5
391
100
AcDbEntity
  8
0
100
AcDbCircle
 62
7
  6
CONTINUOUS
 10
195.9100264735
 20
847.4203808417
 40
1.0112539236
100
AcDbArc
 50
144.1721147933
 51
145.7486189911
  0
ARC
  5
392
100
AcDbEntity
  8
0
100
AcDbCircle
 62
7
  6
CONTINUOUS
 10
195.909169153
 20
847.421017293
 40
1.0101862779
100
AcDbArc
 50
142.5947524436
 51
144.1729194394
  0
ARC
  5
393
100
AcDbEntity
  8
0
100
AcDbCircle
 62
7
  6
CONTINUOUS
 10
195.8969463735
 20
847.472011318
 40
1.0
100
AcDbArc
 50
90.0
 51
142.2068021756
  0
ARC
  5
394
100
AcDbEntity
  8
0
100
AcDbCircle
 62
7
  6
CONTINUOUS
 10
194.5202388821
 20
843.9700487405
 40
0.374478416
100
AcDbArc
 50
162.8122975546
 51
163.6821253434
  0
ARC
  5
395
100
AcDbEntity
  8
0
100
AcDbCircle
 62
7
  6
CONTINUOUS
 10
194.470112269
 20
843.9859022234
 40
0.3219057863
100
AcDbArc
 50
159.5837540413
 51
162.8715555146
  0
ARC
  5
396
100
AcDbEntity
  8
0
100
AcDbCircle
 62
7
  6
CONTINUOUS
 10
196.7096518406
 20
863.5603223578
 40
2.5773211301
100
AcDbArc
 50
168.947354367
 51
169.4540097435
  0
ARC
  5
397
100
AcDbEntity
  8
0
100
AcDbCircle
 62
7
  6
CONTINUOUS
 10
196.703880998
 20
862.3835627664
 40
2.571624801
100
AcDbArc
 50
185.9405889681
 51
190.566554629
  0
ARC
  5
398
100
AcDbEntity
  8
0
100
AcDbCircle
 62
7
  6
CONTINUOUS
 10
196.7007161264
 20
862.3820197733
 40
2.5682308179
100
AcDbArc
 50
190.5456627025
 51
191.0540502441
  0
ARC
  5
399
100
AcDbEntity
  8
0
100
AcDbCircle
 62
7
  6
CONTINUOUS
 10
196.6816786964
 20
863.5630696802
 40
2.549270515
100
AcDbArc
 50
171.1901108611
 51
174.0661165464
  0
ARC
  5
39A
100
AcDbEntity
  8
0
100
AcDbCircle
 62
7
  6
CONTINUOUS
 10
196.522706521
 20
863.5800606547
 40
2.3893936411
100
AcDbArc
 50
174.0772733418
 51
175.1964308826
  0
ARC
  5
39B
100
AcDbEntity
  8
0
100
AcDbCircle
 62
7
  6
CONTINUOUS
 10
196.5187915659
 20
862.3635464285
 40
2.3854578302
100
AcDbArc
 50
184.8014835317
 51
185.9225121294
  0
ARC
  5
39C
100
AcDbEntity
  8
0
100
AcDbCircle
 62
7
  6
CONTINUOUS
 10
196.3663723896
 20
862.3510253815
 40
2.2325255001
100
AcDbArc
 50
183.2812909599
 51
184.8086934494
  0
ARC
  5
39D
100
AcDbEntity
  8
0
100
AcDbCircle
 62
7
  6
CONTINUOUS
 10
196.3635716806
 20
863.5931801295
 40
2.2297191293
100
AcDbArc
 50
175.1899414104
 51
176.719300071
  0
ARC
  5
39E
100
AcDbEntity
  8
0
100
AcDbCircle
 62
7
  6
CONTINUOUS
 10
196.2160225892
 20
863.6019634995
 40
2.0819092218
100
AcDbArc
 50
176.7282464018
 51
177.3957195628
  0
ARC
  5
39F
100
AcDbEntity
  8
0
100
AcDbCircle
 62
7
  6
CONTINUOUS
 10
196.2133504527
 20
862.3419249267
 40
2.0792335671
100
AcDbArc
 50
182.6039296842
 51
183.2722839174
  0
ARC
  5
3A0
100
AcDbEntity
  8
0
100
AcDbCircle
 62
7
  6
CONTINUOUS
 10
192.9513692331
 20
861.1341107972
 40
1.3766482072
100
AcDbArc
 50
8.2424728065
 51
8.951738899
  0
ARC
  5
3A1
100
AcDbEntity
  8
0
100
AcDbCircle
 62
7
  6
CONTINUOUS
 10
192.9800620054
 20
864.805638275
 40
1.34764013
100
AcDbArc
 50
351.2858813921
 51
351.6873840557
  0
ARC
  5
3A2
100
AcDbEntity
  8
0
100
AcDbCircle
 62
7
  6
CONTINUOUS
 10
195.2694694716
 20
862.3495254902
 40
1.1347388761
100
AcDbArc
 50
175.4139515231
 51
176.2152096016
  0
ARC
  5
3A3
100
AcDbEntity
  8
0
100
AcDbCircle
 62
7
  6
CONTINUOUS
 10
195.2693588112
 20
863.5945414877
 40
1.1346327167
100
AcDbArc
 50
183.787443825
 51
184.5889577607
  0
ARC
  5
3A4
100
AcDbEntity
  8
0
100
AcDbCircle
 62
7
  6
CONTINUOUS
 10
193.2182181802
 20
864.7717482749
 40
1.107086777
100
AcDbArc
 50
351.6409476233
 51
353.390557922
  0
ARC
  5
3A5
100
AcDbEntity
  8
0
100
AcDbCircle
 62
7
  6
CONTINUOUS
 10
195.9110037896
 20
860.0242871582
 40
1.0124249768
100
AcDbArc
 50
212.6757636114
 51
214.2504407052
  0
ARC
  5
3A6
100
AcDbEntity
  8
0
100
AcDbCircle
 62
7
  6
CONTINUOUS
 10
195.9110037893
 20
865.919735478
 40
1.0124249764
100
AcDbArc
 50
145.7495592945
 51
147.3242363889
  0
ARC
  5
3A7
100
AcDbEntity
  8
0
100
AcDbCircle
 62
7
  6
CONTINUOUS
 10
195.9100264721
 20
860.0236417933
 40
1.0112539218
100
AcDbArc
 50
214.2513810075
 51
215.827885208
  0
ARC
  5
3A8
100
AcDbEntity
  8
0
100
AcDbCircle
 62
7
  6
CONTINUOUS
 10
195.9100264729
 20
865.9203808421
 40
1.0112539229
100
AcDbArc
 50
144.1721147928
 51
145.7486189916
  0
ARC
  5
3A9
100
AcDbEntity
  8
0
100
AcDbCircle
 62
7
  6
CONTINUOUS
 10
195.9091691536
 20
860.0230053435
 40
1.0101862787
100
AcDbArc
 50
215.8270805612
 51
217.4052475558
  0
ARC
  5
3AA
100
AcDbEntity
  8
0
100
AcDbCircle
 62
7
  6
CONTINUOUS
 10
195.9091691525
 20
865.9210172934
 40
1.0101862773
100
AcDbArc
 50
142.5947524432
 51
144.1729194401
  0
ARC
  5
3AB
100
AcDbEntity
  8
0
100
AcDbCircle
 62
7
  6
CONTINUOUS
 10
195.8969463735
 20
859.972011318
 40
1.0
100
AcDbArc
 50
217.7931978244
 51
270.0
  0
ARC
  5
3AC
100
AcDbEntity
  8
0
100
AcDbCircle
 62
7
  6
CONTINUOUS
 10
195.8969463735
 20
865.972011318
 40
1.0
100
AcDbArc
 50
90.0
 51
142.2068021756
  0
ARC
  5
3AD
100
AcDbEntity
  8
0
100
AcDbCircle
 62
7
  6
CONTINUOUS
 10
194.5202388802
 20
862.4700487411
 40
0.374478414
100
AcDbArc
 50
162.8122975511
 51
163.6821253446
  0
ARC
  5
3AE
100
AcDbEntity
  8
0
100
AcDbCircle
 62
7
  6
CONTINUOUS
 10
194.4701122693
 20
862.4859022234
 40
0.3219057866
100
AcDbArc
 50
159.5837540421
 51
162.8715555133
  0
ARC
  5
3AF
100
AcDbEntity
  8
0
100
AcDbCircle
 62
7
  6
CONTINUOUS
 10
200.5067186021
 20
844.472011318
 40
6.4722484501
100
AcDbArc
 50
194.6605576647
 51
212.6763014101
  0
ARC
  5
3B0
100
AcDbEntity
  8
0
100
AcDbCircle
 62
7
  6
CONTINUOUS
 10
200.5067186021
 20
844.472011318
 40
6.4722484501
100
AcDbArc
 50
147.3236985899
 51
165.3394423353
  0
ARC
  5
3B1
100
AcDbEntity
  8
0
100
AcDbCircle
 62
7
  6
CONTINUOUS
 10
196.7370285471
 20
845.0552061497
 40
2.6051717905
100
AcDbArc
 50
169.4535880695
 51
171.2056473824
  0
ARC
  5
3B2
100
AcDbEntity
  8
0
100
AcDbCircle
 62
7
  6
CONTINUOUS
 10
200.5067186021
 20
862.972011318
 40
6.4722484501
100
AcDbArc
 50
194.6605576647
 51
212.6763014101
  0
ARC
  5
3B3
100
AcDbEntity
  8
0
100
AcDbCircle
 62
7
  6
CONTINUOUS
 10
200.5067186021
 20
862.972011318
 40
6.4722484501
100
AcDbArc
 50
147.3236985899
 51
165.3394423353
  0
ARC
  5
3B4
100
AcDbEntity
  8
0
100
AcDbCircle
 62
7
  6
CONTINUOUS
 10
196.7370285462
 20
863.5552061498
 40
2.6051717896
100
AcDbArc
 50
169.4535880692
 51
171.2056473827
  0
ARC
  5
3B5
100
AcDbEntity
  8
0
100
AcDbCircle
 62
7
  6
CONTINUOUS
 10
290.2067186021
 20
830.972011318
 40
2.5
100
AcDbArc
 50
90.0
 51
137.5722828972
  0
ARC
  5
3B6
100
AcDbEntity
  8
0
100
AcDbCircle
 62
7
  6
CONTINUOUS
 10
315.2067186021
 20
830.972011318
 40
2.5
100
AcDbArc
 50
42.4277171028
 51
90.0
  0
ARC
  5
3B7
100
AcDbEntity
  8
0
100
AcDbCircle
 62
7
  6
CONTINUOUS
 10
300.2067186021
 20
830.972011318
 40
2.5
100
AcDbArc
 50
90.0
 51
137.5722828972
  0
CIRCLE
  5
3B8
100
AcDbEntity
  8
0
100
AcDbCircle
 62
7
  6
CONTINUOUS
 10
577.2067186021
 20
794.872011318
 40
3.0
  0
CIRCLE
  5
3B9
100
AcDbEntity
  8
0
100
AcDbCircle
 62
7
  6
CONTINUOUS
 10
577.2067186021
 20
734.872011318
 40
3.0
  0
CIRCLE
  5
3BA
100
AcDbEntity
  8
0
100
AcDbCircle
 62
7
  6
CONTINUOUS
 10
577.2067186021
 20
794.872011318
 40
2.0
  0
CIRCLE
  5
3BB
100
AcDbEntity
  8
0
100
AcDbCircle
 62
7
  6
CONTINUOUS
 10
577.2067186021
 20
734.872011318
 40
2.0
  0
CIRCLE
  5
3BC
100
AcDbEntity
  8
0
100
AcDbCircle
 62
7
  6
CONTINUOUS
 10
571.7067186021
 20
821.872011318
 40
3.0
  0
CIRCLE
  5
3BD
100
AcDbEntity
  8
0
100
AcDbCircle
 62
7
  6
CONTINUOUS
 10
391.7067186021
 20
821.872011318
 40
3.0
  0
ARC
  5
3BE
100
AcDbEntity
  8
0
100
AcDbCircle
 62
7
  6
CONTINUOUS
 10
565.2067186021
 20
830.972011318
 40
2.5
100
AcDbArc
 50
42.4277171028
 51
90.0
  0
ARC
  5
3BF
100
AcDbEntity
  8
0
100
AcDbCircle
 62
7
  6
CONTINUOUS
 10
430.2067186021
 20
830.972011318
 40
2.5
100
AcDbArc
 50
42.4277171028
 51
90.0
  0
ARC
  5
3C0
100
AcDbEntity
  8
0
100
AcDbCircle
 62
7
  6
CONTINUOUS
 10
550.2067186021
 20
830.972011318
 40
2.5
100
AcDbArc
 50
90.0
 51
137.5722828972
  0
ARC
  5
3C1
100
AcDbEntity
  8
0
100
AcDbCircle
 62
7
  6
CONTINUOUS
 10
415.2067186021
 20
830.972011318
 40
2.5
100
AcDbArc
 50
90.0
 51
137.5722828972
  0
CIRCLE
  5
3C2
100
AcDbEntity
  8
0
100
AcDbCircle
 62
7
  6
CONTINUOUS
 10
571.7067186021
 20
821.872011318
 40
2.0
  0
CIRCLE
  5
3C3
100
AcDbEntity
  8
0
100
AcDbCircle
 62
7
  6
CONTINUOUS
 10
391.7067186021
 20
821.872011318
 40
2.0
  0
ARC
  5
3C4
100
AcDbEntity
  8
0
100
AcDbCircle
 62
7
  6
CONTINUOUS
 10
176.5067186021
 20
1043.1835866605
 40
0.6115753425
100
AcDbArc
 50
180.0
 51
351.1582518337
  0
ARC
  5
3C5
100
AcDbEntity
  8
0
100
AcDbCircle
 62
7
  6
CONTINUOUS
 10
196.7038809981
 20
1031.8835627664
 40
2.5716248011
100
AcDbArc
 50
185.9405889683
 51
190.5665546289
  0
ARC
  5
3C6
100
AcDbEntity
  8
0
100
AcDbCircle
 62
7
  6
CONTINUOUS
 10
196.7007161298
 20
1031.882019774
 40
2.5682308215
100
AcDbArc
 50
190.5456627029
 51
191.0540502438
  0
ARC
  5
3C7
100
AcDbEntity
  8
0
100
AcDbCircle
 62
7
  6
CONTINUOUS
 10
196.5187915656
 20
1031.8635464285
 40
2.3854578298
100
AcDbArc
 50
184.8014835317
 51
185.9225121296
  0
ARC
  5
3C8
100
AcDbEntity
  8
0
100
AcDbCircle
 62
7
  6
CONTINUOUS
 10
196.3663723887
 20
1031.8510253815
 40
2.2325254991
100
AcDbArc
 50
183.2812909596
 51
184.8086934499
  0
ARC
  5
3C9
100
AcDbEntity
  8
0
100
AcDbCircle
 62
7
  6
CONTINUOUS
 10
196.2133504489
 20
1031.8419249265
 40
2.0792335632
100
AcDbArc
 50
182.6039296835
 51
183.2722839177
  0
ARC
  5
3CA
100
AcDbEntity
  8
0
100
AcDbCircle
 62
7
  6
CONTINUOUS
 10
192.9513692314
 20
1030.634110797
 40
1.3766482089
100
AcDbArc
 50
8.2424728075
 51
8.9517388993
  0
ARC
  5
3CB
100
AcDbEntity
  8
0
100
AcDbCircle
 62
7
  6
CONTINUOUS
 10
195.2694694723
 20
1031.8495254902
 40
1.1347388768
100
AcDbArc
 50
175.4139515248
 51
176.2152096029
  0
ARC
  5
3CC
100
AcDbEntity
  8
0
100
AcDbCircle
 62
7
  6
CONTINUOUS
 10
195.9110037884
 20
1029.5242871575
 40
1.0124249754
100
AcDbArc
 50
212.67576361
 51
214.2504407062
  0
ARC
  5
3CD
100
AcDbEntity
  8
0
100
AcDbCircle
 62
7
  6
CONTINUOUS
 10
195.9100264741
 20
1029.5236417947
 40
1.0112539243
100
AcDbArc
 50
214.25138101
 51
215.8278852067
  0
ARC
  5
3CE
100
AcDbEntity
  8
0
100
AcDbCircle
 62
7
  6
CONTINUOUS
 10
195.9091691523
 20
1029.5230053425
 40
1.0101862771
100
AcDbArc
 50
215.8270805599
 51
217.4052475568
  0
ARC
  5
3CF
100
AcDbEntity
  8
0
100
AcDbCircle
 62
7
  6
CONTINUOUS
 10
195.8969463735
 20
1029.472011318
 40
1.0
100
AcDbArc
 50
217.7931978244
 51
270.0
  0
ARC
  5
3D0
100
AcDbEntity
  8
0
100
AcDbCircle
 62
7
  6
CONTINUOUS
 10
194.5202388785
 20
1031.9700487416
 40
0.3744784122
100
AcDbArc
 50
162.8122975487
 51
163.6821253463
  0
ARC
  5
3D1
100
AcDbEntity
  8
0
100
AcDbCircle
 62
7
  6
CONTINUOUS
 10
194.4701122693
 20
1031.9859022233
 40
0.3219057867
100
AcDbArc
 50
159.583754043
 51
162.871555513
  0
ARC
  5
3D2
100
AcDbEntity
  8
0
100
AcDbCircle
 62
7
  6
CONTINUOUS
 10
196.7096518399
 20
1033.0603223579
 40
2.5773211295
100
AcDbArc
 50
168.9473543668
 51
169.4540097434
  0
ARC
  5
3D3
100
AcDbEntity
  8
0
100
AcDbCircle
 62
7
  6
CONTINUOUS
 10
196.6816786961
 20
1033.0630696803
 40
2.5492705146
100
AcDbArc
 50
171.1901108609
 51
174.0661165466
  0
ARC
  5
3D4
100
AcDbEntity
  8
0
100
AcDbCircle
 62
7
  6
CONTINUOUS
 10
196.5227065196
 20
1033.0800606549
 40
2.3893936396
100
AcDbArc
 50
174.0772733413
 51
175.1964308827
  0
ARC
  5
3D5
100
AcDbEntity
  8
0
100
AcDbCircle
 62
7
  6
CONTINUOUS
 10
196.3635716797
 20
1033.0931801296
 40
2.2297191284
100
AcDbArc
 50
175.18994141
 51
176.7193000711
  0
ARC
  5
3D6
100
AcDbEntity
  8
0
100
AcDbCircle
 62
7
  6
CONTINUOUS
 10
196.2160225936
 20
1033.1019634992
 40
2.0819092261
100
AcDbArc
 50
176.728246402
 51
177.3957195618
  0
ARC
  5
3D7
100
AcDbEntity
  8
0
100
AcDbCircle
 62
7
  6
CONTINUOUS
 10
192.9800620243
 20
1034.3056382722
 40
1.347640111
100
AcDbArc
 50
351.2858813887
 51
351.6873840579
  0
ARC
  5
3D8
100
AcDbEntity
  8
0
100
AcDbCircle
 62
7
  6
CONTINUOUS
 10
195.2693588135
 20
1033.0945414879
 40
1.1346327189
100
AcDbArc
 50
183.7874438258
 51
184.58895776
  0
ARC
  5
3D9
100
AcDbEntity
  8
0
100
AcDbCircle
 62
7
  6
CONTINUOUS
 10
193.2182181799
 20
1034.2717482749
 40
1.1070867772
100
AcDbArc
 50
351.6409476239
 51
353.3905579224
  0
ARC
  5
3DA
100
AcDbEntity
  8
0
100
AcDbCircle
 62
7
  6
CONTINUOUS
 10
195.9110037894
 20
1035.4197354779
 40
1.0124249766
100
AcDbArc
 50
145.7495592947
 51
147.324236389
  0
ARC
  5
3DB
100
AcDbEntity
  8
0
100
AcDbCircle
 62
7
  6
CONTINUOUS
 10
195.9100264738
 20
1035.4203808415
 40
1.0112539239
100
AcDbArc
 50
144.1721147932
 51
145.7486189904
  0
ARC
  5
3DC
100
AcDbEntity
  8
0
100
AcDbCircle
 62
7
  6
CONTINUOUS
 10
195.9091691523
 20
1035.4210172935
 40
1.0101862771
100
AcDbArc
 50
142.5947524432
 51
144.1729194401
  0
ARC
  5
3DD
100
AcDbEntity
  8
0
100
AcDbCircle
 62
7
  6
CONTINUOUS
 10
195.8969463735
 20
1035.472011318
 40
1.0
100
AcDbArc
 50
90.0
 51
142.2068021756
  0
ARC
  5
3DE
100
AcDbEntity
  8
0
100
AcDbCircle
 62
7
  6
CONTINUOUS
 10
200.5067186021
 20
1032.472011318
 40
6.4722484501
100
AcDbArc
 50
194.6605576647
 51
212.6763014101
  0
ARC
  5
3DF
100
AcDbEntity
  8
0
100
AcDbCircle
 62
7
  6
CONTINUOUS
 10
200.5067186021
 20
1032.472011318
 40
6.4722484501
100
AcDbArc
 50
147.3236985899
 51
165.3394423353
  0
ARC
  5
3E0
100
AcDbEntity
  8
0
100
AcDbCircle
 62
7
  6
CONTINUOUS
 10
196.7370285464
 20
1033.0552061498
 40
2.6051717898
100
AcDbArc
 50
169.4535880692
 51
171.2056473828
  0
ARC
  5
3E1
100
AcDbEntity
  8
0
100
AcDbCircle
 62
7
  6
CONTINUOUS
 10
218.2067186021
 20
1057.872011318
 40
10.0
100
AcDbArc
 50
109.8768740701
 51
123.7489880589
  0
ARC
  5
3E2
100
AcDbEntity
  8
0
100
AcDbCircle
 62
7
  6
CONTINUOUS
 10
218.2067186021
 20
1057.872011318
 40
10.0
100
AcDbArc
 50
56.251011439
 51
70.1231259299
  0
ARC
  5
3E3
100
AcDbEntity
  8
0
100
AcDbCircle
 62
7
  6
CONTINUOUS
 10
218.2067186021
 20
1057.872011318
 40
9.9877412361
100
AcDbArc
 50
93.4440398175
 51
109.9023008542
  0
ARC
  5
3E4
100
AcDbEntity
  8
0
100
AcDbCircle
 62
7
  6
CONTINUOUS
 10
218.2067186021
 20
1057.872011318
 40
9.9877412361
100
AcDbArc
 50
70.0976991458
 51
86.5559601825
  0
ARC
  5
3E5
100
AcDbEntity
  8
0
100
AcDbCircle
 62
7
  6
CONTINUOUS
 10
175.4067186021
 20
1056.772011318
 40
1.8
100
AcDbArc
 50
90.0
 51
180.0
  0
ARC
  5
3E6
100
AcDbEntity
  8
0
100
AcDbCircle
 62
7
  6
CONTINUOUS
 10
213.2067186021
 20
1065.3553260916
 40
1.0
100
AcDbArc
 50
123.7489885959
 51
180.0
  0
ARC
  5
3E7
100
AcDbEntity
  8
0
100
AcDbCircle
 62
7
  6
CONTINUOUS
 10
223.2067186021
 20
1065.3553260916
 40
1.0
100
AcDbArc
 50
0.0
 51
56.2510114041
  0
ARC
  5
3E8
100
AcDbEntity
  8
0
100
AcDbCircle
 62
7
  6
CONTINUOUS
 10
499.2067186021
 20
1057.872011318
 40
10.0
100
AcDbArc
 50
109.8768740701
 51
123.7489880589
  0
ARC
  5
3E9
100
AcDbEntity
  8
0
100
AcDbCircle
 62
7
  6
CONTINUOUS
 10
499.2067186021
 20
1057.872011318
 40
10.0
100
AcDbArc
 50
56.251011439
 51
70.1231259299
  0
ARC
  5
3EA
100
AcDbEntity
  8
0
100
AcDbCircle
 62
7
  6
CONTINUOUS
 10
499.2067186021
 20
1057.872011318
 40
9.9877412361
100
AcDbArc
 50
93.4440398175
 51
109.9023008542
  0
ARC
  5
3EB
100
AcDbEntity
  8
0
100
AcDbCircle
 62
7
  6
CONTINUOUS
 10
499.2067186021
 20
1057.872011318
 40
9.9877412361
100
AcDbArc
 50
70.0976991458
 51
86.5559601825
  0
ARC
  5
3EC
100
AcDbEntity
  8
0
100
AcDbCircle
 62
7
  6
CONTINUOUS
 10
494.2067186021
 20
1065.3553260916
 40
1.0
100
AcDbArc
 50
123.7489885959
 51
180.0
  0
ARC
  5
3ED
100
AcDbEntity
  8
0
100
AcDbCircle
 62
7
  6
CONTINUOUS
 10
504.2067186021
 20
1065.3553260916
 40
1.0
100
AcDbArc
 50
0.0
 51
56.2510114041
  0
CIRCLE
  5
3EE
100
AcDbEntity
  8
0
100
AcDbCircle
 62
7
  6
CONTINUOUS
 10
842.7067186021
 20
734.872011318
 40
3.0
  0
CIRCLE
  5
3EF
100
AcDbEntity
  8
0
100
AcDbCircle
 62
7
  6
CONTINUOUS
 10
842.7067186021
 20
734.872011318
 40
2.0
  0
CIRCLE
  5
3F0
100
AcDbEntity
  8
0
100
AcDbCircle
 62
7
  6
CONTINUOUS
 10
751.7067186021
 20
821.872011318
 40
3.0
  0
CIRCLE
  5
3F1
100
AcDbEntity
  8
0
100
AcDbCircle
 62
7
  6
CONTINUOUS
 10
842.7067186021
 20
794.872011318
 40
3.0
  0
ARC
  5
3F2
100
AcDbEntity
  8
0
100
AcDbCircle
 62
7
  6
CONTINUOUS
 10
795.2067186021
 20
830.972011318
 40
2.5
100
AcDbArc
 50
42.4277171028
 51
90.0
  0
ARC
  5
3F3
100
AcDbEntity
  8
0
100
AcDbCircle
 62
7
  6
CONTINUOUS
 10
704.2067186021
 20
830.972011318
 40
2.5
100
AcDbArc
 50
42.4277171028
 51
90.0
  0
ARC
  5
3F4
100
AcDbEntity
  8
0
100
AcDbCircle
 62
7
  6
CONTINUOUS
 10
815.4824545334
 20
831.172011318
 40
2.3
100
AcDbArc
 50
44.9999999999
 51
90.0
  0
CIRCLE
  5
3F5
100
AcDbEntity
  8
0
100
AcDbCircle
 62
7
  6
CONTINUOUS
 10
751.7067186021
 20
821.872011318
 40
2.0
  0
CIRCLE
  5
3F6
100
AcDbEntity
  8
0
100
AcDbCircle
 62
7
  6
CONTINUOUS
 10
842.7067186021
 20
794.872011318
 40
2.0
  0
CIRCLE
  5
3F7
100
AcDbEntity
  8
0
100
AcDbCircle
 62
7
  6
CONTINUOUS
 10
1100.7067186021
 20
734.872011318
 40
3.0
  0
CIRCLE
  5
3F8
100
AcDbEntity
  8
0
100
AcDbCircle
 62
7
  6
CONTINUOUS
 10
1100.7067186021
 20
734.872011318
 40
2.0
  0
CIRCLE
  5
3F9
100
AcDbEntity
  8
0
100
AcDbCircle
 62
7
  6
CONTINUOUS
 10
1111.7067186021
 20
726.872011318
 40
3.0
  0
CIRCLE
  5
3FA
100
AcDbEntity
  8
0
100
AcDbCircle
 62
7
  6
CONTINUOUS
 10
1111.7067186021
 20
726.872011318
 40
2.0
  0
CIRCLE
  5
3FB
100
AcDbEntity
  8
0
100
AcDbCircle
 62
7
  6
CONTINUOUS
 10
1140.7067186021
 20
726.872011318
 40
3.0
  0
CIRCLE
  5
3FC
100
AcDbEntity
  8
0
100
AcDbCircle
 62
7
  6
CONTINUOUS
 10
1140.7067186021
 20
726.872011318
 40
2.0
  0
CIRCLE
  5
3FD
100
AcDbEntity
  8
0
100
AcDbCircle
 62
7
  6
CONTINUOUS
 10
1126.7067186021
 20
748.472011318
 40
8.0
  0
CIRCLE
  5
3FE
100
AcDbEntity
  8
0
100
AcDbCircle
 62
7
  6
CONTINUOUS
 10
931.7067186021
 20
821.872011318
 40
3.0
  0
CIRCLE
  5
3FF
100
AcDbEntity
  8
0
100
AcDbCircle
 62
7
  6
CONTINUOUS
 10
931.7067186021
 20
821.872011318
 40
2.0
  0
CIRCLE
  5
400
100
AcDbEntity
  8
0
100
AcDbCircle
 62
7
  6
CONTINUOUS
 10
1100.7067186021
 20
794.872011318
 40
3.0
  0
CIRCLE
  5
401
100
AcDbEntity
  8
0
100
AcDbCircle
 62
7
  6
CONTINUOUS
 10
1100.7067186021
 20
794.872011318
 40
2.0
  0
CIRCLE
  5
402
100
AcDbEntity
  8
0
100
AcDbCircle
 62
7
  6
CONTINUOUS
 10
1081.7067186021
 20
821.872011318
 40
3.0
  0
CIRCLE
  5
403
100
AcDbEntity
  8
0
100
AcDbCircle
 62
7
  6
CONTINUOUS
 10
1081.7067186021
 20
821.872011318
 40
2.0
  0
ARC
  5
404
100
AcDbEntity
  8
0
100
AcDbCircle
 62
7
  6
CONTINUOUS
 10
1083.6067186021
 20
835.272011318
 40
1.8
100
AcDbArc
 50
180.0
 51
232.3301130361
  0
ARC
  5
405
100
AcDbEntity
  8
0
100
AcDbCircle
 62
7
  6
CONTINUOUS
 10
1083.6067186021
 20
834.172011318
 40
1.8
100
AcDbArc
 50
180.0
 51
270.0
  0
ARC
  5
406
100
AcDbEntity
  8
0
100
AcDbCircle
 62
7
  6
CONTINUOUS
 10
1078.4067186021
 20
835.272011318
 40
1.8
100
AcDbArc
 50
270.0
 51
360.0
  0
ARC
  5
407
100
AcDbEntity
  8
0
100
AcDbCircle
 62
7
  6
CONTINUOUS
 10
1144.0067186021
 20
818.872011318
 40
1.3
100
AcDbArc
 50
74.9789995343
 51
90.0
  0
ARC
  5
408
100
AcDbEntity
  8
0
100
AcDbCircle
 62
7
  6
CONTINUOUS
 10
1144.0067186021
 20
818.872011318
 40
0.3
100
AcDbArc
 50
0.0
 51
90.0
  0
ARC
  5
409
100
AcDbEntity
  8
0
100
AcDbCircle
 62
7
  6
CONTINUOUS
 10
1083.6067186021
 20
834.172011318
 40
0.3
100
AcDbArc
 50
180.0
 51
270.0
  0
ARC
  5
40A
100
AcDbEntity
  8
0
100
AcDbCircle
 62
7
  6
CONTINUOUS
 10
780.2067186021
 20
1057.872011318
 40
10.0
100
AcDbArc
 50
109.8768740701
 51
123.7489880589
  0
ARC
  5
40B
100
AcDbEntity
  8
0
100
AcDbCircle
 62
7
  6
CONTINUOUS
 10
780.2067186021
 20
1057.872011318
 40
10.0
100
AcDbArc
 50
56.251011439
 51
70.1231259299
  0
ARC
  5
40C
100
AcDbEntity
  8
0
100
AcDbCircle
 62
7
  6
CONTINUOUS
 10
780.2067186021
 20
1057.872011318
 40
9.9877412361
100
AcDbArc
 50
93.4440398175
 51
109.9023008542
  0
ARC
  5
40D
100
AcDbEntity
  8
0
100
AcDbCircle
 62
7
  6
CONTINUOUS
 10
780.2067186021
 20
1057.872011318
 40
9.9877412361
100
AcDbArc
 50
70.0976991458
 51
86.5559601825
  0
ARC
  5
40E
100
AcDbEntity
  8
0
100
AcDbCircle
 62
7
  6
CONTINUOUS
 10
775.2067186021
 20
1065.3553260916
 40
1.0
100
AcDbArc
 50
123.7489885959
 51
180.0
  0
ARC
  5
40F
100
AcDbEntity
  8
0
100
AcDbCircle
 62
7
  6
CONTINUOUS
 10
785.2067186021
 20
1065.3553260916
 40
1.0
100
AcDbArc
 50
0.0
 51
56.2510114041
  0
ARC
  5
410
100
AcDbEntity
  8
0
100
AcDbCircle
 62
7
  6
CONTINUOUS
 10
1080.6067186021
 20
1037.973011318
 40
1.201
100
AcDbArc
 50
246.7962794736
 51
250.5571340425
  0
ARC
  5
411
100
AcDbEntity
  8
0
100
AcDbCircle
 62
7
  6
CONTINUOUS
 10
1102.3067186021
 20
1043.1082441947
 40
0.5362328767
100
AcDbArc
 50
196.672409946
 51
360.0
  0
ARC
  5
412
100
AcDbEntity
  8
0
100
AcDbCircle
 62
7
  6
CONTINUOUS
 10
1061.2067186021
 20
1057.872011318
 40
10.0
100
AcDbArc
 50
109.8768740701
 51
123.7489880589
  0
ARC
  5
413
100
AcDbEntity
  8
0
100
AcDbCircle
 62
7
  6
CONTINUOUS
 10
1061.2067186021
 20
1057.872011318
 40
10.0
100
AcDbArc
 50
56.251011439
 51
70.1231259299
  0
ARC
  5
414
100
AcDbEntity
  8
0
100
AcDbCircle
 62
7
  6
CONTINUOUS
 10
1061.2067186021
 20
1057.872011318
 40
9.9877412361
100
AcDbArc
 50
93.4440398175
 51
109.9023008542
  0
ARC
  5
415
100
AcDbEntity
  8
0
100
AcDbCircle
 62
7
  6
CONTINUOUS
 10
1061.2067186021
 20
1057.872011318
 40
9.9877412361
100
AcDbArc
 50
70.0976991458
 51
86.5559601825
  0
ARC
  5
416
100
AcDbEntity
  8
0
100
AcDbCircle
 62
7
  6
CONTINUOUS
 10
1105.8067186021
 20
1056.772011318
 40
1.8
100
AcDbArc
 50
0.0
 51
90.0
  0
ARC
  5
417
100
AcDbEntity
  8
0
100
AcDbCircle
 62
7
  6
CONTINUOUS
 10
1056.2067186021
 20
1065.3553260916
 40
1.0
100
AcDbArc
 50
123.7489885959
 51
180.0
  0
ARC
  5
418
100
AcDbEntity
  8
0
100
AcDbCircle
 62
7
  6
CONTINUOUS
 10
1066.2067186021
 20
1065.3553260916
 40
1.0
100
AcDbArc
 50
0.0
 51
56.2510114041
  0
SPLINE
  5
419
100
AcDbEntity
  8
0
100
AcDbSpline
 62
7
  6
CONTINUOUS
 70
0
 71
3
 72
8
 73
4
 74
0
 42
0.0000001
 43
0.0000001
 44
0.0000000001
 40
0.0
 40
0.0
 40
0.0
 40
0.0
 40
1.0
 40
1.0
 40
1.0
 40
1.0
 10
168.3999124021
 20
1049.6972219556
 30
0.0
 10
168.3489292792
 20
1049.6960561226
 30
0.0
 10
168.2966830944
 20
1049.6808736334
 30
0.0
 10
168.2529841173
 20
1049.6545860435
 30
0.0
  0
SPLINE
  5
41A
100
AcDbEntity
  8
0
100
AcDbSpline
 62
7
  6
CONTINUOUS
 70
0
 71
3
 72
8
 73
4
 74
0
 42
0.0000001
 43
0.0000001
 44
0.0000000001
 40
0.0
 40
0.0
 40
0.0
 40
0.0
 40
1.0
 40
1.0
 40
1.0
 40
1.0
 10
168.2529841173
 20
1049.6545860435
 30
0.0
 10
168.209204425
 20
1049.6282498986
 30
0.0
 10
168.1712784939
 20
1049.5891775554
 30
0.0
 10
168.1461228194
 20
1049.5447090719
 30
0.0
  0
SPLINE
  5
41B
100
AcDbEntity
  8
0
100
AcDbSpline
 62
7
  6
CONTINUOUS
 70
0
 71
3
 72
8
 73
4
 74
0
 42
0.0000001
 43
0.0000001
 44
0.0000000001
 40
0.0
 40
0.0
 40
0.0
 40
0.0
 40
1.0
 40
1.0
 40
1.0
 40
1.0
 10
168.1461228194
 20
1049.5447090719
 30
0.0
 10
168.1206776884
 20
1049.4997289069
 30
0.0
 10
168.1067186021
 20
1049.4464431502
 30
0.0
 10
168.1067186021
 20
1049.3947646253
 30
0.0
  0
SPLINE
  5
41C
100
AcDbEntity
  8
0
100
AcDbSpline
 62
7
  6
CONTINUOUS
 70
0
 71
3
 72
8
 73
4
 74
0
 42
0.0000001
 43
0.0000001
 44
0.0000000001
 40
0.0
 40
0.0
 40
0.0
 40
0.0
 40
1.0
 40
1.0
 40
1.0
 40
1.0
 10
168.3999124021
 20
1043.2468006804
 30
0.0
 10
168.3489297543
 20
1043.2479665026
 30
0.0
 10
168.2966891961
 20
1043.2631600542
 30
0.0
 10
168.2529869773
 20
1043.2894413324
 30
0.0
  0
SPLINE
  5
41D
100
AcDbEntity
  8
0
100
AcDbSpline
 62
7
  6
CONTINUOUS
 70
0
 71
3
 72
8
 73
4
 74
0
 42
0.0000001
 43
0.0000001
 44
0.0000000001
 40
0.0
 40
0.0
 40
0.0
 40
0.0
 40
1.0
 40
1.0
 40
1.0
 40
1.0
 10
168.2529869773
 20
1043.2894413324
 30
0.0
 10
168.2092044498
 20
1043.3157709059
 30
0.0
 10
168.1712765464
 20
1043.3548451043
 30
0.0
 10
168.1461279145
 20
1043.3993164713
 30
0.0
  0
SPLINE
  5
41E
100
AcDbEntity
  8
0
100
AcDbSpline
 62
7
  6
CONTINUOUS
 70
0
 71
3
 72
8
 73
4
 74
0
 42
0.0000001
 43
0.0000001
 44
0.0000000001
 40
0.0
 40
0.0
 40
0.0
 40
0.0
 40
1.0
 40
1.0
 40
1.0
 40
1.0
 10
168.1461279145
 20
1043.3993164713
 30
0.0
 10
168.1206896793
 20
1043.4442999557
 30
0.0
 10
168.1067186021
 20
1043.4975799914
 30
0.0
 10
168.1067186021
 20
1043.5492580108
 30
0.0
  0
SPLINE
  5
41F
100
AcDbEntity
  8
0
100
AcDbSpline
 62
7
  6
CONTINUOUS
 70
0
 71
3
 72
12
 73
8
 74
0
 42
0.0000001
 43
0.0000001
 44
0.0000000001
 40
0.0
 40
0.0
 40
0.0
 40
0.0
 40
0.1172589577
 40
0.2116773734
 40
0.3318572296
 40
0.6385565566
 40
1.0
 40
1.0
 40
1.0
 40
1.0
 10
194.2401405886
 20
844.172011318
 30
0.0
 10
194.252769571
 20
844.172011318
 30
0.0
 10
194.2717953418
 20
844.1920041724
 30
0.0
 10
194.2865146285
 20
844.2232558313
 30
0.0
 10
194.3044044226
 20
844.2771840277
 30
0.0
 10
194.3181750781
 20
844.361013733
 30
0.0
 10
194.3220589861
 20
844.4330832652
 30
0.0
 10
194.3220589861
 20
844.472011318
 30
0.0
  0
SPLINE
  5
420
100
AcDbEntity
  8
0
100
AcDbSpline
 62
7
  6
CONTINUOUS
 70
0
 71
3
 72
12
 73
8
 74
0
 42
0.0000001
 43
0.0000001
 44
0.0000000001
 40
0.0
 40
0.0
 40
0.0
 40
0.0
 40
0.361451865
 40
0.6681349907
 40
0.7883114625
 40
0.8827307314
 40
1.0
 40
1.0
 40
1.0
 40
1.0
 10
194.3220589861
 20
844.472011318
 30
0.0
 10
194.3220589861
 20
844.5109402812
 30
0.0
 10
194.3181754024
 20
844.5830090958
 30
0.0
 10
194.3044040226
 20
844.6668372765
 30
0.0
 10
194.2865163445
 20
844.720764066
 30
0.0
 10
194.2717969778
 20
844.7520164703
 30
0.0
 10
194.2527706826
 20
844.772011318
 30
0.0
 10
194.2401405886
 20
844.772011318
 30
0.0
  0
SPLINE
  5
421
100
AcDbEntity
  8
0
100
AcDbSpline
 62
7
  6
CONTINUOUS
 70
0
 71
3
 72
9
 73
5
 74
0
 42
0.0000001
 43
0.0000001
 44
0.0000000001
 40
0.0
 40
0.0
 40
0.0
 40
0.0
 40
0.2605066869
 40
1.0
 40
1.0
 40
1.0
 40
1.0
 10
194.18013629
 20
845.5544228408
 30
0.0
 10
194.1842532206
 20
845.5754982344
 30
0.0
 10
194.2010818608
 20
845.6561914756
 30
0.0
 10
194.2219190472
 20
845.7360847444
 30
0.0
 10
194.2401405886
 20
845.7942545045
 30
0.0
  0
SPLINE
  5
422
100
AcDbEntity
  8
0
100
AcDbSpline
 62
7
  6
CONTINUOUS
 70
0
 71
3
 72
9
 73
5
 74
0
 42
0.0000001
 43
0.0000001
 44
0.0000000001
 40
0.0
 40
0.0
 40
0.0
 40
0.0
 40
0.2358064597
 40
1.0
 40
1.0
 40
1.0
 40
1.0
 10
194.2401405886
 20
845.7942545045
 30
0.0
 10
194.2437936305
 20
845.8059163373
 30
0.0
 10
194.2587502064
 20
845.8555382585
 30
0.0
 10
194.2718490228
 20
845.9057133725
 30
0.0
 10
194.2809630869
 20
845.9442545045
 30
0.0
  0
SPLINE
  5
423
100
AcDbEntity
  8
0
100
AcDbSpline
 62
7
  6
CONTINUOUS
 70
0
 71
3
 72
9
 73
5
 74
0
 42
0.0000001
 43
0.0000001
 44
0.0000000001
 40
0.0
 40
0.0
 40
0.0
 40
0.0
 40
0.2616537789
 40
1.0
 40
1.0
 40
1.0
 40
1.0
 10
194.2809630933
 20
845.9442545045
 30
0.0
 10
194.2841804347
 20
845.9578598488
 30
0.0
 10
194.2960149546
 20
846.0099625057
 30
0.0
 10
194.3061704798
 20
846.0624689801
 30
0.0
 10
194.3121457644
 20
846.1014648703
 30
0.0
  0
SPLINE
  5
424
100
AcDbEntity
  8
0
100
AcDbSpline
 62
7
  6
CONTINUOUS
 70
0
 71
3
 72
9
 73
5
 74
0
 42
0.0000001
 43
0.0000001
 44
0.0000000001
 40
0.0
 40
0.0
 40
0.0
 40
0.0
 40
0.2932562723
 40
1.0
 40
1.0
 40
1.0
 40
1.0
 10
194.3179470492
 20
846.1443216435
 30
0.0
 10
194.3186877978
 20
846.150762758
 30
0.0
 10
194.3209587743
 20
846.1727457703
 30
0.0
 10
194.3223911205
 20
846.1948813658
 30
0.0
 10
194.3219769552
 20
846.2105011909
 30
0.0
  0
SPLINE
  5
425
100
AcDbEntity
  8
0
100
AcDbSpline
 62
7
  6
CONTINUOUS
 70
0
 71
3
 72
9
 73
5
 74
0
 42
0.0000001
 43
0.0000001
 44
0.0000000001
 40
0.0
 40
0.0
 40
0.0
 40
0.0
 40
0.6861879507
 40
1.0
 40
1.0
 40
1.0
 40
1.0
 10
194.3219769552
 20
846.2105011909
 30
0.0
 10
194.3217541156
 20
846.2189053631
 30
0.0
 10
194.3221861195
 20
846.2299665879
 30
0.0
 10
194.3150979559
 20
846.2440795677
 30
0.0
 10
194.3112566289
 20
846.244243018
 30
0.0
  0
SPLINE
  5
426
100
AcDbEntity
  8
0
100
AcDbSpline
 62
7
  6
CONTINUOUS
 70
0
 71
3
 72
9
 73
5
 74
0
 42
0.0000001
 43
0.0000001
 44
0.0000000001
 40
0.0
 40
0.0
 40
0.0
 40
0.0
 40
0.2022366639
 40
1.0
 40
1.0
 40
1.0
 40
1.0
 10
194.3220590722
 20
842.7399605105
 30
0.0
 10
194.3220590722
 20
842.7461574884
 30
0.0
 10
194.3210261507
 20
842.7767972944
 30
0.0
 10
194.3172982905
 20
842.8072774887
 30
0.0
 10
194.3137969803
 20
842.8314706717
 30
0.0
  0
SPLINE
  5
427
100
AcDbEntity
  8
0
100
AcDbSpline
 62
7
  6
CONTINUOUS
 70
0
 71
3
 72
9
 73
5
 74
0
 42
0.0000001
 43
0.0000001
 44
0.0000000001
 40
0.0
 40
0.0
 40
0.0
 40
0.0
 40
0.2346951209
 40
1.0
 40
1.0
 40
1.0
 40
1.0
 10
194.311249531
 20
842.8483206515
 30
0.0
 10
194.309402182
 20
842.8600584401
 30
0.0
 10
194.3009250196
 20
842.9099753751
 30
0.0
 10
194.2904322743
 20
842.9595390623
 30
0.0
 10
194.281554643
 20
842.9972545907
 30
0.0
  0
SPLINE
  5
428
100
AcDbEntity
  8
0
100
AcDbSpline
 62
7
  6
CONTINUOUS
 70
0
 71
3
 72
9
 73
5
 74
0
 42
0.0000001
 43
0.0000001
 44
0.0000000001
 40
0.0
 40
0.0
 40
0.0
 40
0.0
 40
0.2601430227
 40
1.0
 40
1.0
 40
1.0
 40
1.0
 10
194.281554643
 20
842.9972545907
 30
0.0
 10
194.2784143864
 20
843.0105955859
 30
0.0
 10
194.265904775
 20
843.0617731408
 30
0.0
 10
194.251792459
 20
843.1125711407
 30
0.0
 10
194.2401405886
 20
843.1497681316
 30
0.0
  0
SPLINE
  5
429
100
AcDbEntity
  8
0
100
AcDbSpline
 62
7
  6
CONTINUOUS
 70
0
 71
3
 72
9
 73
5
 74
0
 42
0.0000001
 43
0.0000001
 44
0.0000000001
 40
0.0
 40
0.0
 40
0.0
 40
0.0
 40
0.2642883044
 40
1.0
 40
1.0
 40
1.0
 40
1.0
 10
194.1684276012
 20
844.0981951283
 30
0.0
 10
194.1692887759
 20
844.1005007449
 30
0.0
 10
194.1726599442
 20
844.1091812534
 30
0.0
 10
194.1765002517
 20
844.117686004
 30
0.0
 10
194.1796615112
 20
844.1237644427
 30
0.0
  0
SPLINE
  5
42A
100
AcDbEntity
  8
0
100
AcDbSpline
 62
7
  6
CONTINUOUS
 70
0
 71
3
 72
9
 73
5
 74
0
 42
0.0000001
 43
0.0000001
 44
0.0000000001
 40
0.0
 40
0.0
 40
0.0
 40
0.0
 40
0.2688755459
 40
1.0
 40
1.0
 40
1.0
 40
1.0
 10
194.1796615112
 20
844.1237644427
 30
0.0
 10
194.1808224303
 20
844.1259966466
 30
0.0
 10
194.1853102593
 20
844.1342057668
 30
0.0
 10
194.1905309645
 20
844.1420386616
 30
0.0
 10
194.1948634922
 20
844.1473336348
 30
0.0
  0
SPLINE
  5
42B
100
AcDbEntity
  8
0
100
AcDbSpline
 62
7
  6
CONTINUOUS
 70
0
 71
3
 72
8
 73
4
 74
0
 42
0.0000001
 43
0.0000001
 44
0.0000000001
 40
0.0
 40
0.0
 40
0.0
 40
0.0
 40
1.0
 40
1.0
 40
1.0
 40
1.0
 10
194.1948634922
 20
844.1473336348
 30
0.0
 10
194.1981607892
 20
844.1513634069
 30
0.0
 10
194.2017816577
 20
844.1551657993
 30
0.0
 10
194.2057554745
 20
844.1585303216
 30
0.0
  0
SPLINE
  5
42C
100
AcDbEntity
  8
0
100
AcDbSpline
 62
7
  6
CONTINUOUS
 70
0
 71
3
 72
9
 73
5
 74
0
 42
0.0000001
 43
0.0000001
 44
0.0000000001
 40
0.0
 40
0.0
 40
0.0
 40
0.0
 40
0.2690120115
 40
1.0
 40
1.0
 40
1.0
 40
1.0
 10
194.2057554745
 20
844.1585303216
 30
0.0
 10
194.208313091
 20
844.1606957857
 30
0.0
 10
194.2183224412
 20
844.1681160282
 30
0.0
 10
194.2310343135
 20
844.172011318
 30
0.0
 10
194.2401405886
 20
844.172011318
 30
0.0
  0
SPLINE
  5
42D
100
AcDbEntity
  8
0
100
AcDbSpline
 62
7
  6
CONTINUOUS
 70
0
 71
3
 72
9
 73
5
 74
0
 42
0.0000001
 43
0.0000001
 44
0.0000000001
 40
0.0
 40
0.0
 40
0.0
 40
0.0
 40
0.2170094756
 40
1.0
 40
1.0
 40
1.0
 40
1.0
 10
194.1608453236
 20
844.0752644908
 30
0.0
 10
194.1580599382
 20
844.0657533442
 30
0.0
 10
194.1469047616
 20
844.0214330876
 30
0.0
 10
194.1412258471
 20
843.9758985949
 30
0.0
 10
194.1383636012
 20
843.9402549059
 30
0.0
  0
SPLINE
  5
42E
100
AcDbEntity
  8
0
100
AcDbSpline
 62
7
  6
CONTINUOUS
 70
0
 71
3
 72
9
 73
5
 74
0
 42
0.0000001
 43
0.0000001
 44
0.0000000001
 40
0.0
 40
0.0
 40
0.0
 40
0.0
 40
0.2323741202
 40
1.0
 40
1.0
 40
1.0
 40
1.0
 10
194.1372054314
 20
843.924428496
 30
0.0
 10
194.1362991306
 20
843.9107467376
 30
0.0
 10
194.1334268391
 20
843.8518011642
 30
0.0
 10
194.1342079384
 20
843.7927109838
 30
0.0
 10
194.1362637854
 20
843.7474622199
 30
0.0
  0
SPLINE
  5
42F
100
AcDbEntity
  8
0
100
AcDbSpline
 62
7
  6
CONTINUOUS
 70
0
 71
3
 72
9
 73
5
 74
0
 42
0.0000001
 43
0.0000001
 44
0.0000000001
 40
0.0
 40
0.0
 40
0.0
 40
0.0
 40
0.2603724193
 40
1.0
 40
1.0
 40
1.0
 40
1.0
 10
194.1801343468
 20
843.3896002096
 30
0.0
 10
194.1842496813
 20
843.3685357101
 30
0.0
 10
194.2010796792
 20
843.2878425011
 30
0.0
 10
194.2219156796
 20
843.2079486424
 30
0.0
 10
194.2401405886
 20
843.1497681316
 30
0.0
  0
SPLINE
  5
430
100
AcDbEntity
  8
0
100
AcDbSpline
 62
7
  6
CONTINUOUS
 70
0
 71
3
 72
9
 73
5
 74
0
 42
0.0000001
 43
0.0000001
 44
0.0000000001
 40
0.0
 40
0.0
 40
0.0
 40
0.0
 40
0.2663466676
 40
1.0
 40
1.0
 40
1.0
 40
1.0
 10
194.1362636091
 20
845.1965604971
 30
0.0
 10
194.1355501958
 20
845.1808606326
 30
0.0
 10
194.1335633641
 20
845.1218914601
 30
0.0
 10
194.1343408454
 20
845.0627882464
 30
0.0
 10
194.1372041687
 20
845.0195930581
 30
0.0
  0
SPLINE
  5
431
100
AcDbEntity
  8
0
100
AcDbSpline
 62
7
  6
CONTINUOUS
 70
0
 71
3
 72
9
 73
5
 74
0
 42
0.0000001
 43
0.0000001
 44
0.0000000001
 40
0.0
 40
0.0
 40
0.0
 40
0.0
 40
0.2824358246
 40
1.0
 40
1.0
 40
1.0
 40
1.0
 10
194.1383633683
 20
845.003763132
 30
0.0
 10
194.1393962449
 20
844.9909088427
 30
0.0
 10
194.1438872393
 20
844.9454956979
 30
0.0
 10
194.1516350217
 20
844.9002045202
 30
0.0
 10
194.1608439003
 20
844.8687621124
 30
0.0
  0
SPLINE
  5
432
100
AcDbEntity
  8
0
100
AcDbSpline
 62
7
  6
CONTINUOUS
 70
0
 71
3
 72
8
 73
4
 74
0
 42
0.0000001
 43
0.0000001
 44
0.0000000001
 40
0.0
 40
0.0
 40
0.0
 40
0.0
 40
1.0
 40
1.0
 40
1.0
 40
1.0
 10
194.1608439003
 20
844.8687621124
 30
0.0
 10
194.1631073001
 20
844.8610340556
 30
0.0
 10
194.1656100491
 20
844.8533689262
 30
0.0
 10
194.1684276969
 20
844.8458252732
 30
0.0
  0
SPLINE
  5
433
100
AcDbEntity
  8
0
100
AcDbSpline
 62
7
  6
CONTINUOUS
 70
0
 71
3
 72
9
 73
5
 74
0
 42
0.0000001
 43
0.0000001
 44
0.0000000001
 40
0.0
 40
0.0
 40
0.0
 40
0.0
 40
0.2643974282
 40
1.0
 40
1.0
 40
1.0
 40
1.0
 10
194.1684276969
 20
844.8458252732
 30
0.0
 10
194.1692889972
 20
844.8435193247
 30
0.0
 10
194.1726594293
 20
844.8348412105
 30
0.0
 10
194.176500356
 20
844.8263394102
 30
0.0
 10
194.1796618287
 20
844.8202643022
 30
0.0
  0
SPLINE
  5
434
100
AcDbEntity
  8
0
100
AcDbSpline
 62
7
  6
CONTINUOUS
 70
0
 71
3
 72
9
 73
5
 74
0
 42
0.0000001
 43
0.0000001
 44
0.0000000001
 40
0.0
 40
0.0
 40
0.0
 40
0.0
 40
0.2687755463
 40
1.0
 40
1.0
 40
1.0
 40
1.0
 10
194.1796618287
 20
844.8202643022
 30
0.0
 10
194.1808230126
 20
844.8180329631
 30
0.0
 10
194.185313503
 20
844.8098240728
 30
0.0
 10
194.1905337614
 20
844.8019898773
 30
0.0
 10
194.1948662325
 20
844.796692627
 30
0.0
  0
SPLINE
  5
435
100
AcDbEntity
  8
0
100
AcDbSpline
 62
7
  6
CONTINUOUS
 70
0
 71
3
 72
8
 73
4
 74
0
 42
0.0000001
 43
0.0000001
 44
0.0000000001
 40
0.0
 40
0.0
 40
0.0
 40
0.0
 40
1.0
 40
1.0
 40
1.0
 40
1.0
 10
194.1948662325
 20
844.796692627
 30
0.0
 10
194.1981622519
 20
844.7926626313
 30
0.0
 10
194.2017813852
 20
844.7888595281
 30
0.0
 10
194.2057536728
 20
844.7854941841
 30
0.0
  0
SPLINE
  5
436
100
AcDbEntity
  8
0
100
AcDbSpline
 62
7
  6
CONTINUOUS
 70
0
 71
3
 72
9
 73
5
 74
0
 42
0.0000001
 43
0.0000001
 44
0.0000000001
 40
0.0
 40
0.0
 40
0.0
 40
0.0
 40
0.2689342019
 40
1.0
 40
1.0
 40
1.0
 40
1.0
 10
194.2057536728
 20
844.7854941841
 30
0.0
 10
194.2083101131
 20
844.7833283538
 30
0.0
 10
194.2183166567
 20
844.7759017944
 30
0.0
 10
194.231032506
 20
844.772011318
 30
0.0
 10
194.2401405886
 20
844.772011318
 30
0.0
  0
SPLINE
  5
437
100
AcDbEntity
  8
0
100
AcDbSpline
 62
7
  6
CONTINUOUS
 70
0
 71
3
 72
9
 73
5
 74
0
 42
0.0000001
 43
0.0000001
 44
0.0000000001
 40
0.0
 40
0.0
 40
0.0
 40
0.0
 40
0.2953328549
 40
1.0
 40
1.0
 40
1.0
 40
1.0
 10
194.2451922567
 20
842.8339368921
 30
0.0
 10
194.2484822824
 20
842.8238190725
 30
0.0
 10
194.2600495175
 20
842.7897216821
 30
0.0
 10
194.2728667693
 20
842.7559041196
 30
0.0
 10
194.2842434057
 20
842.7332106486
 30
0.0
  0
SPLINE
  5
438
100
AcDbEntity
  8
0
100
AcDbSpline
 62
7
  6
CONTINUOUS
 70
0
 71
3
 72
9
 73
5
 74
0
 42
0.0000001
 43
0.0000001
 44
0.0000000001
 40
0.0
 40
0.0
 40
0.0
 40
0.0
 40
0.6663757381
 40
1.0
 40
1.0
 40
1.0
 40
1.0
 10
194.2842434057
 20
842.7332106486
 30
0.0
 10
194.2885850102
 20
842.7245502615
 30
0.0
 10
194.2950023879
 20
842.7127920361
 30
0.0
 10
194.3061698072
 20
842.6997733508
 30
0.0
 10
194.3110200071
 20
842.6997688457
 30
0.0
  0
SPLINE
  5
439
100
AcDbEntity
  8
0
100
AcDbSpline
 62
7
  6
CONTINUOUS
 70
0
 71
3
 72
11
 73
7
 74
0
 42
0.0000001
 43
0.0000001
 44
0.0000000001
 40
0.0
 40
0.0
 40
0.0
 40
0.0
 40
0.1016886042
 40
0.307243536
 40
0.6123586172
 40
1.0
 40
1.0
 40
1.0
 40
1.0
 10
194.311020286
 20
846.2442480475
 30
0.0
 10
194.3058790506
 20
846.2442491854
 30
0.0
 10
194.2942283837
 20
846.2300317155
 30
0.0
 10
194.2804483948
 20
846.2044193731
 30
0.0
 10
194.2625897993
 20
846.1615790468
 30
0.0
 10
194.2512528047
 20
846.1287237536
 30
0.0
 10
194.2451922567
 20
846.110085744
 30
0.0
  0
SPLINE
  5
43A
100
AcDbEntity
  8
0
100
AcDbSpline
 62
7
  6
CONTINUOUS
 70
0
 71
3
 72
12
 73
8
 74
0
 42
0.0000001
 43
0.0000001
 44
0.0000000001
 40
0.0
 40
0.0
 40
0.0
 40
0.0
 40
0.1172589577
 40
0.2116773734
 40
0.3318572296
 40
0.6385565566
 40
1.0
 40
1.0
 40
1.0
 40
1.0
 10
194.2401405886
 20
862.672011318
 30
0.0
 10
194.252769571
 20
862.672011318
 30
0.0
 10
194.2717953418
 20
862.6920041724
 30
0.0
 10
194.2865146285
 20
862.7232558313
 30
0.0
 10
194.3044044226
 20
862.7771840277
 30
0.0
 10
194.3181750781
 20
862.861013733
 30
0.0
 10
194.3220589861
 20
862.9330832652
 30
0.0
 10
194.3220589861
 20
862.972011318
 30
0.0
  0
SPLINE
  5
43B
100
AcDbEntity
  8
0
100
AcDbSpline
 62
7
  6
CONTINUOUS
 70
0
 71
3
 72
12
 73
8
 74
0
 42
0.0000001
 43
0.0000001
 44
0.0000000001
 40
0.0
 40
0.0
 40
0.0
 40
0.0
 40
0.361451865
 40
0.6681349907
 40
0.7883114625
 40
0.8827307314
 40
1.0
 40
1.0
 40
1.0
 40
1.0
 10
194.3220589861
 20
862.972011318
 30
0.0
 10
194.3220589861
 20
863.0109402812
 30
0.0
 10
194.3181754024
 20
863.0830090958
 30
0.0
 10
194.3044040226
 20
863.1668372765
 30
0.0
 10
194.2865163445
 20
863.220764066
 30
0.0
 10
194.2717969778
 20
863.2520164703
 30
0.0
 10
194.2527706826
 20
863.272011318
 30
0.0
 10
194.2401405886
 20
863.272011318
 30
0.0
  0
SPLINE
  5
43C
100
AcDbEntity
  8
0
100
AcDbSpline
 62
7
  6
CONTINUOUS
 70
0
 71
3
 72
9
 73
5
 74
0
 42
0.0000001
 43
0.0000001
 44
0.0000000001
 40
0.0
 40
0.0
 40
0.0
 40
0.0
 40
0.2605066869
 40
1.0
 40
1.0
 40
1.0
 40
1.0
 10
194.18013629
 20
864.0544228408
 30
0.0
 10
194.1842532206
 20
864.0754982344
 30
0.0
 10
194.2010818608
 20
864.1561914756
 30
0.0
 10
194.2219190472
 20
864.2360847444
 30
0.0
 10
194.2401405886
 20
864.2942545045
 30
0.0
  0
SPLINE
  5
43D
100
AcDbEntity
  8
0
100
AcDbSpline
 62
7
  6
CONTINUOUS
 70
0
 71
3
 72
9
 73
5
 74
0
 42
0.0000001
 43
0.0000001
 44
0.0000000001
 40
0.0
 40
0.0
 40
0.0
 40
0.0
 40
0.2358064597
 40
1.0
 40
1.0
 40
1.0
 40
1.0
 10
194.2401405886
 20
864.2942545045
 30
0.0
 10
194.2437936305
 20
864.3059163373
 30
0.0
 10
194.2587502064
 20
864.3555382585
 30
0.0
 10
194.2718490228
 20
864.4057133725
 30
0.0
 10
194.2809630869
 20
864.4442545045
 30
0.0
  0
SPLINE
  5
43E
100
AcDbEntity
  8
0
100
AcDbSpline
 62
7
  6
CONTINUOUS
 70
0
 71
3
 72
9
 73
5
 74
0
 42
0.0000001
 43
0.0000001
 44
0.0000000001
 40
0.0
 40
0.0
 40
0.0
 40
0.0
 40
0.2616537789
 40
1.0
 40
1.0
 40
1.0
 40
1.0
 10
194.2809630933
 20
864.4442545045
 30
0.0
 10
194.2841804347
 20
864.4578598488
 30
0.0
 10
194.2960149546
 20
864.5099625057
 30
0.0
 10
194.3061704798
 20
864.5624689801
 30
0.0
 10
194.3121457644
 20
864.6014648703
 30
0.0
  0
SPLINE
  5
43F
100
AcDbEntity
  8
0
100
AcDbSpline
 62
7
  6
CONTINUOUS
 70
0
 71
3
 72
9
 73
5
 74
0
 42
0.0000001
 43
0.0000001
 44
0.0000000001
 40
0.0
 40
0.0
 40
0.0
 40
0.0
 40
0.2932562723
 40
1.0
 40
1.0
 40
1.0
 40
1.0
 10
194.3179470492
 20
864.6443216435
 30
0.0
 10
194.3186877978
 20
864.650762758
 30
0.0
 10
194.3209587743
 20
864.6727457703
 30
0.0
 10
194.3223911205
 20
864.6948813658
 30
0.0
 10
194.3219769552
 20
864.7105011909
 30
0.0
  0
SPLINE
  5
440
100
AcDbEntity
  8
0
100
AcDbSpline
 62
7
  6
CONTINUOUS
 70
0
 71
3
 72
9
 73
5
 74
0
 42
0.0000001
 43
0.0000001
 44
0.0000000001
 40
0.0
 40
0.0
 40
0.0
 40
0.0
 40
0.6861879507
 40
1.0
 40
1.0
 40
1.0
 40
1.0
 10
194.3219769552
 20
864.7105011909
 30
0.0
 10
194.3217541156
 20
864.7189053631
 30
0.0
 10
194.3221861195
 20
864.7299665879
 30
0.0
 10
194.3150979559
 20
864.7440795677
 30
0.0
 10
194.3112566289
 20
864.744243018
 30
0.0
  0
SPLINE
  5
441
100
AcDbEntity
  8
0
100
AcDbSpline
 62
7
  6
CONTINUOUS
 70
0
 71
3
 72
9
 73
5
 74
0
 42
0.0000001
 43
0.0000001
 44
0.0000000001
 40
0.0
 40
0.0
 40
0.0
 40
0.0
 40
0.2022366639
 40
1.0
 40
1.0
 40
1.0
 40
1.0
 10
194.3220590722
 20
861.2399605105
 30
0.0
 10
194.3220590722
 20
861.2461574884
 30
0.0
 10
194.3210261507
 20
861.2767972944
 30
0.0
 10
194.3172982905
 20
861.3072774887
 30
0.0
 10
194.3137969803
 20
861.3314706717
 30
0.0
  0
SPLINE
  5
442
100
AcDbEntity
  8
0
100
AcDbSpline
 62
7
  6
CONTINUOUS
 70
0
 71
3
 72
9
 73
5
 74
0
 42
0.0000001
 43
0.0000001
 44
0.0000000001
 40
0.0
 40
0.0
 40
0.0
 40
0.0
 40
0.2346951209
 40
1.0
 40
1.0
 40
1.0
 40
1.0
 10
194.311249531
 20
861.3483206515
 30
0.0
 10
194.309402182
 20
861.3600584401
 30
0.0
 10
194.3009250196
 20
861.4099753751
 30
0.0
 10
194.2904322743
 20
861.4595390623
 30
0.0
 10
194.281554643
 20
861.4972545907
 30
0.0
  0
SPLINE
  5
443
100
AcDbEntity
  8
0
100
AcDbSpline
 62
7
  6
CONTINUOUS
 70
0
 71
3
 72
9
 73
5
 74
0
 42
0.0000001
 43
0.0000001
 44
0.0000000001
 40
0.0
 40
0.0
 40
0.0
 40
0.0
 40
0.2601430227
 40
1.0
 40
1.0
 40
1.0
 40
1.0
 10
194.281554643
 20
861.4972545907
 30
0.0
 10
194.2784143864
 20
861.5105955859
 30
0.0
 10
194.265904775
 20
861.5617731408
 30
0.0
 10
194.251792459
 20
861.6125711407
 30
0.0
 10
194.2401405886
 20
861.6497681316
 30
0.0
  0
SPLINE
  5
444
100
AcDbEntity
  8
0
100
AcDbSpline
 62
7
  6
CONTINUOUS
 70
0
 71
3
 72
9
 73
5
 74
0
 42
0.0000001
 43
0.0000001
 44
0.0000000001
 40
0.0
 40
0.0
 40
0.0
 40
0.0
 40
0.2642883044
 40
1.0
 40
1.0
 40
1.0
 40
1.0
 10
194.1684276012
 20
862.5981951283
 30
0.0
 10
194.1692887759
 20
862.6005007449
 30
0.0
 10
194.1726599442
 20
862.6091812534
 30
0.0
 10
194.1765002517
 20
862.617686004
 30
0.0
 10
194.1796615112
 20
862.6237644427
 30
0.0
  0
SPLINE
  5
445
100
AcDbEntity
  8
0
100
AcDbSpline
 62
7
  6
CONTINUOUS
 70
0
 71
3
 72
9
 73
5
 74
0
 42
0.0000001
 43
0.0000001
 44
0.0000000001
 40
0.0
 40
0.0
 40
0.0
 40
0.0
 40
0.2688755459
 40
1.0
 40
1.0
 40
1.0
 40
1.0
 10
194.1796615112
 20
862.6237644427
 30
0.0
 10
194.1808224303
 20
862.6259966466
 30
0.0
 10
194.1853102593
 20
862.6342057668
 30
0.0
 10
194.1905309645
 20
862.6420386616
 30
0.0
 10
194.1948634922
 20
862.6473336348
 30
0.0
  0
SPLINE
  5
446
100
AcDbEntity
  8
0
100
AcDbSpline
 62
7
  6
CONTINUOUS
 70
0
 71
3
 72
8
 73
4
 74
0
 42
0.0000001
 43
0.0000001
 44
0.0000000001
 40
0.0
 40
0.0
 40
0.0
 40
0.0
 40
1.0
 40
1.0
 40
1.0
 40
1.0
 10
194.1948634922
 20
862.6473336348
 30
0.0
 10
194.1981607892
 20
862.6513634069
 30
0.0
 10
194.2017816577
 20
862.6551657993
 30
0.0
 10
194.2057554745
 20
862.6585303216
 30
0.0
  0
SPLINE
  5
447
100
AcDbEntity
  8
0
100
AcDbSpline
 62
7
  6
CONTINUOUS
 70
0
 71
3
 72
9
 73
5
 74
0
 42
0.0000001
 43
0.0000001
 44
0.0000000001
 40
0.0
 40
0.0
 40
0.0
 40
0.0
 40
0.2690120115
 40
1.0
 40
1.0
 40
1.0
 40
1.0
 10
194.2057554745
 20
862.6585303216
 30
0.0
 10
194.208313091
 20
862.6606957857
 30
0.0
 10
194.2183224412
 20
862.6681160282
 30
0.0
 10
194.2310343135
 20
862.672011318
 30
0.0
 10
194.2401405886
 20
862.672011318
 30
0.0
  0
SPLINE
  5
448
100
AcDbEntity
  8
0
100
AcDbSpline
 62
7
  6
CONTINUOUS
 70
0
 71
3
 72
9
 73
5
 74
0
 42
0.0000001
 43
0.0000001
 44
0.0000000001
 40
0.0
 40
0.0
 40
0.0
 40
0.0
 40
0.2170094756
 40
1.0
 40
1.0
 40
1.0
 40
1.0
 10
194.1608453236
 20
862.5752644908
 30
0.0
 10
194.1580599382
 20
862.5657533442
 30
0.0
 10
194.1469047616
 20
862.5214330876
 30
0.0
 10
194.1412258471
 20
862.4758985949
 30
0.0
 10
194.1383636012
 20
862.4402549059
 30
0.0
  0
SPLINE
  5
449
100
AcDbEntity
  8
0
100
AcDbSpline
 62
7
  6
CONTINUOUS
 70
0
 71
3
 72
9
 73
5
 74
0
 42
0.0000001
 43
0.0000001
 44
0.0000000001
 40
0.0
 40
0.0
 40
0.0
 40
0.0
 40
0.2323741202
 40
1.0
 40
1.0
 40
1.0
 40
1.0
 10
194.1372054314
 20
862.424428496
 30
0.0
 10
194.1362991306
 20
862.4107467376
 30
0.0
 10
194.1334268391
 20
862.3518011642
 30
0.0
 10
194.1342079384
 20
862.2927109838
 30
0.0
 10
194.1362637854
 20
862.2474622199
 30
0.0
  0
SPLINE
  5
44A
100
AcDbEntity
  8
0
100
AcDbSpline
 62
7
  6
CONTINUOUS
 70
0
 71
3
 72
9
 73
5
 74
0
 42
0.0000001
 43
0.0000001
 44
0.0000000001
 40
0.0
 40
0.0
 40
0.0
 40
0.0
 40
0.2603724193
 40
1.0
 40
1.0
 40
1.0
 40
1.0
 10
194.1801343468
 20
861.8896002096
 30
0.0
 10
194.1842496813
 20
861.8685357101
 30
0.0
 10
194.2010796792
 20
861.7878425011
 30
0.0
 10
194.2219156796
 20
861.7079486424
 30
0.0
 10
194.2401405886
 20
861.6497681316
 30
0.0
  0
SPLINE
  5
44B
100
AcDbEntity
  8
0
100
AcDbSpline
 62
7
  6
CONTINUOUS
 70
0
 71
3
 72
9
 73
5
 74
0
 42
0.0000001
 43
0.0000001
 44
0.0000000001
 40
0.0
 40
0.0
 40
0.0
 40
0.0
 40
0.2663466676
 40
1.0
 40
1.0
 40
1.0
 40
1.0
 10
194.1362636091
 20
863.6965604971
 30
0.0
 10
194.1355501958
 20
863.6808606326
 30
0.0
 10
194.1335633641
 20
863.6218914601
 30
0.0
 10
194.1343408454
 20
863.5627882464
 30
0.0
 10
194.1372041687
 20
863.5195930581
 30
0.0
  0
SPLINE
  5
44C
100
AcDbEntity
  8
0
100
AcDbSpline
 62
7
  6
CONTINUOUS
 70
0
 71
3
 72
9
 73
5
 74
0
 42
0.0000001
 43
0.0000001
 44
0.0000000001
 40
0.0
 40
0.0
 40
0.0
 40
0.0
 40
0.2824358246
 40
1.0
 40
1.0
 40
1.0
 40
1.0
 10
194.1383633683
 20
863.503763132
 30
0.0
 10
194.1393962449
 20
863.4909088427
 30
0.0
 10
194.1438872393
 20
863.4454956979
 30
0.0
 10
194.1516350217
 20
863.4002045202
 30
0.0
 10
194.1608439003
 20
863.3687621124
 30
0.0
  0
SPLINE
  5
44D
100
AcDbEntity
  8
0
100
AcDbSpline
 62
7
  6
CONTINUOUS
 70
0
 71
3
 72
8
 73
4
 74
0
 42
0.0000001
 43
0.0000001
 44
0.0000000001
 40
0.0
 40
0.0
 40
0.0
 40
0.0
 40
1.0
 40
1.0
 40
1.0
 40
1.0
 10
194.1608439003
 20
863.3687621124
 30
0.0
 10
194.1631073001
 20
863.3610340556
 30
0.0
 10
194.1656100491
 20
863.3533689262
 30
0.0
 10
194.1684276969
 20
863.3458252732
 30
0.0
  0
SPLINE
  5
44E
100
AcDbEntity
  8
0
100
AcDbSpline
 62
7
  6
CONTINUOUS
 70
0
 71
3
 72
9
 73
5
 74
0
 42
0.0000001
 43
0.0000001
 44
0.0000000001
 40
0.0
 40
0.0
 40
0.0
 40
0.0
 40
0.2643974282
 40
1.0
 40
1.0
 40
1.0
 40
1.0
 10
194.1684276969
 20
863.3458252732
 30
0.0
 10
194.1692889972
 20
863.3435193247
 30
0.0
 10
194.1726594293
 20
863.3348412105
 30
0.0
 10
194.176500356
 20
863.3263394102
 30
0.0
 10
194.1796618287
 20
863.3202643022
 30
0.0
  0
SPLINE
  5
44F
100
AcDbEntity
  8
0
100
AcDbSpline
 62
7
  6
CONTINUOUS
 70
0
 71
3
 72
9
 73
5
 74
0
 42
0.0000001
 43
0.0000001
 44
0.0000000001
 40
0.0
 40
0.0
 40
0.0
 40
0.0
 40
0.2687755463
 40
1.0
 40
1.0
 40
1.0
 40
1.0
 10
194.1796618287
 20
863.3202643022
 30
0.0
 10
194.1808230126
 20
863.3180329631
 30
0.0
 10
194.185313503
 20
863.3098240728
 30
0.0
 10
194.1905337614
 20
863.3019898773
 30
0.0
 10
194.1948662325
 20
863.296692627
 30
0.0
  0
SPLINE
  5
450
100
AcDbEntity
  8
0
100
AcDbSpline
 62
7
  6
CONTINUOUS
 70
0
 71
3
 72
8
 73
4
 74
0
 42
0.0000001
 43
0.0000001
 44
0.0000000001
 40
0.0
 40
0.0
 40
0.0
 40
0.0
 40
1.0
 40
1.0
 40
1.0
 40
1.0
 10
194.1948662325
 20
863.296692627
 30
0.0
 10
194.1981622519
 20
863.2926626313
 30
0.0
 10
194.2017813852
 20
863.2888595281
 30
0.0
 10
194.2057536728
 20
863.2854941841
 30
0.0
  0
SPLINE
  5
451
100
AcDbEntity
  8
0
100
AcDbSpline
 62
7
  6
CONTINUOUS
 70
0
 71
3
 72
9
 73
5
 74
0
 42
0.0000001
 43
0.0000001
 44
0.0000000001
 40
0.0
 40
0.0
 40
0.0
 40
0.0
 40
0.2689342019
 40
1.0
 40
1.0
 40
1.0
 40
1.0
 10
194.2057536728
 20
863.2854941841
 30
0.0
 10
194.2083101131
 20
863.2833283538
 30
0.0
 10
194.2183166567
 20
863.2759017944
 30
0.0
 10
194.231032506
 20
863.272011318
 30
0.0
 10
194.2401405886
 20
863.272011318
 30
0.0
  0
SPLINE
  5
452
100
AcDbEntity
  8
0
100
AcDbSpline
 62
7
  6
CONTINUOUS
 70
0
 71
3
 72
9
 73
5
 74
0
 42
0.0000001
 43
0.0000001
 44
0.0000000001
 40
0.0
 40
0.0
 40
0.0
 40
0.0
 40
0.2953328549
 40
1.0
 40
1.0
 40
1.0
 40
1.0
 10
194.2451922567
 20
861.3339368921
 30
0.0
 10
194.2484822824
 20
861.3238190725
 30
0.0
 10
194.2600495175
 20
861.2897216821
 30
0.0
 10
194.2728667693
 20
861.2559041196
 30
0.0
 10
194.2842434057
 20
861.2332106486
 30
0.0
  0
SPLINE
  5
453
100
AcDbEntity
  8
0
100
AcDbSpline
 62
7
  6
CONTINUOUS
 70
0
 71
3
 72
9
 73
5
 74
0
 42
0.0000001
 43
0.0000001
 44
0.0000000001
 40
0.0
 40
0.0
 40
0.0
 40
0.0
 40
0.6663757381
 40
1.0
 40
1.0
 40
1.0
 40
1.0
 10
194.2842434057
 20
861.2332106486
 30
0.0
 10
194.2885850102
 20
861.2245502615
 30
0.0
 10
194.2950023879
 20
861.2127920361
 30
0.0
 10
194.3061698072
 20
861.1997733508
 30
0.0
 10
194.3110200071
 20
861.1997688457
 30
0.0
  0
SPLINE
  5
454
100
AcDbEntity
  8
0
100
AcDbSpline
 62
7
  6
CONTINUOUS
 70
0
 71
3
 72
11
 73
7
 74
0
 42
0.0000001
 43
0.0000001
 44
0.0000000001
 40
0.0
 40
0.0
 40
0.0
 40
0.0
 40
0.1016886042
 40
0.307243536
 40
0.6123586171
 40
1.0
 40
1.0
 40
1.0
 40
1.0
 10
194.311020286
 20
864.7442480475
 30
0.0
 10
194.3058790506
 20
864.7442491854
 30
0.0
 10
194.2942283837
 20
864.7300317155
 30
0.0
 10
194.2804483948
 20
864.7044193731
 30
0.0
 10
194.2625897993
 20
864.6615790468
 30
0.0
 10
194.2512528047
 20
864.6287237536
 30
0.0
 10
194.2451922567
 20
864.610085744
 30
0.0
  0
SPLINE
  5
455
100
AcDbEntity
  8
0
100
AcDbSpline
 62
7
  6
CONTINUOUS
 70
0
 71
3
 72
12
 73
8
 74
0
 42
0.0000001
 43
0.0000001
 44
0.0000000001
 40
0.0
 40
0.0
 40
0.0
 40
0.0
 40
0.1172589577
 40
0.2116773734
 40
0.3318572296
 40
0.6385565566
 40
1.0
 40
1.0
 40
1.0
 40
1.0
 10
194.2401405886
 20
1032.172011318
 30
0.0
 10
194.252769571
 20
1032.172011318
 30
0.0
 10
194.2717953418
 20
1032.1920041724
 30
0.0
 10
194.2865146285
 20
1032.2232558313
 30
0.0
 10
194.3044044226
 20
1032.2771840277
 30
0.0
 10
194.3181750781
 20
1032.361013733
 30
0.0
 10
194.3220589861
 20
1032.4330832652
 30
0.0
 10
194.3220589861
 20
1032.472011318
 30
0.0
  0
SPLINE
  5
456
100
AcDbEntity
  8
0
100
AcDbSpline
 62
7
  6
CONTINUOUS
 70
0
 71
3
 72
12
 73
8
 74
0
 42
0.0000001
 43
0.0000001
 44
0.0000000001
 40
0.0
 40
0.0
 40
0.0
 40
0.0
 40
0.361451865
 40
0.6681349907
 40
0.7883114625
 40
0.8827307314
 40
1.0
 40
1.0
 40
1.0
 40
1.0
 10
194.3220589861
 20
1032.472011318
 30
0.0
 10
194.3220589861
 20
1032.5109402812
 30
0.0
 10
194.3181754024
 20
1032.5830090958
 30
0.0
 10
194.3044040226
 20
1032.6668372765
 30
0.0
 10
194.2865163445
 20
1032.720764066
 30
0.0
 10
194.2717969778
 20
1032.7520164703
 30
0.0
 10
194.2527706826
 20
1032.772011318
 30
0.0
 10
194.2401405886
 20
1032.772011318
 30
0.0
  0
SPLINE
  5
457
100
AcDbEntity
  8
0
100
AcDbSpline
 62
7
  6
CONTINUOUS
 70
0
 71
3
 72
9
 73
5
 74
0
 42
0.0000001
 43
0.0000001
 44
0.0000000001
 40
0.0
 40
0.0
 40
0.0
 40
0.0
 40
0.2605066869
 40
1.0
 40
1.0
 40
1.0
 40
1.0
 10
194.18013629
 20
1033.5544228408
 30
0.0
 10
194.1842532207
 20
1033.5754982344
 30
0.0
 10
194.2010818608
 20
1033.6561914756
 30
0.0
 10
194.2219190472
 20
1033.7360847444
 30
0.0
 10
194.2401405886
 20
1033.7942545045
 30
0.0
  0
SPLINE
  5
458
100
AcDbEntity
  8
0
100
AcDbSpline
 62
7
  6
CONTINUOUS
 70
0
 71
3
 72
9
 73
5
 74
0
 42
0.0000001
 43
0.0000001
 44
0.0000000001
 40
0.0
 40
0.0
 40
0.0
 40
0.0
 40
0.2358064597
 40
1.0
 40
1.0
 40
1.0
 40
1.0
 10
194.2401405886
 20
1033.7942545045
 30
0.0
 10
194.2437936305
 20
1033.8059163373
 30
0.0
 10
194.2587502064
 20
1033.8555382585
 30
0.0
 10
194.2718490228
 20
1033.9057133725
 30
0.0
 10
194.2809630869
 20
1033.9442545045
 30
0.0
  0
SPLINE
  5
459
100
AcDbEntity
  8
0
100
AcDbSpline
 62
7
  6
CONTINUOUS
 70
0
 71
3
 72
9
 73
5
 74
0
 42
0.0000001
 43
0.0000001
 44
0.0000000001
 40
0.0
 40
0.0
 40
0.0
 40
0.0
 40
0.2616537789
 40
1.0
 40
1.0
 40
1.0
 40
1.0
 10
194.2809630933
 20
1033.9442545045
 30
0.0
 10
194.2841804347
 20
1033.9578598488
 30
0.0
 10
194.2960149546
 20
1034.0099625057
 30
0.0
 10
194.3061704798
 20
1034.0624689801
 30
0.0
 10
194.3121457644
 20
1034.1014648703
 30
0.0
  0
SPLINE
  5
45A
100
AcDbEntity
  8
0
100
AcDbSpline
 62
7
  6
CONTINUOUS
 70
0
 71
3
 72
9
 73
5
 74
0
 42
0.0000001
 43
0.0000001
 44
0.0000000001
 40
0.0
 40
0.0
 40
0.0
 40
0.0
 40
0.2932562723
 40
1.0
 40
1.0
 40
1.0
 40
1.0
 10
194.3179470492
 20
1034.1443216435
 30
0.0
 10
194.3186877978
 20
1034.150762758
 30
0.0
 10
194.3209587743
 20
1034.1727457703
 30
0.0
 10
194.3223911205
 20
1034.1948813658
 30
0.0
 10
194.3219769552
 20
1034.2105011909
 30
0.0
  0
SPLINE
  5
45B
100
AcDbEntity
  8
0
100
AcDbSpline
 62
7
  6
CONTINUOUS
 70
0
 71
3
 72
9
 73
5
 74
0
 42
0.0000001
 43
0.0000001
 44
0.0000000001
 40
0.0
 40
0.0
 40
0.0
 40
0.0
 40
0.6861879507
 40
1.0
 40
1.0
 40
1.0
 40
1.0
 10
194.3219769552
 20
1034.2105011909
 30
0.0
 10
194.3217541156
 20
1034.2189053631
 30
0.0
 10
194.3221861195
 20
1034.2299665879
 30
0.0
 10
194.315097956
 20
1034.2440795677
 30
0.0
 10
194.3112566289
 20
1034.244243018
 30
0.0
  0
SPLINE
  5
45C
100
AcDbEntity
  8
0
100
AcDbSpline
 62
7
  6
CONTINUOUS
 70
0
 71
3
 72
9
 73
5
 74
0
 42
0.0000001
 43
0.0000001
 44
0.0000000001
 40
0.0
 40
0.0
 40
0.0
 40
0.0
 40
0.2022366639
 40
1.0
 40
1.0
 40
1.0
 40
1.0
 10
194.3220590722
 20
1030.7399605105
 30
0.0
 10
194.3220590722
 20
1030.7461574884
 30
0.0
 10
194.3210261507
 20
1030.7767972944
 30
0.0
 10
194.3172982905
 20
1030.8072774887
 30
0.0
 10
194.3137969803
 20
1030.8314706717
 30
0.0
  0
SPLINE
  5
45D
100
AcDbEntity
  8
0
100
AcDbSpline
 62
7
  6
CONTINUOUS
 70
0
 71
3
 72
9
 73
5
 74
0
 42
0.0000001
 43
0.0000001
 44
0.0000000001
 40
0.0
 40
0.0
 40
0.0
 40
0.0
 40
0.2346951209
 40
1.0
 40
1.0
 40
1.0
 40
1.0
 10
194.311249531
 20
1030.8483206515
 30
0.0
 10
194.309402182
 20
1030.8600584401
 30
0.0
 10
194.3009250196
 20
1030.9099753751
 30
0.0
 10
194.2904322743
 20
1030.9595390623
 30
0.0
 10
194.281554643
 20
1030.9972545907
 30
0.0
  0
SPLINE
  5
45E
100
AcDbEntity
  8
0
100
AcDbSpline
 62
7
  6
CONTINUOUS
 70
0
 71
3
 72
9
 73
5
 74
0
 42
0.0000001
 43
0.0000001
 44
0.0000000001
 40
0.0
 40
0.0
 40
0.0
 40
0.0
 40
0.2601430227
 40
1.0
 40
1.0
 40
1.0
 40
1.0
 10
194.281554643
 20
1030.9972545907
 30
0.0
 10
194.2784143864
 20
1031.0105955859
 30
0.0
 10
194.265904775
 20
1031.0617731408
 30
0.0
 10
194.251792459
 20
1031.1125711407
 30
0.0
 10
194.2401405886
 20
1031.1497681316
 30
0.0
  0
SPLINE
  5
45F
100
AcDbEntity
  8
0
100
AcDbSpline
 62
7
  6
CONTINUOUS
 70
0
 71
3
 72
9
 73
5
 74
0
 42
0.0000001
 43
0.0000001
 44
0.0000000001
 40
0.0
 40
0.0
 40
0.0
 40
0.0
 40
0.2642883044
 40
1.0
 40
1.0
 40
1.0
 40
1.0
 10
194.1684276012
 20
1032.0981951283
 30
0.0
 10
194.1692887759
 20
1032.1005007449
 30
0.0
 10
194.1726599442
 20
1032.1091812534
 30
0.0
 10
194.1765002517
 20
1032.117686004
 30
0.0
 10
194.1796615112
 20
1032.1237644427
 30
0.0
  0
SPLINE
  5
460
100
AcDbEntity
  8
0
100
AcDbSpline
 62
7
  6
CONTINUOUS
 70
0
 71
3
 72
9
 73
5
 74
0
 42
0.0000001
 43
0.0000001
 44
0.0000000001
 40
0.0
 40
0.0
 40
0.0
 40
0.0
 40
0.2688755459
 40
1.0
 40
1.0
 40
1.0
 40
1.0
 10
194.1796615112
 20
1032.1237644427
 30
0.0
 10
194.1808224303
 20
1032.1259966466
 30
0.0
 10
194.1853102593
 20
1032.1342057668
 30
0.0
 10
194.1905309645
 20
1032.1420386616
 30
0.0
 10
194.1948634922
 20
1032.1473336348
 30
0.0
  0
SPLINE
  5
461
100
AcDbEntity
  8
0
100
AcDbSpline
 62
7
  6
CONTINUOUS
 70
0
 71
3
 72
8
 73
4
 74
0
 42
0.0000001
 43
0.0000001
 44
0.0000000001
 40
0.0
 40
0.0
 40
0.0
 40
0.0
 40
1.0
 40
1.0
 40
1.0
 40
1.0
 10
194.1948634922
 20
1032.1473336348
 30
0.0
 10
194.1981607892
 20
1032.1513634069
 30
0.0
 10
194.2017816577
 20
1032.1551657993
 30
0.0
 10
194.2057554745
 20
1032.1585303216
 30
0.0
  0
SPLINE
  5
462
100
AcDbEntity
  8
0
100
AcDbSpline
 62
7
  6
CONTINUOUS
 70
0
 71
3
 72
9
 73
5
 74
0
 42
0.0000001
 43
0.0000001
 44
0.0000000001
 40
0.0
 40
0.0
 40
0.0
 40
0.0
 40
0.2690120115
 40
1.0
 40
1.0
 40
1.0
 40
1.0
 10
194.2057554745
 20
1032.1585303216
 30
0.0
 10
194.208313091
 20
1032.1606957857
 30
0.0
 10
194.2183224412
 20
1032.1681160282
 30
0.0
 10
194.2310343135
 20
1032.172011318
 30
0.0
 10
194.2401405886
 20
1032.172011318
 30
0.0
  0
SPLINE
  5
463
100
AcDbEntity
  8
0
100
AcDbSpline
 62
7
  6
CONTINUOUS
 70
0
 71
3
 72
9
 73
5
 74
0
 42
0.0000001
 43
0.0000001
 44
0.0000000001
 40
0.0
 40
0.0
 40
0.0
 40
0.0
 40
0.2170094756
 40
1.0
 40
1.0
 40
1.0
 40
1.0
 10
194.1608453236
 20
1032.0752644908
 30
0.0
 10
194.1580599382
 20
1032.0657533442
 30
0.0
 10
194.1469047616
 20
1032.0214330876
 30
0.0
 10
194.1412258471
 20
1031.9758985949
 30
0.0
 10
194.1383636012
 20
1031.9402549059
 30
0.0
  0
SPLINE
  5
464
100
AcDbEntity
  8
0
100
AcDbSpline
 62
7
  6
CONTINUOUS
 70
0
 71
3
 72
9
 73
5
 74
0
 42
0.0000001
 43
0.0000001
 44
0.0000000001
 40
0.0
 40
0.0
 40
0.0
 40
0.0
 40
0.2323741202
 40
1.0
 40
1.0
 40
1.0
 40
1.0
 10
194.1372054314
 20
1031.924428496
 30
0.0
 10
194.1362991306
 20
1031.9107467376
 30
0.0
 10
194.1334268391
 20
1031.8518011642
 30
0.0
 10
194.1342079384
 20
1031.7927109838
 30
0.0
 10
194.1362637854
 20
1031.7474622199
 30
0.0
  0
SPLINE
  5
465
100
AcDbEntity
  8
0
100
AcDbSpline
 62
7
  6
CONTINUOUS
 70
0
 71
3
 72
9
 73
5
 74
0
 42
0.0000001
 43
0.0000001
 44
0.0000000001
 40
0.0
 40
0.0
 40
0.0
 40
0.0
 40
0.2603724193
 40
1.0
 40
1.0
 40
1.0
 40
1.0
 10
194.1801343468
 20
1031.3896002096
 30
0.0
 10
194.1842496813
 20
1031.3685357101
 30
0.0
 10
194.2010796792
 20
1031.2878425011
 30
0.0
 10
194.2219156796
 20
1031.2079486424
 30
0.0
 10
194.2401405886
 20
1031.1497681316
 30
0.0
  0
SPLINE
  5
466
100
AcDbEntity
  8
0
100
AcDbSpline
 62
7
  6
CONTINUOUS
 70
0
 71
3
 72
9
 73
5
 74
0
 42
0.0000001
 43
0.0000001
 44
0.0000000001
 40
0.0
 40
0.0
 40
0.0
 40
0.0
 40
0.2663466676
 40
1.0
 40
1.0
 40
1.0
 40
1.0
 10
194.1362636091
 20
1033.1965604971
 30
0.0
 10
194.1355501958
 20
1033.1808606326
 30
0.0
 10
194.1335633641
 20
1033.1218914601
 30
0.0
 10
194.1343408454
 20
1033.0627882464
 30
0.0
 10
194.1372041687
 20
1033.0195930581
 30
0.0
  0
SPLINE
  5
467
100
AcDbEntity
  8
0
100
AcDbSpline
 62
7
  6
CONTINUOUS
 70
0
 71
3
 72
9
 73
5
 74
0
 42
0.0000001
 43
0.0000001
 44
0.0000000001
 40
0.0
 40
0.0
 40
0.0
 40
0.0
 40
0.2824358246
 40
1.0
 40
1.0
 40
1.0
 40
1.0
 10
194.1383633683
 20
1033.003763132
 30
0.0
 10
194.1393962449
 20
1032.9909088427
 30
0.0
 10
194.1438872393
 20
1032.9454956979
 30
0.0
 10
194.1516350217
 20
1032.9002045202
 30
0.0
 10
194.1608439003
 20
1032.8687621124
 30
0.0
  0
SPLINE
  5
468
100
AcDbEntity
  8
0
100
AcDbSpline
 62
7
  6
CONTINUOUS
 70
0
 71
3
 72
8
 73
4
 74
0
 42
0.0000001
 43
0.0000001
 44
0.0000000001
 40
0.0
 40
0.0
 40
0.0
 40
0.0
 40
1.0
 40
1.0
 40
1.0
 40
1.0
 10
194.1608439003
 20
1032.8687621124
 30
0.0
 10
194.1631073001
 20
1032.8610340556
 30
0.0
 10
194.1656100491
 20
1032.8533689262
 30
0.0
 10
194.1684276969
 20
1032.8458252732
 30
0.0
  0
SPLINE
  5
469
100
AcDbEntity
  8
0
100
AcDbSpline
 62
7
  6
CONTINUOUS
 70
0
 71
3
 72
9
 73
5
 74
0
 42
0.0000001
 43
0.0000001
 44
0.0000000001
 40
0.0
 40
0.0
 40
0.0
 40
0.0
 40
0.2643974282
 40
1.0
 40
1.0
 40
1.0
 40
1.0
 10
194.1684276969
 20
1032.8458252732
 30
0.0
 10
194.1692889972
 20
1032.8435193247
 30
0.0
 10
194.1726594293
 20
1032.8348412105
 30
0.0
 10
194.176500356
 20
1032.8263394102
 30
0.0
 10
194.1796618287
 20
1032.8202643022
 30
0.0
  0
SPLINE
  5
46A
100
AcDbEntity
  8
0
100
AcDbSpline
 62
7
  6
CONTINUOUS
 70
0
 71
3
 72
9
 73
5
 74
0
 42
0.0000001
 43
0.0000001
 44
0.0000000001
 40
0.0
 40
0.0
 40
0.0
 40
0.0
 40
0.2687755463
 40
1.0
 40
1.0
 40
1.0
 40
1.0
 10
194.1796618287
 20
1032.8202643022
 30
0.0
 10
194.1808230126
 20
1032.8180329631
 30
0.0
 10
194.185313503
 20
1032.8098240728
 30
0.0
 10
194.1905337614
 20
1032.8019898773
 30
0.0
 10
194.1948662325
 20
1032.796692627
 30
0.0
  0
SPLINE
  5
46B
100
AcDbEntity
  8
0
100
AcDbSpline
 62
7
  6
CONTINUOUS
 70
0
 71
3
 72
8
 73
4
 74
0
 42
0.0000001
 43
0.0000001
 44
0.0000000001
 40
0.0
 40
0.0
 40
0.0
 40
0.0
 40
1.0
 40
1.0
 40
1.0
 40
1.0
 10
194.1948662325
 20
1032.796692627
 30
0.0
 10
194.1981622519
 20
1032.7926626313
 30
0.0
 10
194.2017813852
 20
1032.7888595281
 30
0.0
 10
194.2057536728
 20
1032.7854941841
 30
0.0
  0
SPLINE
  5
46C
100
AcDbEntity
  8
0
100
AcDbSpline
 62
7
  6
CONTINUOUS
 70
0
 71
3
 72
9
 73
5
 74
0
 42
0.0000001
 43
0.0000001
 44
0.0000000001
 40
0.0
 40
0.0
 40
0.0
 40
0.0
 40
0.2689342019
 40
1.0
 40
1.0
 40
1.0
 40
1.0
 10
194.2057536728
 20
1032.7854941841
 30
0.0
 10
194.2083101131
 20
1032.7833283538
 30
0.0
 10
194.2183166567
 20
1032.7759017944
 30
0.0
 10
194.231032506
 20
1032.772011318
 30
0.0
 10
194.2401405886
 20
1032.772011318
 30
0.0
  0
SPLINE
  5
46D
100
AcDbEntity
  8
0
100
AcDbSpline
 62
7
  6
CONTINUOUS
 70
0
 71
3
 72
9
 73
5
 74
0
 42
0.0000001
 43
0.0000001
 44
0.0000000001
 40
0.0
 40
0.0
 40
0.0
 40
0.0
 40
0.2953328549
 40
1.0
 40
1.0
 40
1.0
 40
1.0
 10
194.2451922567
 20
1030.8339368921
 30
0.0
 10
194.2484822824
 20
1030.8238190725
 30
0.0
 10
194.2600495175
 20
1030.7897216821
 30
0.0
 10
194.2728667693
 20
1030.7559041196
 30
0.0
 10
194.2842434057
 20
1030.7332106486
 30
0.0
  0
SPLINE
  5
46E
100
AcDbEntity
  8
0
100
AcDbSpline
 62
7
  6
CONTINUOUS
 70
0
 71
3
 72
9
 73
5
 74
0
 42
0.0000001
 43
0.0000001
 44
0.0000000001
 40
0.0
 40
0.0
 40
0.0
 40
0.0
 40
0.6663757381
 40
1.0
 40
1.0
 40
1.0
 40
1.0
 10
194.2842434057
 20
1030.7332106486
 30
0.0
 10
194.2885850102
 20
1030.7245502615
 30
0.0
 10
194.2950023879
 20
1030.7127920361
 30
0.0
 10
194.3061698072
 20
1030.6997733508
 30
0.0
 10
194.3110200071
 20
1030.6997688457
 30
0.0
  0
SPLINE
  5
46F
100
AcDbEntity
  8
0
100
AcDbSpline
 62
7
  6
CONTINUOUS
 70
0
 71
3
 72
11
 73
7
 74
0
 42
0.0000001
 43
0.0000001
 44
0.0000000001
 40
0.0
 40
0.0
 40
0.0
 40
0.0
 40
0.1016886042
 40
0.307243536
 40
0.6123586171
 40
1.0
 40
1.0
 40
1.0
 40
1.0
 10
194.311020286
 20
1034.2442480475
 30
0.0
 10
194.3058790506
 20
1034.2442491854
 30
0.0
 10
194.2942283837
 20
1034.2300317155
 30
0.0
 10
194.2804483948
 20
1034.2044193731
 30
0.0
 10
194.2625897993
 20
1034.1615790468
 30
0.0
 10
194.2512528047
 20
1034.1287237536
 30
0.0
 10
194.2451922567
 20
1034.110085744
 30
0.0
  0
SPLINE
  5
470
100
AcDbEntity
  8
0
100
AcDbSpline
 62
7
  6
CONTINUOUS
 70
0
 71
3
 72
8
 73
4
 74
0
 42
0.0000001
 43
0.0000001
 44
0.0000000001
 40
0.0
 40
0.0
 40
0.0
 40
0.0
 40
1.0
 40
1.0
 40
1.0
 40
1.0
 10
1106.1067186021
 20
1058.4543682801
 30
0.0
 10
1106.0472899632
 20
1058.500462914
 30
0.0
 10
1105.9794434366
 20
1058.5396388202
 30
0.0
 10
1105.9067186021
 20
1058.5588111142
 30
0.0
  0
SPLINE
  5
471
100
AcDbEntity
  8
0
100
AcDbSpline
 62
7
  6
CONTINUOUS
 70
0
 71
3
 72
9
 73
5
 74
0
 42
0.0000001
 43
0.0000001
 44
0.0000000001
 40
0.0
 40
0.0
 40
0.0
 40
0.0
 40
0.5043322132
 40
1.0
 40
1.0
 40
1.0
 40
1.0
 10
1105.9067186021
 20
1058.5588111142
 30
0.0
 10
1105.8902875556
 20
1058.5631427962
 30
0.0
 10
1105.8571481086
 20
1058.5697600617
 30
0.0
 10
1105.8234191045
 20
1058.572011318
 30
0.0
 10
1105.8067186021
 20
1058.572011318
 30
0.0
  0
SPLINE
  5
472
100
AcDbEntity
  8
0
100
AcDbSpline
 62
7
  6
CONTINUOUS
 70
0
 71
3
 72
8
 73
4
 74
0
 42
0.0000001
 43
0.0000001
 44
0.0000000001
 40
0.0
 40
0.0
 40
0.0
 40
0.0
 40
1.0
 40
1.0
 40
1.0
 40
1.0
 10
175.4067186021
 20
1058.572011318
 30
0.0
 10
175.2993046136
 20
1058.572011318
 30
0.0
 10
175.1915943396
 20
1058.5202004465
 30
0.0
 10
175.1067186021
 20
1058.4543682802
 30
0.0
  0
ENDSEC
  0
SECTION
  2
OBJECTS
  0
DICTIONARY
  5
C
100
AcDbDictionary
280
0
281
1
  3
ACAD_GROUP
350
D
  3
ACAD_MLINESTYLE
350
17
  3
ACAD_LAYOUT
350
1A
  3
ACAD_PLOTSETTINGS
350
19
  3
ACAD_PLOTSTYLENAME
350
E
  0
DICTIONARY
  5
D
102
{ACAD_REACTORS
330
C
102
}
100
AcDbDictionary
280
0
281
1
  0
ACDBDICTIONARYWDFLT
  5
E
102
{ACAD_REACTORS
330
C
102
}
100
AcDbDictionary
281
1
  3
Normal
350
F
100
AcDbDictionaryWithDefault
340
F
  0
DICTIONARY
  5
17
102
{ACAD_REACTORS
330
C
102
}
100
AcDbDictionary
280
0
281
1
  3
Standard
350
18
  0
DICTIONARY
  5
19
102
{ACAD_REACTORS
330
C
102
}
100
AcDbDictionary
281
1
  0
DICTIONARY
  5
1A
102
{ACAD_REACTORS
330
C
102
}
100
AcDbDictionary
281
1
  3
Model
350
473
  3
Layout1
350
474
  0
ACDBPLACEHOLDER
  5
F
102
{ACAD_REACTORS
330
E
102
}
  0
MLINESTYLE
  5
18
102
{ACAD_REACTORS
330
17
102
}
100
AcDbMlineStyle
  2
STANDARD
 70
0
  3

 62
256
 51
90.0
 52
90.0
 71
2
 49
0.5
 62
256
  6
BYLAYER
 49
-0.5
 62
256
  6
BYLAYER
  0
LAYOUT
  5
473
102
{ACAD_REACTORS
330
1A
102
}
100
AcDbPlotSettings
  1

  2
none_device
  4

  6

 40
0.0
 41
0.0
 42
0.0
 43
0.0
 44
210.0
 45
297.0
 46
0.0
 47
0.0
 48
0.0
 49
0.0
140
0.0
141
0.0
142
1.0
143
1.0
 70
1024
 72
1
 73
0
 74
0
  7

 75
0
147
1.0
148
0.0
149
0.0
100
AcDbLayout
  1
Model
 70
0
 71
0
 10
0.0
 20
0.0
 11
210.0
 21
297.0
 12
0.0
 22
0.0
 32
0.0
 14
0.0
 24
0.0
 34
0.0
 15
0.0
 25
0.0
 35
0.0
146
0.0
 13
0.0
 23
0.0
 33
0.0
 16
1.0
 26
0.0
 36
0.0
 17
0.0
 27
1.0
 37
0.0
 76
0
330
210
345
0
346
0
  0
LAYOUT
  5
474
102
{ACAD_REACTORS
330
1A
102
}
100
AcDbPlotSettings
  1

  2
none_device
  4

  6

 40
0.0
 41
0.0
 42
0.0
 43
0.0
 44
210.0
 45
297.0
 46
0.0
 47
0.0
 48
0.0
 49
0.0
140
0.0
141
0.0
142
1.0
143
1.0
 70
0
 72
1
 73
0
 74
0
  7

 75
0
147
1.0
148
0.0
149
0.0
100
AcDbLayout
  1
Layout1
 70
0
 71
1
 10
0.0
 20
0.0
 11
210.0
 21
297.0
 12
0.0
 22
0.0
 32
0.0
 14
0.0
 24
0.0
 34
0.0
 15
0.0
 25
0.0
 35
0.0
146
0.0
 13
0.0
 23
0.0
 33
0.0
 16
1.0
 26
0.0
 36
0.0
 17
0.0
 27
1.0
 37
0.0
 76
0
330
211
345
0
346
0
  0
ENDSEC
  0
EOF
