999
DXF file: C:\Users\sesa63760\Dev\_Creo\CAD\MCADID0000887_3D-CAD\drw0001_5.dxf
999
Pro/ENGINEER 2019471 by Parametric Technology Corporation
  0
SECTION
  2
HEADER
  9
$ACADVER
  1
AC1024
  9
$DWGCODEPAGE
  3
ANSI_1252
  9
$EXTMAX
 10
836.9391078541
 20
1183.6710239651
 30
0.0
  9
$EXTMIN
 10
0.0
 20
0.0
 30
0.0
  9
$LIMMIN
 10
0.0
 20
0.0
  9
$LIMMAX
 10
836.9391078541
 20
1183.6710239651
  9
$VIEWCTR
 10
418.4695539271
 20
591.8355119826
  9
$VIEWSIZE
 40
1183.6710239651
  9
$CLAYER
  8
0
  9
$LTSCALE
 40
77.1578148955
  9
$CELTYPE
  6
BYLAYER
  9
$DIMSCALE
 40
1.0
  9
$DIMASZ
 40
9.9635608078
  9
$DIMEXO
 40
1.0
  9
$DIMDLI
 40
53.309035746
  9
$DIMEXE
 40
1.0
  9
$DIMCEN
 40
12.6258242556
  9
$DIMLFAC
 40
1.0
  9
$DIMBLK
  1
_FILLED
  9
$DIMALT
 70
0
  9
$DIMALTF
 40
0.0393700787
  9
$DIMTXT
 40
13.9489851309
  9
$DIMTOL
 70
1
  9
$DIMLIM
 70
0
  9
$DIMTFAC
 40
1.0
  9
$DIMTP
 40
0.01
  9
$DIMTM
 40
0.01
  9
$DIMGAP
 40
0.625
  9
$DIMDSEP
 70
46
  9
$AUNITS
 70
0
  9
$PDMODE
 70
3
  9
$PDSIZE
 40
0.3125
  9
$HANDSEED
  5
3A6
  9
$TILEMODE
 70
1
  9
$MEASUREMENT
 70
1
  9
$INSUNITS
 70
4
  0
ENDSEC
  0
SECTION
  2
CLASSES
  0
CLASS
  1
ACDBDICTIONARYWDFLT
  2
AcDbDictionaryWithDefault
  3
AutoCAD 2000
 90
0
 91
1
280
0
281
0
  0
CLASS
  1
ACDBPLACEHOLDER
  2
AcDbPlaceHolder
  3
AutoCAD 2000
 90
0
 91
1
280
0
281
0
  0
CLASS
  1
LAYOUT
  2
AcDbLayout
  3
AutoCAD 2000
 90
0
 91
0
280
0
281
0
  0
ENDSEC
  0
SECTION
  2
TABLES
  0
TABLE
  2
VPORT
  5
8
100
AcDbSymbolTable
 70
2
  0
VPORT
  5
1F4
100
AcDbSymbolTableRecord
100
AcDbViewportTableRecord
  2
*ACTIVE
 70
0
 10
0.0
 20
0.0
 11
1.0
 21
1.0
 12
418.4695539271
 22
591.8355119826
 13
0.0
 23
0.0
 14
1.0
 24
1.0
 15
0.0
 25
0.0
 16
0.0
 26
0.0
 36
1.0
 17
0.0
 27
0.0
 37
0.0
 40
1183.6710239651
 41
0.7070707071
 42
50.0
 43
0.0
 44
0.0
 50
0.0
 51
0.0
 71
0
 72
100
 73
1
 74
1
 75
0
 76
0
 77
0
 78
0
  0
ENDTAB
  0
TABLE
  2
LTYPE
  5
5
100
AcDbSymbolTable
 70
6
  0
LTYPE
  5
14
100
AcDbSymbolTableRecord
100
AcDbLinetypeTableRecord
  2
BYBLOCK
 70
0
  3

 72
65
 73
0
 40
0.0
  0
LTYPE
  5
15
100
AcDbSymbolTableRecord
100
AcDbLinetypeTableRecord
  2
BYLAYER
 70
0
  3

 72
65
 73
0
 40
0.0
  0
LTYPE
  5
16
100
AcDbSymbolTableRecord
100
AcDbLinetypeTableRecord
  2
CONTINUOUS
 70
64
  3
Solid line
 72
65
 73
0
 40
0.0
  0
LTYPE
  5
1F5
100
AcDbSymbolTableRecord
100
AcDbLinetypeTableRecord
  2
CENTER
 70
64
  3
____ _ ____ _ ____ _ ____ _ ____ _ ____ _ ____
 72
65
 73
4
 40
0.6
 49
0.375
 74
0
 49
-0.075
 74
0
 49
0.075
 74
0
 49
-0.075
 74
0
  0
LTYPE
  5
1F6
100
AcDbSymbolTableRecord
100
AcDbLinetypeTableRecord
  2
HIDDEN
 70
64
  3
- - - - - - - - - - - - - - - - - - - -
 72
65
 73
2
 40
0.2
 49
0.1
 74
0
 49
-0.1
 74
0
  0
LTYPE
  5
1F7
100
AcDbSymbolTableRecord
100
AcDbLinetypeTableRecord
  2
PHANTOM
 70
64
  3
_____ _ _ _____ _ _ _____ _ _ _____
 72
65
 73
6
 40
0.8
 49
0.45
 74
0
 49
-0.05
 74
0
 49
0.1
 74
0
 49
-0.05
 74
0
 49
0.1
 74
0
 49
-0.05
 74
0
  0
LTYPE
  5
1F8
100
AcDbSymbolTableRecord
100
AcDbLinetypeTableRecord
  2
DOT
 70
64
  3
. . . . . . . . . . . . . . . . . . . .
 72
65
 73
2
 40
0.2
 49
0.1
 74
0
 49
-0.1
 74
0
  0
LTYPE
  5
1F9
100
AcDbSymbolTableRecord
100
AcDbLinetypeTableRecord
  2
DASHED
 70
64
  3
- - - - - - - - - - - - - - - - - - - -
 72
65
 73
2
 40
0.2
 49
0.1
 74
0
 49
-0.1
 74
0
  0
ENDTAB
  0
TABLE
  2
LAYER
  5
2
100
AcDbSymbolTable
 70
36
  0
LAYER
  5
10
100
AcDbSymbolTableRecord
100
AcDbLayerTableRecord
  2
0
 70
0
 62
7
  6
CONTINUOUS
370
-3
390
F
  0
LAYER
  5
1FA
100
AcDbSymbolTableRecord
100
AcDbLayerTableRecord
  2
DEFAULT_1
 70
0
 62
7
  6
CENTER
370
-3
390
F
  0
LAYER
  5
1FB
100
AcDbSymbolTableRecord
100
AcDbLayerTableRecord
  2
DEFAULT_2
 70
0
 62
8
  6
HIDDEN
370
-3
390
F
  0
LAYER
  5
1FC
100
AcDbSymbolTableRecord
100
AcDbLayerTableRecord
  2
DEFAULT_3
 70
0
 62
7
  6
PHANTOM
370
-3
390
F
  0
LAYER
  5
1FD
100
AcDbSymbolTableRecord
100
AcDbLayerTableRecord
  2
00_COMPONENTS
 70
0
 62
7
  6
CONTINUOUS
370
-3
390
F
  0
LAYER
  5
1FE
100
AcDbSymbolTableRecord
100
AcDbLayerTableRecord
  2
01_1_DEFAULT_DATUMS
 70
0
 62
7
  6
CONTINUOUS
370
-3
390
F
  0
LAYER
  5
1FF
100
AcDbSymbolTableRecord
100
AcDbLayerTableRecord
  2
01_PLANES
 70
0
 62
7
  6
CONTINUOUS
370
-3
390
F
  0
LAYER
  5
200
100
AcDbSymbolTableRecord
100
AcDbLayerTableRecord
  2
02_COORD_SYS
 70
0
 62
7
  6
CONTINUOUS
370
-3
390
F
  0
LAYER
  5
201
100
AcDbSymbolTableRecord
100
AcDbLayerTableRecord
  2
03_AXES
 70
0
 62
7
  6
CONTINUOUS
370
-3
390
F
  0
LAYER
  5
202
100
AcDbSymbolTableRecord
100
AcDbLayerTableRecord
  2
04_POINTS
 70
0
 62
7
  6
CONTINUOUS
370
-3
390
F
  0
LAYER
  5
203
100
AcDbSymbolTableRecord
100
AcDbLayerTableRecord
  2
05_CURVES
 70
0
 62
7
  6
CONTINUOUS
370
-3
390
F
  0
LAYER
  5
204
100
AcDbSymbolTableRecord
100
AcDbLayerTableRecord
  2
06_SURFS
 70
0
 62
7
  6
CONTINUOUS
370
-3
390
F
  0
LAYER
  5
205
100
AcDbSymbolTableRecord
100
AcDbLayerTableRecord
  2
07_COSMETICS
 70
0
 62
7
  6
CONTINUOUS
370
-3
390
F
  0
LAYER
  5
206
100
AcDbSymbolTableRecord
100
AcDbLayerTableRecord
  2
10_NOTES
 70
0
 62
7
  6
CONTINUOUS
370
-3
390
F
  0
LAYER
  5
207
100
AcDbSymbolTableRecord
100
AcDbLayerTableRecord
  2
11_NOTES_PUB
 70
0
 62
7
  6
CONTINUOUS
370
-3
390
F
  0
LAYER
  5
208
100
AcDbSymbolTableRecord
100
AcDbLayerTableRecord
  2
13_REF_GTOL
 70
0
 62
7
  6
CONTINUOUS
370
-3
390
F
  0
LAYER
  5
209
100
AcDbSymbolTableRecord
100
AcDbLayerTableRecord
  2
16_MISC
 70
0
 62
7
  6
CONTINUOUS
370
-3
390
F
  0
LAYER
  5
20A
100
AcDbSymbolTableRecord
100
AcDbLayerTableRecord
  2
17_NO_PRINT
 70
0
 62
7
  6
CONTINUOUS
370
-3
390
F
  0
LAYER
  5
20B
100
AcDbSymbolTableRecord
100
AcDbLayerTableRecord
  2
18_DATUM_CAMS_JOINTS
 70
0
 62
7
  6
CONTINUOUS
370
-3
390
F
  0
LAYER
  5
20C
100
AcDbSymbolTableRecord
100
AcDbLayerTableRecord
  2
19_DATUM_FUNCTIONAL
 70
0
 62
7
  6
CONTINUOUS
370
-3
390
F
  0
LAYER
  5
20D
100
AcDbSymbolTableRecord
100
AcDbLayerTableRecord
  2
20_DATUM_KINEMATIC_SCHEME
 70
0
 62
7
  6
CONTINUOUS
370
-3
390
F
  0
ENDTAB
  0
TABLE
  2
STYLE
  5
3
100
AcDbSymbolTable
 70
1
  0
STYLE
  5
11
100
AcDbSymbolTableRecord
100
AcDbTextStyleTableRecord
  2
STANDARD
 70
0
 40
0.0
 41
0.8
 50
0.0
 71
0
 42
0.2
  3
txt
  4

  0
STYLE
  5
20E
100
AcDbSymbolTableRecord
100
AcDbTextStyleTableRecord
  2
TEXTSTYLE_1
 70
0
 40
0.0
 41
0.8
 50
0.0
 71
0
 42
0.2
  3
gdt
  4

  0
ENDTAB
  0
TABLE
  2
VIEW
  5
6
100
AcDbSymbolTable
 70
0
  0
ENDTAB
  0
TABLE
  2
UCS
  5
7
100
AcDbSymbolTable
 70
0
  0
ENDTAB
  0
TABLE
  2
APPID
  5
9
100
AcDbSymbolTable
 70
1
  0
APPID
  5
20F
100
AcDbSymbolTableRecord
100
AcDbRegAppTableRecord
  2
ACAD
 70
0
  0
ENDTAB
  0
TABLE
  2
BLOCK_RECORD
  5
1
100
AcDbSymbolTable
 70
0
  0
BLOCK_RECORD
  5
210
100
AcDbSymbolTableRecord
100
AcDbBlockTableRecord
  2
*Model_Space
  0
BLOCK_RECORD
  5
211
100
AcDbSymbolTableRecord
100
AcDbBlockTableRecord
  2
*Paper_Space
  0
BLOCK_RECORD
  5
212
100
AcDbSymbolTableRecord
100
AcDbBlockTableRecord
  2
_FILLED
  0
ENDTAB
  0
TABLE
  2
DIMSTYLE
  5
A
100
AcDbSymbolTable
 70
1
100
AcDbDimStyleTable
 71
0
  0
DIMSTYLE
105
213
100
AcDbSymbolTableRecord
100
AcDbDimStyleTableRecord
  2
STANDARD
 70
0
  3

  4

 40
1.0
 41
9.9635608078
 42
1.0
 43
0.38
 44
1.0
 45
0.0
 46
0.0
 47
0.01
 48
0.01
140
13.9489851309
141
0.09
142
0.0
143
25.4
144
1.0
145
0.0
146
1.0
147
0.625
 71
1
 72
0
 73
0
 74
0
 75
0
 76
0
 77
1
 78
8
 79
2
170
0
171
1
172
0
173
0
174
0
175
0
176
0
177
0
178
0
270
2
179
2
271
2
272
2
273
2
274
2
275
0
280
0
281
0
282
0
283
1
284
8
285
0
286
0
287
3
288
0
340
11
278
46
341
212
342
212
343
212
344
212
  0
ENDTAB
  0
ENDSEC
  0
SECTION
  2
BLOCKS
  0
BLOCK
  5
20
100
AcDbEntity
  8
0
100
AcDbBlockBegin
  2
*Model_Space
 70
0
 10
0.0
 20
0.0
 30
0.0
  3
*Model_Space
  1

  0
ENDBLK
  5
21
100
AcDbEntity
  8
0
100
AcDbBlockEnd
  0
BLOCK
  5
1C
100
AcDbEntity
  8
0
100
AcDbBlockBegin
  2
*Paper_Space
 70
0
 10
0.0
 20
0.0
 30
0.0
  3
*Paper_Space
  1

  0
ENDBLK
  5
1D
100
AcDbEntity
  8
0
100
AcDbBlockEnd
  0
BLOCK
  5
214
100
AcDbEntity
  8
0
100
AcDbBlockBegin
  2
_FILLED
 70
64
 10
0.0
 20
0.0
  3
_FILLED
  1

  0
SOLID
  5
215
100
AcDbEntity
  8
0
  6
BYBLOCK
 62
0
100
AcDbTrace
 10
0.0
 20
0.0
 11
-1.0
 21
0.25
 12
-1.0
 22
-0.25
 13
-1.0
 23
-0.25
  0
ENDBLK
  5
216
100
AcDbEntity
  8
0
  6
BYBLOCK
 62
0
100
AcDbBlockEnd
  0
ENDSEC
  0
SECTION
  2
ENTITIES
  0
LINE
  5
217
100
AcDbEntity
  8
0
100
AcDbLine
 62
7
  6
CONTINUOUS
 10
97.5599678704
 20
443.752145989
 11
97.5599678704
 21
467.0517207221
  0
LINE
  5
218
100
AcDbEntity
  8
0
100
AcDbLine
 62
7
  6
CONTINUOUS
 10
113.3599678704
 20
714.7821490703
 11
113.3599678704
 21
720.5221429077
  0
LINE
  5
219
100
AcDbEntity
  8
0
100
AcDbLine
 62
7
  6
CONTINUOUS
 10
114.5599678704
 20
714.482145989
 11
114.5599678704
 21
720.822145989
  0
LINE
  5
21A
100
AcDbEntity
  8
0
100
AcDbLine
 62
7
  6
CONTINUOUS
 10
114.7599678704
 20
692.152145989
 11
114.7599678704
 21
735.3521459744
  0
LINE
  5
21B
100
AcDbEntity
  8
0
100
AcDbLine
 62
7
  6
CONTINUOUS
 10
116.2599678704
 20
692.152145989
 11
116.2599678704
 21
735.3521459744
  0
LINE
  5
21C
100
AcDbEntity
  8
0
100
AcDbLine
 62
7
  6
CONTINUOUS
 10
117.048392528
 20
714.3637213315
 11
117.048392528
 21
720.9405706465
  0
LINE
  5
21D
100
AcDbEntity
  8
0
100
AcDbLine
 62
7
  6
CONTINUOUS
 10
132.9349440748
 20
710.0048349558
 11
132.9753082544
 21
710.152145989
  0
LINE
  5
21E
100
AcDbEntity
  8
0
100
AcDbLine
 62
7
  6
CONTINUOUS
 10
118.2599678704
 20
712.652145989
 11
118.2599678704
 21
721.152145989
  0
LINE
  5
21F
100
AcDbEntity
  8
0
100
AcDbLine
 62
7
  6
CONTINUOUS
 10
119.7599678704
 20
721.152145989
 11
119.7599678704
 21
712.652145989
  0
LINE
  5
220
100
AcDbEntity
  8
0
100
AcDbLine
 62
7
  6
CONTINUOUS
 10
120.5599678704
 20
721.152145989
 11
120.5599678704
 21
713.0021858715
  0
LINE
  5
221
100
AcDbEntity
  8
0
100
AcDbLine
 62
7
  6
CONTINUOUS
 10
133.7120552366
 20
707.552145989
 11
133.7120552366
 21
704.6066914436
  0
LINE
  5
222
100
AcDbEntity
  8
0
100
AcDbLine
 62
7
  6
CONTINUOUS
 10
133.7120552366
 20
572.852145989
 11
133.7120552366
 21
569.9066914436
  0
LINE
  5
223
100
AcDbEntity
  8
0
100
AcDbLine
 62
7
  6
CONTINUOUS
 10
133.7120552366
 20
553.852145989
 11
133.7120552366
 21
550.9066914436
  0
LINE
  5
224
100
AcDbEntity
  8
0
100
AcDbLine
 62
7
  6
CONTINUOUS
 10
133.7120552366
 20
555.052145989
 11
133.7120552366
 21
557.9976005345
  0
LINE
  5
225
100
AcDbEntity
  8
0
100
AcDbLine
 62
7
  6
CONTINUOUS
 10
133.7120552366
 20
574.052145989
 11
133.7120552366
 21
576.9976005345
  0
LINE
  5
226
100
AcDbEntity
  8
0
100
AcDbLine
 62
7
  6
CONTINUOUS
 10
133.7120552366
 20
708.752145989
 11
133.7120552366
 21
711.6976005345
  0
LINE
  5
227
100
AcDbEntity
  8
0
100
AcDbLine
 62
7
  6
CONTINUOUS
 10
133.7599678704
 20
553.852145989
 11
133.7599678704
 21
555.052145989
  0
LINE
  5
228
100
AcDbEntity
  8
0
100
AcDbLine
 62
7
  6
CONTINUOUS
 10
133.7599678704
 20
572.852145989
 11
133.7599678704
 21
574.052145989
  0
LINE
  5
229
100
AcDbEntity
  8
0
100
AcDbLine
 62
7
  6
CONTINUOUS
 10
133.7599678704
 20
707.552145989
 11
133.7599678704
 21
708.752145989
  0
LINE
  5
22A
100
AcDbEntity
  8
0
100
AcDbLine
 62
7
  6
CONTINUOUS
 10
134.5501956418
 20
550.452145989
 11
134.5501956418
 21
558.452145989
  0
LINE
  5
22B
100
AcDbEntity
  8
0
100
AcDbLine
 62
7
  6
CONTINUOUS
 10
134.5501956418
 20
569.452145989
 11
134.5501956418
 21
577.452145989
  0
LINE
  5
22C
100
AcDbEntity
  8
0
100
AcDbLine
 62
7
  6
CONTINUOUS
 10
134.5501956418
 20
704.152145989
 11
134.5501956418
 21
712.152145989
  0
LINE
  5
22D
100
AcDbEntity
  8
0
100
AcDbLine
 62
7
  6
CONTINUOUS
 10
134.7599678704
 20
737.352145989
 11
134.7599678704
 21
737.152145989
  0
LINE
  5
22E
100
AcDbEntity
  8
0
100
AcDbLine
 62
7
  6
CONTINUOUS
 10
135.7599678704
 20
737.452145989
 11
135.7599678704
 21
737.352145989
  0
LINE
  5
22F
100
AcDbEntity
  8
0
100
AcDbLine
 62
7
  6
CONTINUOUS
 10
135.7599678704
 20
721.152145989
 11
135.7599678704
 21
477.9057764816
  0
LINE
  5
230
100
AcDbEntity
  8
0
100
AcDbLine
 62
7
  6
CONTINUOUS
 10
137.2599678704
 20
480.952145989
 11
137.2599678704
 21
478.1702669526
  0
LINE
  5
231
100
AcDbEntity
  8
0
100
AcDbLine
 62
7
  6
CONTINUOUS
 10
137.5599678704
 20
480.952145989
 11
137.5599678704
 21
721.152145989
  0
LINE
  5
232
100
AcDbEntity
  8
0
100
AcDbLine
 62
7
  6
CONTINUOUS
 10
140.5599678704
 20
478.752145989
 11
140.5599678704
 21
480.952145989
  0
LINE
  5
233
100
AcDbEntity
  8
0
100
AcDbLine
 62
7
  6
CONTINUOUS
 10
132.9342177823
 20
709.302145989
 11
132.8933898569
 21
709.2619536101
  0
LINE
  5
234
100
AcDbEntity
  8
0
100
AcDbLine
 62
7
  6
CONTINUOUS
 10
132.9753082544
 20
552.452145989
 11
132.9349006447
 21
552.5996180957
  0
LINE
  5
235
100
AcDbEntity
  8
0
100
AcDbLine
 62
7
  6
CONTINUOUS
 10
132.9753082544
 20
571.452145989
 11
132.9349006449
 21
571.599618095
  0
LINE
  5
236
100
AcDbEntity
  8
0
100
AcDbLine
 62
7
  6
CONTINUOUS
 10
143.7599678704
 20
737.452145989
 11
143.7599678704
 21
737.352145989
  0
LINE
  5
237
100
AcDbEntity
  8
0
100
AcDbLine
 62
7
  6
CONTINUOUS
 10
144.7599678704
 20
737.352145989
 11
144.7599678704
 21
737.152145989
  0
LINE
  5
238
100
AcDbEntity
  8
0
100
AcDbLine
 62
7
  6
CONTINUOUS
 10
145.7599678704
 20
483.952145989
 11
145.7599678704
 21
721.152145989
  0
LINE
  5
239
100
AcDbEntity
  8
0
100
AcDbLine
 62
7
  6
CONTINUOUS
 10
151.1099678704
 20
737.152145989
 11
151.1099678704
 21
738.552145989
  0
LINE
  5
23A
100
AcDbEntity
  8
0
100
AcDbLine
 62
7
  6
CONTINUOUS
 10
152.1099678704
 20
739.152145989
 11
152.1099678704
 21
740.8473365174
  0
LINE
  5
23B
100
AcDbEntity
  8
0
100
AcDbLine
 62
7
  6
CONTINUOUS
 10
152.7099678704
 20
739.152145989
 11
152.7099678704
 21
738.552145989
  0
LINE
  5
23C
100
AcDbEntity
  8
0
100
AcDbLine
 62
7
  6
CONTINUOUS
 10
154.5099678704
 20
742.5208356761
 11
154.5099678704
 21
742.5058246066
  0
LINE
  5
23D
100
AcDbEntity
  8
0
100
AcDbLine
 62
7
  6
CONTINUOUS
 10
156.2599678704
 20
742.816481462
 11
156.2599678704
 21
741.752145989
  0
LINE
  5
23E
100
AcDbEntity
  8
0
100
AcDbLine
 62
7
  6
CONTINUOUS
 10
157.4599678704
 20
741.752145989
 11
157.4599678704
 21
742.816481462
  0
LINE
  5
23F
100
AcDbEntity
  8
0
100
AcDbLine
 62
7
  6
CONTINUOUS
 10
159.2099678704
 20
742.5058246066
 11
159.2099678704
 21
742.520835676
  0
LINE
  5
240
100
AcDbEntity
  8
0
100
AcDbLine
 62
7
  6
CONTINUOUS
 10
161.0099678704
 20
738.552145989
 11
161.0099678704
 21
739.152145989
  0
LINE
  5
241
100
AcDbEntity
  8
0
100
AcDbLine
 62
7
  6
CONTINUOUS
 10
161.6099678704
 20
739.152145989
 11
161.6099678704
 21
740.8473365174
  0
LINE
  5
242
100
AcDbEntity
  8
0
100
AcDbLine
 62
7
  6
CONTINUOUS
 10
162.6099678704
 20
737.152145989
 11
162.6099678704
 21
738.552145989
  0
LINE
  5
243
100
AcDbEntity
  8
0
100
AcDbLine
 62
7
  6
CONTINUOUS
 10
132.9349006448
 20
575.3046738828
 11
132.9753082544
 21
575.452145989
  0
LINE
  5
244
100
AcDbEntity
  8
0
100
AcDbLine
 62
7
  6
CONTINUOUS
 10
132.9349440749
 20
556.3048349561
 11
132.9753082544
 21
556.452145989
  0
LINE
  5
245
100
AcDbEntity
  8
0
100
AcDbLine
 62
7
  6
CONTINUOUS
 10
132.9753082544
 20
706.152145989
 11
132.9349006448
 21
706.2996180951
  0
LINE
  5
246
100
AcDbEntity
  8
0
100
AcDbLine
 62
7
  6
CONTINUOUS
 10
132.8933898569
 20
553.3423383679
 11
132.9342153041
 21
553.302145989
  0
LINE
  5
247
100
AcDbEntity
  8
0
100
AcDbLine
 62
7
  6
CONTINUOUS
 10
132.8933898569
 20
572.3423383679
 11
132.9342153041
 21
572.302145989
  0
LINE
  5
248
100
AcDbEntity
  8
0
100
AcDbLine
 62
7
  6
CONTINUOUS
 10
132.9342177823
 20
574.602145989
 11
132.8933898569
 21
574.5619536101
  0
LINE
  5
249
100
AcDbEntity
  8
0
100
AcDbLine
 62
7
  6
CONTINUOUS
 10
132.9342177823
 20
555.602145989
 11
132.8933898569
 21
555.5619536101
  0
LINE
  5
24A
100
AcDbEntity
  8
0
100
AcDbLine
 62
7
  6
CONTINUOUS
 10
102.5599678704
 20
472.0517207221
 11
97.5599678704
 21
467.0517207221
  0
LINE
  5
24B
100
AcDbEntity
  8
0
100
AcDbLine
 62
7
  6
CONTINUOUS
 10
97.5599678704
 20
443.752145989
 11
762.5599678704
 21
443.752145989
  0
LINE
  5
24C
100
AcDbEntity
  8
0
100
AcDbLine
 62
7
  6
CONTINUOUS
 10
762.5599678704
 20
446.052145989
 11
97.5599678704
 21
446.052145989
  0
LINE
  5
24D
100
AcDbEntity
  8
0
100
AcDbLine
 62
7
  6
CONTINUOUS
 10
142.7599678704
 20
480.952145989
 11
145.7599678704
 21
483.952145989
  0
LINE
  5
24E
100
AcDbEntity
  8
0
100
AcDbLine
 62
7
  6
CONTINUOUS
 10
132.8933898569
 20
707.0423383679
 11
132.9342153041
 21
707.002145989
  0
LINE
  5
24F
100
AcDbEntity
  8
0
100
AcDbLine
 62
7
  6
CONTINUOUS
 10
330.7599678704
 20
737.352145989
 11
330.7599678704
 21
737.152145989
  0
LINE
  5
250
100
AcDbEntity
  8
0
100
AcDbLine
 62
7
  6
CONTINUOUS
 10
142.7599678704
 20
480.952145989
 11
135.7599678704
 21
480.952145989
  0
LINE
  5
251
100
AcDbEntity
  8
0
100
AcDbLine
 62
7
  6
CONTINUOUS
 10
337.1099678704
 20
737.152145989
 11
337.1099678704
 21
738.552145989
  0
LINE
  5
252
100
AcDbEntity
  8
0
100
AcDbLine
 62
7
  6
CONTINUOUS
 10
338.1099678704
 20
739.152145989
 11
338.1099678704
 21
740.8473365174
  0
LINE
  5
253
100
AcDbEntity
  8
0
100
AcDbLine
 62
7
  6
CONTINUOUS
 10
338.7099678704
 20
739.152145989
 11
338.7099678704
 21
738.552145989
  0
LINE
  5
254
100
AcDbEntity
  8
0
100
AcDbLine
 62
7
  6
CONTINUOUS
 10
340.5099678704
 20
742.5208356761
 11
340.5099678704
 21
742.5058246066
  0
LINE
  5
255
100
AcDbEntity
  8
0
100
AcDbLine
 62
7
  6
CONTINUOUS
 10
342.2599678704
 20
742.816481462
 11
342.2599678704
 21
741.752145989
  0
LINE
  5
256
100
AcDbEntity
  8
0
100
AcDbLine
 62
7
  6
CONTINUOUS
 10
343.4599678704
 20
741.752145989
 11
343.4599678704
 21
742.816481462
  0
LINE
  5
257
100
AcDbEntity
  8
0
100
AcDbLine
 62
7
  6
CONTINUOUS
 10
345.2099678704
 20
742.5058246066
 11
345.2099678704
 21
742.520835676
  0
LINE
  5
258
100
AcDbEntity
  8
0
100
AcDbLine
 62
7
  6
CONTINUOUS
 10
347.0099678704
 20
738.552145989
 11
347.0099678704
 21
739.152145989
  0
LINE
  5
259
100
AcDbEntity
  8
0
100
AcDbLine
 62
7
  6
CONTINUOUS
 10
347.6099678704
 20
739.152145989
 11
347.6099678704
 21
740.8473365174
  0
LINE
  5
25A
100
AcDbEntity
  8
0
100
AcDbLine
 62
7
  6
CONTINUOUS
 10
348.6099678704
 20
737.152145989
 11
348.6099678704
 21
738.552145989
  0
LINE
  5
25B
100
AcDbEntity
  8
0
100
AcDbLine
 62
7
  6
CONTINUOUS
 10
348.7599678704
 20
737.352145989
 11
348.7599678704
 21
737.152145989
  0
LINE
  5
25C
100
AcDbEntity
  8
0
100
AcDbLine
 62
7
  6
CONTINUOUS
 10
140.5599678704
 20
478.752145989
 11
102.5599678704
 21
472.0517207221
  0
LINE
  5
25D
100
AcDbEntity
  8
0
100
AcDbLine
 62
7
  6
CONTINUOUS
 10
145.7599678704
 20
541.152145989
 11
730.0599678704
 21
541.152145989
  0
LINE
  5
25E
100
AcDbEntity
  8
0
100
AcDbLine
 62
7
  6
CONTINUOUS
 10
730.0599678704
 20
543.452145989
 11
145.7599678704
 21
543.452145989
  0
LINE
  5
25F
100
AcDbEntity
  8
0
100
AcDbLine
 62
7
  6
CONTINUOUS
 10
732.5599678704
 20
544.452145989
 11
735.5599678704
 21
544.452145989
  0
LINE
  5
260
100
AcDbEntity
  8
0
100
AcDbLine
 62
7
  6
CONTINUOUS
 10
757.5599678704
 20
473.9031540195
 11
730.0599678704
 21
478.752145989
  0
LINE
  5
261
100
AcDbEntity
  8
0
100
AcDbLine
 62
7
  6
CONTINUOUS
 10
732.5599678704
 20
549.302145989
 11
731.5599678704
 21
549.302145989
  0
LINE
  5
262
100
AcDbEntity
  8
0
100
AcDbLine
 62
7
  6
CONTINUOUS
 10
735.5599678704
 20
549.452145989
 11
736.5599678704
 21
549.452145989
  0
LINE
  5
263
100
AcDbEntity
  8
0
100
AcDbLine
 62
7
  6
CONTINUOUS
 10
738.3599678704
 20
550.202145989
 11
741.8599678704
 21
550.202145989
  0
LINE
  5
264
100
AcDbEntity
  8
0
100
AcDbLine
 62
7
  6
CONTINUOUS
 10
736.5599678704
 20
550.3096829535
 11
738.3599678704
 21
550.3096829535
  0
LINE
  5
265
100
AcDbEntity
  8
0
100
AcDbLine
 62
7
  6
CONTINUOUS
 10
135.7599678704
 20
550.452145989
 11
134.5501956418
 21
550.452145989
  0
LINE
  5
266
100
AcDbEntity
  8
0
100
AcDbLine
 62
7
  6
CONTINUOUS
 10
735.5599678704
 20
552.452145989
 11
732.5599678704
 21
552.452145989
  0
LINE
  5
267
100
AcDbEntity
  8
0
100
AcDbLine
 62
7
  6
CONTINUOUS
 10
731.5599678704
 20
552.952145989
 11
145.7599678704
 21
552.952145989
  0
LINE
  5
268
100
AcDbEntity
  8
0
100
AcDbLine
 62
7
  6
CONTINUOUS
 10
132.8933898569
 20
553.3423383679
 11
132.9638522067
 21
553.3423383679
  0
LINE
  5
269
100
AcDbEntity
  8
0
100
AcDbLine
 62
7
  6
CONTINUOUS
 10
132.815733841
 20
553.4336414466
 11
132.9734743249
 21
553.4336414466
  0
LINE
  5
26A
100
AcDbEntity
  8
0
100
AcDbLine
 62
7
  6
CONTINUOUS
 10
132.898441525
 20
553.852145989
 11
133.7599678704
 21
553.852145989
  0
LINE
  5
26B
100
AcDbEntity
  8
0
100
AcDbLine
 62
7
  6
CONTINUOUS
 10
133.7599678704
 20
555.052145989
 11
132.898441525
 21
555.052145989
  0
LINE
  5
26C
100
AcDbEntity
  8
0
100
AcDbLine
 62
7
  6
CONTINUOUS
 10
132.9734710976
 20
555.4706505314
 11
132.8157330731
 21
555.4706505314
  0
LINE
  5
26D
100
AcDbEntity
  8
0
100
AcDbLine
 62
7
  6
CONTINUOUS
 10
132.8933898569
 20
555.5619536101
 11
132.9639032897
 21
555.5619536101
  0
LINE
  5
26E
100
AcDbEntity
  8
0
100
AcDbLine
 62
7
  6
CONTINUOUS
 10
135.7599678704
 20
558.452145989
 11
134.5501956418
 21
558.452145989
  0
LINE
  5
26F
100
AcDbEntity
  8
0
100
AcDbLine
 62
7
  6
CONTINUOUS
 10
736.5599678704
 20
558.602145989
 11
738.3599678704
 21
558.602145989
  0
LINE
  5
270
100
AcDbEntity
  8
0
100
AcDbLine
 62
7
  6
CONTINUOUS
 10
738.3599678704
 20
558.702145989
 11
741.8599678704
 21
558.702145989
  0
LINE
  5
271
100
AcDbEntity
  8
0
100
AcDbLine
 62
7
  6
CONTINUOUS
 10
735.5599678704
 20
559.452145989
 11
736.5599678704
 21
559.452145989
  0
LINE
  5
272
100
AcDbEntity
  8
0
100
AcDbLine
 62
7
  6
CONTINUOUS
 10
732.5599678704
 20
559.602145989
 11
731.5599678704
 21
559.602145989
  0
LINE
  5
273
100
AcDbEntity
  8
0
100
AcDbLine
 62
7
  6
CONTINUOUS
 10
135.7599678704
 20
569.452145989
 11
134.5501956418
 21
569.452145989
  0
LINE
  5
274
100
AcDbEntity
  8
0
100
AcDbLine
 62
7
  6
CONTINUOUS
 10
132.8933898569
 20
572.3423383679
 11
132.9638522067
 21
572.3423383679
  0
LINE
  5
275
100
AcDbEntity
  8
0
100
AcDbLine
 62
7
  6
CONTINUOUS
 10
132.815733841
 20
572.4336414466
 11
132.9734743249
 21
572.4336414466
  0
LINE
  5
276
100
AcDbEntity
  8
0
100
AcDbLine
 62
7
  6
CONTINUOUS
 10
132.898441525
 20
572.852145989
 11
133.7599678704
 21
572.852145989
  0
LINE
  5
277
100
AcDbEntity
  8
0
100
AcDbLine
 62
7
  6
CONTINUOUS
 10
732.5599678704
 20
573.302145989
 11
731.5599678704
 21
573.302145989
  0
LINE
  5
278
100
AcDbEntity
  8
0
100
AcDbLine
 62
7
  6
CONTINUOUS
 10
735.5599678704
 20
573.452145989
 11
736.5599678704
 21
573.452145989
  0
LINE
  5
279
100
AcDbEntity
  8
0
100
AcDbLine
 62
7
  6
CONTINUOUS
 10
133.7599678704
 20
574.052145989
 11
132.898441525
 21
574.052145989
  0
LINE
  5
27A
100
AcDbEntity
  8
0
100
AcDbLine
 62
7
  6
CONTINUOUS
 10
738.3599678704
 20
574.202145989
 11
741.8599678704
 21
574.202145989
  0
LINE
  5
27B
100
AcDbEntity
  8
0
100
AcDbLine
 62
7
  6
CONTINUOUS
 10
736.5599678704
 20
574.3096829535
 11
738.3599678704
 21
574.3096829535
  0
LINE
  5
27C
100
AcDbEntity
  8
0
100
AcDbLine
 62
7
  6
CONTINUOUS
 10
132.9734710976
 20
574.4706505314
 11
132.8157330731
 21
574.4706505314
  0
LINE
  5
27D
100
AcDbEntity
  8
0
100
AcDbLine
 62
7
  6
CONTINUOUS
 10
132.8933898569
 20
574.5619536101
 11
132.9639032897
 21
574.5619536101
  0
LINE
  5
27E
100
AcDbEntity
  8
0
100
AcDbLine
 62
7
  6
CONTINUOUS
 10
135.7599678704
 20
577.452145989
 11
134.5501956418
 21
577.452145989
  0
LINE
  5
27F
100
AcDbEntity
  8
0
100
AcDbLine
 62
7
  6
CONTINUOUS
 10
736.5599678704
 20
582.602145989
 11
738.3599678704
 21
582.602145989
  0
LINE
  5
280
100
AcDbEntity
  8
0
100
AcDbLine
 62
7
  6
CONTINUOUS
 10
738.3599678704
 20
582.702145989
 11
741.8599678704
 21
582.702145989
  0
LINE
  5
281
100
AcDbEntity
  8
0
100
AcDbLine
 62
7
  6
CONTINUOUS
 10
735.5599678704
 20
583.452145989
 11
736.5599678704
 21
583.452145989
  0
LINE
  5
282
100
AcDbEntity
  8
0
100
AcDbLine
 62
7
  6
CONTINUOUS
 10
732.5599678704
 20
583.602145989
 11
731.5599678704
 21
583.602145989
  0
LINE
  5
283
100
AcDbEntity
  8
0
100
AcDbLine
 62
7
  6
CONTINUOUS
 10
433.7599678704
 20
737.152145989
 11
433.7599678704
 21
737.352145989
  0
LINE
  5
284
100
AcDbEntity
  8
0
100
AcDbLine
 62
7
  6
CONTINUOUS
 10
750.5599678704
 20
714.882145989
 11
749.5599678704
 21
714.482145989
  0
LINE
  5
285
100
AcDbEntity
  8
0
100
AcDbLine
 62
7
  6
CONTINUOUS
 10
736.8502886039
 20
686.652145989
 11
738.0599678704
 21
687.242145989
  0
LINE
  5
286
100
AcDbEntity
  8
0
100
AcDbLine
 62
7
  6
CONTINUOUS
 10
113.3599678704
 20
714.782145989
 11
114.5599678704
 21
714.482145989
  0
LINE
  5
287
100
AcDbEntity
  8
0
100
AcDbLine
 62
7
  6
CONTINUOUS
 10
486.7599678704
 20
737.152145989
 11
486.7599678704
 21
737.352145989
  0
LINE
  5
288
100
AcDbEntity
  8
0
100
AcDbLine
 62
7
  6
CONTINUOUS
 10
736.7599678704
 20
660.952145989
 11
735.5599678704
 21
660.952145989
  0
LINE
  5
289
100
AcDbEntity
  8
0
100
AcDbLine
 62
7
  6
CONTINUOUS
 10
731.5599678704
 20
660.952145989
 11
732.5599678704
 21
660.952145989
  0
LINE
  5
28A
100
AcDbEntity
  8
0
100
AcDbLine
 62
7
  6
CONTINUOUS
 10
740.7599678704
 20
661.5481811979
 11
736.7599678704
 21
661.5481811979
  0
LINE
  5
28B
100
AcDbEntity
  8
0
100
AcDbLine
 62
7
  6
CONTINUOUS
 10
732.5599678704
 20
662.0866563257
 11
731.5599678704
 21
662.0866563257
  0
LINE
  5
28C
100
AcDbEntity
  8
0
100
AcDbLine
 62
7
  6
CONTINUOUS
 10
740.7599678704
 20
665.9016281081
 11
736.7599678704
 21
665.9016281081
  0
LINE
  5
28D
100
AcDbEntity
  8
0
100
AcDbLine
 62
7
  6
CONTINUOUS
 10
740.7599678704
 20
667.5986990788
 11
736.7599678704
 21
667.5986990788
  0
LINE
  5
28E
100
AcDbEntity
  8
0
100
AcDbLine
 62
7
  6
CONTINUOUS
 10
508.8099678704
 20
737.152145989
 11
508.8099678704
 21
738.552145989
  0
LINE
  5
28F
100
AcDbEntity
  8
0
100
AcDbLine
 62
7
  6
CONTINUOUS
 10
509.8099678704
 20
739.152145989
 11
509.8099678704
 21
740.8473365174
  0
LINE
  5
290
100
AcDbEntity
  8
0
100
AcDbLine
 62
7
  6
CONTINUOUS
 10
510.4099678704
 20
739.152145989
 11
510.4099678704
 21
738.552145989
  0
LINE
  5
291
100
AcDbEntity
  8
0
100
AcDbLine
 62
7
  6
CONTINUOUS
 10
512.2099678704
 20
742.5208356761
 11
512.2099678704
 21
742.5058246066
  0
LINE
  5
292
100
AcDbEntity
  8
0
100
AcDbLine
 62
7
  6
CONTINUOUS
 10
513.9599678704
 20
742.816481462
 11
513.9599678704
 21
741.752145989
  0
LINE
  5
293
100
AcDbEntity
  8
0
100
AcDbLine
 62
7
  6
CONTINUOUS
 10
515.1599678704
 20
741.752145989
 11
515.1599678704
 21
742.816481462
  0
LINE
  5
294
100
AcDbEntity
  8
0
100
AcDbLine
 62
7
  6
CONTINUOUS
 10
516.9099678704
 20
742.5058246066
 11
516.9099678704
 21
742.520835676
  0
LINE
  5
295
100
AcDbEntity
  8
0
100
AcDbLine
 62
7
  6
CONTINUOUS
 10
518.7099678704
 20
738.552145989
 11
518.7099678704
 21
739.152145989
  0
LINE
  5
296
100
AcDbEntity
  8
0
100
AcDbLine
 62
7
  6
CONTINUOUS
 10
519.3099678704
 20
739.152145989
 11
519.3099678704
 21
740.8473365174
  0
LINE
  5
297
100
AcDbEntity
  8
0
100
AcDbLine
 62
7
  6
CONTINUOUS
 10
520.3099678704
 20
737.152145989
 11
520.3099678704
 21
738.552145989
  0
LINE
  5
298
100
AcDbEntity
  8
0
100
AcDbLine
 62
7
  6
CONTINUOUS
 10
731.5599678704
 20
670.8176356522
 11
732.5599678704
 21
670.8176356522
  0
LINE
  5
299
100
AcDbEntity
  8
0
100
AcDbLine
 62
7
  6
CONTINUOUS
 10
732.5599678704
 20
673.0866563257
 11
731.5599678704
 21
673.0866563257
  0
LINE
  5
29A
100
AcDbEntity
  8
0
100
AcDbLine
 62
7
  6
CONTINUOUS
 10
740.7599678704
 20
676.3055928992
 11
736.7599678704
 21
676.3055928992
  0
LINE
  5
29B
100
AcDbEntity
  8
0
100
AcDbLine
 62
7
  6
CONTINUOUS
 10
740.7599678704
 20
678.0026638698
 11
736.7599678704
 21
678.0026638698
  0
LINE
  5
29C
100
AcDbEntity
  8
0
100
AcDbLine
 62
7
  6
CONTINUOUS
 10
731.5599678704
 20
681.8176356522
 11
732.5599678704
 21
681.8176356522
  0
LINE
  5
29D
100
AcDbEntity
  8
0
100
AcDbLine
 62
7
  6
CONTINUOUS
 10
740.7599678704
 20
682.35611078
 11
736.7599678704
 21
682.35611078
  0
LINE
  5
29E
100
AcDbEntity
  8
0
100
AcDbLine
 62
7
  6
CONTINUOUS
 10
736.7599678704
 20
682.952145989
 11
735.5599678704
 21
682.952145989
  0
LINE
  5
29F
100
AcDbEntity
  8
0
100
AcDbLine
 62
7
  6
CONTINUOUS
 10
732.5599678704
 20
682.952145989
 11
731.5599678704
 21
682.952145989
  0
LINE
  5
2A0
100
AcDbEntity
  8
0
100
AcDbLine
 62
7
  6
CONTINUOUS
 10
731.5599678704
 20
686.652145989
 11
732.5599678704
 21
686.652145989
  0
LINE
  5
2A1
100
AcDbEntity
  8
0
100
AcDbLine
 62
7
  6
CONTINUOUS
 10
735.5599678704
 20
686.652145989
 11
736.8502886039
 21
686.652145989
  0
LINE
  5
2A2
100
AcDbEntity
  8
0
100
AcDbLine
 62
7
  6
CONTINUOUS
 10
731.5599678704
 20
690.652145989
 11
732.5599678704
 21
690.652145989
  0
LINE
  5
2A3
100
AcDbEntity
  8
0
100
AcDbLine
 62
7
  6
CONTINUOUS
 10
735.5599678704
 20
690.652145989
 11
736.8502886039
 21
690.652145989
  0
LINE
  5
2A4
100
AcDbEntity
  8
0
100
AcDbLine
 62
7
  6
CONTINUOUS
 10
114.7599678704
 20
692.152145989
 11
116.2599678704
 21
692.152145989
  0
LINE
  5
2A5
100
AcDbEntity
  8
0
100
AcDbLine
 62
7
  6
CONTINUOUS
 10
746.2599678704
 20
692.152145989
 11
747.7599678704
 21
692.152145989
  0
LINE
  5
2A6
100
AcDbEntity
  8
0
100
AcDbLine
 62
7
  6
CONTINUOUS
 10
746.2599678704
 20
695.152145989
 11
747.7599678704
 21
695.152145989
  0
LINE
  5
2A7
100
AcDbEntity
  8
0
100
AcDbLine
 62
7
  6
CONTINUOUS
 10
114.7599678704
 20
697.152145989
 11
116.2599678704
 21
697.152145989
  0
LINE
  5
2A8
100
AcDbEntity
  8
0
100
AcDbLine
 62
7
  6
CONTINUOUS
 10
732.5599678704
 20
698.502145989
 11
731.5599678704
 21
698.502145989
  0
LINE
  5
2A9
100
AcDbEntity
  8
0
100
AcDbLine
 62
7
  6
CONTINUOUS
 10
735.5599678704
 20
698.652145989
 11
736.5599678704
 21
698.652145989
  0
LINE
  5
2AA
100
AcDbEntity
  8
0
100
AcDbLine
 62
7
  6
CONTINUOUS
 10
738.3599678704
 20
699.402145989
 11
741.8599678704
 21
699.402145989
  0
LINE
  5
2AB
100
AcDbEntity
  8
0
100
AcDbLine
 62
7
  6
CONTINUOUS
 10
736.5599678704
 20
699.5096829535
 11
738.3599678704
 21
699.5096829535
  0
LINE
  5
2AC
100
AcDbEntity
  8
0
100
AcDbLine
 62
7
  6
CONTINUOUS
 10
135.7599678704
 20
704.152145989
 11
134.5501956418
 21
704.152145989
  0
LINE
  5
2AD
100
AcDbEntity
  8
0
100
AcDbLine
 62
7
  6
CONTINUOUS
 10
132.8933898569
 20
707.0423383679
 11
132.9638522067
 21
707.0423383679
  0
LINE
  5
2AE
100
AcDbEntity
  8
0
100
AcDbLine
 62
7
  6
CONTINUOUS
 10
132.815733841
 20
707.1336414466
 11
132.9734743249
 21
707.1336414466
  0
LINE
  5
2AF
100
AcDbEntity
  8
0
100
AcDbLine
 62
7
  6
CONTINUOUS
 10
132.898441525
 20
707.552145989
 11
133.7599678704
 21
707.552145989
  0
LINE
  5
2B0
100
AcDbEntity
  8
0
100
AcDbLine
 62
7
  6
CONTINUOUS
 10
736.5599678704
 20
707.802145989
 11
738.3599678704
 21
707.802145989
  0
LINE
  5
2B1
100
AcDbEntity
  8
0
100
AcDbLine
 62
7
  6
CONTINUOUS
 10
738.3599678704
 20
707.902145989
 11
741.8599678704
 21
707.902145989
  0
LINE
  5
2B2
100
AcDbEntity
  8
0
100
AcDbLine
 62
7
  6
CONTINUOUS
 10
735.5599678704
 20
708.652145989
 11
736.5599678704
 21
708.652145989
  0
LINE
  5
2B3
100
AcDbEntity
  8
0
100
AcDbLine
 62
7
  6
CONTINUOUS
 10
133.7599678704
 20
708.752145989
 11
132.898441525
 21
708.752145989
  0
LINE
  5
2B4
100
AcDbEntity
  8
0
100
AcDbLine
 62
7
  6
CONTINUOUS
 10
732.5599678704
 20
708.802145989
 11
731.5599678704
 21
708.802145989
  0
LINE
  5
2B5
100
AcDbEntity
  8
0
100
AcDbLine
 62
7
  6
CONTINUOUS
 10
132.9734710976
 20
709.1706505314
 11
132.8157330731
 21
709.1706505314
  0
LINE
  5
2B6
100
AcDbEntity
  8
0
100
AcDbLine
 62
7
  6
CONTINUOUS
 10
132.8933898569
 20
709.2619536101
 11
132.9639032897
 21
709.2619536101
  0
LINE
  5
2B7
100
AcDbEntity
  8
0
100
AcDbLine
 62
7
  6
CONTINUOUS
 10
746.2599678704
 20
709.852145989
 11
747.7599678704
 21
709.852145989
  0
LINE
  5
2B8
100
AcDbEntity
  8
0
100
AcDbLine
 62
7
  6
CONTINUOUS
 10
735.5599678704
 20
711.902145989
 11
732.5599678704
 21
711.902145989
  0
LINE
  5
2B9
100
AcDbEntity
  8
0
100
AcDbLine
 62
7
  6
CONTINUOUS
 10
135.7599678704
 20
712.152145989
 11
134.5501956418
 21
712.152145989
  0
LINE
  5
2BA
100
AcDbEntity
  8
0
100
AcDbLine
 62
7
  6
CONTINUOUS
 10
119.7599678704
 20
712.652145989
 11
118.2599678704
 21
712.652145989
  0
LINE
  5
2BB
100
AcDbEntity
  8
0
100
AcDbLine
 62
7
  6
CONTINUOUS
 10
732.5599678704
 20
713.002145989
 11
731.5599678704
 21
713.002145989
  0
LINE
  5
2BC
100
AcDbEntity
  8
0
100
AcDbLine
 62
7
  6
CONTINUOUS
 10
119.7599678704
 20
713.002145989
 11
120.5599678704
 21
713.002145989
  0
LINE
  5
2BD
100
AcDbEntity
  8
0
100
AcDbLine
 62
7
  6
CONTINUOUS
 10
735.5599678704
 20
713.902145989
 11
732.5599678704
 21
713.902145989
  0
LINE
  5
2BE
100
AcDbEntity
  8
0
100
AcDbLine
 62
7
  6
CONTINUOUS
 10
749.5599678704
 20
714.482145989
 11
747.7599678704
 21
714.482145989
  0
LINE
  5
2BF
100
AcDbEntity
  8
0
100
AcDbLine
 62
7
  6
CONTINUOUS
 10
746.2599678704
 20
714.482145989
 11
732.5599678704
 21
714.482145989
  0
LINE
  5
2C0
100
AcDbEntity
  8
0
100
AcDbLine
 62
7
  6
CONTINUOUS
 10
114.5599678704
 20
714.482145989
 11
114.7599678704
 21
714.482145989
  0
LINE
  5
2C1
100
AcDbEntity
  8
0
100
AcDbLine
 62
7
  6
CONTINUOUS
 10
116.2599678704
 20
714.482145989
 11
117.048392528
 21
714.482145989
  0
LINE
  5
2C2
100
AcDbEntity
  8
0
100
AcDbLine
 62
7
  6
CONTINUOUS
 10
119.7599678704
 20
715.652145989
 11
118.2599678704
 21
715.652145989
  0
LINE
  5
2C3
100
AcDbEntity
  8
0
100
AcDbLine
 62
7
  6
CONTINUOUS
 10
749.5599678704
 20
720.822145989
 11
747.7599678704
 21
720.822145989
  0
LINE
  5
2C4
100
AcDbEntity
  8
0
100
AcDbLine
 62
7
  6
CONTINUOUS
 10
746.2599678704
 20
720.822145989
 11
732.5599678704
 21
720.822145989
  0
LINE
  5
2C5
100
AcDbEntity
  8
0
100
AcDbLine
 62
7
  6
CONTINUOUS
 10
114.5599678704
 20
720.822145989
 11
114.7599678704
 21
720.822145989
  0
LINE
  5
2C6
100
AcDbEntity
  8
0
100
AcDbLine
 62
7
  6
CONTINUOUS
 10
116.2599678704
 20
720.822145989
 11
117.048392528
 21
720.822145989
  0
LINE
  5
2C7
100
AcDbEntity
  8
0
100
AcDbLine
 62
7
  6
CONTINUOUS
 10
116.2599678704
 20
721.152145989
 11
747.7599678704
 21
721.152145989
  0
LINE
  5
2C8
100
AcDbEntity
  8
0
100
AcDbLine
 62
7
  6
CONTINUOUS
 10
114.7599678704
 20
735.3521459744
 11
747.7599678704
 21
735.3521459744
  0
LINE
  5
2C9
100
AcDbEntity
  8
0
100
AcDbLine
 62
7
  6
CONTINUOUS
 10
745.9599678704
 20
737.152145989
 11
116.5599678704
 21
737.152145989
  0
LINE
  5
2CA
100
AcDbEntity
  8
0
100
AcDbLine
 62
7
  6
CONTINUOUS
 10
486.7599678704
 20
737.352145989
 11
433.7599678704
 21
737.352145989
  0
LINE
  5
2CB
100
AcDbEntity
  8
0
100
AcDbLine
 62
7
  6
CONTINUOUS
 10
348.7599678704
 20
737.352145989
 11
348.6099678704
 21
737.352145989
  0
LINE
  5
2CC
100
AcDbEntity
  8
0
100
AcDbLine
 62
7
  6
CONTINUOUS
 10
337.1099678704
 20
737.352145989
 11
330.7599678704
 21
737.352145989
  0
LINE
  5
2CD
100
AcDbEntity
  8
0
100
AcDbLine
 62
7
  6
CONTINUOUS
 10
144.7599678704
 20
737.352145989
 11
134.7599678704
 21
737.352145989
  0
LINE
  5
2CE
100
AcDbEntity
  8
0
100
AcDbLine
 62
7
  6
CONTINUOUS
 10
135.7599678704
 20
737.452145989
 11
143.7599678704
 21
737.452145989
  0
LINE
  5
2CF
100
AcDbEntity
  8
0
100
AcDbLine
 62
7
  6
CONTINUOUS
 10
151.1100154378
 20
738.552145989
 11
162.609920303
 21
738.552145989
  0
LINE
  5
2D0
100
AcDbEntity
  8
0
100
AcDbLine
 62
7
  6
CONTINUOUS
 10
337.1100154378
 20
738.552145989
 11
348.609920303
 21
738.552145989
  0
LINE
  5
2D1
100
AcDbEntity
  8
0
100
AcDbLine
 62
7
  6
CONTINUOUS
 10
508.8100154378
 20
738.552145989
 11
520.309920303
 21
738.552145989
  0
LINE
  5
2D2
100
AcDbEntity
  8
0
100
AcDbLine
 62
7
  6
CONTINUOUS
 10
708.8100154378
 20
738.552145989
 11
720.309920303
 21
738.552145989
  0
LINE
  5
2D3
100
AcDbEntity
  8
0
100
AcDbLine
 62
7
  6
CONTINUOUS
 10
719.3099627305
 20
739.152145989
 11
709.8099730104
 21
739.152145989
  0
LINE
  5
2D4
100
AcDbEntity
  8
0
100
AcDbLine
 62
7
  6
CONTINUOUS
 10
519.3099627305
 20
739.152145989
 11
509.8099730104
 21
739.152145989
  0
LINE
  5
2D5
100
AcDbEntity
  8
0
100
AcDbLine
 62
7
  6
CONTINUOUS
 10
347.6099627305
 20
739.152145989
 11
338.1099730104
 21
739.152145989
  0
LINE
  5
2D6
100
AcDbEntity
  8
0
100
AcDbLine
 62
7
  6
CONTINUOUS
 10
161.6099627305
 20
739.152145989
 11
152.1099730104
 21
739.152145989
  0
LINE
  5
2D7
100
AcDbEntity
  8
0
100
AcDbLine
 62
7
  6
CONTINUOUS
 10
152.1099678704
 20
740.8473365433
 11
161.6099678704
 21
740.8473365433
  0
LINE
  5
2D8
100
AcDbEntity
  8
0
100
AcDbLine
 62
7
  6
CONTINUOUS
 10
338.1099678704
 20
740.8473365433
 11
347.6099678704
 21
740.8473365433
  0
LINE
  5
2D9
100
AcDbEntity
  8
0
100
AcDbLine
 62
7
  6
CONTINUOUS
 10
509.8099678704
 20
740.8473365433
 11
519.3099678704
 21
740.8473365433
  0
LINE
  5
2DA
100
AcDbEntity
  8
0
100
AcDbLine
 62
7
  6
CONTINUOUS
 10
709.8099678704
 20
740.8473365433
 11
719.3099678704
 21
740.8473365433
  0
LINE
  5
2DB
100
AcDbEntity
  8
0
100
AcDbLine
 62
7
  6
CONTINUOUS
 10
714.5599677091
 20
741.7133619648
 11
718.8098749217
 21
741.7134155645
  0
LINE
  5
2DC
100
AcDbEntity
  8
0
100
AcDbLine
 62
7
  6
CONTINUOUS
 10
514.5599677091
 20
741.7133619648
 11
518.8098749217
 21
741.7134155645
  0
LINE
  5
2DD
100
AcDbEntity
  8
0
100
AcDbLine
 62
7
  6
CONTINUOUS
 10
347.1099655478
 20
741.7133598205
 11
338.6099693055
 21
741.7133627497
  0
LINE
  5
2DE
100
AcDbEntity
  8
0
100
AcDbLine
 62
7
  6
CONTINUOUS
 10
161.1099655478
 20
741.7133598205
 11
152.6099693055
 21
741.7133627497
  0
LINE
  5
2DF
100
AcDbEntity
  8
0
100
AcDbLine
 62
7
  6
CONTINUOUS
 10
510.3099658324
 20
741.7133604967
 11
518.8099655478
 21
741.7133598205
  0
LINE
  5
2E0
100
AcDbEntity
  8
0
100
AcDbLine
 62
7
  6
CONTINUOUS
 10
710.3099658324
 20
741.7133604967
 11
718.8099655478
 21
741.7133598205
  0
LINE
  5
2E1
100
AcDbEntity
  8
0
100
AcDbLine
 62
7
  6
CONTINUOUS
 10
342.8599677091
 20
741.7133619648
 11
347.1098749217
 21
741.7134155645
  0
LINE
  5
2E2
100
AcDbEntity
  8
0
100
AcDbLine
 62
7
  6
CONTINUOUS
 10
156.8599677091
 20
741.7133619648
 11
161.1098749217
 21
741.7134155645
  0
LINE
  5
2E3
100
AcDbEntity
  8
0
100
AcDbLine
 62
7
  6
CONTINUOUS
 10
156.2599678704
 20
741.752145989
 11
157.4599678704
 21
741.752145989
  0
LINE
  5
2E4
100
AcDbEntity
  8
0
100
AcDbLine
 62
7
  6
CONTINUOUS
 10
342.2599678704
 20
741.752145989
 11
343.4599678704
 21
741.752145989
  0
LINE
  5
2E5
100
AcDbEntity
  8
0
100
AcDbLine
 62
7
  6
CONTINUOUS
 10
513.9599678704
 20
741.752145989
 11
515.1599678704
 21
741.752145989
  0
LINE
  5
2E6
100
AcDbEntity
  8
0
100
AcDbLine
 62
7
  6
CONTINUOUS
 10
713.9599678704
 20
741.752145989
 11
715.1599678704
 21
741.752145989
  0
LINE
  5
2E7
100
AcDbEntity
  8
0
100
AcDbLine
 62
7
  6
CONTINUOUS
 10
762.5599678704
 20
468.9031540195
 11
757.5599678704
 21
473.9031540195
  0
LINE
  5
2E8
100
AcDbEntity
  8
0
100
AcDbLine
 62
7
  6
CONTINUOUS
 10
113.3599678704
 20
720.522145989
 11
114.5599678704
 21
720.822145989
  0
LINE
  5
2E9
100
AcDbEntity
  8
0
100
AcDbLine
 62
7
  6
CONTINUOUS
 10
736.8502886039
 20
690.652145989
 11
738.0599678704
 21
690.062145989
  0
LINE
  5
2EA
100
AcDbEntity
  8
0
100
AcDbLine
 62
7
  6
CONTINUOUS
 10
750.5599678704
 20
720.422145989
 11
749.5599678704
 21
720.822145989
  0
LINE
  5
2EB
100
AcDbEntity
  8
0
100
AcDbLine
 62
7
  6
CONTINUOUS
 10
708.8099678704
 20
737.152145989
 11
708.8099678704
 21
738.552145989
  0
LINE
  5
2EC
100
AcDbEntity
  8
0
100
AcDbLine
 62
7
  6
CONTINUOUS
 10
709.8099678704
 20
739.152145989
 11
709.8099678704
 21
740.8473365174
  0
LINE
  5
2ED
100
AcDbEntity
  8
0
100
AcDbLine
 62
7
  6
CONTINUOUS
 10
710.4099678704
 20
739.152145989
 11
710.4099678704
 21
738.552145989
  0
LINE
  5
2EE
100
AcDbEntity
  8
0
100
AcDbLine
 62
7
  6
CONTINUOUS
 10
712.2099678704
 20
742.5208356761
 11
712.2099678704
 21
742.5058246066
  0
LINE
  5
2EF
100
AcDbEntity
  8
0
100
AcDbLine
 62
7
  6
CONTINUOUS
 10
713.9599678704
 20
742.816481462
 11
713.9599678704
 21
741.752145989
  0
LINE
  5
2F0
100
AcDbEntity
  8
0
100
AcDbLine
 62
7
  6
CONTINUOUS
 10
715.1599678704
 20
741.752145989
 11
715.1599678704
 21
742.816481462
  0
LINE
  5
2F1
100
AcDbEntity
  8
0
100
AcDbLine
 62
7
  6
CONTINUOUS
 10
716.9099678704
 20
742.5058246066
 11
716.9099678704
 21
742.520835676
  0
LINE
  5
2F2
100
AcDbEntity
  8
0
100
AcDbLine
 62
7
  6
CONTINUOUS
 10
718.7099678704
 20
738.552145989
 11
718.7099678704
 21
739.152145989
  0
LINE
  5
2F3
100
AcDbEntity
  8
0
100
AcDbLine
 62
7
  6
CONTINUOUS
 10
719.3099678704
 20
739.152145989
 11
719.3099678704
 21
740.8473365174
  0
LINE
  5
2F4
100
AcDbEntity
  8
0
100
AcDbLine
 62
7
  6
CONTINUOUS
 10
720.3099678704
 20
737.152145989
 11
720.3099678704
 21
738.552145989
  0
LINE
  5
2F5
100
AcDbEntity
  8
0
100
AcDbLine
 62
7
  6
CONTINUOUS
 10
729.7599678704
 20
721.152145989
 11
729.7599678704
 21
543.5697890391
  0
LINE
  5
2F6
100
AcDbEntity
  8
0
100
AcDbLine
 62
7
  6
CONTINUOUS
 10
730.0599678704
 20
543.452145989
 11
730.0599678704
 21
478.752145989
  0
LINE
  5
2F7
100
AcDbEntity
  8
0
100
AcDbLine
 62
7
  6
CONTINUOUS
 10
731.5599678704
 20
545.252145989
 11
731.5599678704
 21
721.152145989
  0
LINE
  5
2F8
100
AcDbEntity
  8
0
100
AcDbLine
 62
7
  6
CONTINUOUS
 10
732.5599678704
 20
544.452145989
 11
732.5599678704
 21
721.152145989
  0
LINE
  5
2F9
100
AcDbEntity
  8
0
100
AcDbLine
 62
7
  6
CONTINUOUS
 10
735.5599678704
 20
721.152145989
 11
735.5599678704
 21
720.822145989
  0
LINE
  5
2FA
100
AcDbEntity
  8
0
100
AcDbLine
 62
7
  6
CONTINUOUS
 10
735.5599678704
 20
544.452145989
 11
735.5599678704
 21
714.482145989
  0
LINE
  5
2FB
100
AcDbEntity
  8
0
100
AcDbLine
 62
7
  6
CONTINUOUS
 10
736.5599678704
 20
708.6521404753
 11
736.5599678704
 21
698.6521515026
  0
LINE
  5
2FC
100
AcDbEntity
  8
0
100
AcDbLine
 62
7
  6
CONTINUOUS
 10
736.5599678704
 20
583.4521404753
 11
736.5599678704
 21
573.4521515026
  0
LINE
  5
2FD
100
AcDbEntity
  8
0
100
AcDbLine
 62
7
  6
CONTINUOUS
 10
736.5599678704
 20
559.4521404753
 11
736.5599678704
 21
549.4521515026
  0
LINE
  5
2FE
100
AcDbEntity
  8
0
100
AcDbLine
 62
7
  6
CONTINUOUS
 10
736.7599678704
 20
682.9520551213
 11
736.7599678704
 21
660.9522368566
  0
LINE
  5
2FF
100
AcDbEntity
  8
0
100
AcDbLine
 62
7
  6
CONTINUOUS
 10
736.8502886039
 20
690.652145989
 11
736.8502886039
 21
686.652145989
  0
LINE
  5
300
100
AcDbEntity
  8
0
100
AcDbLine
 62
7
  6
CONTINUOUS
 10
738.0599678704
 20
690.062145989
 11
738.0599678704
 21
687.242145989
  0
LINE
  5
301
100
AcDbEntity
  8
0
100
AcDbLine
 62
7
  6
CONTINUOUS
 10
738.3599678704
 20
550.2021504353
 11
738.3599678704
 21
558.7021415427
  0
LINE
  5
302
100
AcDbEntity
  8
0
100
AcDbLine
 62
7
  6
CONTINUOUS
 10
738.3599678704
 20
574.2021504353
 11
738.3599678704
 21
582.7021415427
  0
LINE
  5
303
100
AcDbEntity
  8
0
100
AcDbLine
 62
7
  6
CONTINUOUS
 10
738.3599678704
 20
699.4021504353
 11
738.3599678704
 21
707.9021415427
  0
LINE
  5
304
100
AcDbEntity
  8
0
100
AcDbLine
 62
7
  6
CONTINUOUS
 10
740.7599678704
 20
661.5481811979
 11
740.7599678704
 21
682.35611078
  0
LINE
  5
305
100
AcDbEntity
  8
0
100
AcDbLine
 62
7
  6
CONTINUOUS
 10
741.8599678704
 20
707.9021415427
 11
741.8599678704
 21
699.4021504353
  0
LINE
  5
306
100
AcDbEntity
  8
0
100
AcDbLine
 62
7
  6
CONTINUOUS
 10
741.8599678704
 20
582.7021415427
 11
741.8599678704
 21
574.2021504353
  0
LINE
  5
307
100
AcDbEntity
  8
0
100
AcDbLine
 62
7
  6
CONTINUOUS
 10
741.8599678704
 20
558.7021415427
 11
741.8599678704
 21
550.2021504353
  0
LINE
  5
308
100
AcDbEntity
  8
0
100
AcDbLine
 62
7
  6
CONTINUOUS
 10
746.2599678704
 20
692.152145989
 11
746.2599678699
 21
735.3521459744
  0
LINE
  5
309
100
AcDbEntity
  8
0
100
AcDbLine
 62
7
  6
CONTINUOUS
 10
747.7599678704
 20
692.152145989
 11
747.7599678704
 21
735.3521459744
  0
LINE
  5
30A
100
AcDbEntity
  8
0
100
AcDbLine
 62
7
  6
CONTINUOUS
 10
749.5599678704
 20
720.822145989
 11
749.5599678704
 21
714.482145989
  0
LINE
  5
30B
100
AcDbEntity
  8
0
100
AcDbLine
 62
7
  6
CONTINUOUS
 10
750.5599678704
 20
720.4221422437
 11
750.5599678704
 21
714.8821497343
  0
LINE
  5
30C
100
AcDbEntity
  8
0
100
AcDbLine
 62
7
  6
CONTINUOUS
 10
762.5599678704
 20
468.9031540195
 11
762.5599678704
 21
443.752145989
  0
CIRCLE
  5
30D
100
AcDbEntity
  8
0
100
AcDbCircle
 62
7
  6
CONTINUOUS
 10
112.5599678704
 20
459.752145989
 40
8.0
  0
ARC
  5
30E
100
AcDbEntity
  8
0
100
AcDbCircle
 62
7
  6
CONTINUOUS
 10
135.6895986409
 20
555.2979895965
 40
2.9193647709
100
AcDbArc
 50
169.8711084099
 51
170.0565182966
  0
ARC
  5
30F
100
AcDbEntity
  8
0
100
AcDbCircle
 62
7
  6
CONTINUOUS
 10
134.004508344
 20
555.5291093489
 40
1.2179649819
100
AcDbArc
 50
174.7715676945
 51
175.4068729432
  0
ARC
  5
310
100
AcDbEntity
  8
0
100
AcDbCircle
 62
7
  6
CONTINUOUS
 10
134.0034088042
 20
553.3751490146
 40
1.2168675828
100
AcDbArc
 50
184.5956214296
 51
185.2311947415
  0
ARC
  5
311
100
AcDbEntity
  8
0
100
AcDbCircle
 62
7
  6
CONTINUOUS
 10
134.5501956418
 20
557.452145989
 40
1.0
100
AcDbArc
 50
90.0
 51
146.9442688491
  0
ARC
  5
312
100
AcDbEntity
  8
0
100
AcDbCircle
 62
7
  6
CONTINUOUS
 10
134.5501956418
 20
551.452145989
 40
1.0
100
AcDbArc
 50
213.0557311509
 51
270.0
  0
ARC
  5
313
100
AcDbEntity
  8
0
100
AcDbCircle
 62
7
  6
CONTINUOUS
 10
132.2211175418
 20
553.451879509
 40
0.7541908577
100
AcDbArc
 50
358.368829204
 51
0.0202444524
  0
ARC
  5
314
100
AcDbEntity
  8
0
100
AcDbCircle
 62
7
  6
CONTINUOUS
 10
132.2212569863
 20
555.4524120821
 40
0.7540514011
100
AcDbArc
 50
359.9797812035
 51
1.6319934207
  0
ARC
  5
315
100
AcDbEntity
  8
0
100
AcDbCircle
 62
7
  6
CONTINUOUS
 10
132.998453205
 20
553.3602429411
 40
0.2102138245
100
AcDbArc
 50
171.1247655927
 51
173.6900592602
  0
ARC
  5
316
100
AcDbEntity
  8
0
100
AcDbCircle
 62
7
  6
CONTINUOUS
 10
132.9980955544
 20
555.5440028938
 40
0.2098530744
100
AcDbArc
 50
186.3081330515
 51
188.8775117421
  0
ARC
  5
317
100
AcDbEntity
  8
0
100
AcDbCircle
 62
7
  6
CONTINUOUS
 10
135.689598577
 20
574.2979896078
 40
2.919364706
100
AcDbArc
 50
169.8711084072
 51
170.056518298
  0
ARC
  5
318
100
AcDbEntity
  8
0
100
AcDbCircle
 62
7
  6
CONTINUOUS
 10
134.0045083406
 20
574.5291093492
 40
1.2179649784
100
AcDbArc
 50
174.7715676937
 51
175.406872944
  0
ARC
  5
319
100
AcDbEntity
  8
0
100
AcDbCircle
 62
7
  6
CONTINUOUS
 10
134.003408802
 20
572.3751490144
 40
1.2168675805
100
AcDbArc
 50
184.5956214291
 51
185.2311947424
  0
ARC
  5
31A
100
AcDbEntity
  8
0
100
AcDbCircle
 62
7
  6
CONTINUOUS
 10
134.5501956418
 20
576.452145989
 40
1.0
100
AcDbArc
 50
90.0
 51
146.9442688491
  0
ARC
  5
31B
100
AcDbEntity
  8
0
100
AcDbCircle
 62
7
  6
CONTINUOUS
 10
134.5501956418
 20
570.452145989
 40
1.0
100
AcDbArc
 50
213.0557311508
 51
270.0
  0
ARC
  5
31C
100
AcDbEntity
  8
0
100
AcDbCircle
 62
7
  6
CONTINUOUS
 10
132.2211175426
 20
572.451879509
 40
0.7541908569
100
AcDbArc
 50
358.3688292028
 51
0.0202444528
  0
ARC
  5
31D
100
AcDbEntity
  8
0
100
AcDbCircle
 62
7
  6
CONTINUOUS
 10
132.2212569863
 20
574.4524120821
 40
0.7540514011
100
AcDbArc
 50
359.9797812035
 51
1.6319934207
  0
ARC
  5
31E
100
AcDbEntity
  8
0
100
AcDbCircle
 62
7
  6
CONTINUOUS
 10
132.9984532053
 20
572.360242941
 40
0.2102138249
100
AcDbArc
 50
171.1247655949
 51
173.6900592585
  0
ARC
  5
31F
100
AcDbEntity
  8
0
100
AcDbCircle
 62
7
  6
CONTINUOUS
 10
132.9980955544
 20
574.5440028938
 40
0.2098530744
100
AcDbArc
 50
186.3081330532
 51
188.8775117423
  0
ARC
  5
320
100
AcDbEntity
  8
0
100
AcDbCircle
 62
7
  6
CONTINUOUS
 10
139.1599678704
 20
554.452145989
 40
6.5
100
AcDbArc
 50
146.9442688491
 51
162.0797868606
  0
ARC
  5
321
100
AcDbEntity
  8
0
100
AcDbCircle
 62
7
  6
CONTINUOUS
 10
139.1599678704
 20
554.452145989
 40
6.5
100
AcDbArc
 50
197.9202131394
 51
213.0557311508
  0
ARC
  5
322
100
AcDbEntity
  8
0
100
AcDbCircle
 62
7
  6
CONTINUOUS
 10
137.2444532301
 20
554.9711511003
 40
4.5084921432
100
AcDbArc
 50
164.8142611852
 51
166.5839125106
  0
ARC
  5
323
100
AcDbEntity
  8
0
100
AcDbCircle
 62
7
  6
CONTINUOUS
 10
137.2224429942
 20
553.9275608931
 40
4.4857888116
100
AcDbArc
 50
193.4120080825
 51
195.1905977865
  0
ARC
  5
324
100
AcDbEntity
  8
0
100
AcDbCircle
 62
7
  6
CONTINUOUS
 10
136.9606807597
 20
555.03905917
 40
4.2167075101
100
AcDbArc
 50
166.5868166294
 51
167.2384895675
  0
ARC
  5
325
100
AcDbEntity
  8
0
100
AcDbCircle
 62
7
  6
CONTINUOUS
 10
136.9557802805
 20
553.8636936731
 40
4.2115846075
100
AcDbArc
 50
192.7558481226
 51
193.4083009261
  0
ARC
  5
326
100
AcDbEntity
  8
0
100
AcDbCircle
 62
7
  6
CONTINUOUS
 10
136.6075857201
 20
553.7856784731
 40
3.8547581223
100
AcDbArc
 50
191.6960381805
 51
192.7675984494
  0
ARC
  5
327
100
AcDbEntity
  8
0
100
AcDbCircle
 62
7
  6
CONTINUOUS
 10
136.5689070793
 20
555.1269159216
 40
3.8152045588
100
AcDbArc
 50
167.2256689401
 51
168.3085174425
  0
ARC
  5
328
100
AcDbEntity
  8
0
100
AcDbCircle
 62
7
  6
CONTINUOUS
 10
136.215060984
 20
555.1998932165
 40
3.4539114912
100
AcDbArc
 50
168.3045236897
 51
169.2573725302
  0
ARC
  5
329
100
AcDbEntity
  8
0
100
AcDbCircle
 62
7
  6
CONTINUOUS
 10
136.2113151041
 20
553.7039245157
 40
3.450142223
100
AcDbArc
 50
190.7464748346
 51
191.7006105048
  0
ARC
  5
32A
100
AcDbEntity
  8
0
100
AcDbCircle
 62
7
  6
CONTINUOUS
 10
135.8768763646
 20
555.2643033213
 40
3.1096478829
100
AcDbArc
 50
169.261876951
 51
169.8669440821
  0
ARC
  5
32B
100
AcDbEntity
  8
0
100
AcDbCircle
 62
7
  6
CONTINUOUS
 10
135.8205230436
 20
553.6296378856
 40
3.0523521742
100
AcDbArc
 50
189.950706094
 51
190.7443106986
  0
ARC
  5
32C
100
AcDbEntity
  8
0
100
AcDbCircle
 62
7
  6
CONTINUOUS
 10
139.1599678704
 20
573.452145989
 40
6.5
100
AcDbArc
 50
146.9442688491
 51
162.0797868606
  0
ARC
  5
32D
100
AcDbEntity
  8
0
100
AcDbCircle
 62
7
  6
CONTINUOUS
 10
139.1599678704
 20
573.452145989
 40
6.5
100
AcDbArc
 50
197.9202131394
 51
213.0557311509
  0
ARC
  5
32E
100
AcDbEntity
  8
0
100
AcDbCircle
 62
7
  6
CONTINUOUS
 10
137.2444532298
 20
573.9711511004
 40
4.5084921428
100
AcDbArc
 50
164.8142611851
 51
166.5839125105
  0
ARC
  5
32F
100
AcDbEntity
  8
0
100
AcDbCircle
 62
7
  6
CONTINUOUS
 10
137.2224429958
 20
572.9275608935
 40
4.4857888132
100
AcDbArc
 50
193.4120080824
 51
195.190597786
  0
ARC
  5
330
100
AcDbEntity
  8
0
100
AcDbCircle
 62
7
  6
CONTINUOUS
 10
136.9606807562
 20
574.0390591709
 40
4.2167075065
100
AcDbArc
 50
166.586816629
 51
167.238489568
  0
ARC
  5
331
100
AcDbEntity
  8
0
100
AcDbCircle
 62
7
  6
CONTINUOUS
 10
136.9557802812
 20
572.8636936733
 40
4.2115846082
100
AcDbArc
 50
192.7558481238
 51
193.4083009259
  0
ARC
  5
332
100
AcDbEntity
  8
0
100
AcDbCircle
 62
7
  6
CONTINUOUS
 10
136.6075857176
 20
572.7856784725
 40
3.8547581197
100
AcDbArc
 50
191.6960381797
 51
192.7675984508
  0
ARC
  5
333
100
AcDbEntity
  8
0
100
AcDbCircle
 62
7
  6
CONTINUOUS
 10
136.5689070769
 20
574.1269159221
 40
3.8152045564
100
AcDbArc
 50
167.2256689402
 51
168.3085174428
  0
ARC
  5
334
100
AcDbEntity
  8
0
100
AcDbCircle
 62
7
  6
CONTINUOUS
 10
136.2150609862
 20
574.199893216
 40
3.4539114935
100
AcDbArc
 50
168.3045236898
 51
169.2573725302
  0
ARC
  5
335
100
AcDbEntity
  8
0
100
AcDbCircle
 62
7
  6
CONTINUOUS
 10
136.2113151032
 20
572.7039245155
 40
3.4501422221
100
AcDbArc
 50
190.7464748348
 51
191.7006105045
  0
ARC
  5
336
100
AcDbEntity
  8
0
100
AcDbCircle
 62
7
  6
CONTINUOUS
 10
135.8768763632
 20
574.2643033216
 40
3.1096478814
100
AcDbArc
 50
169.2618769513
 51
169.8669440823
  0
ARC
  5
337
100
AcDbEntity
  8
0
100
AcDbCircle
 62
7
  6
CONTINUOUS
 10
135.8205230434
 20
572.6296378855
 40
3.052352174
100
AcDbArc
 50
189.9507060939
 51
190.7443106989
  0
ARC
  5
338
100
AcDbEntity
  8
0
100
AcDbCircle
 62
7
  6
CONTINUOUS
 10
139.1599678704
 20
708.152145989
 40
6.5
100
AcDbArc
 50
146.9442688491
 51
162.0797868606
  0
ARC
  5
339
100
AcDbEntity
  8
0
100
AcDbCircle
 62
7
  6
CONTINUOUS
 10
139.1599678704
 20
708.152145989
 40
6.5
100
AcDbArc
 50
197.9202131394
 51
213.0557311509
  0
ARC
  5
33A
100
AcDbEntity
  8
0
100
AcDbCircle
 62
7
  6
CONTINUOUS
 10
137.2444532309
 20
708.6711511001
 40
4.508492144
100
AcDbArc
 50
164.8142611854
 51
166.5839125103
  0
ARC
  5
33B
100
AcDbEntity
  8
0
100
AcDbCircle
 62
7
  6
CONTINUOUS
 10
137.2224429926
 20
707.6275608927
 40
4.4857888099
100
AcDbArc
 50
193.4120080827
 51
195.1905977871
  0
ARC
  5
33C
100
AcDbEntity
  8
0
100
AcDbCircle
 62
7
  6
CONTINUOUS
 10
136.960680761
 20
708.7390591697
 40
4.2167075115
100
AcDbArc
 50
166.5868166292
 51
167.2384895677
  0
ARC
  5
33D
100
AcDbEntity
  8
0
100
AcDbCircle
 62
7
  6
CONTINUOUS
 10
136.9557802811
 20
707.5636936732
 40
4.2115846081
100
AcDbArc
 50
192.7558481219
 51
193.4083009262
  0
ARC
  5
33E
100
AcDbEntity
  8
0
100
AcDbCircle
 62
7
  6
CONTINUOUS
 10
136.6075857182
 20
707.4856784727
 40
3.8547581204
100
AcDbArc
 50
191.6960381806
 51
192.7675984491
  0
ARC
  5
33F
100
AcDbEntity
  8
0
100
AcDbCircle
 62
7
  6
CONTINUOUS
 10
136.5689070777
 20
708.8269159219
 40
3.8152045571
100
AcDbArc
 50
167.2256689405
 51
168.3085174425
  0
ARC
  5
340
100
AcDbEntity
  8
0
100
AcDbCircle
 62
7
  6
CONTINUOUS
 10
136.2150609841
 20
708.8998932165
 40
3.4539114913
100
AcDbArc
 50
168.3045236897
 51
169.2573725315
  0
ARC
  5
341
100
AcDbEntity
  8
0
100
AcDbCircle
 62
7
  6
CONTINUOUS
 10
136.2113151054
 20
707.403924516
 40
3.4501422244
100
AcDbArc
 50
190.7464748342
 51
191.7006105049
  0
ARC
  5
342
100
AcDbEntity
  8
0
100
AcDbCircle
 62
7
  6
CONTINUOUS
 10
135.8768763675
 20
708.9643033208
 40
3.1096478859
100
AcDbArc
 50
169.2618769524
 51
169.8669440819
  0
ARC
  5
343
100
AcDbEntity
  8
0
100
AcDbCircle
 62
7
  6
CONTINUOUS
 10
135.8205230421
 20
707.3296378853
 40
3.0523521727
100
AcDbArc
 50
189.9507060939
 51
190.744310698
  0
ARC
  5
344
100
AcDbEntity
  8
0
100
AcDbCircle
 62
7
  6
CONTINUOUS
 10
135.6895986122
 20
708.9979896016
 40
2.9193647417
100
AcDbArc
 50
169.8711084086
 51
170.0565182971
  0
ARC
  5
345
100
AcDbEntity
  8
0
100
AcDbCircle
 62
7
  6
CONTINUOUS
 10
134.0045083511
 20
709.2291093483
 40
1.217964989
100
AcDbArc
 50
174.7715676968
 51
175.4068729416
  0
ARC
  5
346
100
AcDbEntity
  8
0
100
AcDbCircle
 62
7
  6
CONTINUOUS
 10
134.0034088043
 20
707.0751490146
 40
1.2168675829
100
AcDbArc
 50
184.5956214296
 51
185.2311947416
  0
ARC
  5
347
100
AcDbEntity
  8
0
100
AcDbCircle
 62
7
  6
CONTINUOUS
 10
134.5501956418
 20
711.152145989
 40
1.0
100
AcDbArc
 50
90.0
 51
146.9442688491
  0
ARC
  5
348
100
AcDbEntity
  8
0
100
AcDbCircle
 62
7
  6
CONTINUOUS
 10
134.5501956418
 20
705.152145989
 40
1.0
100
AcDbArc
 50
213.0557311508
 51
270.0
  0
ARC
  5
349
100
AcDbEntity
  8
0
100
AcDbCircle
 62
7
  6
CONTINUOUS
 10
132.2211175418
 20
707.151879509
 40
0.7541908577
100
AcDbArc
 50
358.3688292036
 51
0.0202444519
  0
ARC
  5
34A
100
AcDbEntity
  8
0
100
AcDbCircle
 62
7
  6
CONTINUOUS
 10
132.2212569859
 20
709.1524120821
 40
0.7540514015
100
AcDbArc
 50
359.9797812037
 51
1.63199342
  0
ARC
  5
34B
100
AcDbEntity
  8
0
100
AcDbCircle
 62
7
  6
CONTINUOUS
 10
117.6599678704
 20
714.3637213315
 40
0.6115753425
100
AcDbArc
 50
180.0
 51
351.158251833
  0
ARC
  5
34C
100
AcDbEntity
  8
0
100
AcDbCircle
 62
7
  6
CONTINUOUS
 10
132.9984532052
 20
707.060242941
 40
0.2102138248
100
AcDbArc
 50
171.124765594
 51
173.6900592581
  0
ARC
  5
34D
100
AcDbEntity
  8
0
100
AcDbCircle
 62
7
  6
CONTINUOUS
 10
132.9980955541
 20
709.2440028938
 40
0.2098530741
100
AcDbArc
 50
186.3081330501
 51
188.8775117434
  0
ARC
  5
34E
100
AcDbEntity
  8
0
100
AcDbCircle
 62
7
  6
CONTINUOUS
 10
132.9473194787
 20
735.1491450465
 40
16.6885863111
100
AcDbArc
 50
178.1413743554
 51
179.30303359
  0
ARC
  5
34F
100
AcDbEntity
  8
0
100
AcDbCircle
 62
7
  6
CONTINUOUS
 10
156.8599678704
 20
734.352145989
 40
8.5
100
AcDbArc
 50
106.0496708043
 51
119.9999885737
  0
ARC
  5
350
100
AcDbEntity
  8
0
100
AcDbCircle
 62
7
  6
CONTINUOUS
 10
156.8599678704
 20
734.352145989
 40
8.5
100
AcDbArc
 50
60.000723394
 51
73.9503291957
  0
ARC
  5
351
100
AcDbEntity
  8
0
100
AcDbCircle
 62
7
  6
CONTINUOUS
 10
156.8599678704
 20
734.352145989
 40
8.4855745239
100
AcDbArc
 50
73.9223060076
 51
85.945333087
  0
ARC
  5
352
100
AcDbEntity
  8
0
100
AcDbCircle
 62
7
  6
CONTINUOUS
 10
156.8599678704
 20
734.352145989
 40
8.4855745239
100
AcDbArc
 50
94.054666913
 51
106.0776939924
  0
ARC
  5
353
100
AcDbEntity
  8
0
100
AcDbCircle
 62
7
  6
CONTINUOUS
 10
116.5599678704
 20
735.352145989
 40
1.8
100
AcDbArc
 50
90.0
 51
180.0
  0
ARC
  5
354
100
AcDbEntity
  8
0
100
AcDbCircle
 62
7
  6
CONTINUOUS
 10
153.1099678704
 20
740.8473365174
 40
1.0
100
AcDbArc
 50
120.0001640274
 51
180.0
  0
ARC
  5
355
100
AcDbEntity
  8
0
100
AcDbCircle
 62
7
  6
CONTINUOUS
 10
160.6099678704
 20
740.8473365174
 40
1.0
100
AcDbArc
 50
0.0
 51
59.9997482119
  0
ARC
  5
356
100
AcDbEntity
  8
0
100
AcDbCircle
 62
7
  6
CONTINUOUS
 10
342.8599678704
 20
734.352145989
 40
8.5
100
AcDbArc
 50
106.0496708043
 51
119.9999885737
  0
ARC
  5
357
100
AcDbEntity
  8
0
100
AcDbCircle
 62
7
  6
CONTINUOUS
 10
342.8599678704
 20
734.352145989
 40
8.5
100
AcDbArc
 50
60.000723394
 51
73.9503291957
  0
ARC
  5
358
100
AcDbEntity
  8
0
100
AcDbCircle
 62
7
  6
CONTINUOUS
 10
342.8599678704
 20
734.352145989
 40
8.4855745239
100
AcDbArc
 50
73.9223060076
 51
85.945333087
  0
ARC
  5
359
100
AcDbEntity
  8
0
100
AcDbCircle
 62
7
  6
CONTINUOUS
 10
342.8599678704
 20
734.352145989
 40
8.4855745239
100
AcDbArc
 50
94.054666913
 51
106.0776939924
  0
ARC
  5
35A
100
AcDbEntity
  8
0
100
AcDbCircle
 62
7
  6
CONTINUOUS
 10
339.1099678704
 20
740.8473365174
 40
1.0
100
AcDbArc
 50
120.0001640274
 51
180.0
  0
ARC
  5
35B
100
AcDbEntity
  8
0
100
AcDbCircle
 62
7
  6
CONTINUOUS
 10
346.6099678704
 20
740.8473365174
 40
1.0
100
AcDbArc
 50
0.0
 51
59.9997482119
  0
CIRCLE
  5
35C
100
AcDbEntity
  8
0
100
AcDbCircle
 62
7
  6
CONTINUOUS
 10
747.5599678704
 20
459.752145989
 40
8.0
  0
ARC
  5
35D
100
AcDbEntity
  8
0
100
AcDbCircle
 62
7
  6
CONTINUOUS
 10
729.7599678704
 20
545.252145989
 40
1.8
100
AcDbArc
 50
279.3853864736
 51
360.0
  0
ARC
  5
35E
100
AcDbEntity
  8
0
100
AcDbCircle
 62
7
  6
CONTINUOUS
 10
729.5473237565
 20
735.1489099498
 40
16.7138798054
100
AcDbArc
 50
0.6967176024
 51
1.8579404481
  0
ARC
  5
35F
100
AcDbEntity
  8
0
100
AcDbCircle
 62
7
  6
CONTINUOUS
 10
514.5599678704
 20
734.352145989
 40
8.5
100
AcDbArc
 50
106.0496708043
 51
119.9999885737
  0
ARC
  5
360
100
AcDbEntity
  8
0
100
AcDbCircle
 62
7
  6
CONTINUOUS
 10
514.5599678704
 20
734.352145989
 40
8.5
100
AcDbArc
 50
60.000723394
 51
73.9503291957
  0
ARC
  5
361
100
AcDbEntity
  8
0
100
AcDbCircle
 62
7
  6
CONTINUOUS
 10
714.5599678704
 20
734.352145989
 40
8.5
100
AcDbArc
 50
106.0496708043
 51
119.9999885737
  0
ARC
  5
362
100
AcDbEntity
  8
0
100
AcDbCircle
 62
7
  6
CONTINUOUS
 10
714.5599678704
 20
734.352145989
 40
8.5
100
AcDbArc
 50
60.000723394
 51
73.9503291957
  0
ARC
  5
363
100
AcDbEntity
  8
0
100
AcDbCircle
 62
7
  6
CONTINUOUS
 10
514.5599678704
 20
734.352145989
 40
8.4855745239
100
AcDbArc
 50
73.9223060076
 51
85.945333087
  0
ARC
  5
364
100
AcDbEntity
  8
0
100
AcDbCircle
 62
7
  6
CONTINUOUS
 10
514.5599678704
 20
734.352145989
 40
8.4855745239
100
AcDbArc
 50
94.054666913
 51
106.0776939924
  0
ARC
  5
365
100
AcDbEntity
  8
0
100
AcDbCircle
 62
7
  6
CONTINUOUS
 10
714.5599678704
 20
734.352145989
 40
8.4855745239
100
AcDbArc
 50
73.9223060076
 51
85.945333087
  0
ARC
  5
366
100
AcDbEntity
  8
0
100
AcDbCircle
 62
7
  6
CONTINUOUS
 10
714.5599678704
 20
734.352145989
 40
8.4855745239
100
AcDbArc
 50
94.054666913
 51
106.0776939924
  0
ARC
  5
367
100
AcDbEntity
  8
0
100
AcDbCircle
 62
7
  6
CONTINUOUS
 10
745.9599678704
 20
735.352145989
 40
1.8
100
AcDbArc
 50
0.0
 51
90.0
  0
ARC
  5
368
100
AcDbEntity
  8
0
100
AcDbCircle
 62
7
  6
CONTINUOUS
 10
510.8099678704
 20
740.8473365174
 40
1.0
100
AcDbArc
 50
120.0001640274
 51
180.0
  0
ARC
  5
369
100
AcDbEntity
  8
0
100
AcDbCircle
 62
7
  6
CONTINUOUS
 10
518.3099678704
 20
740.8473365174
 40
1.0
100
AcDbArc
 50
0.0
 51
59.9997482119
  0
ARC
  5
36A
100
AcDbEntity
  8
0
100
AcDbCircle
 62
7
  6
CONTINUOUS
 10
710.8099678704
 20
740.8473365174
 40
1.0
100
AcDbArc
 50
120.0001640274
 51
180.0
  0
ARC
  5
36B
100
AcDbEntity
  8
0
100
AcDbCircle
 62
7
  6
CONTINUOUS
 10
718.3099678704
 20
740.8473365174
 40
1.0
100
AcDbArc
 50
0.0
 51
59.9997482119
  0
SPLINE
  5
36C
100
AcDbEntity
  8
0
100
AcDbSpline
 62
7
  6
CONTINUOUS
 70
0
 71
3
 72
9
 73
5
 74
0
 42
0.0000001
 43
0.0000001
 44
0.0000000001
 40
0.0
 40
0.0
 40
0.0
 40
0.0
 40
0.4534043577
 40
1.0
 40
1.0
 40
1.0
 40
1.0
 10
132.815733841
 20
553.4336414466
 30
0.0
 10
132.8126383371
 20
553.4336414466
 30
0.0
 10
132.8056744882
 20
553.4312841987
 30
0.0
 10
132.8014708727
 20
553.4255306427
 30
0.0
 10
132.7996293662
 20
553.4222849123
 30
0.0
  0
SPLINE
  5
36D
100
AcDbEntity
  8
0
100
AcDbSpline
 62
7
  6
CONTINUOUS
 70
0
 71
3
 72
9
 73
5
 74
0
 42
0.0000001
 43
0.0000001
 44
0.0000000001
 40
0.0
 40
0.0
 40
0.0
 40
0.0
 40
0.2272965169
 40
1.0
 40
1.0
 40
1.0
 40
1.0
 10
132.7996293662
 20
553.4222849123
 30
0.0
 10
132.799180439
 20
553.4214936598
 30
0.0
 10
132.7973236978
 20
553.417945273
 30
0.0
 10
132.7958996986
 20
553.414182975
 30
0.0
 10
132.7949588869
 20
553.4112368716
 30
0.0
  0
SPLINE
  5
36E
100
AcDbEntity
  8
0
100
AcDbSpline
 62
7
  6
CONTINUOUS
 70
0
 71
3
 72
9
 73
5
 74
0
 42
0.0000001
 43
0.0000001
 44
0.0000000001
 40
0.0
 40
0.0
 40
0.0
 40
0.0
 40
0.2258648086
 40
1.0
 40
1.0
 40
1.0
 40
1.0
 10
132.7949588869
 20
553.4112368716
 30
0.0
 10
132.7945227621
 20
553.4098711693
 30
0.0
 10
132.7927473107
 20
553.4037749161
 30
0.0
 10
132.791519525
 20
553.3975295274
 30
0.0
 10
132.790756345
 20
553.392675431
 30
0.0
  0
SPLINE
  5
36F
100
AcDbEntity
  8
0
100
AcDbSpline
 62
7
  6
CONTINUOUS
 70
0
 71
3
 72
9
 73
5
 74
0
 42
0.0000001
 43
0.0000001
 44
0.0000000001
 40
0.0
 40
0.0
 40
0.0
 40
0.0
 40
0.2018928463
 40
1.0
 40
1.0
 40
1.0
 40
1.0
 10
132.7895128764
 20
553.3833468615
 30
0.0
 10
132.7887230313
 20
553.3762712385
 30
0.0
 10
132.7863505348
 20
553.3410562239
 30
0.0
 10
132.7882012634
 20
553.3057045185
 30
0.0
 10
132.7904534454
 20
553.2776502378
 30
0.0
  0
SPLINE
  5
370
100
AcDbEntity
  8
0
100
AcDbSpline
 62
7
  6
CONTINUOUS
 70
0
 71
3
 72
9
 73
5
 74
0
 42
0.0000001
 43
0.0000001
 44
0.0000000001
 40
0.0
 40
0.0
 40
0.0
 40
0.0
 40
0.2247535828
 40
1.0
 40
1.0
 40
1.0
 40
1.0
 10
132.7916095893
 20
553.2642013842
 30
0.0
 10
132.7927257856
 20
553.2519964183
 30
0.0
 10
132.7984710437
 20
553.1977640541
 30
0.0
 10
132.8067886321
 20
553.1438283895
 30
0.0
 10
132.8140880589
 20
553.1021888566
 30
0.0
  0
SPLINE
  5
371
100
AcDbEntity
  8
0
100
AcDbSpline
 62
7
  6
CONTINUOUS
 70
0
 71
3
 72
11
 73
7
 74
0
 42
0.0000001
 43
0.0000001
 44
0.0000000001
 40
0.0
 40
0.0
 40
0.0
 40
0.0
 40
0.2640341272
 40
0.5429673174
 40
0.7985635341
 40
1.0
 40
1.0
 40
1.0
 40
1.0
 10
132.9753083524
 20
553.452145989
 30
0.0
 10
132.9753083524
 20
553.4882081341
 30
0.0
 10
132.970683837
 20
553.5623706578
 30
0.0
 10
132.9546683266
 20
553.670396068
 30
0.0
 10
132.9313421619
 20
553.7682366093
 30
0.0
 10
132.9105517013
 20
553.8274421504
 30
0.0
 10
132.898441525
 20
553.852145989
 30
0.0
  0
LINE
  5
372
100
AcDbEntity
  8
0
100
AcDbLine
 62
7
  6
CONTINUOUS
 10
132.8933898569
 20
556.152145989
 11
132.9349440749
 21
556.3048349561
  0
SPLINE
  5
373
100
AcDbEntity
  8
0
100
AcDbSpline
 62
7
  6
CONTINUOUS
 70
0
 71
3
 72
10
 73
6
 74
0
 42
0.0000001
 43
0.0000001
 44
0.0000000001
 40
0.0
 40
0.0
 40
0.0
 40
0.0
 40
0.3131827598
 40
0.6110018254
 40
1.0
 40
1.0
 40
1.0
 40
1.0
 10
132.9342106634
 20
553.3021457939
 30
0.0
 10
132.9487767146
 20
553.3021515679
 30
0.0
 10
132.965030217
 20
553.3371861565
 30
0.0
 10
132.9719370732
 20
553.379399529
 30
0.0
 10
132.9744813639
 20
553.4123264296
 30
0.0
 10
132.9750027839
 20
553.4304111227
 30
0.0
  0
LINE
  5
374
100
AcDbEntity
  8
0
100
AcDbLine
 62
7
  6
CONTINUOUS
 10
132.9349054955
 20
552.5995998304
 11
132.8933898569
 21
552.752145989
  0
SPLINE
  5
375
100
AcDbEntity
  8
0
100
AcDbSpline
 62
7
  6
CONTINUOUS
 70
0
 71
3
 72
11
 73
7
 74
0
 42
0.0000001
 43
0.0000001
 44
0.0000000001
 40
0.0
 40
0.0
 40
0.0
 40
0.0
 40
0.2014238408
 40
0.4570280339
 40
0.7359743677
 40
1.0
 40
1.0
 40
1.0
 40
1.0
 10
132.898441525
 20
555.052145989
 30
0.0
 10
132.9105509416
 20
555.0768482778
 30
0.0
 10
132.9313411927
 20
555.1360531805
 30
0.0
 10
132.9546683267
 20
555.2338946877
 30
0.0
 10
132.970683814
 20
555.3419218669
 30
0.0
 10
132.9753083405
 20
555.4160850064
 30
0.0
 10
132.9753083405
 20
555.452145989
 30
0.0
  0
SPLINE
  5
376
100
AcDbEntity
  8
0
100
AcDbSpline
 62
7
  6
CONTINUOUS
 70
0
 71
3
 72
10
 73
6
 74
0
 42
0.0000001
 43
0.0000001
 44
0.0000000001
 40
0.0
 40
0.0
 40
0.0
 40
0.0
 40
0.3890225872
 40
0.6868295751
 40
1.0
 40
1.0
 40
1.0
 40
1.0
 10
132.97500252
 20
555.4738873206
 30
0.0
 10
132.9744808396
 20
555.4919723144
 30
0.0
 10
132.9719366666
 20
555.5248984328
 30
0.0
 10
132.96502873
 20
555.5671094874
 30
0.0
 10
132.9487758848
 20
555.6021412283
 30
0.0
 10
132.9342110732
 20
555.6021462917
 30
0.0
  0
SPLINE
  5
377
100
AcDbEntity
  8
0
100
AcDbSpline
 62
7
  6
CONTINUOUS
 70
0
 71
3
 72
9
 73
5
 74
0
 42
0.0000001
 43
0.0000001
 44
0.0000000001
 40
0.0
 40
0.0
 40
0.0
 40
0.0
 40
0.2735830278
 40
1.0
 40
1.0
 40
1.0
 40
1.0
 10
132.8140869162
 20
555.8020957226
 30
0.0
 10
132.8115112296
 20
555.7874029123
 30
0.0
 10
132.8025243474
 20
555.7336279296
 30
0.0
 10
132.7952162379
 20
555.6795413478
 30
0.0
 10
132.7916109481
 20
555.6400985564
 30
0.0
  0
SPLINE
  5
378
100
AcDbEntity
  8
0
100
AcDbSpline
 62
7
  6
CONTINUOUS
 70
0
 71
3
 72
9
 73
5
 74
0
 42
0.0000001
 43
0.0000001
 44
0.0000000001
 40
0.0
 40
0.0
 40
0.0
 40
0.0
 40
0.2972882893
 40
1.0
 40
1.0
 40
1.0
 40
1.0
 10
132.7904548669
 20
555.6266431987
 30
0.0
 10
132.7896165597
 20
555.6161951168
 30
0.0
 10
132.7873339779
 20
555.5810400078
 30
0.0
 10
132.7867651072
 20
555.5455682388
 30
0.0
 10
132.789513063
 20
555.5209452031
 30
0.0
  0
SPLINE
  5
379
100
AcDbEntity
  8
0
100
AcDbSpline
 62
7
  6
CONTINUOUS
 70
0
 71
3
 72
9
 73
5
 74
0
 42
0.0000001
 43
0.0000001
 44
0.0000000001
 40
0.0
 40
0.0
 40
0.0
 40
0.0
 40
0.2745370927
 40
1.0
 40
1.0
 40
1.0
 40
1.0
 10
132.7907564123
 20
555.5116178205
 30
0.0
 10
132.7910271369
 20
555.5098964047
 30
0.0
 10
132.7921041715
 20
555.5036423671
 30
0.0
 10
132.7935589274
 20
555.497441913
 30
0.0
 10
132.7949592483
 20
555.4930552557
 30
0.0
  0
SPLINE
  5
37A
100
AcDbEntity
  8
0
100
AcDbSpline
 62
7
  6
CONTINUOUS
 70
0
 71
3
 72
9
 73
5
 74
0
 42
0.0000001
 43
0.0000001
 44
0.0000000001
 40
0.0
 40
0.0
 40
0.0
 40
0.0
 40
0.2736458321
 40
1.0
 40
1.0
 40
1.0
 40
1.0
 10
132.7949592483
 20
555.4930552557
 30
0.0
 10
132.7952923517
 20
555.4920117729
 30
0.0
 10
132.7965841414
 20
555.4882244797
 30
0.0
 10
132.7981945377
 20
555.4845328325
 30
0.0
 10
132.7996298543
 20
555.4820043346
 30
0.0
  0
SPLINE
  5
37B
100
AcDbEntity
  8
0
100
AcDbSpline
 62
7
  6
CONTINUOUS
 70
0
 71
3
 72
9
 73
5
 74
0
 42
0.0000001
 43
0.0000001
 44
0.0000000001
 40
0.0
 40
0.0
 40
0.0
 40
0.0
 40
0.5465843139
 40
1.0
 40
1.0
 40
1.0
 40
1.0
 10
132.7996298543
 20
555.4820043346
 30
0.0
 10
132.8014717
 20
555.4787596825
 30
0.0
 10
132.8056769844
 20
555.4730105186
 30
0.0
 10
132.8126383356
 20
555.4706501037
 30
0.0
 10
132.8157333418
 20
555.4706508577
 30
0.0
  0
SPLINE
  5
37C
100
AcDbEntity
  8
0
100
AcDbSpline
 62
7
  6
CONTINUOUS
 70
0
 71
3
 72
10
 73
6
 74
0
 42
0.0000001
 43
0.0000001
 44
0.0000000001
 40
0.0
 40
0.0
 40
0.0
 40
0.0
 40
0.1352261486
 40
0.3421683636
 40
1.0
 40
1.0
 40
1.0
 40
1.0
 10
132.8157338423
 20
553.4336414466
 30
0.0
 10
132.8212653908
 20
553.4336414466
 30
0.0
 10
132.8346306001
 20
553.4267853075
 30
0.0
 10
132.862464682
 20
553.3970229741
 30
0.0
 10
132.8805571088
 20
553.3659905492
 30
0.0
 10
132.8933898569
 20
553.3423383679
 30
0.0
  0
SPLINE
  5
37D
100
AcDbEntity
  8
0
100
AcDbSpline
 62
7
  6
CONTINUOUS
 70
0
 71
3
 72
10
 73
6
 74
0
 42
0.0000001
 43
0.0000001
 44
0.0000000001
 40
0.0
 40
0.0
 40
0.0
 40
0.0
 40
0.1351666651
 40
0.3420319074
 40
1.0
 40
1.0
 40
1.0
 40
1.0
 10
132.8157333418
 20
555.4706508577
 30
0.0
 10
132.8212624963
 20
555.4706522045
 30
0.0
 10
132.8346249157
 20
555.4774969349
 30
0.0
 10
132.8624570105
 20
555.507266971
 30
0.0
 10
132.8805543556
 20
555.5382963542
 30
0.0
 10
132.8933898569
 20
555.5619536101
 30
0.0
  0
SPLINE
  5
37E
100
AcDbEntity
  8
0
100
AcDbSpline
 62
7
  6
CONTINUOUS
 70
0
 71
3
 72
9
 73
5
 74
0
 42
0.0000001
 43
0.0000001
 44
0.0000000001
 40
0.0
 40
0.0
 40
0.0
 40
0.0
 40
0.4534043577
 40
1.0
 40
1.0
 40
1.0
 40
1.0
 10
132.815733841
 20
707.1336414466
 30
0.0
 10
132.8126383372
 20
707.1336414466
 30
0.0
 10
132.8056744882
 20
707.1312841987
 30
0.0
 10
132.8014708727
 20
707.1255306427
 30
0.0
 10
132.7996293662
 20
707.1222849123
 30
0.0
  0
SPLINE
  5
37F
100
AcDbEntity
  8
0
100
AcDbSpline
 62
7
  6
CONTINUOUS
 70
0
 71
3
 72
9
 73
5
 74
0
 42
0.0000001
 43
0.0000001
 44
0.0000000001
 40
0.0
 40
0.0
 40
0.0
 40
0.0
 40
0.2272965169
 40
1.0
 40
1.0
 40
1.0
 40
1.0
 10
132.7996293662
 20
707.1222849123
 30
0.0
 10
132.799180439
 20
707.1214936598
 30
0.0
 10
132.7973236978
 20
707.117945273
 30
0.0
 10
132.7958996986
 20
707.114182975
 30
0.0
 10
132.7949588869
 20
707.1112368716
 30
0.0
  0
SPLINE
  5
380
100
AcDbEntity
  8
0
100
AcDbSpline
 62
7
  6
CONTINUOUS
 70
0
 71
3
 72
9
 73
5
 74
0
 42
0.0000001
 43
0.0000001
 44
0.0000000001
 40
0.0
 40
0.0
 40
0.0
 40
0.0
 40
0.2258648087
 40
1.0
 40
1.0
 40
1.0
 40
1.0
 10
132.7949588869
 20
707.1112368716
 30
0.0
 10
132.7945227621
 20
707.1098711693
 30
0.0
 10
132.7927473107
 20
707.1037749161
 30
0.0
 10
132.791519525
 20
707.0975295274
 30
0.0
 10
132.790756345
 20
707.092675431
 30
0.0
  0
SPLINE
  5
381
100
AcDbEntity
  8
0
100
AcDbSpline
 62
7
  6
CONTINUOUS
 70
0
 71
3
 72
9
 73
5
 74
0
 42
0.0000001
 43
0.0000001
 44
0.0000000001
 40
0.0
 40
0.0
 40
0.0
 40
0.0
 40
0.2018928463
 40
1.0
 40
1.0
 40
1.0
 40
1.0
 10
132.7895128764
 20
707.0833468615
 30
0.0
 10
132.7887230313
 20
707.0762712385
 30
0.0
 10
132.7863505349
 20
707.0410562239
 30
0.0
 10
132.7882012634
 20
707.0057045185
 30
0.0
 10
132.7904534454
 20
706.9776502378
 30
0.0
  0
SPLINE
  5
382
100
AcDbEntity
  8
0
100
AcDbSpline
 62
7
  6
CONTINUOUS
 70
0
 71
3
 72
9
 73
5
 74
0
 42
0.0000001
 43
0.0000001
 44
0.0000000001
 40
0.0
 40
0.0
 40
0.0
 40
0.0
 40
0.2247535828
 40
1.0
 40
1.0
 40
1.0
 40
1.0
 10
132.7916095893
 20
706.9642013842
 30
0.0
 10
132.7927257856
 20
706.9519964183
 30
0.0
 10
132.7984710437
 20
706.8977640541
 30
0.0
 10
132.8067886321
 20
706.8438283895
 30
0.0
 10
132.8140880589
 20
706.8021888565
 30
0.0
  0
SPLINE
  5
383
100
AcDbEntity
  8
0
100
AcDbSpline
 62
7
  6
CONTINUOUS
 70
0
 71
3
 72
11
 73
7
 74
0
 42
0.0000001
 43
0.0000001
 44
0.0000000001
 40
0.0
 40
0.0
 40
0.0
 40
0.0
 40
0.2640341272
 40
0.5429673174
 40
0.7985635341
 40
1.0
 40
1.0
 40
1.0
 40
1.0
 10
132.9753083524
 20
707.152145989
 30
0.0
 10
132.9753083524
 20
707.1882081341
 30
0.0
 10
132.970683837
 20
707.2623706578
 30
0.0
 10
132.9546683266
 20
707.370396068
 30
0.0
 10
132.9313421619
 20
707.4682366093
 30
0.0
 10
132.9105517013
 20
707.5274421504
 30
0.0
 10
132.898441525
 20
707.552145989
 30
0.0
  0
LINE
  5
384
100
AcDbEntity
  8
0
100
AcDbLine
 62
7
  6
CONTINUOUS
 10
132.8933898569
 20
709.852145989
 11
132.9349440748
 21
710.0048349558
  0
SPLINE
  5
385
100
AcDbEntity
  8
0
100
AcDbSpline
 62
7
  6
CONTINUOUS
 70
0
 71
3
 72
10
 73
6
 74
0
 42
0.0000001
 43
0.0000001
 44
0.0000000001
 40
0.0
 40
0.0
 40
0.0
 40
0.0
 40
0.3131827598
 40
0.6110018254
 40
1.0
 40
1.0
 40
1.0
 40
1.0
 10
132.9342106634
 20
707.0021457939
 30
0.0
 10
132.9487767146
 20
707.0021515679
 30
0.0
 10
132.965030217
 20
707.0371861565
 30
0.0
 10
132.9719370732
 20
707.079399529
 30
0.0
 10
132.9744813639
 20
707.1123264296
 30
0.0
 10
132.9750027839
 20
707.1304111227
 30
0.0
  0
LINE
  5
386
100
AcDbEntity
  8
0
100
AcDbLine
 62
7
  6
CONTINUOUS
 10
132.9349054956
 20
706.2995998299
 11
132.8933898569
 21
706.452145989
  0
SPLINE
  5
387
100
AcDbEntity
  8
0
100
AcDbSpline
 62
7
  6
CONTINUOUS
 70
0
 71
3
 72
11
 73
7
 74
0
 42
0.0000001
 43
0.0000001
 44
0.0000000001
 40
0.0
 40
0.0
 40
0.0
 40
0.0
 40
0.2014238408
 40
0.4570280339
 40
0.7359743677
 40
1.0
 40
1.0
 40
1.0
 40
1.0
 10
132.898441525
 20
708.752145989
 30
0.0
 10
132.9105509416
 20
708.7768482778
 30
0.0
 10
132.9313411927
 20
708.8360531805
 30
0.0
 10
132.9546683268
 20
708.9338946877
 30
0.0
 10
132.970683814
 20
709.0419218669
 30
0.0
 10
132.9753083405
 20
709.1160850064
 30
0.0
 10
132.9753083405
 20
709.152145989
 30
0.0
  0
SPLINE
  5
388
100
AcDbEntity
  8
0
100
AcDbSpline
 62
7
  6
CONTINUOUS
 70
0
 71
3
 72
10
 73
6
 74
0
 42
0.0000001
 43
0.0000001
 44
0.0000000001
 40
0.0
 40
0.0
 40
0.0
 40
0.0
 40
0.3890225872
 40
0.6868295751
 40
1.0
 40
1.0
 40
1.0
 40
1.0
 10
132.97500252
 20
709.1738873206
 30
0.0
 10
132.9744808396
 20
709.1919723144
 30
0.0
 10
132.9719366666
 20
709.2248984328
 30
0.0
 10
132.96502873
 20
709.2671094874
 30
0.0
 10
132.9487758848
 20
709.3021412283
 30
0.0
 10
132.9342110732
 20
709.3021462917
 30
0.0
  0
SPLINE
  5
389
100
AcDbEntity
  8
0
100
AcDbSpline
 62
7
  6
CONTINUOUS
 70
0
 71
3
 72
9
 73
5
 74
0
 42
0.0000001
 43
0.0000001
 44
0.0000000001
 40
0.0
 40
0.0
 40
0.0
 40
0.0
 40
0.2735830278
 40
1.0
 40
1.0
 40
1.0
 40
1.0
 10
132.8140869162
 20
709.5020957226
 30
0.0
 10
132.8115112296
 20
709.4874029123
 30
0.0
 10
132.8025243474
 20
709.4336279296
 30
0.0
 10
132.7952162379
 20
709.3795413478
 30
0.0
 10
132.7916109481
 20
709.3400985564
 30
0.0
  0
SPLINE
  5
38A
100
AcDbEntity
  8
0
100
AcDbSpline
 62
7
  6
CONTINUOUS
 70
0
 71
3
 72
9
 73
5
 74
0
 42
0.0000001
 43
0.0000001
 44
0.0000000001
 40
0.0
 40
0.0
 40
0.0
 40
0.0
 40
0.2972882893
 40
1.0
 40
1.0
 40
1.0
 40
1.0
 10
132.7904548669
 20
709.3266431987
 30
0.0
 10
132.7896165597
 20
709.3161951168
 30
0.0
 10
132.7873339779
 20
709.2810400078
 30
0.0
 10
132.7867651072
 20
709.2455682388
 30
0.0
 10
132.789513063
 20
709.2209452031
 30
0.0
  0
SPLINE
  5
38B
100
AcDbEntity
  8
0
100
AcDbSpline
 62
7
  6
CONTINUOUS
 70
0
 71
3
 72
9
 73
5
 74
0
 42
0.0000001
 43
0.0000001
 44
0.0000000001
 40
0.0
 40
0.0
 40
0.0
 40
0.0
 40
0.2745370927
 40
1.0
 40
1.0
 40
1.0
 40
1.0
 10
132.7907564123
 20
709.2116178205
 30
0.0
 10
132.7910271369
 20
709.2098964047
 30
0.0
 10
132.7921041715
 20
709.2036423671
 30
0.0
 10
132.7935589274
 20
709.197441913
 30
0.0
 10
132.7949592483
 20
709.1930552557
 30
0.0
  0
SPLINE
  5
38C
100
AcDbEntity
  8
0
100
AcDbSpline
 62
7
  6
CONTINUOUS
 70
0
 71
3
 72
9
 73
5
 74
0
 42
0.0000001
 43
0.0000001
 44
0.0000000001
 40
0.0
 40
0.0
 40
0.0
 40
0.0
 40
0.2736458321
 40
1.0
 40
1.0
 40
1.0
 40
1.0
 10
132.7949592483
 20
709.1930552557
 30
0.0
 10
132.7952923517
 20
709.1920117729
 30
0.0
 10
132.7965841414
 20
709.1882244797
 30
0.0
 10
132.7981945377
 20
709.1845328325
 30
0.0
 10
132.7996298543
 20
709.1820043346
 30
0.0
  0
SPLINE
  5
38D
100
AcDbEntity
  8
0
100
AcDbSpline
 62
7
  6
CONTINUOUS
 70
0
 71
3
 72
9
 73
5
 74
0
 42
0.0000001
 43
0.0000001
 44
0.0000000001
 40
0.0
 40
0.0
 40
0.0
 40
0.0
 40
0.5465843139
 40
1.0
 40
1.0
 40
1.0
 40
1.0
 10
132.7996298543
 20
709.1820043346
 30
0.0
 10
132.8014717
 20
709.1787596825
 30
0.0
 10
132.8056769844
 20
709.1730105186
 30
0.0
 10
132.8126383356
 20
709.1706501037
 30
0.0
 10
132.8157333418
 20
709.1706508577
 30
0.0
  0
SPLINE
  5
38E
100
AcDbEntity
  8
0
100
AcDbSpline
 62
7
  6
CONTINUOUS
 70
0
 71
3
 72
10
 73
6
 74
0
 42
0.0000001
 43
0.0000001
 44
0.0000000001
 40
0.0
 40
0.0
 40
0.0
 40
0.0
 40
0.1352261486
 40
0.3421683636
 40
1.0
 40
1.0
 40
1.0
 40
1.0
 10
132.8157338423
 20
707.1336414466
 30
0.0
 10
132.8212653908
 20
707.1336414466
 30
0.0
 10
132.8346306002
 20
707.1267853075
 30
0.0
 10
132.862464682
 20
707.0970229741
 30
0.0
 10
132.8805571089
 20
707.0659905492
 30
0.0
 10
132.8933898569
 20
707.0423383679
 30
0.0
  0
SPLINE
  5
38F
100
AcDbEntity
  8
0
100
AcDbSpline
 62
7
  6
CONTINUOUS
 70
0
 71
3
 72
10
 73
6
 74
0
 42
0.0000001
 43
0.0000001
 44
0.0000000001
 40
0.0
 40
0.0
 40
0.0
 40
0.0
 40
0.1351666651
 40
0.3420319074
 40
1.0
 40
1.0
 40
1.0
 40
1.0
 10
132.8157333418
 20
709.1706508577
 30
0.0
 10
132.8212624963
 20
709.1706522045
 30
0.0
 10
132.8346249157
 20
709.1774969349
 30
0.0
 10
132.8624570105
 20
709.207266971
 30
0.0
 10
132.8805543556
 20
709.2382963542
 30
0.0
 10
132.8933898569
 20
709.2619536101
 30
0.0
  0
SPLINE
  5
390
100
AcDbEntity
  8
0
100
AcDbSpline
 62
7
  6
CONTINUOUS
 70
0
 71
3
 72
9
 73
5
 74
0
 42
0.0000001
 43
0.0000001
 44
0.0000000001
 40
0.0
 40
0.0
 40
0.0
 40
0.0
 40
0.4534043577
 40
1.0
 40
1.0
 40
1.0
 40
1.0
 10
132.815733841
 20
572.4336414466
 30
0.0
 10
132.8126383372
 20
572.4336414466
 30
0.0
 10
132.8056744882
 20
572.4312841987
 30
0.0
 10
132.8014708727
 20
572.4255306427
 30
0.0
 10
132.7996293662
 20
572.4222849123
 30
0.0
  0
SPLINE
  5
391
100
AcDbEntity
  8
0
100
AcDbSpline
 62
7
  6
CONTINUOUS
 70
0
 71
3
 72
9
 73
5
 74
0
 42
0.0000001
 43
0.0000001
 44
0.0000000001
 40
0.0
 40
0.0
 40
0.0
 40
0.0
 40
0.2272965169
 40
1.0
 40
1.0
 40
1.0
 40
1.0
 10
132.7996293662
 20
572.4222849123
 30
0.0
 10
132.799180439
 20
572.4214936598
 30
0.0
 10
132.7973236978
 20
572.417945273
 30
0.0
 10
132.7958996986
 20
572.414182975
 30
0.0
 10
132.7949588869
 20
572.4112368716
 30
0.0
  0
SPLINE
  5
392
100
AcDbEntity
  8
0
100
AcDbSpline
 62
7
  6
CONTINUOUS
 70
0
 71
3
 72
9
 73
5
 74
0
 42
0.0000001
 43
0.0000001
 44
0.0000000001
 40
0.0
 40
0.0
 40
0.0
 40
0.0
 40
0.2258648087
 40
1.0
 40
1.0
 40
1.0
 40
1.0
 10
132.7949588869
 20
572.4112368716
 30
0.0
 10
132.7945227621
 20
572.4098711693
 30
0.0
 10
132.7927473107
 20
572.4037749161
 30
0.0
 10
132.791519525
 20
572.3975295274
 30
0.0
 10
132.790756345
 20
572.392675431
 30
0.0
  0
SPLINE
  5
393
100
AcDbEntity
  8
0
100
AcDbSpline
 62
7
  6
CONTINUOUS
 70
0
 71
3
 72
9
 73
5
 74
0
 42
0.0000001
 43
0.0000001
 44
0.0000000001
 40
0.0
 40
0.0
 40
0.0
 40
0.0
 40
0.2018928463
 40
1.0
 40
1.0
 40
1.0
 40
1.0
 10
132.7895128764
 20
572.3833468615
 30
0.0
 10
132.7887230313
 20
572.3762712385
 30
0.0
 10
132.7863505348
 20
572.3410562239
 30
0.0
 10
132.7882012634
 20
572.3057045185
 30
0.0
 10
132.7904534454
 20
572.2776502378
 30
0.0
  0
SPLINE
  5
394
100
AcDbEntity
  8
0
100
AcDbSpline
 62
7
  6
CONTINUOUS
 70
0
 71
3
 72
9
 73
5
 74
0
 42
0.0000001
 43
0.0000001
 44
0.0000000001
 40
0.0
 40
0.0
 40
0.0
 40
0.0
 40
0.2247535828
 40
1.0
 40
1.0
 40
1.0
 40
1.0
 10
132.7916095893
 20
572.2642013842
 30
0.0
 10
132.7927257856
 20
572.2519964183
 30
0.0
 10
132.7984710437
 20
572.1977640541
 30
0.0
 10
132.8067886321
 20
572.1438283895
 30
0.0
 10
132.8140880589
 20
572.1021888566
 30
0.0
  0
SPLINE
  5
395
100
AcDbEntity
  8
0
100
AcDbSpline
 62
7
  6
CONTINUOUS
 70
0
 71
3
 72
11
 73
7
 74
0
 42
0.0000001
 43
0.0000001
 44
0.0000000001
 40
0.0
 40
0.0
 40
0.0
 40
0.0
 40
0.2640341272
 40
0.5429673174
 40
0.7985635341
 40
1.0
 40
1.0
 40
1.0
 40
1.0
 10
132.9753083524
 20
572.452145989
 30
0.0
 10
132.9753083524
 20
572.4882081341
 30
0.0
 10
132.970683837
 20
572.5623706578
 30
0.0
 10
132.9546683266
 20
572.670396068
 30
0.0
 10
132.9313421619
 20
572.7682366093
 30
0.0
 10
132.9105517013
 20
572.8274421504
 30
0.0
 10
132.898441525
 20
572.852145989
 30
0.0
  0
LINE
  5
396
100
AcDbEntity
  8
0
100
AcDbLine
 62
7
  6
CONTINUOUS
 10
132.8933898569
 20
575.152145989
 11
132.9349440748
 21
575.3048349559
  0
SPLINE
  5
397
100
AcDbEntity
  8
0
100
AcDbSpline
 62
7
  6
CONTINUOUS
 70
0
 71
3
 72
10
 73
6
 74
0
 42
0.0000001
 43
0.0000001
 44
0.0000000001
 40
0.0
 40
0.0
 40
0.0
 40
0.0
 40
0.3131827598
 40
0.6110018254
 40
1.0
 40
1.0
 40
1.0
 40
1.0
 10
132.9342106634
 20
572.3021457939
 30
0.0
 10
132.9487767146
 20
572.3021515679
 30
0.0
 10
132.965030217
 20
572.3371861565
 30
0.0
 10
132.9719370732
 20
572.379399529
 30
0.0
 10
132.9744813639
 20
572.4123264296
 30
0.0
 10
132.9750027839
 20
572.4304111227
 30
0.0
  0
LINE
  5
398
100
AcDbEntity
  8
0
100
AcDbLine
 62
7
  6
CONTINUOUS
 10
132.9349054956
 20
571.5995998298
 11
132.8933898569
 21
571.752145989
  0
SPLINE
  5
399
100
AcDbEntity
  8
0
100
AcDbSpline
 62
7
  6
CONTINUOUS
 70
0
 71
3
 72
11
 73
7
 74
0
 42
0.0000001
 43
0.0000001
 44
0.0000000001
 40
0.0
 40
0.0
 40
0.0
 40
0.0
 40
0.2014238408
 40
0.4570280339
 40
0.7359743677
 40
1.0
 40
1.0
 40
1.0
 40
1.0
 10
132.898441525
 20
574.052145989
 30
0.0
 10
132.9105509416
 20
574.0768482778
 30
0.0
 10
132.9313411927
 20
574.1360531805
 30
0.0
 10
132.9546683267
 20
574.2338946877
 30
0.0
 10
132.970683814
 20
574.3419218669
 30
0.0
 10
132.9753083405
 20
574.4160850064
 30
0.0
 10
132.9753083405
 20
574.452145989
 30
0.0
  0
SPLINE
  5
39A
100
AcDbEntity
  8
0
100
AcDbSpline
 62
7
  6
CONTINUOUS
 70
0
 71
3
 72
10
 73
6
 74
0
 42
0.0000001
 43
0.0000001
 44
0.0000000001
 40
0.0
 40
0.0
 40
0.0
 40
0.0
 40
0.3890225872
 40
0.6868295751
 40
1.0
 40
1.0
 40
1.0
 40
1.0
 10
132.97500252
 20
574.4738873206
 30
0.0
 10
132.9744808396
 20
574.4919723144
 30
0.0
 10
132.9719366666
 20
574.5248984328
 30
0.0
 10
132.96502873
 20
574.5671094874
 30
0.0
 10
132.9487758848
 20
574.6021412283
 30
0.0
 10
132.9342110732
 20
574.6021462917
 30
0.0
  0
SPLINE
  5
39B
100
AcDbEntity
  8
0
100
AcDbSpline
 62
7
  6
CONTINUOUS
 70
0
 71
3
 72
9
 73
5
 74
0
 42
0.0000001
 43
0.0000001
 44
0.0000000001
 40
0.0
 40
0.0
 40
0.0
 40
0.0
 40
0.2735830278
 40
1.0
 40
1.0
 40
1.0
 40
1.0
 10
132.8140869162
 20
574.8020957226
 30
0.0
 10
132.8115112296
 20
574.7874029123
 30
0.0
 10
132.8025243474
 20
574.7336279296
 30
0.0
 10
132.7952162379
 20
574.6795413478
 30
0.0
 10
132.7916109481
 20
574.6400985564
 30
0.0
  0
SPLINE
  5
39C
100
AcDbEntity
  8
0
100
AcDbSpline
 62
7
  6
CONTINUOUS
 70
0
 71
3
 72
9
 73
5
 74
0
 42
0.0000001
 43
0.0000001
 44
0.0000000001
 40
0.0
 40
0.0
 40
0.0
 40
0.0
 40
0.2972882893
 40
1.0
 40
1.0
 40
1.0
 40
1.0
 10
132.7904548669
 20
574.6266431987
 30
0.0
 10
132.7896165597
 20
574.6161951168
 30
0.0
 10
132.7873339779
 20
574.5810400078
 30
0.0
 10
132.7867651072
 20
574.5455682388
 30
0.0
 10
132.789513063
 20
574.5209452031
 30
0.0
  0
SPLINE
  5
39D
100
AcDbEntity
  8
0
100
AcDbSpline
 62
7
  6
CONTINUOUS
 70
0
 71
3
 72
9
 73
5
 74
0
 42
0.0000001
 43
0.0000001
 44
0.0000000001
 40
0.0
 40
0.0
 40
0.0
 40
0.0
 40
0.2745370927
 40
1.0
 40
1.0
 40
1.0
 40
1.0
 10
132.7907564123
 20
574.5116178205
 30
0.0
 10
132.7910271369
 20
574.5098964047
 30
0.0
 10
132.7921041715
 20
574.5036423671
 30
0.0
 10
132.7935589274
 20
574.497441913
 30
0.0
 10
132.7949592483
 20
574.4930552557
 30
0.0
  0
SPLINE
  5
39E
100
AcDbEntity
  8
0
100
AcDbSpline
 62
7
  6
CONTINUOUS
 70
0
 71
3
 72
9
 73
5
 74
0
 42
0.0000001
 43
0.0000001
 44
0.0000000001
 40
0.0
 40
0.0
 40
0.0
 40
0.0
 40
0.2736458321
 40
1.0
 40
1.0
 40
1.0
 40
1.0
 10
132.7949592483
 20
574.4930552557
 30
0.0
 10
132.7952923517
 20
574.4920117729
 30
0.0
 10
132.7965841414
 20
574.4882244797
 30
0.0
 10
132.7981945377
 20
574.4845328325
 30
0.0
 10
132.7996298543
 20
574.4820043346
 30
0.0
  0
SPLINE
  5
39F
100
AcDbEntity
  8
0
100
AcDbSpline
 62
7
  6
CONTINUOUS
 70
0
 71
3
 72
9
 73
5
 74
0
 42
0.0000001
 43
0.0000001
 44
0.0000000001
 40
0.0
 40
0.0
 40
0.0
 40
0.0
 40
0.5465843139
 40
1.0
 40
1.0
 40
1.0
 40
1.0
 10
132.7996298543
 20
574.4820043346
 30
0.0
 10
132.8014717
 20
574.4787596825
 30
0.0
 10
132.8056769844
 20
574.4730105186
 30
0.0
 10
132.8126383356
 20
574.4706501037
 30
0.0
 10
132.8157333418
 20
574.4706508577
 30
0.0
  0
SPLINE
  5
3A0
100
AcDbEntity
  8
0
100
AcDbSpline
 62
7
  6
CONTINUOUS
 70
0
 71
3
 72
10
 73
6
 74
0
 42
0.0000001
 43
0.0000001
 44
0.0000000001
 40
0.0
 40
0.0
 40
0.0
 40
0.0
 40
0.1352261486
 40
0.3421683635
 40
1.0
 40
1.0
 40
1.0
 40
1.0
 10
132.8157338423
 20
572.4336414466
 30
0.0
 10
132.8212653908
 20
572.4336414466
 30
0.0
 10
132.8346306001
 20
572.4267853075
 30
0.0
 10
132.862464682
 20
572.3970229741
 30
0.0
 10
132.8805571088
 20
572.3659905492
 30
0.0
 10
132.8933898569
 20
572.3423383679
 30
0.0
  0
SPLINE
  5
3A1
100
AcDbEntity
  8
0
100
AcDbSpline
 62
7
  6
CONTINUOUS
 70
0
 71
3
 72
10
 73
6
 74
0
 42
0.0000001
 43
0.0000001
 44
0.0000000001
 40
0.0
 40
0.0
 40
0.0
 40
0.0
 40
0.1351666651
 40
0.3420319074
 40
1.0
 40
1.0
 40
1.0
 40
1.0
 10
132.8157333418
 20
574.4706508577
 30
0.0
 10
132.8212624963
 20
574.4706522045
 30
0.0
 10
132.8346249157
 20
574.4774969349
 30
0.0
 10
132.8624570105
 20
574.507266971
 30
0.0
 10
132.8805543556
 20
574.5382963542
 30
0.0
 10
132.8933898569
 20
574.5619536101
 30
0.0
  0
SPLINE
  5
3A2
100
AcDbEntity
  8
0
100
AcDbSpline
 62
7
  6
CONTINUOUS
 70
0
 71
3
 72
11
 73
7
 74
0
 42
0.0000001
 43
0.0000001
 44
0.0000000001
 40
0.0
 40
0.0
 40
0.0
 40
0.0
 40
0.3834870409
 40
0.695395838
 40
0.9037697636
 40
1.0
 40
1.0
 40
1.0
 40
1.0
 10
116.2675130774
 20
735.6904134443
 30
0.0
 10
116.2739449887
 20
735.8847993326
 30
0.0
 10
116.2906407674
 20
736.2335482372
 30
0.0
 10
116.3571291412
 20
736.7012192192
 30
0.0
 10
116.4168057611
 20
736.9805083918
 30
0.0
 10
116.5111629954
 20
737.152145989
 30
0.0
 10
116.5599678704
 20
737.152145989
 30
0.0
  0
SPLINE
  5
3A3
100
AcDbEntity
  8
0
100
AcDbSpline
 62
7
  6
CONTINUOUS
 70
0
 71
3
 72
11
 73
7
 74
0
 42
0.0000001
 43
0.0000001
 44
0.0000000001
 40
0.0
 40
0.0
 40
0.0
 40
0.0
 40
0.383588211
 40
0.6954362165
 40
0.9037562524
 40
1.0
 40
1.0
 40
1.0
 40
1.0
 10
746.2524168267
 20
735.6907989278
 30
0.0
 10
746.2459863021
 20
735.8851874828
 30
0.0
 10
746.2292966211
 20
736.2338787459
 30
0.0
 10
746.1626671942
 20
736.7013812307
 30
0.0
 10
746.1031403267
 20
736.9806136646
 30
0.0
 10
746.0087673812
 20
737.152145989
 30
0.0
 10
745.9599678704
 20
737.152145989
 30
0.0
  0
ENDSEC
  0
SECTION
  2
OBJECTS
  0
DICTIONARY
  5
C
100
AcDbDictionary
280
0
281
1
  3
ACAD_GROUP
350
D
  3
ACAD_MLINESTYLE
350
17
  3
ACAD_LAYOUT
350
1A
  3
ACAD_PLOTSETTINGS
350
19
  3
ACAD_PLOTSTYLENAME
350
E
  0
DICTIONARY
  5
D
102
{ACAD_REACTORS
330
C
102
}
100
AcDbDictionary
280
0
281
1
  0
ACDBDICTIONARYWDFLT
  5
E
102
{ACAD_REACTORS
330
C
102
}
100
AcDbDictionary
281
1
  3
Normal
350
F
100
AcDbDictionaryWithDefault
340
F
  0
DICTIONARY
  5
17
102
{ACAD_REACTORS
330
C
102
}
100
AcDbDictionary
280
0
281
1
  3
Standard
350
18
  0
DICTIONARY
  5
19
102
{ACAD_REACTORS
330
C
102
}
100
AcDbDictionary
281
1
  0
DICTIONARY
  5
1A
102
{ACAD_REACTORS
330
C
102
}
100
AcDbDictionary
281
1
  3
Model
350
3A4
  3
Layout1
350
3A5
  0
ACDBPLACEHOLDER
  5
F
102
{ACAD_REACTORS
330
E
102
}
  0
MLINESTYLE
  5
18
102
{ACAD_REACTORS
330
17
102
}
100
AcDbMlineStyle
  2
STANDARD
 70
0
  3

 62
256
 51
90.0
 52
90.0
 71
2
 49
0.5
 62
256
  6
BYLAYER
 49
-0.5
 62
256
  6
BYLAYER
  0
LAYOUT
  5
3A4
102
{ACAD_REACTORS
330
1A
102
}
100
AcDbPlotSettings
  1

  2
none_device
  4

  6

 40
0.0
 41
0.0
 42
0.0
 43
0.0
 44
210.0
 45
297.0
 46
0.0
 47
0.0
 48
0.0
 49
0.0
140
0.0
141
0.0
142
1.0
143
1.0
 70
1024
 72
1
 73
0
 74
0
  7

 75
0
147
1.0
148
0.0
149
0.0
100
AcDbLayout
  1
Model
 70
0
 71
0
 10
0.0
 20
0.0
 11
210.0
 21
297.0
 12
0.0
 22
0.0
 32
0.0
 14
0.0
 24
0.0
 34
0.0
 15
0.0
 25
0.0
 35
0.0
146
0.0
 13
0.0
 23
0.0
 33
0.0
 16
1.0
 26
0.0
 36
0.0
 17
0.0
 27
1.0
 37
0.0
 76
0
330
210
345
0
346
0
  0
LAYOUT
  5
3A5
102
{ACAD_REACTORS
330
1A
102
}
100
AcDbPlotSettings
  1

  2
none_device
  4

  6

 40
0.0
 41
0.0
 42
0.0
 43
0.0
 44
210.0
 45
297.0
 46
0.0
 47
0.0
 48
0.0
 49
0.0
140
0.0
141
0.0
142
1.0
143
1.0
 70
0
 72
1
 73
0
 74
0
  7

 75
0
147
1.0
148
0.0
149
0.0
100
AcDbLayout
  1
Layout1
 70
0
 71
1
 10
0.0
 20
0.0
 11
210.0
 21
297.0
 12
0.0
 22
0.0
 32
0.0
 14
0.0
 24
0.0
 34
0.0
 15
0.0
 25
0.0
 35
0.0
146
0.0
 13
0.0
 23
0.0
 33
0.0
 16
1.0
 26
0.0
 36
0.0
 17
0.0
 27
1.0
 37
0.0
 76
0
330
211
345
0
346
0
  0
ENDSEC
  0
EOF
