999
DXF file: C:\Users\sesa63760\Dev\_Creo\CAD\MCADID0001630_3D-CAD\drw0001_1.dxf
999
Pro/ENGINEER 2019471 by Parametric Technology Corporation
  0
SECTION
  2
HEADER
  9
$ACADVER
  1
AC1024
  9
$DWGCODEPAGE
  3
ANSI_1252
  9
$EXTMAX
 10
81.5148986092
 20
115.2853566045
 30
0.0
  9
$EXTMIN
 10
0.0
 20
0.0
 30
0.0
  9
$LIMMIN
 10
0.0
 20
0.0
  9
$LIMMAX
 10
81.5148986092
 20
115.2853566045
  9
$VIEWCTR
 10
40.7574493046
 20
57.6426783022
  9
$VIEWSIZE
 40
115.2853566045
  9
$CLAYER
  8
0
  9
$LTSCALE
 40
7.5148973194
  9
$CELTYPE
  6
BYLAYER
  9
$DIMSCALE
 40
1.0
  9
$DIMASZ
 40
0.9704154596
  9
$DIMEXO
 40
1.0
  9
$DIMDLI
 40
5.1921108752
  9
$DIMEXE
 40
1.0
  9
$DIMCEN
 40
1.2297104704
  9
$DIMLFAC
 40
1.0
  9
$DIMBLK
  1
_FILLED
  9
$DIMALT
 70
0
  9
$DIMALTF
 40
0.0393700787
  9
$DIMTXT
 40
1.3585816435
  9
$DIMTOL
 70
1
  9
$DIMLIM
 70
0
  9
$DIMTFAC
 40
1.0
  9
$DIMTP
 40
0.01
  9
$DIMTM
 40
0.01
  9
$DIMGAP
 40
0.625
  9
$DIMDSEP
 70
46
  9
$AUNITS
 70
0
  9
$PDMODE
 70
3
  9
$PDSIZE
 40
0.3125
  9
$HANDSEED
  5
38D
  9
$TILEMODE
 70
1
  9
$MEASUREMENT
 70
1
  9
$INSUNITS
 70
4
  0
ENDSEC
  0
SECTION
  2
CLASSES
  0
CLASS
  1
ACDBDICTIONARYWDFLT
  2
AcDbDictionaryWithDefault
  3
AutoCAD 2000
 90
0
 91
1
280
0
281
0
  0
CLASS
  1
ACDBPLACEHOLDER
  2
AcDbPlaceHolder
  3
AutoCAD 2000
 90
0
 91
1
280
0
281
0
  0
CLASS
  1
LAYOUT
  2
AcDbLayout
  3
AutoCAD 2000
 90
0
 91
0
280
0
281
0
  0
ENDSEC
  0
SECTION
  2
TABLES
  0
TABLE
  2
VPORT
  5
8
100
AcDbSymbolTable
 70
2
  0
VPORT
  5
1F4
100
AcDbSymbolTableRecord
100
AcDbViewportTableRecord
  2
*ACTIVE
 70
0
 10
0.0
 20
0.0
 11
1.0
 21
1.0
 12
40.7574493046
 22
57.6426783022
 13
0.0
 23
0.0
 14
1.0
 24
1.0
 15
0.0
 25
0.0
 16
0.0
 26
0.0
 36
1.0
 17
0.0
 27
0.0
 37
0.0
 40
115.2853566045
 41
0.7070707071
 42
50.0
 43
0.0
 44
0.0
 50
0.0
 51
0.0
 71
0
 72
100
 73
1
 74
1
 75
0
 76
0
 77
0
 78
0
  0
ENDTAB
  0
TABLE
  2
LTYPE
  5
5
100
AcDbSymbolTable
 70
6
  0
LTYPE
  5
14
100
AcDbSymbolTableRecord
100
AcDbLinetypeTableRecord
  2
BYBLOCK
 70
0
  3

 72
65
 73
0
 40
0.0
  0
LTYPE
  5
15
100
AcDbSymbolTableRecord
100
AcDbLinetypeTableRecord
  2
BYLAYER
 70
0
  3

 72
65
 73
0
 40
0.0
  0
LTYPE
  5
16
100
AcDbSymbolTableRecord
100
AcDbLinetypeTableRecord
  2
CONTINUOUS
 70
64
  3
Solid line
 72
65
 73
0
 40
0.0
  0
LTYPE
  5
1F5
100
AcDbSymbolTableRecord
100
AcDbLinetypeTableRecord
  2
CENTER
 70
64
  3
____ _ ____ _ ____ _ ____ _ ____ _ ____ _ ____
 72
65
 73
4
 40
0.6
 49
0.375
 74
0
 49
-0.075
 74
0
 49
0.075
 74
0
 49
-0.075
 74
0
  0
LTYPE
  5
1F6
100
AcDbSymbolTableRecord
100
AcDbLinetypeTableRecord
  2
HIDDEN
 70
64
  3
- - - - - - - - - - - - - - - - - - - -
 72
65
 73
2
 40
0.2
 49
0.1
 74
0
 49
-0.1
 74
0
  0
LTYPE
  5
1F7
100
AcDbSymbolTableRecord
100
AcDbLinetypeTableRecord
  2
PHANTOM
 70
64
  3
_____ _ _ _____ _ _ _____ _ _ _____
 72
65
 73
6
 40
0.8
 49
0.45
 74
0
 49
-0.05
 74
0
 49
0.1
 74
0
 49
-0.05
 74
0
 49
0.1
 74
0
 49
-0.05
 74
0
  0
LTYPE
  5
1F8
100
AcDbSymbolTableRecord
100
AcDbLinetypeTableRecord
  2
DOT
 70
64
  3
. . . . . . . . . . . . . . . . . . . .
 72
65
 73
2
 40
0.2
 49
0.1
 74
0
 49
-0.1
 74
0
  0
LTYPE
  5
1F9
100
AcDbSymbolTableRecord
100
AcDbLinetypeTableRecord
  2
DASHED
 70
64
  3
- - - - - - - - - - - - - - - - - - - -
 72
65
 73
2
 40
0.2
 49
0.1
 74
0
 49
-0.1
 74
0
  0
ENDTAB
  0
TABLE
  2
LAYER
  5
2
100
AcDbSymbolTable
 70
36
  0
LAYER
  5
10
100
AcDbSymbolTableRecord
100
AcDbLayerTableRecord
  2
0
 70
0
 62
7
  6
CONTINUOUS
370
-3
390
F
  0
LAYER
  5
1FA
100
AcDbSymbolTableRecord
100
AcDbLayerTableRecord
  2
DEFAULT_1
 70
0
 62
7
  6
CENTER
370
-3
390
F
  0
LAYER
  5
1FB
100
AcDbSymbolTableRecord
100
AcDbLayerTableRecord
  2
DEFAULT_2
 70
0
 62
8
  6
HIDDEN
370
-3
390
F
  0
LAYER
  5
1FC
100
AcDbSymbolTableRecord
100
AcDbLayerTableRecord
  2
DEFAULT_3
 70
0
 62
7
  6
PHANTOM
370
-3
390
F
  0
LAYER
  5
1FD
100
AcDbSymbolTableRecord
100
AcDbLayerTableRecord
  2
00_COMPONENTS
 70
0
 62
7
  6
CONTINUOUS
370
-3
390
F
  0
LAYER
  5
1FE
100
AcDbSymbolTableRecord
100
AcDbLayerTableRecord
  2
01_1_DEFAULT_DATUMS
 70
0
 62
7
  6
CONTINUOUS
370
-3
390
F
  0
LAYER
  5
1FF
100
AcDbSymbolTableRecord
100
AcDbLayerTableRecord
  2
01_PLANES
 70
0
 62
7
  6
CONTINUOUS
370
-3
390
F
  0
LAYER
  5
200
100
AcDbSymbolTableRecord
100
AcDbLayerTableRecord
  2
02_COORD_SYS
 70
0
 62
7
  6
CONTINUOUS
370
-3
390
F
  0
LAYER
  5
201
100
AcDbSymbolTableRecord
100
AcDbLayerTableRecord
  2
03_AXES
 70
0
 62
7
  6
CONTINUOUS
370
-3
390
F
  0
LAYER
  5
202
100
AcDbSymbolTableRecord
100
AcDbLayerTableRecord
  2
04_POINTS
 70
0
 62
7
  6
CONTINUOUS
370
-3
390
F
  0
LAYER
  5
203
100
AcDbSymbolTableRecord
100
AcDbLayerTableRecord
  2
05_CURVES
 70
0
 62
7
  6
CONTINUOUS
370
-3
390
F
  0
LAYER
  5
204
100
AcDbSymbolTableRecord
100
AcDbLayerTableRecord
  2
06_SURFS
 70
0
 62
7
  6
CONTINUOUS
370
-3
390
F
  0
LAYER
  5
205
100
AcDbSymbolTableRecord
100
AcDbLayerTableRecord
  2
07_COSMETICS
 70
0
 62
7
  6
CONTINUOUS
370
-3
390
F
  0
LAYER
  5
206
100
AcDbSymbolTableRecord
100
AcDbLayerTableRecord
  2
10_NOTES
 70
0
 62
7
  6
CONTINUOUS
370
-3
390
F
  0
LAYER
  5
207
100
AcDbSymbolTableRecord
100
AcDbLayerTableRecord
  2
11_NOTES_PUB
 70
0
 62
7
  6
CONTINUOUS
370
-3
390
F
  0
LAYER
  5
208
100
AcDbSymbolTableRecord
100
AcDbLayerTableRecord
  2
13_REF_GTOL
 70
0
 62
7
  6
CONTINUOUS
370
-3
390
F
  0
LAYER
  5
209
100
AcDbSymbolTableRecord
100
AcDbLayerTableRecord
  2
16_MISC
 70
0
 62
7
  6
CONTINUOUS
370
-3
390
F
  0
LAYER
  5
20A
100
AcDbSymbolTableRecord
100
AcDbLayerTableRecord
  2
17_NO_PRINT
 70
0
 62
7
  6
CONTINUOUS
370
-3
390
F
  0
LAYER
  5
20B
100
AcDbSymbolTableRecord
100
AcDbLayerTableRecord
  2
18_DATUM_CAMS_JOINTS
 70
0
 62
7
  6
CONTINUOUS
370
-3
390
F
  0
LAYER
  5
20C
100
AcDbSymbolTableRecord
100
AcDbLayerTableRecord
  2
19_DATUM_FUNCTIONAL
 70
0
 62
7
  6
CONTINUOUS
370
-3
390
F
  0
LAYER
  5
20D
100
AcDbSymbolTableRecord
100
AcDbLayerTableRecord
  2
20_DATUM_KINEMATIC_SCHEME
 70
0
 62
7
  6
CONTINUOUS
370
-3
390
F
  0
ENDTAB
  0
TABLE
  2
STYLE
  5
3
100
AcDbSymbolTable
 70
1
  0
STYLE
  5
11
100
AcDbSymbolTableRecord
100
AcDbTextStyleTableRecord
  2
STANDARD
 70
0
 40
0.0
 41
0.8
 50
0.0
 71
0
 42
0.2
  3
txt
  4

  0
STYLE
  5
20E
100
AcDbSymbolTableRecord
100
AcDbTextStyleTableRecord
  2
TEXTSTYLE_1
 70
0
 40
0.0
 41
0.8
 50
0.0
 71
0
 42
0.2
  3
gdt
  4

  0
ENDTAB
  0
TABLE
  2
VIEW
  5
6
100
AcDbSymbolTable
 70
0
  0
ENDTAB
  0
TABLE
  2
UCS
  5
7
100
AcDbSymbolTable
 70
0
  0
ENDTAB
  0
TABLE
  2
APPID
  5
9
100
AcDbSymbolTable
 70
1
  0
APPID
  5
20F
100
AcDbSymbolTableRecord
100
AcDbRegAppTableRecord
  2
ACAD
 70
0
  0
ENDTAB
  0
TABLE
  2
BLOCK_RECORD
  5
1
100
AcDbSymbolTable
 70
0
  0
BLOCK_RECORD
  5
210
100
AcDbSymbolTableRecord
100
AcDbBlockTableRecord
  2
*Model_Space
  0
BLOCK_RECORD
  5
211
100
AcDbSymbolTableRecord
100
AcDbBlockTableRecord
  2
*Paper_Space
  0
BLOCK_RECORD
  5
212
100
AcDbSymbolTableRecord
100
AcDbBlockTableRecord
  2
_FILLED
  0
ENDTAB
  0
TABLE
  2
DIMSTYLE
  5
A
100
AcDbSymbolTable
 70
1
100
AcDbDimStyleTable
 71
0
  0
DIMSTYLE
105
213
100
AcDbSymbolTableRecord
100
AcDbDimStyleTableRecord
  2
STANDARD
 70
0
  3

  4

 40
1.0
 41
0.9704154596
 42
1.0
 43
0.38
 44
1.0
 45
0.0
 46
0.0
 47
0.01
 48
0.01
140
1.3585816435
141
0.09
142
0.0
143
25.4
144
1.0
145
0.0
146
1.0
147
0.625
 71
1
 72
0
 73
0
 74
0
 75
0
 76
0
 77
1
 78
8
 79
2
170
0
171
1
172
0
173
0
174
0
175
0
176
0
177
0
178
0
270
2
179
2
271
2
272
2
273
2
274
2
275
0
280
0
281
0
282
0
283
1
284
8
285
0
286
0
287
3
288
0
340
11
278
46
341
212
342
212
343
212
344
212
  0
ENDTAB
  0
ENDSEC
  0
SECTION
  2
BLOCKS
  0
BLOCK
  5
20
100
AcDbEntity
  8
0
100
AcDbBlockBegin
  2
*Model_Space
 70
0
 10
0.0
 20
0.0
 30
0.0
  3
*Model_Space
  1

  0
ENDBLK
  5
21
100
AcDbEntity
  8
0
100
AcDbBlockEnd
  0
BLOCK
  5
1C
100
AcDbEntity
  8
0
100
AcDbBlockBegin
  2
*Paper_Space
 70
0
 10
0.0
 20
0.0
 30
0.0
  3
*Paper_Space
  1

  0
ENDBLK
  5
1D
100
AcDbEntity
  8
0
100
AcDbBlockEnd
  0
BLOCK
  5
214
100
AcDbEntity
  8
0
100
AcDbBlockBegin
  2
_FILLED
 70
64
 10
0.0
 20
0.0
  3
_FILLED
  1

  0
SOLID
  5
215
100
AcDbEntity
  8
0
  6
BYBLOCK
 62
0
100
AcDbTrace
 10
0.0
 20
0.0
 11
-1.0
 21
0.25
 12
-1.0
 22
-0.25
 13
-1.0
 23
-0.25
  0
ENDBLK
  5
216
100
AcDbEntity
  8
0
  6
BYBLOCK
 62
0
100
AcDbBlockEnd
  0
ENDSEC
  0
SECTION
  2
ENTITIES
  0
LINE
  5
217
100
AcDbEntity
  8
0
100
AcDbLine
 62
7
  6
CONTINUOUS
 10
27.798499548
 20
94.7145546754
 11
28.8591553038
 21
95.3269209062
  0
LINE
  5
218
100
AcDbEntity
  8
0
100
AcDbLine
 62
7
  6
CONTINUOUS
 10
28.5484961903
 20
94.6402682569
 11
29.6091519461
 21
95.2526344877
  0
LINE
  5
219
100
AcDbEntity
  8
0
100
AcDbLine
 62
7
  6
CONTINUOUS
 10
9.4566660899
 20
52.5905054621
 11
9.4566660899
 21
54.2235102963
  0
LINE
  5
21A
100
AcDbEntity
  8
0
100
AcDbLine
 62
7
  6
CONTINUOUS
 10
9.4566660899
 20
60.7555296334
 11
9.4566660899
 21
66.4710465533
  0
LINE
  5
21B
100
AcDbEntity
  8
0
100
AcDbLine
 62
7
  6
CONTINUOUS
 10
9.4566660899
 20
73.0030658903
 11
9.4566660899
 21
74.6360707246
  0
LINE
  5
21C
100
AcDbEntity
  8
0
100
AcDbLine
 62
7
  6
CONTINUOUS
 10
10.1637699271
 20
72.5948285351
 11
10.1637699271
 21
67.2875419157
  0
LINE
  5
21D
100
AcDbEntity
  8
0
100
AcDbLine
 62
7
  6
CONTINUOUS
 10
10.1637699271
 20
60.3472922782
 11
10.1637699271
 21
55.0400056588
  0
LINE
  5
21E
100
AcDbEntity
  8
0
100
AcDbLine
 62
7
  6
CONTINUOUS
 10
10.5173306776
 20
51.9781443303
 11
10.5173306776
 21
53.6111491646
  0
LINE
  5
21F
100
AcDbEntity
  8
0
100
AcDbLine
 62
7
  6
CONTINUOUS
 10
10.5173306776
 20
60.1431685016
 11
10.5173306776
 21
65.8586854215
  0
LINE
  5
220
100
AcDbEntity
  8
0
100
AcDbLine
 62
7
  6
CONTINUOUS
 10
10.5173306776
 20
72.3907047585
 11
10.5173306776
 21
74.0237095928
  0
LINE
  5
221
100
AcDbEntity
  8
0
100
AcDbLine
 62
7
  6
CONTINUOUS
 10
11.2244345148
 20
72.3906977039
 11
11.2244345148
 21
66.6751807839
  0
LINE
  5
222
100
AcDbEntity
  8
0
100
AcDbLine
 62
7
  6
CONTINUOUS
 10
11.2244345148
 20
60.1431614469
 11
11.2244345148
 21
54.427644527
  0
LINE
  5
223
100
AcDbEntity
  8
0
100
AcDbLine
 62
7
  6
CONTINUOUS
 10
9.4566660899
 20
66.4710465533
 11
9.8102180085
 21
67.0834198388
  0
LINE
  5
224
100
AcDbEntity
  8
0
100
AcDbLine
 62
7
  6
CONTINUOUS
 10
10.8708825962
 20
66.471058707
 11
10.5173306776
 21
65.8586854215
  0
LINE
  5
225
100
AcDbEntity
  8
0
100
AcDbLine
 62
7
  6
CONTINUOUS
 10
10.5173218457
 20
76.4731905811
 11
15.8206006248
 21
79.5350217351
  0
LINE
  5
226
100
AcDbEntity
  8
0
100
AcDbLine
 62
7
  6
CONTINUOUS
 10
21.4774578182
 20
82.3928025469
 11
27.8413923531
 21
86.0669999317
  0
LINE
  5
227
100
AcDbEntity
  8
0
100
AcDbLine
 62
7
  6
CONTINUOUS
 10
11.5779864334
 20
75.8608294493
 11
16.8812652125
 21
78.9226606033
  0
LINE
  5
228
100
AcDbEntity
  8
0
100
AcDbLine
 62
7
  6
CONTINUOUS
 10
14.4064017822
 20
56.2647432194
 11
14.4064017822
 21
61.9802601393
  0
LINE
  5
229
100
AcDbEntity
  8
0
100
AcDbLine
 62
7
  6
CONTINUOUS
 10
14.4064017822
 20
68.5122794764
 11
14.4064017822
 21
74.2277963963
  0
LINE
  5
22A
100
AcDbEntity
  8
0
100
AcDbLine
 62
7
  6
CONTINUOUS
 10
15.1134967876
 20
74.6360354511
 11
15.1134967876
 21
70.1452509928
  0
LINE
  5
22B
100
AcDbEntity
  8
0
100
AcDbLine
 62
7
  6
CONTINUOUS
 10
15.1134967876
 20
62.3884991941
 11
15.1134967876
 21
57.8977147359
  0
LINE
  5
22C
100
AcDbEntity
  8
0
100
AcDbLine
 62
7
  6
CONTINUOUS
 10
9.4566660899
 20
54.2235102963
 11
9.8102180085
 21
54.8358835818
  0
LINE
  5
22D
100
AcDbEntity
  8
0
100
AcDbLine
 62
7
  6
CONTINUOUS
 10
38.8015783731
 20
89.9455046789
 11
37.7409226172
 21
89.3331384481
  0
LINE
  5
22E
100
AcDbEntity
  8
0
100
AcDbLine
 62
7
  6
CONTINUOUS
 10
11.2244345148
 20
72.3906977039
 11
10.8708825962
 21
72.1865756269
  0
LINE
  5
22F
100
AcDbEntity
  8
0
100
AcDbLine
 62
7
  6
CONTINUOUS
 10
14.4064017822
 20
74.2277963963
 11
16.1741613753
 21
75.248406781
  0
LINE
  5
230
100
AcDbEntity
  8
0
100
AcDbLine
 62
7
  6
CONTINUOUS
 10
38.801587205
 20
87.4960236906
 11
39.8622429608
 21
88.1083899214
  0
LINE
  5
231
100
AcDbEntity
  8
0
100
AcDbLine
 62
7
  6
CONTINUOUS
 10
16.1741613753
 20
75.248406781
 11
16.1741613753
 21
69.532889861
  0
LINE
  5
232
100
AcDbEntity
  8
0
100
AcDbLine
 62
7
  6
CONTINUOUS
 10
16.1741613753
 20
63.000870524
 11
16.1741613753
 21
57.2853536041
  0
LINE
  5
233
100
AcDbEntity
  8
0
100
AcDbLine
 62
7
  6
CONTINUOUS
 10
16.8812652125
 20
78.9226606033
 11
16.8812652125
 21
54.4275880895
  0
LINE
  5
234
100
AcDbEntity
  8
0
100
AcDbLine
 62
7
  6
CONTINUOUS
 10
18.2954787749
 20
54.4275914888
 11
18.2954787749
 21
78.9226640027
  0
LINE
  5
235
100
AcDbEntity
  8
0
100
AcDbLine
 62
7
  6
CONTINUOUS
 10
10.8708825962
 20
54.2235224501
 11
10.5173306776
 21
53.6111491646
  0
LINE
  5
236
100
AcDbEntity
  8
0
100
AcDbLine
 62
7
  6
CONTINUOUS
 10
15.1134967876
 20
70.1452509928
 11
14.4064017822
 21
69.737011938
  0
LINE
  5
237
100
AcDbEntity
  8
0
100
AcDbLine
 62
7
  6
CONTINUOUS
 10
10.1637699271
 20
67.2875419157
 11
9.8102180085
 21
67.0834198388
  0
LINE
  5
238
100
AcDbEntity
  8
0
100
AcDbLine
 62
7
  6
CONTINUOUS
 10
16.1741613753
 20
69.532889861
 11
14.4064017822
 21
68.5122794764
  0
LINE
  5
239
100
AcDbEntity
  8
0
100
AcDbLine
 62
7
  6
CONTINUOUS
 10
11.2244345148
 20
66.6751807839
 11
10.8708825962
 21
66.471058707
  0
LINE
  5
23A
100
AcDbEntity
  8
0
100
AcDbLine
 62
7
  6
CONTINUOUS
 10
19.7096982252
 20
53.6111099798
 11
19.7096982252
 21
52.8202988391
  0
LINE
  5
23B
100
AcDbEntity
  8
0
100
AcDbLine
 62
7
  6
CONTINUOUS
 10
19.7096982252
 20
78.1061824937
 11
19.7096982252
 21
79.3309361193
  0
LINE
  5
23C
100
AcDbEntity
  8
0
100
AcDbLine
 62
7
  6
CONTINUOUS
 10
31.7305488328
 20
76.4733116063
 11
38.0944833677
 21
80.1475089911
  0
LINE
  5
23D
100
AcDbEntity
  8
0
100
AcDbLine
 62
7
  6
CONTINUOUS
 10
31.7305488328
 20
75.2485579806
 11
38.0944833677
 21
78.9227553655
  0
LINE
  5
23E
100
AcDbEntity
  8
0
100
AcDbLine
 62
7
  6
CONTINUOUS
 10
10.8279991587
 20
51.2914651086
 11
9.7673345709
 21
51.9038262404
  0
LINE
  5
23F
100
AcDbEntity
  8
0
100
AcDbLine
 62
7
  6
CONTINUOUS
 10
10.5173306776
 20
51.9781443303
 11
9.4566660899
 21
52.5905054621
  0
LINE
  5
240
100
AcDbEntity
  8
0
100
AcDbLine
 62
7
  6
CONTINUOUS
 10
23.952356576
 20
71.1659746723
 11
23.952356576
 21
62.1844480839
  0
LINE
  5
241
100
AcDbEntity
  8
0
100
AcDbLine
 62
7
  6
CONTINUOUS
 10
25.0130123319
 20
70.5536186395
 11
25.0130123319
 21
62.7968143147
  0
LINE
  5
242
100
AcDbEntity
  8
0
100
AcDbLine
 62
7
  6
CONTINUOUS
 10
25.2251540813
 20
61.4496147258
 11
25.2251540813
 21
70.4311413142
  0
LINE
  5
243
100
AcDbEntity
  8
0
100
AcDbLine
 62
7
  6
CONTINUOUS
 10
16.5244711265
 20
53.7399197946
 11
16.9898432994
 21
54.459509232
  0
LINE
  5
244
100
AcDbEntity
  8
0
100
AcDbLine
 62
7
  6
CONTINUOUS
 10
17.2948365046
 20
53.3799452355
 11
18.0239839345
 21
54.507401537
  0
LINE
  5
245
100
AcDbEntity
  8
0
100
AcDbLine
 62
7
  6
CONTINUOUS
 10
31.0234449956
 20
73.2073089925
 11
29.9627892398
 21
72.5949427617
  0
LINE
  5
246
100
AcDbEntity
  8
0
100
AcDbLine
 62
7
  6
CONTINUOUS
 10
11.2244345148
 20
60.1431614469
 11
10.8708825962
 21
59.93903937
  0
LINE
  5
247
100
AcDbEntity
  8
0
100
AcDbLine
 62
7
  6
CONTINUOUS
 10
14.4064017822
 20
61.9802601393
 11
16.1741613753
 21
63.000870524
  0
LINE
  5
248
100
AcDbEntity
  8
0
100
AcDbLine
 62
7
  6
CONTINUOUS
 10
10.5173306776
 20
53.6111491646
 11
9.4566660899
 21
54.2235102963
  0
LINE
  5
249
100
AcDbEntity
  8
0
100
AcDbLine
 62
7
  6
CONTINUOUS
 10
10.8708825962
 20
54.2235224501
 11
9.8102180085
 21
54.8358835818
  0
LINE
  5
24A
100
AcDbEntity
  8
0
100
AcDbLine
 62
7
  6
CONTINUOUS
 10
10.1637699271
 20
55.0400056588
 11
11.2244345148
 21
54.427644527
  0
LINE
  5
24B
100
AcDbEntity
  8
0
100
AcDbLine
 62
7
  6
CONTINUOUS
 10
71.7415440091
 20
20.5366939497
 11
23.6580826991
 21
48.2970652571
  0
LINE
  5
24C
100
AcDbEntity
  8
0
100
AcDbLine
 62
7
  6
CONTINUOUS
 10
41.3611591749
 20
38.227399923
 11
42.6339566802
 21
37.4925665649
  0
LINE
  5
24D
100
AcDbEntity
  8
0
100
AcDbLine
 62
7
  6
CONTINUOUS
 10
54.0891342276
 20
30.8790663416
 11
55.3619317329
 21
30.1442329835
  0
LINE
  5
24E
100
AcDbEntity
  8
0
100
AcDbLine
 62
7
  6
CONTINUOUS
 10
21.3348280782
 20
49.8396724774
 11
16.7896522249
 21
53.4703010334
  0
LINE
  5
24F
100
AcDbEntity
  8
0
100
AcDbLine
 62
7
  6
CONTINUOUS
 10
25.7201308889
 20
54.6318268606
 11
25.7201308889
 21
55.0400780691
  0
LINE
  5
250
100
AcDbEntity
  8
0
100
AcDbLine
 62
7
  6
CONTINUOUS
 10
25.7908412726
 20
54.6726512759
 11
25.7908412726
 21
54.9992543336
  0
LINE
  5
251
100
AcDbEntity
  8
0
100
AcDbLine
 62
7
  6
CONTINUOUS
 10
26.2504631828
 20
53.5091438775
 11
26.2504631828
 21
53.9173950861
  0
LINE
  5
252
100
AcDbEntity
  8
0
100
AcDbLine
 62
7
  6
CONTINUOUS
 10
26.3211735665
 20
53.5499682929
 11
26.3211735665
 21
53.8765713506
  0
LINE
  5
253
100
AcDbEntity
  8
0
100
AcDbLine
 62
7
  6
CONTINUOUS
 10
26.7807954766
 20
52.3864608945
 11
26.7807954766
 21
52.7947121031
  0
LINE
  5
254
100
AcDbEntity
  8
0
100
AcDbLine
 62
7
  6
CONTINUOUS
 10
26.8515058603
 20
52.4272853099
 11
26.8515058603
 21
52.7538883676
  0
LINE
  5
255
100
AcDbEntity
  8
0
100
AcDbLine
 62
7
  6
CONTINUOUS
 10
27.3111277705
 20
54.1215363714
 11
27.3111277705
 21
56.4077431394
  0
LINE
  5
256
100
AcDbEntity
  8
0
100
AcDbLine
 62
7
  6
CONTINUOUS
 10
27.3818381542
 20
54.1623607868
 11
27.3818381542
 21
56.3669194039
  0
LINE
  5
257
100
AcDbEntity
  8
0
100
AcDbLine
 62
7
  6
CONTINUOUS
 10
27.4878316026
 20
89.1288612602
 11
27.4878316026
 21
94.0278757629
  0
LINE
  5
258
100
AcDbEntity
  8
0
100
AcDbLine
 62
7
  6
CONTINUOUS
 10
27.6646826331
 20
56.2036227622
 11
27.6646826331
 21
53.9174159942
  0
LINE
  5
259
100
AcDbEntity
  8
0
100
AcDbLine
 62
7
  6
CONTINUOUS
 10
28.1950149269
 20
51.978230594
 11
28.1950149269
 21
51.5699793855
  0
LINE
  5
25A
100
AcDbEntity
  8
0
100
AcDbLine
 62
7
  6
CONTINUOUS
 10
39.8623165599
 20
73.0033140638
 11
37.3874413538
 21
71.5744245077
  0
LINE
  5
25B
100
AcDbEntity
  8
0
100
AcDbLine
 62
7
  6
CONTINUOUS
 10
15.1134967876
 20
57.8977147359
 11
14.4064017822
 21
57.4894756811
  0
LINE
  5
25C
100
AcDbEntity
  8
0
100
AcDbLine
 62
7
  6
CONTINUOUS
 10
10.1637699271
 20
55.0400056588
 11
9.8102180085
 21
54.8358835818
  0
LINE
  5
25D
100
AcDbEntity
  8
0
100
AcDbLine
 62
7
  6
CONTINUOUS
 10
50.3622382943
 20
34.1379243951
 11
49.089440789
 21
34.8727577532
  0
LINE
  5
25E
100
AcDbEntity
  8
0
100
AcDbLine
 62
7
  6
CONTINUOUS
 10
37.6342632417
 20
41.4862579765
 11
36.3614657364
 21
42.2210913346
  0
LINE
  5
25F
100
AcDbEntity
  8
0
100
AcDbLine
 62
7
  6
CONTINUOUS
 10
17.2948365046
 20
53.3799452355
 11
66.7925172649
 21
24.8030924191
  0
LINE
  5
260
100
AcDbEntity
  8
0
100
AcDbLine
 62
7
  6
CONTINUOUS
 10
66.3789400849
 20
25.8764090407
 11
19.7096982252
 21
52.8202988391
  0
LINE
  5
261
100
AcDbEntity
  8
0
100
AcDbLine
 62
7
  6
CONTINUOUS
 10
19.7096982252
 20
53.6111099798
 11
18.2954787749
 21
54.4275914888
  0
LINE
  5
262
100
AcDbEntity
  8
0
100
AcDbLine
 62
7
  6
CONTINUOUS
 10
10.8708825962
 20
59.93903937
 11
9.4566660899
 21
60.7555296334
  0
LINE
  5
263
100
AcDbEntity
  8
0
100
AcDbLine
 62
7
  6
CONTINUOUS
 10
15.1134967876
 20
57.8977147359
 11
16.1741613753
 21
57.2853536041
  0
LINE
  5
264
100
AcDbEntity
  8
0
100
AcDbLine
 62
7
  6
CONTINUOUS
 10
36.3614657364
 20
42.2210913346
 11
41.3611591749
 21
38.227399923
  0
LINE
  5
265
100
AcDbEntity
  8
0
100
AcDbLine
 62
7
  6
CONTINUOUS
 10
42.6339566802
 20
37.4925665649
 11
37.6342632417
 21
41.4862579765
  0
LINE
  5
266
100
AcDbEntity
  8
0
100
AcDbLine
 62
7
  6
CONTINUOUS
 10
49.089440789
 20
34.8727577532
 11
54.0891342276
 21
30.8790663416
  0
LINE
  5
267
100
AcDbEntity
  8
0
100
AcDbLine
 62
7
  6
CONTINUOUS
 10
55.3619317329
 20
30.1442329835
 11
50.3622382943
 21
34.1379243951
  0
LINE
  5
268
100
AcDbEntity
  8
0
100
AcDbLine
 62
7
  6
CONTINUOUS
 10
28.7253472208
 20
52.4885524453
 11
28.7253472208
 21
52.0803012367
  0
LINE
  5
269
100
AcDbEntity
  8
0
100
AcDbLine
 62
7
  6
CONTINUOUS
 10
29.2556795146
 20
52.9988742965
 11
29.2556795146
 21
52.590623088
  0
LINE
  5
26A
100
AcDbEntity
  8
0
100
AcDbLine
 62
7
  6
CONTINUOUS
 10
29.9627892398
 20
72.5949427617
 11
29.9627892398
 21
73.4114451788
  0
LINE
  5
26B
100
AcDbEntity
  8
0
100
AcDbLine
 62
7
  6
CONTINUOUS
 10
31.0234449956
 20
73.2073089925
 11
31.0234449956
 21
74.0238114096
  0
LINE
  5
26C
100
AcDbEntity
  8
0
100
AcDbLine
 62
7
  6
CONTINUOUS
 10
25.0130123319
 20
62.7968143147
 11
23.952356576
 21
62.1844480839
  0
LINE
  5
26D
100
AcDbEntity
  8
0
100
AcDbLine
 62
7
  6
CONTINUOUS
 10
16.1741613753
 20
57.2853536041
 11
14.4064017822
 21
56.2647432194
  0
LINE
  5
26E
100
AcDbEntity
  8
0
100
AcDbLine
 62
7
  6
CONTINUOUS
 10
11.2244345148
 20
54.427644527
 11
10.8708825962
 21
54.2235224501
  0
LINE
  5
26F
100
AcDbEntity
  8
0
100
AcDbLine
 62
7
  6
CONTINUOUS
 10
54.8100910486
 20
79.1197578527
 11
55.8707468044
 21
79.7321240835
  0
LINE
  5
270
100
AcDbEntity
  8
0
100
AcDbLine
 62
7
  6
CONTINUOUS
 10
55.5600876909
 20
79.0454714342
 11
56.6207434468
 21
79.657837665
  0
LINE
  5
271
100
AcDbEntity
  8
0
100
AcDbLine
 62
7
  6
CONTINUOUS
 10
44.1049749108
 20
70.5538695366
 11
43.044319155
 21
69.9415033058
  0
LINE
  5
272
100
AcDbEntity
  8
0
100
AcDbLine
 62
7
  6
CONTINUOUS
 10
28.1950149269
 20
51.5699793855
 11
26.7807954766
 21
52.3864608945
  0
LINE
  5
273
100
AcDbEntity
  8
0
100
AcDbLine
 62
7
  6
CONTINUOUS
 10
59.3078428334
 20
33.6073861866
 11
60.5806403386
 21
32.8725528284
  0
LINE
  5
274
100
AcDbEntity
  8
0
100
AcDbLine
 62
7
  6
CONTINUOUS
 10
28.1950149269
 20
51.6516275364
 11
26.8515058603
 21
52.4272853099
  0
LINE
  5
275
100
AcDbEntity
  8
0
100
AcDbLine
 62
7
  6
CONTINUOUS
 10
26.7807954766
 20
52.7947121031
 11
28.1950149269
 21
51.978230594
  0
LINE
  5
276
100
AcDbEntity
  8
0
100
AcDbLine
 62
7
  6
CONTINUOUS
 10
28.7253472208
 20
52.0803012367
 11
26.2504631828
 21
53.5091438775
  0
LINE
  5
277
100
AcDbEntity
  8
0
100
AcDbLine
 62
7
  6
CONTINUOUS
 10
28.7253472208
 20
52.1619493876
 11
26.3211735665
 21
53.5499682929
  0
LINE
  5
278
100
AcDbEntity
  8
0
100
AcDbLine
 62
7
  6
CONTINUOUS
 10
60.3684985892
 20
34.2197524174
 11
60.5806403386
 21
34.097275092
  0
LINE
  5
279
100
AcDbEntity
  8
0
100
AcDbLine
 62
7
  6
CONTINUOUS
 10
26.2504631828
 20
53.9173950861
 11
28.7253472208
 21
52.4885524453
  0
LINE
  5
27A
100
AcDbEntity
  8
0
100
AcDbLine
 62
7
  6
CONTINUOUS
 10
29.2556795146
 20
52.590623088
 11
25.7201308889
 21
54.6318268606
  0
LINE
  5
27B
100
AcDbEntity
  8
0
100
AcDbLine
 62
7
  6
CONTINUOUS
 10
29.2556795146
 20
52.6722712389
 11
25.7908412726
 21
54.6726512759
  0
LINE
  5
27C
100
AcDbEntity
  8
0
100
AcDbLine
 62
7
  6
CONTINUOUS
 10
25.7201308889
 20
55.0400780691
 11
27.3111277705
 21
54.1215363714
  0
LINE
  5
27D
100
AcDbEntity
  8
0
100
AcDbLine
 62
7
  6
CONTINUOUS
 10
27.6646826331
 20
53.9174159942
 11
29.2556795146
 21
52.9988742965
  0
LINE
  5
27E
100
AcDbEntity
  8
0
100
AcDbLine
 62
7
  6
CONTINUOUS
 10
66.7925172649
 20
24.8030924191
 11
72.2467282887
 21
20.4463381519
  0
LINE
  5
27F
100
AcDbEntity
  8
0
100
AcDbLine
 62
7
  6
CONTINUOUS
 10
11.5779864334
 20
51.3657569354
 11
16.8812652125
 21
54.4275880895
  0
LINE
  5
280
100
AcDbEntity
  8
0
100
AcDbLine
 62
7
  6
CONTINUOUS
 10
45.5191943611
 20
68.1043831933
 11
44.4585386053
 21
67.4920169625
  0
LINE
  5
281
100
AcDbEntity
  8
0
100
AcDbLine
 62
7
  6
CONTINUOUS
 10
10.5173306776
 20
65.8586854215
 11
9.4566660899
 21
66.4710465533
  0
LINE
  5
282
100
AcDbEntity
  8
0
100
AcDbLine
 62
7
  6
CONTINUOUS
 10
27.3111277705
 20
56.4077431394
 11
27.6646826331
 21
56.2036227622
  0
LINE
  5
283
100
AcDbEntity
  8
0
100
AcDbLine
 62
7
  6
CONTINUOUS
 10
10.8708825962
 20
66.471058707
 11
9.8102180085
 21
67.0834198388
  0
LINE
  5
284
100
AcDbEntity
  8
0
100
AcDbLine
 62
7
  6
CONTINUOUS
 10
10.1637699271
 20
67.2875419157
 11
11.2244345148
 21
66.6751807839
  0
LINE
  5
285
100
AcDbEntity
  8
0
100
AcDbLine
 62
7
  6
CONTINUOUS
 10
73.0592377366
 20
21.7026943557
 11
67.6050267127
 21
26.0594486229
  0
LINE
  5
286
100
AcDbEntity
  8
0
100
AcDbLine
 62
7
  6
CONTINUOUS
 10
37.3874413538
 20
68.3084148392
 11
37.3874413538
 21
71.5744245077
  0
LINE
  5
287
100
AcDbEntity
  8
0
100
AcDbLine
 62
7
  6
CONTINUOUS
 10
47.4283847311
 20
67.410366856
 11
53.792319266
 21
71.0845642408
  0
LINE
  5
288
100
AcDbEntity
  8
0
100
AcDbLine
 62
7
  6
CONTINUOUS
 10
25.7908412726
 20
54.6726512759
 11
25.7201308889
 21
54.6318268606
  0
LINE
  5
289
100
AcDbEntity
  8
0
100
AcDbLine
 62
7
  6
CONTINUOUS
 10
45.5191943611
 20
65.5324005794
 11
44.4585386053
 21
64.9200343486
  0
LINE
  5
28A
100
AcDbEntity
  8
0
100
AcDbLine
 62
7
  6
CONTINUOUS
 10
63.5504187532
 20
75.6570782707
 11
62.4897629974
 21
75.0447120399
  0
LINE
  5
28B
100
AcDbEntity
  8
0
100
AcDbLine
 62
7
  6
CONTINUOUS
 10
27.3818381542
 20
54.1623607868
 11
27.3111277705
 21
54.1215363714
  0
LINE
  5
28C
100
AcDbEntity
  8
0
100
AcDbLine
 62
7
  6
CONTINUOUS
 10
26.3211735665
 20
53.5499682929
 11
26.2504631828
 21
53.5091438775
  0
LINE
  5
28D
100
AcDbEntity
  8
0
100
AcDbLine
 62
7
  6
CONTINUOUS
 10
23.952356576
 20
62.1844480839
 11
25.2251540813
 21
61.4496147258
  0
LINE
  5
28E
100
AcDbEntity
  8
0
100
AcDbLine
 62
7
  6
CONTINUOUS
 10
60.5806403386
 20
41.8540794169
 11
59.3078428334
 21
42.588912775
  0
LINE
  5
28F
100
AcDbEntity
  8
0
100
AcDbLine
 62
7
  6
CONTINUOUS
 10
25.0130123319
 20
62.7968143147
 11
25.2251540813
 21
62.6743369894
  0
LINE
  5
290
100
AcDbEntity
  8
0
100
AcDbLine
 62
7
  6
CONTINUOUS
 10
38.801587205
 20
87.4960236906
 11
38.801587205
 21
81.3722555622
  0
LINE
  5
291
100
AcDbEntity
  8
0
100
AcDbLine
 62
7
  6
CONTINUOUS
 10
39.8622429608
 20
88.1083899214
 11
39.8622429608
 21
81.984621793
  0
LINE
  5
292
100
AcDbEntity
  8
0
100
AcDbLine
 62
7
  6
CONTINUOUS
 10
26.8515058603
 20
52.4272853099
 11
26.7807954766
 21
52.3864608945
  0
LINE
  5
293
100
AcDbEntity
  8
0
100
AcDbLine
 62
7
  6
CONTINUOUS
 10
63.5504275851
 20
73.2075972824
 11
64.6110833409
 21
73.8199635132
  0
LINE
  5
294
100
AcDbEntity
  8
0
100
AcDbLine
 62
7
  6
CONTINUOUS
 10
43.4685844013
 20
60.388429547
 11
43.3978740176
 21
60.3476051316
  0
LINE
  5
295
100
AcDbEntity
  8
0
100
AcDbLine
 62
7
  6
CONTINUOUS
 10
45.0595812829
 20
59.8781390579
 11
44.9888708992
 21
59.8373146425
  0
LINE
  5
296
100
AcDbEntity
  8
0
100
AcDbLine
 62
7
  6
CONTINUOUS
 10
43.9989166952
 20
59.2657465639
 11
43.9282063114
 21
59.2249221486
  0
LINE
  5
297
100
AcDbEntity
  8
0
100
AcDbLine
 62
7
  6
CONTINUOUS
 10
10.8708825962
 20
72.1865756269
 11
9.4566660899
 21
73.0030658903
  0
LINE
  5
298
100
AcDbEntity
  8
0
100
AcDbLine
 62
7
  6
CONTINUOUS
 10
15.1134967876
 20
70.1452509928
 11
16.1741613753
 21
69.532889861
  0
LINE
  5
299
100
AcDbEntity
  8
0
100
AcDbLine
 62
7
  6
CONTINUOUS
 10
9.4566660899
 20
74.6360707246
 11
10.5173306776
 21
74.0237095928
  0
LINE
  5
29A
100
AcDbEntity
  8
0
100
AcDbLine
 62
7
  6
CONTINUOUS
 10
43.3978740176
 20
60.3476051316
 11
43.3978740176
 21
60.7558563401
  0
LINE
  5
29B
100
AcDbEntity
  8
0
100
AcDbLine
 62
7
  6
CONTINUOUS
 10
43.4685844013
 20
60.388429547
 11
43.4685844013
 21
60.7150326046
  0
LINE
  5
29C
100
AcDbEntity
  8
0
100
AcDbLine
 62
7
  6
CONTINUOUS
 10
43.9282063114
 20
59.2249221486
 11
43.9282063114
 21
59.6331733571
  0
LINE
  5
29D
100
AcDbEntity
  8
0
100
AcDbLine
 62
7
  6
CONTINUOUS
 10
43.9989166952
 20
59.2657465639
 11
43.9989166952
 21
59.5923496216
  0
LINE
  5
29E
100
AcDbEntity
  8
0
100
AcDbLine
 62
7
  6
CONTINUOUS
 10
44.4585386053
 20
67.4920169625
 11
44.4585386053
 21
64.9200343486
  0
LINE
  5
29F
100
AcDbEntity
  8
0
100
AcDbLine
 62
7
  6
CONTINUOUS
 10
44.4585386053
 20
58.1022391655
 11
44.4585386053
 21
58.5104903741
  0
LINE
  5
2A0
100
AcDbEntity
  8
0
100
AcDbLine
 62
7
  6
CONTINUOUS
 10
44.529248989
 20
58.1430635809
 11
44.529248989
 21
58.4696666386
  0
LINE
  5
2A1
100
AcDbEntity
  8
0
100
AcDbLine
 62
7
  6
CONTINUOUS
 10
44.9888708992
 20
59.8373146425
 11
44.9888708992
 21
62.1235214104
  0
LINE
  5
2A2
100
AcDbEntity
  8
0
100
AcDbLine
 62
7
  6
CONTINUOUS
 10
45.0595812829
 20
59.8781390579
 11
45.0595812829
 21
62.0826976749
  0
LINE
  5
2A3
100
AcDbEntity
  8
0
100
AcDbLine
 62
7
  6
CONTINUOUS
 10
44.529248989
 20
58.1430635809
 11
44.4585386053
 21
58.1022391655
  0
LINE
  5
2A4
100
AcDbEntity
  8
0
100
AcDbLine
 62
7
  6
CONTINUOUS
 10
11.5779864334
 20
75.8608294493
 11
10.5173218457
 21
76.4731905811
  0
LINE
  5
2A5
100
AcDbEntity
  8
0
100
AcDbLine
 62
7
  6
CONTINUOUS
 10
45.8727580556
 20
57.2857576565
 11
44.4585386053
 21
58.1022391655
  0
LINE
  5
2A6
100
AcDbEntity
  8
0
100
AcDbLine
 62
7
  6
CONTINUOUS
 10
45.8727580556
 20
57.3674058074
 11
44.529248989
 21
58.1430635809
  0
LINE
  5
2A7
100
AcDbEntity
  8
0
100
AcDbLine
 62
7
  6
CONTINUOUS
 10
44.4585386053
 20
58.5104903741
 11
45.8727580556
 21
57.6940088651
  0
LINE
  5
2A8
100
AcDbEntity
  8
0
100
AcDbLine
 62
7
  6
CONTINUOUS
 10
46.4030903495
 20
57.7960795077
 11
43.9282063114
 21
59.2249221486
  0
LINE
  5
2A9
100
AcDbEntity
  8
0
100
AcDbLine
 62
7
  6
CONTINUOUS
 10
46.4030903495
 20
57.8777276586
 11
43.9989166952
 21
59.2657465639
  0
LINE
  5
2AA
100
AcDbEntity
  8
0
100
AcDbLine
 62
7
  6
CONTINUOUS
 10
25.2251540813
 20
70.4311413142
 11
23.952356576
 21
71.1659746723
  0
LINE
  5
2AB
100
AcDbEntity
  8
0
100
AcDbLine
 62
7
  6
CONTINUOUS
 10
43.9282063114
 20
59.6331733571
 11
46.4030903495
 21
58.2043307163
  0
LINE
  5
2AC
100
AcDbEntity
  8
0
100
AcDbLine
 62
7
  6
CONTINUOUS
 10
46.9334226433
 20
58.306401359
 11
43.3978740176
 21
60.3476051316
  0
LINE
  5
2AD
100
AcDbEntity
  8
0
100
AcDbLine
 62
7
  6
CONTINUOUS
 10
46.9334226433
 20
58.3880495099
 11
43.4685844013
 21
60.388429547
  0
LINE
  5
2AE
100
AcDbEntity
  8
0
100
AcDbLine
 62
7
  6
CONTINUOUS
 10
43.3978740176
 20
60.7558563401
 11
44.9888708992
 21
59.8373146425
  0
LINE
  5
2AF
100
AcDbEntity
  8
0
100
AcDbLine
 62
7
  6
CONTINUOUS
 10
45.3424257617
 20
59.6331942652
 11
46.9334226433
 21
58.7146525675
  0
LINE
  5
2B0
100
AcDbEntity
  8
0
100
AcDbLine
 62
7
  6
CONTINUOUS
 10
27.4878316026
 20
89.1288612602
 11
28.5484961903
 21
87.2917465027
  0
LINE
  5
2B1
100
AcDbEntity
  8
0
100
AcDbLine
 62
7
  6
CONTINUOUS
 10
45.3424257617
 20
61.9194010332
 11
45.3424257617
 21
59.6331942652
  0
LINE
  5
2B2
100
AcDbEntity
  8
0
100
AcDbLine
 62
7
  6
CONTINUOUS
 10
45.5191943611
 20
68.1043831933
 11
45.5191943611
 21
65.5324005794
  0
LINE
  5
2B3
100
AcDbEntity
  8
0
100
AcDbLine
 62
7
  6
CONTINUOUS
 10
45.660625138
 20
64.2260250659
 11
45.660625138
 21
64.3485004285
  0
LINE
  5
2B4
100
AcDbEntity
  8
0
100
AcDbLine
 62
7
  6
CONTINUOUS
 10
45.8727580556
 20
57.6940088651
 11
45.8727580556
 21
57.2857576565
  0
LINE
  5
2B5
100
AcDbEntity
  8
0
100
AcDbLine
 62
7
  6
CONTINUOUS
 10
46.4030903495
 20
58.2043307163
 11
46.4030903495
 21
57.7960795077
  0
LINE
  5
2B6
100
AcDbEntity
  8
0
100
AcDbLine
 62
7
  6
CONTINUOUS
 10
46.9334226433
 20
58.7146525675
 11
46.9334226433
 21
58.306401359
  0
LINE
  5
2B7
100
AcDbEntity
  8
0
100
AcDbLine
 62
7
  6
CONTINUOUS
 10
56.479389213
 20
62.1848851981
 11
62.8433237479
 21
65.8590825829
  0
LINE
  5
2B8
100
AcDbEntity
  8
0
100
AcDbLine
 62
7
  6
CONTINUOUS
 10
56.479389213
 20
60.9601315724
 11
62.8433237479
 21
64.6343289572
  0
LINE
  5
2B9
100
AcDbEntity
  8
0
100
AcDbLine
 62
7
  6
CONTINUOUS
 10
55.7722853757
 20
58.9188825843
 11
54.7116296199
 21
58.3065163535
  0
LINE
  5
2BA
100
AcDbEntity
  8
0
100
AcDbLine
 62
7
  6
CONTINUOUS
 10
44.9888708992
 20
62.1235214104
 11
45.3424257617
 21
61.9194010332
  0
LINE
  5
2BB
100
AcDbEntity
  8
0
100
AcDbLine
 62
7
  6
CONTINUOUS
 10
18.2954787749
 20
78.9226640027
 11
19.7096982252
 21
78.1061824937
  0
LINE
  5
2BC
100
AcDbEntity
  8
0
100
AcDbLine
 62
7
  6
CONTINUOUS
 10
37.3874413538
 20
68.3084148392
 11
29.9627892398
 21
72.5949427617
  0
LINE
  5
2BD
100
AcDbEntity
  8
0
100
AcDbLine
 62
7
  6
CONTINUOUS
 10
54.7116296199
 20
58.3065163535
 11
64.9647206346
 21
52.3870254129
  0
LINE
  5
2BE
100
AcDbEntity
  8
0
100
AcDbLine
 62
7
  6
CONTINUOUS
 10
19.3561345307
 20
79.5350302335
 11
29.9627892398
 21
73.4114451788
  0
LINE
  5
2BF
100
AcDbEntity
  8
0
100
AcDbLine
 62
7
  6
CONTINUOUS
 10
45.660625138
 20
64.3485004285
 11
54.7116296199
 21
59.1230187706
  0
LINE
  5
2C0
100
AcDbEntity
  8
0
100
AcDbLine
 62
7
  6
CONTINUOUS
 10
37.3874413538
 20
69.5331371028
 11
31.0234449956
 21
73.2073089925
  0
LINE
  5
2C1
100
AcDbEntity
  8
0
100
AcDbLine
 62
7
  6
CONTINUOUS
 10
55.7722853757
 20
58.9188825843
 11
66.0253763904
 21
52.9993916437
  0
LINE
  5
2C2
100
AcDbEntity
  8
0
100
AcDbLine
 62
7
  6
CONTINUOUS
 10
44.4585386053
 20
67.4920169625
 11
43.044319155
 21
69.9415033058
  0
LINE
  5
2C3
100
AcDbEntity
  8
0
100
AcDbLine
 62
7
  6
CONTINUOUS
 10
44.1049749108
 20
70.5538695366
 11
45.5191943611
 21
68.1043831933
  0
LINE
  5
2C4
100
AcDbEntity
  8
0
100
AcDbLine
 62
7
  6
CONTINUOUS
 10
54.4994231032
 20
78.4330789403
 11
54.4994231032
 21
72.3093108118
  0
LINE
  5
2C5
100
AcDbEntity
  8
0
100
AcDbLine
 62
7
  6
CONTINUOUS
 10
54.7116296199
 20
58.3065163535
 11
54.7116296199
 21
59.1230187706
  0
LINE
  5
2C6
100
AcDbEntity
  8
0
100
AcDbLine
 62
7
  6
CONTINUOUS
 10
41.3611591749
 20
38.227399923
 11
41.4813530342
 21
38.4132516706
  0
LINE
  5
2C7
100
AcDbEntity
  8
0
100
AcDbLine
 62
7
  6
CONTINUOUS
 10
56.479389213
 20
62.1848851981
 11
47.4283847311
 21
67.410366856
  0
LINE
  5
2C8
100
AcDbEntity
  8
0
100
AcDbLine
 62
7
  6
CONTINUOUS
 10
31.7305488328
 20
76.4733116063
 11
21.4774578182
 21
82.3928025469
  0
LINE
  5
2C9
100
AcDbEntity
  8
0
100
AcDbLine
 62
7
  6
CONTINUOUS
 10
38.8016608041
 20
72.3909478329
 11
43.044319155
 21
69.9415033058
  0
LINE
  5
2CA
100
AcDbEntity
  8
0
100
AcDbLine
 62
7
  6
CONTINUOUS
 10
39.8623165599
 20
73.0033140638
 11
44.1049749108
 21
70.5538695366
  0
LINE
  5
2CB
100
AcDbEntity
  8
0
100
AcDbLine
 62
7
  6
CONTINUOUS
 10
55.7722853757
 20
58.9188825843
 11
55.7722853757
 21
59.7353850014
  0
LINE
  5
2CC
100
AcDbEntity
  8
0
100
AcDbLine
 62
7
  6
CONTINUOUS
 10
66.0253763904
 20
52.9993916437
 11
64.9647206346
 21
52.3870254129
  0
LINE
  5
2CD
100
AcDbEntity
  8
0
100
AcDbLine
 62
7
  6
CONTINUOUS
 10
59.3078428334
 20
42.588912775
 11
59.3078428334
 21
33.6073861866
  0
LINE
  5
2CE
100
AcDbEntity
  8
0
100
AcDbLine
 62
7
  6
CONTINUOUS
 10
60.3684985892
 20
41.9765567422
 11
60.3684985892
 21
34.2197524174
  0
LINE
  5
2CF
100
AcDbEntity
  8
0
100
AcDbLine
 62
7
  6
CONTINUOUS
 10
60.5806403386
 20
32.8725528284
 11
60.5806403386
 21
41.8540794169
  0
LINE
  5
2D0
100
AcDbEntity
  8
0
100
AcDbLine
 62
7
  6
CONTINUOUS
 10
63.2575977225
 20
49.6282525307
 11
61.1362862109
 21
48.4035200691
  0
LINE
  5
2D1
100
AcDbEntity
  8
0
100
AcDbLine
 62
7
  6
CONTINUOUS
 10
66.3789400849
 20
49.9375390696
 11
67.4395958407
 21
50.5499053004
  0
LINE
  5
2D2
100
AcDbEntity
  8
0
100
AcDbLine
 62
7
  6
CONTINUOUS
 10
27.8413923531
 20
86.0669999317
 11
38.0944833677
 21
80.1475089911
  0
LINE
  5
2D3
100
AcDbEntity
  8
0
100
AcDbLine
 62
7
  6
CONTINUOUS
 10
53.792319266
 20
71.0845642408
 11
62.8433237479
 21
65.8590825829
  0
LINE
  5
2D4
100
AcDbEntity
  8
0
100
AcDbLine
 62
7
  6
CONTINUOUS
 10
63.5504275851
 20
67.0838291539
 11
54.4994231032
 21
72.3093108118
  0
LINE
  5
2D5
100
AcDbEntity
  8
0
100
AcDbLine
 62
7
  6
CONTINUOUS
 10
38.801587205
 20
81.3722555622
 11
28.5484961903
 21
87.2917465027
  0
LINE
  5
2D6
100
AcDbEntity
  8
0
100
AcDbLine
 62
7
  6
CONTINUOUS
 10
63.5504275851
 20
67.0838291539
 11
63.5504275851
 21
73.2075972824
  0
LINE
  5
2D7
100
AcDbEntity
  8
0
100
AcDbLine
 62
7
  6
CONTINUOUS
 10
64.6110833409
 20
67.6961953847
 11
64.6110833409
 21
73.8199635132
  0
LINE
  5
2D8
100
AcDbEntity
  8
0
100
AcDbLine
 62
7
  6
CONTINUOUS
 10
65.2575887687
 20
46.1641457462
 11
63.1362772571
 21
44.9394132845
  0
LINE
  5
2D9
100
AcDbEntity
  8
0
100
AcDbLine
 62
7
  6
CONTINUOUS
 10
66.3789400849
 20
49.9375390696
 11
66.3789400849
 21
25.8764090407
  0
LINE
  5
2DA
100
AcDbEntity
  8
0
100
AcDbLine
 62
7
  6
CONTINUOUS
 10
67.4395958407
 20
50.5499053004
 11
67.4395958407
 21
26.4887752715
  0
LINE
  5
2DB
100
AcDbEntity
  8
0
100
AcDbLine
 62
7
  6
CONTINUOUS
 10
54.0891342276
 20
30.8790663416
 11
54.2093280869
 21
31.0649180892
  0
LINE
  5
2DC
100
AcDbEntity
  8
0
100
AcDbLine
 62
7
  6
CONTINUOUS
 10
28.5484961903
 20
94.6402682569
 11
37.7409226172
 21
89.3331384481
  0
LINE
  5
2DD
100
AcDbEntity
  8
0
100
AcDbLine
 62
7
  6
CONTINUOUS
 10
55.5600876909
 20
79.0454714342
 11
62.4897629974
 21
75.0447120399
  0
LINE
  5
2DE
100
AcDbEntity
  8
0
100
AcDbLine
 62
7
  6
CONTINUOUS
 10
29.6091519461
 20
95.2526344877
 11
38.8015783731
 21
89.9455046789
  0
LINE
  5
2DF
100
AcDbEntity
  8
0
100
AcDbLine
 62
7
  6
CONTINUOUS
 10
56.6207434468
 20
79.657837665
 11
63.5504187532
 21
75.6570782707
  0
LINE
  5
2E0
100
AcDbEntity
  8
0
100
AcDbLine
 62
7
  6
CONTINUOUS
 10
60.3684985892
 20
34.2197524174
 11
59.3078428334
 21
33.6073861866
  0
LINE
  5
2E1
100
AcDbEntity
  8
0
100
AcDbLine
 62
7
  6
CONTINUOUS
 10
67.443263714
 20
26.4546577646
 11
67.6968206369
 21
26.8467243601
  0
LINE
  5
2E2
100
AcDbEntity
  8
0
100
AcDbLine
 62
7
  6
CONTINUOUS
 10
72.2467282887
 20
20.4463381519
 11
73.0592377366
 21
21.7026943557
  0
LINE
  5
2E3
100
AcDbEntity
  8
0
100
AcDbLine
 62
7
  6
CONTINUOUS
 10
72.5119093871
 20
20.1767193907
 11
73.324418835
 21
21.4330755945
  0
ARC
  5
2E4
100
AcDbEntity
  8
0
100
AcDbCircle
 62
7
  6
CONTINUOUS
 10
44.4216303377
 20
-3.151817875
 40
35.0560432762
100
AcDbArc
 50
58.6271312703
 51
58.8054663254
  0
ARC
  5
2E5
100
AcDbEntity
  8
0
100
AcDbCircle
 62
7
  6
CONTINUOUS
 10
9.2075660264
 20
17.1785717018
 40
35.0560432742
100
AcDbArc
 50
58.6271312703
 51
58.8054663255
  0
ARC
  5
2E6
100
AcDbEntity
  8
0
100
AcDbCircle
 62
7
  6
CONTINUOUS
 10
59.4872836098
 20
17.0170571434
 40
9.8964673706
100
AcDbArc
 50
51.405308709
 51
52.0861046169
  0
ARC
  5
2E7
100
AcDbEntity
  8
0
100
AcDbCircle
 62
7
  6
CONTINUOUS
 10
24.2732192976
 20
37.3474467187
 40
9.8964673703
100
AcDbArc
 50
51.405308709
 51
52.0861046169
  0
ARC
  5
2E8
100
AcDbEntity
  8
0
100
AcDbCircle
 62
7
  6
CONTINUOUS
 10
25.6146236271
 20
39.031662882
 40
7.7433432687
100
AcDbArc
 50
50.6991439936
 51
51.3889290513
  0
ARC
  5
2E9
100
AcDbEntity
  8
0
100
AcDbCircle
 62
7
  6
CONTINUOUS
 10
60.8286879397
 20
18.7012733073
 40
7.7433432683
100
AcDbArc
 50
50.6991439936
 51
51.3889290513
  0
ARC
  5
2EA
100
AcDbEntity
  8
0
100
AcDbCircle
 62
7
  6
CONTINUOUS
 10
43.9337922307
 20
58.2138303607
 40
3.8483657951
100
AcDbArc
 50
3.0091909429
 51
3.3958652848
  0
ARC
  5
2EB
100
AcDbEntity
  8
0
100
AcDbCircle
 62
7
  6
CONTINUOUS
 10
26.2560491047
 20
52.4980520898
 40
3.8483657924
100
AcDbArc
 50
3.0091909428
 51
3.395865285
  0
ARC
  5
2EC
100
AcDbEntity
  8
0
100
AcDbCircle
 62
7
  6
CONTINUOUS
 10
44.1094036192
 20
58.2223093642
 40
3.6725515143
100
AcDbArc
 50
0.0382897078
 51
3.0209168642
  0
ARC
  5
2ED
100
AcDbEntity
  8
0
100
AcDbCircle
 62
7
  6
CONTINUOUS
 10
26.4316604906
 20
52.5065310931
 40
3.6725515143
100
AcDbArc
 50
0.0382897078
 51
3.0209168642
  0
ARC
  5
2EE
100
AcDbEntity
  8
0
100
AcDbCircle
 62
7
  6
CONTINUOUS
 10
46.2218930416
 20
61.2481995435
 40
3.6725515143
100
AcDbArc
 50
180.0382897078
 51
183.0209168642
  0
ARC
  5
2EF
100
AcDbEntity
  8
0
100
AcDbCircle
 62
7
  6
CONTINUOUS
 10
28.5441499129
 20
55.5324212725
 40
3.6725515143
100
AcDbArc
 50
180.0382897078
 51
183.0209168642
  0
ARC
  5
2F0
100
AcDbEntity
  8
0
100
AcDbCircle
 62
7
  6
CONTINUOUS
 10
28.5740335233
 20
55.5718481715
 40
3.6317240746
100
AcDbArc
 50
180.0166722805
 51
183.4426219543
  0
ARC
  5
2F1
100
AcDbEntity
  8
0
100
AcDbCircle
 62
7
  6
CONTINUOUS
 10
46.251776652
 20
61.2876264425
 40
3.6317240746
100
AcDbArc
 50
180.0166722805
 51
183.4426219543
  0
ARC
  5
2F2
100
AcDbEntity
  8
0
100
AcDbCircle
 62
7
  6
CONTINUOUS
 10
43.9343592863
 20
61.8678323453
 40
1.2374637674
100
AcDbArc
 50
116.2435648623
 51
119.9977678228
  0
ARC
  5
2F3
100
AcDbEntity
  8
0
100
AcDbCircle
 62
7
  6
CONTINUOUS
 10
26.2566161576
 20
56.1520540743
 40
1.2374637674
100
AcDbArc
 50
116.2435648623
 51
119.9977678228
  0
ARC
  5
2F4
100
AcDbEntity
  8
0
100
AcDbCircle
 62
7
  6
CONTINUOUS
 10
28.7192809222
 20
51.8866210168
 40
1.2371803016
100
AcDbArc
 50
300.0007114998
 51
303.5029818787
  0
ARC
  5
2F5
100
AcDbEntity
  8
0
100
AcDbCircle
 62
7
  6
CONTINUOUS
 10
46.3970240509
 20
57.6023992878
 40
1.2371803016
100
AcDbArc
 50
300.0007114998
 51
303.5029818788
  0
ARC
  5
2F6
100
AcDbEntity
  8
0
100
AcDbCircle
 62
7
  6
CONTINUOUS
 10
42.5072541652
 20
66.7974493074
 40
0.5603190646
100
AcDbArc
 50
286.6589072051
 51
287.7483125952
  0
ARC
  5
2F7
100
AcDbEntity
  8
0
100
AcDbCircle
 62
7
  6
CONTINUOUS
 10
50.2854611418
 20
43.9354966223
 40
0.5603190646
100
AcDbArc
 50
286.6589072051
 51
287.7483125952
  0
ARC
  5
2F8
100
AcDbEntity
  8
0
100
AcDbCircle
 62
7
  6
CONTINUOUS
 10
63.7205459196
 20
46.3852025005
 40
0.5603190646
100
AcDbArc
 50
286.6589072052
 51
287.7483125952
  0
ARC
  5
2F9
100
AcDbEntity
  8
0
100
AcDbCircle
 62
7
  6
CONTINUOUS
 10
23.4152915863
 20
56.9991380425
 40
0.5603190644
100
AcDbArc
 50
286.6589072049
 51
287.7483125953
  0
ARC
  5
2FA
100
AcDbEntity
  8
0
100
AcDbCircle
 62
7
  6
CONTINUOUS
 10
37.4160641442
 20
59.5305025257
 40
0.5603190645
100
AcDbArc
 50
286.658907205
 51
287.7483125954
  0
SPLINE
  5
2FB
100
AcDbEntity
  8
0
100
AcDbSpline
 62
7
  6
CONTINUOUS
 70
0
 71
3
 72
11
 73
7
 74
0
 42
0.0000001
 43
0.0000001
 44
0.0000000001
 40
0.0
 40
0.0
 40
0.0
 40
0.0
 40
0.2897016594
 40
0.5490895814
 40
0.7822189142
 40
1.0
 40
1.0
 40
1.0
 40
1.0
 10
31.9072673848
 20
88.6186125872
 30
0.0
 10
31.9072673848
 20
88.5046096639
 30
0.0
 10
31.8899829862
 20
88.2877991525
 30
0.0
 10
31.8021819235
 20
87.9899106754
 30
0.0
 10
31.6543433229
 20
87.7481912318
 30
0.0
 10
31.5154776202
 20
87.6314567028
 30
0.0
 10
31.4412616284
 20
87.5886008581
 30
0.0
  0
SPLINE
  5
2FC
100
AcDbEntity
  8
0
100
AcDbSpline
 62
7
  6
CONTINUOUS
 70
0
 71
3
 72
15
 73
11
 74
0
 42
0.0000001
 43
0.0000001
 44
0.0000000001
 40
0.0
 40
0.0
 40
0.0
 40
0.0
 40
0.1141232787
 40
0.2373467935
 40
0.3669716251
 40
0.4999988493
 40
0.6330262331
 40
0.7626515288
 40
0.885875802
 40
1.0
 40
1.0
 40
1.0
 40
1.0
 10
38.8015783731
 20
89.9455046789
 30
0.0
 10
38.8741690831
 20
89.903595361
 30
0.0
 10
39.0175809198
 20
89.8030266813
 30
0.0
 10
39.2149490112
 20
89.6184418328
 30
0.0
 10
39.3967936853
 20
89.4001632337
 30
0.0
 10
39.5563378753
 20
89.156524091
 30
0.0
 10
39.6875648834
 20
88.8965355336
 30
0.0
 10
39.7856791385
 20
88.6299137062
 30
0.0
 10
39.846852282
 20
88.3666943669
 30
0.0
 10
39.8622429608
 20
88.1922106545
 30
0.0
 10
39.8622429608
 20
88.1083899214
 30
0.0
  0
SPLINE
  5
2FD
100
AcDbEntity
  8
0
100
AcDbSpline
 62
7
  6
CONTINUOUS
 70
0
 71
3
 72
9
 73
5
 74
0
 42
0.0000001
 43
0.0000001
 44
0.0000000001
 40
0.0
 40
0.0
 40
0.0
 40
0.0
 40
0.2361853719
 40
1.0
 40
1.0
 40
1.0
 40
1.0
 10
29.8462966778
 20
91.5344768677
 30
0.0
 10
29.8360942769
 20
91.4988118377
 30
0.0
 10
29.7992136509
 20
91.3460113102
 30
0.0
 10
29.7859293774
 20
91.1880279831
 30
0.0
 10
29.7859293774
 20
91.0680622134
 30
0.0
  0
SPLINE
  5
2FE
100
AcDbEntity
  8
0
100
AcDbSpline
 62
7
  6
CONTINUOUS
 70
0
 71
3
 72
18
 73
14
 74
0
 42
0.0000001
 43
0.0000001
 44
0.0000000001
 40
0.0
 40
0.0
 40
0.0
 40
0.0
 40
0.0428479429
 40
0.0874623066
 40
0.1352840435
 40
0.1872323096
 40
0.2437220832
 40
0.3047263631
 40
0.4383562007
 40
0.5826594577
 40
0.729784539
 40
0.8713400481
 40
1.0
 40
1.0
 40
1.0
 40
1.0
 10
29.191279378
 20
91.4857077117
 30
0.0
 10
29.2467468159
 20
91.5177372494
 30
0.0
 10
29.3690341309
 20
91.5685146846
 30
0.0
 10
29.5708621663
 20
91.5981426189
 30
0.0
 10
29.7876051654
 20
91.5821568106
 30
0.0
 10
30.014437482
 20
91.5219063736
 30
0.0
 10
30.2469307578
 20
91.4191816868
 30
0.0
 10
30.5678546644
 20
91.2227314393
 30
0.0
 10
30.950184244
 20
90.8841415201
 30
0.0
 10
31.3431096548
 20
90.3811208654
 30
0.0
 10
31.6526404188
 20
89.8090766534
 30
0.0
 10
31.8534632577
 20
89.2153350814
 30
0.0
 10
31.9072673848
 20
88.8109391113
 30
0.0
 10
31.9072673848
 20
88.6186125872
 30
0.0
  0
SPLINE
  5
2FF
100
AcDbEntity
  8
0
100
AcDbSpline
 62
7
  6
CONTINUOUS
 70
0
 71
3
 72
15
 73
11
 74
0
 42
0.0000001
 43
0.0000001
 44
0.0000000001
 40
0.0
 40
0.0
 40
0.0
 40
0.0
 40
0.1183285566
 40
0.2471060899
 40
0.3824168175
 40
0.5196879973
 40
0.6540792156
 40
0.7810885294
 40
0.8970820426
 40
1.0
 40
1.0
 40
1.0
 40
1.0
 10
29.7859293774
 20
91.0680622134
 30
0.0
 10
29.7859293774
 20
90.9192397919
 30
0.0
 10
29.8182428406
 20
90.6081256401
 30
0.0
 10
29.9440293478
 20
90.142242822
 30
0.0
 10
30.143209652
 20
89.6766815686
 30
0.0
 10
30.4054469709
 20
89.2353997151
 30
0.0
 10
30.7174219579
 20
88.8408834727
 30
0.0
 10
31.0634215038
 20
88.5131524521
 30
0.0
 10
31.4259467394
 20
88.2688195746
 30
0.0
 10
31.6836925574
 20
88.1634715243
 30
0.0
 10
31.8092327755
 20
88.131936157
 30
0.0
  0
SPLINE
  5
300
100
AcDbEntity
  8
0
100
AcDbSpline
 62
7
  6
CONTINUOUS
 70
0
 71
3
 72
15
 73
11
 74
0
 42
0.0000001
 43
0.0000001
 44
0.0000000001
 40
0.0
 40
0.0
 40
0.0
 40
0.0
 40
0.1141229605
 40
0.2373462928
 40
0.366971064
 40
0.4999983279
 40
0.633025824
 40
0.762651271
 40
0.8858756957
 40
1.0
 40
1.0
 40
1.0
 40
1.0
 10
38.0944833677
 20
78.9227553655
 30
0.0
 10
38.2154669711
 20
78.9926048645
 30
0.0
 10
38.4544848334
 20
79.1602206071
 30
0.0
 10
38.7834288541
 20
79.4678635932
 30
0.0
 10
39.0865007359
 20
79.8316626921
 30
0.0
 10
39.3524054625
 20
80.2377291754
 30
0.0
 10
39.5711152861
 20
80.671044446
 30
0.0
 10
39.7346376558
 20
81.1154148871
 30
0.0
 10
39.83659203
 20
81.5541142017
 30
0.0
 10
39.8622429608
 20
81.8449205245
 30
0.0
 10
39.8622429608
 20
81.984621793
 30
0.0
  0
SPLINE
  5
301
100
AcDbEntity
  8
0
100
AcDbSpline
 62
7
  6
CONTINUOUS
 70
0
 71
3
 72
13
 73
9
 74
0
 42
0.0000001
 43
0.0000001
 44
0.0000000001
 40
0.0
 40
0.0
 40
0.0
 40
0.0
 40
0.114176888
 40
0.2375715548
 40
0.5000017735
 40
0.762431024
 40
0.8858245003
 40
1.0
 40
1.0
 40
1.0
 40
1.0
 10
31.0234449956
 20
74.0238114096
 30
0.0
 10
31.0234449956
 20
74.079667397
 30
0.0
 10
31.0337397266
 20
74.1959986161
 30
0.0
 10
31.0892193937
 20
74.4348297079
 30
0.0
 10
31.2184888924
 20
74.7277014477
 30
0.0
 10
31.4074869282
 20
74.9860884733
 30
0.0
 10
31.5865791889
 20
75.1535501237
 30
0.0
 10
31.6821766448
 20
75.2206304515
 30
0.0
 10
31.7305488328
 20
75.2485579806
 30
0.0
  0
SPLINE
  5
302
100
AcDbEntity
  8
0
100
AcDbSpline
 62
7
  6
CONTINUOUS
 70
0
 71
3
 72
13
 73
9
 74
0
 42
0.0000001
 43
0.0000001
 44
0.0000000001
 40
0.0
 40
0.0
 40
0.0
 40
0.0
 40
0.114175582
 40
0.23756922
 40
0.49999856
 40
0.7624286893
 40
0.8858231943
 40
1.0
 40
1.0
 40
1.0
 40
1.0
 10
27.8413923531
 20
86.0669999317
 30
0.0
 10
27.889764576
 20
86.0949274809
 30
0.0
 10
27.9853620988
 20
86.1620079222
 30
0.0
 10
28.1644544982
 20
86.3294696596
 30
0.0
 10
28.3534525024
 20
86.5878568263
 30
0.0
 10
28.4827218631
 20
86.880728523
 30
0.0
 10
28.538201524
 20
87.1195594511
 30
0.0
 10
28.5484961903
 20
87.2358905556
 30
0.0
 10
28.5484961903
 20
87.2917465027
 30
0.0
  0
SPLINE
  5
303
100
AcDbEntity
  8
0
100
AcDbSpline
 62
7
  6
CONTINUOUS
 70
0
 71
3
 72
13
 73
9
 74
0
 42
0.0000001
 43
0.0000001
 44
0.0000000001
 40
0.0
 40
0.0
 40
0.0
 40
0.0
 40
0.1080963512
 40
0.2182387316
 40
0.3322535299
 40
0.4516812195
 40
0.7106594539
 40
1.0
 40
1.0
 40
1.0
 40
1.0
 10
43.5156656012
 20
62.5931254354
 30
0.0
 10
43.4615550822
 20
62.5618976876
 30
0.0
 10
43.3575291818
 20
62.4892966236
 30
0.0
 10
43.2201233022
 20
62.353993529
 30
0.0
 10
43.1018532446
 20
62.1934998393
 30
0.0
 10
42.9678235413
 20
61.9414487157
 30
0.0
 10
42.8574147982
 20
61.5675281711
 30
0.0
 10
42.8321862375
 20
61.2496751133
 30
0.0
 10
42.8321862375
 20
61.0824489438
 30
0.0
  0
SPLINE
  5
304
100
AcDbEntity
  8
0
100
AcDbSpline
 62
7
  6
CONTINUOUS
 70
0
 71
3
 72
19
 73
15
 74
0
 42
0.0000001
 43
0.0000001
 44
0.0000000001
 40
0.0
 40
0.0
 40
0.0
 40
0.0
 40
0.0428419603
 40
0.0876857809
 40
0.1357504047
 40
0.1878005415
 40
0.2441694765
 40
0.3048134358
 40
0.3693937858
 40
0.4373519373
 40
0.5802247496
 40
0.726568083
 40
0.8687813658
 40
1.0
 40
1.0
 40
1.0
 40
1.0
 10
43.3871677126
 20
62.9777413314
 30
0.0
 10
43.4778421008
 20
63.0224455679
 30
0.0
 10
43.675528494
 20
63.0910661498
 30
0.0
 10
43.9965776945
 20
63.1241123169
 30
0.0
 10
44.3389360548
 20
63.089290898
 30
0.0
 10
44.6958000747
 20
62.9885283133
 30
0.0
 10
45.0607432197
 20
62.8243314843
 30
0.0
 10
45.4270763577
 20
62.6001402946
 30
0.0
 10
45.7880718553
 20
62.3203999657
 30
0.0
 10
46.260691907
 20
61.8730720692
 30
0.0
 10
46.7914794724
 20
61.2126481499
 30
0.0
 10
47.296402762
 20
60.3237530659
 30
0.0
 10
47.642918812
 20
59.3912711749
 30
0.0
 10
47.7570614785
 20
58.7508830589
 30
0.0
 10
47.7754007001
 20
58.4417857535
 30
0.0
  0
SPLINE
  5
305
100
AcDbEntity
  8
0
100
AcDbSpline
 62
7
  6
CONTINUOUS
 70
0
 71
3
 72
11
 73
7
 74
0
 42
0.0000001
 43
0.0000001
 44
0.0000000001
 40
0.0
 40
0.0
 40
0.0
 40
0.0
 40
0.2895453772
 40
0.5491366158
 40
0.7822776227
 40
1.0
 40
1.0
 40
1.0
 40
1.0
 10
45.660625138
 20
64.2260250659
 30
0.0
 10
45.660625138
 20
64.1829812136
 30
0.0
 10
45.6540525998
 20
64.1010751937
 30
0.0
 10
45.620941547
 20
63.9885204865
 30
0.0
 10
45.5650836869
 20
63.8971685876
 30
0.0
 10
45.5125925847
 20
63.8531210559
 30
0.0
 10
45.4845625106
 20
63.8369372963
 30
0.0
  0
SPLINE
  5
306
100
AcDbEntity
  8
0
100
AcDbSpline
 62
7
  6
CONTINUOUS
 70
0
 71
3
 72
12
 73
8
 74
0
 42
0.0000001
 43
0.0000001
 44
0.0000000001
 40
0.0
 40
0.0
 40
0.0
 40
0.0
 40
0.2883346034
 40
0.5477241403
 40
0.7816689785
 40
0.8920973887
 40
1.0
 40
1.0
 40
1.0
 40
1.0
 10
30.1042111848
 20
52.5089853911
 30
0.0
 10
30.1042111848
 20
52.3294657726
 30
0.0
 10
30.0780426257
 20
51.9873600577
 30
0.0
 10
29.9463836242
 20
51.5151082741
 30
0.0
 10
29.7573563735
 20
51.1840969959
 30
0.0
 10
29.5655925878
 20
50.9765563769
 30
0.0
 10
29.4581999317
 20
50.892071614
 30
0.0
 10
29.4021801789
 20
50.854989443
 30
0.0
  0
SPLINE
  5
307
100
AcDbEntity
  8
0
100
AcDbSpline
 62
7
  6
CONTINUOUS
 70
0
 71
3
 72
12
 73
8
 74
0
 42
0.0000001
 43
0.0000001
 44
0.0000000001
 40
0.0
 40
0.0
 40
0.0
 40
0.0
 40
0.2883346034
 40
0.5477241403
 40
0.7816689785
 40
0.8920973887
 40
1.0
 40
1.0
 40
1.0
 40
1.0
 10
47.7819543135
 20
58.2247636621
 30
0.0
 10
47.7819543135
 20
58.0452440436
 30
0.0
 10
47.7557857544
 20
57.7031383287
 30
0.0
 10
47.6241267529
 20
57.2308865451
 30
0.0
 10
47.4350995022
 20
56.8998752669
 30
0.0
 10
47.2433357165
 20
56.692334648
 30
0.0
 10
47.1359430603
 20
56.607849885
 30
0.0
 10
47.0799233076
 20
56.5707677141
 30
0.0
  0
SPLINE
  5
308
100
AcDbEntity
  8
0
100
AcDbSpline
 62
7
  6
CONTINUOUS
 70
0
 71
3
 72
10
 73
6
 74
0
 42
0.0000001
 43
0.0000001
 44
0.0000000001
 40
0.0
 40
0.0
 40
0.0
 40
0.0
 40
0.2279030249
 40
0.4759149298
 40
1.0
 40
1.0
 40
1.0
 40
1.0
 10
45.5191943611
 20
65.5324005794
 30
0.0
 10
45.5191943611
 20
65.4772538617
 30
0.0
 10
45.530985605
 20
65.3619460222
 30
0.0
 10
45.5931987576
 20
65.1275267802
 30
0.0
 10
45.6787193583
 20
64.9580886307
 30
0.0
 10
45.749646311
 20
64.8529626754
 30
0.0
  0
SPLINE
  5
309
100
AcDbEntity
  8
0
100
AcDbSpline
 62
7
  6
CONTINUOUS
 70
0
 71
3
 72
13
 73
9
 74
0
 42
0.0000001
 43
0.0000001
 44
0.0000000001
 40
0.0
 40
0.0
 40
0.0
 40
0.0
 40
0.1080963512
 40
0.2182387316
 40
0.3322535299
 40
0.4516812195
 40
0.7106594539
 40
1.0
 40
1.0
 40
1.0
 40
1.0
 10
25.8379224726
 20
56.8773471644
 30
0.0
 10
25.7838119535
 20
56.8461194165
 30
0.0
 10
25.6797860531
 20
56.7735183525
 30
0.0
 10
25.5423801736
 20
56.638215258
 30
0.0
 10
25.4241101159
 20
56.4777215683
 30
0.0
 10
25.2900804127
 20
56.2256704447
 30
0.0
 10
25.1796716695
 20
55.8517499001
 30
0.0
 10
25.1544431088
 20
55.5338968423
 30
0.0
 10
25.1544431088
 20
55.3666706727
 30
0.0
  0
SPLINE
  5
30A
100
AcDbEntity
  8
0
100
AcDbSpline
 62
7
  6
CONTINUOUS
 70
0
 71
3
 72
15
 73
11
 74
0
 42
0.0000001
 43
0.0000001
 44
0.0000000001
 40
0.0
 40
0.0
 40
0.0
 40
0.0
 40
0.1141232787
 40
0.2373467935
 40
0.3669716251
 40
0.4999988493
 40
0.6330262331
 40
0.7626515288
 40
0.885875802
 40
1.0
 40
1.0
 40
1.0
 40
1.0
 10
66.0253763904
 20
52.9993916437
 30
0.0
 10
66.1221640038
 20
52.9435125532
 30
0.0
 10
66.313379786
 20
52.8094209803
 30
0.0
 10
66.5765372412
 20
52.5633078489
 30
0.0
 10
66.8189968067
 20
52.2722697168
 30
0.0
 10
67.0317223933
 20
51.9474175265
 30
0.0
 10
67.2066917375
 20
51.6007661166
 30
0.0
 10
67.3375107443
 20
51.2452703468
 30
0.0
 10
67.4190749356
 20
50.8943112277
 30
0.0
 10
67.4395958407
 20
50.6616662779
 30
0.0
 10
67.4395958407
 20
50.5499053004
 30
0.0
  0
SPLINE
  5
30B
100
AcDbEntity
  8
0
100
AcDbSpline
 62
7
  6
CONTINUOUS
 70
0
 71
3
 72
19
 73
15
 74
0
 42
0.0000001
 43
0.0000001
 44
0.0000000001
 40
0.0
 40
0.0
 40
0.0
 40
0.0
 40
0.0428419603
 40
0.0876857809
 40
0.1357504047
 40
0.1878005415
 40
0.2441694765
 40
0.3048134358
 40
0.3693937858
 40
0.4373519373
 40
0.5802247496
 40
0.726568083
 40
0.8687813658
 40
1.0
 40
1.0
 40
1.0
 40
1.0
 10
25.7094245839
 20
57.2619630604
 30
0.0
 10
25.8000989721
 20
57.3066672968
 30
0.0
 10
25.9977853653
 20
57.3752878788
 30
0.0
 10
26.3188345658
 20
57.4083340459
 30
0.0
 10
26.6611929262
 20
57.373512627
 30
0.0
 10
27.018056946
 20
57.2727500423
 30
0.0
 10
27.383000091
 20
57.1085532133
 30
0.0
 10
27.7493332291
 20
56.8843620236
 30
0.0
 10
28.1103287266
 20
56.6046216946
 30
0.0
 10
28.5829487783
 20
56.1572937982
 30
0.0
 10
29.1137363438
 20
55.4968698788
 30
0.0
 10
29.6186596333
 20
54.6079747949
 30
0.0
 10
29.9651756833
 20
53.6754929038
 30
0.0
 10
30.0793183498
 20
53.0351047878
 30
0.0
 10
30.0976575714
 20
52.7260074824
 30
0.0
  0
SPLINE
  5
30C
100
AcDbEntity
  8
0
100
AcDbSpline
 62
7
  6
CONTINUOUS
 70
0
 71
3
 72
15
 73
11
 74
0
 42
0.0000001
 43
0.0000001
 44
0.0000000001
 40
0.0
 40
0.0
 40
0.0
 40
0.0
 40
0.0200242926
 40
0.0383338756
 40
0.0974082002
 40
0.1969836055
 40
0.3372111392
 40
0.5182471821
 40
0.7393864319
 40
1.0
 40
1.0
 40
1.0
 40
1.0
 10
63.8582462069
 20
45.7687441678
 30
0.0
 10
63.8573689102
 20
45.7672261691
 30
0.0
 10
63.8543617342
 20
45.7614995358
 30
0.0
 10
63.8594281921
 20
45.7745114787
 30
0.0
 10
63.8626050434
 20
45.7852271261
 30
0.0
 10
63.8702984959
 20
45.8128632678
 30
0.0
 10
63.8770420948
 20
45.8479932829
 30
0.0
 10
63.8835096897
 20
45.8955014263
 30
0.0
 10
63.8879429819
 20
45.9532352216
 30
0.0
 10
63.8889776377
 20
45.9954679363
 30
0.0
 10
63.8889776377
 20
46.0182865686
 30
0.0
  0
SPLINE
  5
30D
100
AcDbEntity
  8
0
100
AcDbSpline
 62
7
  6
CONTINUOUS
 70
0
 71
3
 72
18
 73
14
 74
0
 42
0.0000001
 43
0.0000001
 44
0.0000000001
 40
0.0
 40
0.0
 40
0.0
 40
0.0
 40
0.0497651867
 40
0.1083491568
 40
0.2451066026
 40
0.3974046039
 40
0.554214606
 40
0.705032938
 40
0.8386078984
 40
0.8949287722
 40
0.9417890302
 40
0.9772926647
 40
1.0
 40
1.0
 40
1.0
 40
1.0
 10
63.8889776377
 20
46.0182865686
 30
0.0
 10
63.8889776377
 20
46.0715312746
 30
0.0
 10
63.8825496338
 20
46.1874888253
 30
0.0
 10
63.8451468334
 20
46.4473150132
 30
0.0
 10
63.7462579263
 20
46.8075233439
 30
0.0
 10
63.5582057148
 20
47.2473167865
 30
0.0
 10
63.3076500792
 20
47.6724860011
 30
0.0
 10
63.0167860301
 20
48.0458958251
 30
0.0
 10
62.7542529869
 20
48.3011484827
 30
0.0
 10
62.5511996785
 20
48.4530536508
 30
0.0
 10
62.4247192671
 20
48.5311364457
 30
0.0
 10
62.3233267554
 20
48.580071493
 30
0.0
 10
62.2645521419
 20
48.6012513595
 30
0.0
 10
62.2410624876
 20
48.6074548538
 30
0.0
  0
SPLINE
  5
30E
100
AcDbEntity
  8
0
100
AcDbSpline
 62
7
  6
CONTINUOUS
 70
0
 71
3
 72
15
 73
11
 74
0
 42
0.0000001
 43
0.0000001
 44
0.0000000001
 40
0.0
 40
0.0
 40
0.0
 40
0.0
 40
0.0200242926
 40
0.0383338756
 40
0.0974082002
 40
0.1969836055
 40
0.3372111392
 40
0.5182471821
 40
0.7393864319
 40
1.0
 40
1.0
 40
1.0
 40
1.0
 10
23.5529918735
 20
56.38267971
 30
0.0
 10
23.5521145768
 20
56.3811617113
 30
0.0
 10
23.5491074008
 20
56.3754350779
 30
0.0
 10
23.5541738587
 20
56.3884470209
 30
0.0
 10
23.55735071
 20
56.3991626682
 30
0.0
 10
23.5650441626
 20
56.42679881
 30
0.0
 10
23.5717877615
 20
56.461928825
 30
0.0
 10
23.5782553563
 20
56.5094369685
 30
0.0
 10
23.5826886485
 20
56.5671707637
 30
0.0
 10
23.5837233044
 20
56.6094034784
 30
0.0
 10
23.5837233044
 20
56.6322221108
 30
0.0
  0
SPLINE
  5
30F
100
AcDbEntity
  8
0
100
AcDbSpline
 62
7
  6
CONTINUOUS
 70
0
 71
3
 72
18
 73
14
 74
0
 42
0.0000001
 43
0.0000001
 44
0.0000000001
 40
0.0
 40
0.0
 40
0.0
 40
0.0
 40
0.0497651867
 40
0.1083491568
 40
0.2451066026
 40
0.3974046039
 40
0.554214606
 40
0.705032938
 40
0.8386078984
 40
0.8949287722
 40
0.9417890302
 40
0.9772926647
 40
1.0
 40
1.0
 40
1.0
 40
1.0
 10
23.5837233044
 20
56.6322221108
 30
0.0
 10
23.5837233044
 20
56.6854668168
 30
0.0
 10
23.5772953004
 20
56.8014243674
 30
0.0
 10
23.5398925001
 20
57.0612505553
 30
0.0
 10
23.4410035929
 20
57.4214588861
 30
0.0
 10
23.2529513814
 20
57.8612523287
 30
0.0
 10
23.0023957458
 20
58.2864215433
 30
0.0
 10
22.7115316967
 20
58.6598313672
 30
0.0
 10
22.4489986535
 20
58.9150840248
 30
0.0
 10
22.2459453451
 20
59.066989193
 30
0.0
 10
22.1194649338
 20
59.1450719878
 30
0.0
 10
22.018072422
 20
59.1940070351
 30
0.0
 10
21.9592978085
 20
59.2151869017
 30
0.0
 10
21.9358081542
 20
59.2213903959
 30
0.0
  0
SPLINE
  5
310
100
AcDbEntity
  8
0
100
AcDbSpline
 62
7
  6
CONTINUOUS
 70
0
 71
3
 72
13
 73
9
 74
0
 42
0.0000001
 43
0.0000001
 44
0.0000000001
 40
0.0
 40
0.0
 40
0.0
 40
0.0
 40
0.114176888
 40
0.2375715548
 40
0.5000017735
 40
0.762431024
 40
0.8858245003
 40
1.0
 40
1.0
 40
1.0
 40
1.0
 10
55.7722853757
 20
59.7353850014
 30
0.0
 10
55.7722853757
 20
59.7912409888
 30
0.0
 10
55.7825801068
 20
59.9075722079
 30
0.0
 10
55.8380597738
 20
60.1464032997
 30
0.0
 10
55.9673292725
 20
60.4392750395
 30
0.0
 10
56.1563273084
 20
60.6976620651
 30
0.0
 10
56.3354195691
 20
60.8651237155
 30
0.0
 10
56.4310170249
 20
60.9322040433
 30
0.0
 10
56.479389213
 20
60.9601315724
 30
0.0
  0
SPLINE
  5
311
100
AcDbEntity
  8
0
100
AcDbSpline
 62
7
  6
CONTINUOUS
 70
0
 71
3
 72
11
 73
7
 74
0
 42
0.0000001
 43
0.0000001
 44
0.0000000001
 40
0.0
 40
0.0
 40
0.0
 40
0.0
 40
0.2182682983
 40
0.453815273
 40
0.7135551254
 40
1.0
 40
1.0
 40
1.0
 40
1.0
 10
67.6050267127
 20
26.0594486229
 30
0.0
 10
67.5780425803
 20
26.081003204
 30
0.0
 10
67.5287039207
 20
26.1347714079
 30
0.0
 10
67.4767558236
 20
26.2362161529
 30
0.0
 10
67.4457979945
 20
26.3568109123
 30
0.0
 10
67.4395958407
 20
26.4434517237
 30
0.0
 10
67.4395958407
 20
26.4887752715
 30
0.0
  0
SPLINE
  5
312
100
AcDbEntity
  8
0
100
AcDbSpline
 62
7
  6
CONTINUOUS
 70
0
 71
3
 72
11
 73
7
 74
0
 42
0.0000001
 43
0.0000001
 44
0.0000000001
 40
0.0
 40
0.0
 40
0.0
 40
0.0
 40
0.2182682983
 40
0.453815273
 40
0.7135551254
 40
1.0
 40
1.0
 40
1.0
 40
1.0
 10
20.1232754052
 20
51.7469822174
 30
0.0
 10
20.0558150743
 20
51.8008686702
 30
0.0
 10
19.9324684253
 20
51.93528918
 30
0.0
 10
19.8025981825
 20
52.1889010425
 30
0.0
 10
19.7252036098
 20
52.490387941
 30
0.0
 10
19.7096982252
 20
52.7069899696
 30
0.0
 10
19.7096982252
 20
52.8202988391
 30
0.0
  0
SPLINE
  5
313
100
AcDbEntity
  8
0
100
AcDbSpline
 62
7
  6
CONTINUOUS
 70
0
 71
3
 72
16
 73
12
 74
0
 42
0.0000001
 43
0.0000001
 44
0.0000000001
 40
0.0
 40
0.0
 40
0.0
 40
0.0
 40
0.4111119905
 40
0.5810186899
 40
0.723753711
 40
0.8375406747
 40
0.8831724986
 40
0.9211708313
 40
0.9515067204
 40
0.9742936368
 40
1.0
 40
1.0
 40
1.0
 40
1.0
 10
71.7415440091
 20
20.5366939497
 30
0.0
 10
71.8434656795
 20
20.4778507771
 30
0.0
 10
71.9884133019
 20
20.3961914152
 30
0.0
 10
72.1718485173
 20
20.2998465116
 30
0.0
 10
72.2813874835
 20
20.245899084
 30
0.0
 10
72.3603100499
 20
20.210502913
 30
0.0
 10
72.4130648659
 20
20.1900044568
 30
0.0
 10
72.443822505
 20
20.1795497652
 30
0.0
 10
72.4694900674
 20
20.1728204754
 30
0.0
 10
72.4906331182
 20
20.1693582949
 30
0.0
 10
72.5078726318
 20
20.1705663143
 30
0.0
 10
72.5118779079
 20
20.17673976
 30
0.0
  0
SPLINE
  5
314
100
AcDbEntity
  8
0
100
AcDbSpline
 62
7
  6
CONTINUOUS
 70
0
 71
3
 72
12
 73
8
 74
0
 42
0.0000001
 43
0.0000001
 44
0.0000000001
 40
0.0
 40
0.0
 40
0.0
 40
0.0
 40
0.0924509171
 40
0.2037426778
 40
0.4650968911
 40
0.7446095324
 40
1.0
 40
1.0
 40
1.0
 40
1.0
 10
21.3348280782
 20
49.8396724774
 30
0.0
 10
21.4020187678
 20
49.7860014106
 30
0.0
 10
21.5526605179
 20
49.6709415315
 30
0.0
 10
21.9028854674
 20
49.4169322047
 30
0.0
 10
22.4040736546
 20
49.074950234
 30
0.0
 10
23.0267913184
 20
48.6738594038
 30
0.0
 10
23.4523512466
 20
48.4158416795
 30
0.0
 10
23.6580826991
 20
48.2970652571
 30
0.0
  0
SPLINE
  5
315
100
AcDbEntity
  8
0
100
AcDbSpline
 62
7
  6
CONTINUOUS
 70
0
 71
3
 72
15
 73
11
 74
0
 42
0.0000001
 43
0.0000001
 44
0.0000000001
 40
0.0
 40
0.0
 40
0.0
 40
0.0
 40
0.0200242926
 40
0.0383338756
 40
0.0974082002
 40
0.1969836055
 40
0.3372111392
 40
0.5182471821
 40
0.7393864319
 40
1.0
 40
1.0
 40
1.0
 40
1.0
 10
42.6449544525
 20
66.1809909747
 30
0.0
 10
42.6440771558
 20
66.179472976
 30
0.0
 10
42.6410699798
 20
66.1737463427
 30
0.0
 10
42.6461364377
 20
66.1867582856
 30
0.0
 10
42.6493132889
 20
66.197473933
 30
0.0
 10
42.6570067415
 20
66.2251100747
 30
0.0
 10
42.6637503404
 20
66.2602400898
 30
0.0
 10
42.6702179353
 20
66.3077482332
 30
0.0
 10
42.6746512275
 20
66.3654820285
 30
0.0
 10
42.6756858833
 20
66.4077147432
 30
0.0
 10
42.6756858833
 20
66.4305333755
 30
0.0
  0
SPLINE
  5
316
100
AcDbEntity
  8
0
100
AcDbSpline
 62
7
  6
CONTINUOUS
 70
0
 71
3
 72
18
 73
14
 74
0
 42
0.0000001
 43
0.0000001
 44
0.0000000001
 40
0.0
 40
0.0
 40
0.0
 40
0.0
 40
0.0497651867
 40
0.1083491568
 40
0.2451066026
 40
0.3974046039
 40
0.554214606
 40
0.705032938
 40
0.8386078984
 40
0.8949287722
 40
0.9417890302
 40
0.9772926647
 40
1.0
 40
1.0
 40
1.0
 40
1.0
 10
42.6756858833
 20
66.4305333755
 30
0.0
 10
42.6756858833
 20
66.4837780815
 30
0.0
 10
42.6692578794
 20
66.5997356322
 30
0.0
 10
42.631855079
 20
66.8595618201
 30
0.0
 10
42.5329661719
 20
67.2197701508
 30
0.0
 10
42.3449139604
 20
67.6595635934
 30
0.0
 10
42.0943583248
 20
68.084732808
 30
0.0
 10
41.8034942757
 20
68.458142632
 30
0.0
 10
41.5409612325
 20
68.7133952896
 30
0.0
 10
41.3379079241
 20
68.8653004577
 30
0.0
 10
41.2114275127
 20
68.9433832526
 30
0.0
 10
41.110035001
 20
68.9923182999
 30
0.0
 10
41.0512603874
 20
69.0134981664
 30
0.0
 10
41.0277707332
 20
69.0197016607
 30
0.0
  0
SPLINE
  5
317
100
AcDbEntity
  8
0
100
AcDbSpline
 62
7
  6
CONTINUOUS
 70
0
 71
3
 72
15
 73
11
 74
0
 42
0.0000001
 43
0.0000001
 44
0.0000000001
 40
0.0
 40
0.0
 40
0.0
 40
0.0
 40
0.4145080629
 40
0.5818720449
 40
0.7210346582
 40
0.8314351275
 40
0.9131988625
 40
0.9436565083
 40
0.967602598
 40
1.0
 40
1.0
 40
1.0
 40
1.0
 10
73.0592377366
 20
21.7026943557
 30
0.0
 10
73.100787118
 20
21.6695052392
 30
0.0
 10
73.1585320034
 20
21.6221484578
 30
0.0
 10
73.2276204248
 20
21.5606206625
 30
0.0
 10
73.2662812474
 20
21.5236317032
 30
0.0
 10
73.2953438223
 20
21.4925714803
 30
0.0
 10
73.3131528295
 20
21.4701875183
 30
0.0
 10
73.3219533925
 20
21.454948361
 30
0.0
 10
73.3262015772
 20
21.4448534646
 30
0.0
 10
73.3266495224
 20
21.4365827138
 30
0.0
 10
73.3243873567
 20
21.4330959631
 30
0.0
  0
SPLINE
  5
318
100
AcDbEntity
  8
0
100
AcDbSpline
 62
7
  6
CONTINUOUS
 70
0
 71
3
 72
15
 73
11
 74
0
 42
0.0000001
 43
0.0000001
 44
0.0000000001
 40
0.0
 40
0.0
 40
0.0
 40
0.0
 40
0.0200242926
 40
0.0383338756
 40
0.0974082002
 40
0.1969836055
 40
0.3372111392
 40
0.5182471821
 40
0.7393864319
 40
1.0
 40
1.0
 40
1.0
 40
1.0
 10
37.5537644314
 20
58.9140441931
 30
0.0
 10
37.5528871347
 20
58.9125261945
 30
0.0
 10
37.5498799587
 20
58.9067995611
 30
0.0
 10
37.5549464166
 20
58.919811504
 30
0.0
 10
37.5581232679
 20
58.9305271514
 30
0.0
 10
37.5658167205
 20
58.9581632932
 30
0.0
 10
37.5725603194
 20
58.9932933082
 30
0.0
 10
37.5790279143
 20
59.0408014517
 30
0.0
 10
37.5834612065
 20
59.0985352469
 30
0.0
 10
37.5844958623
 20
59.1407679616
 30
0.0
 10
37.5844958623
 20
59.163586594
 30
0.0
  0
SPLINE
  5
319
100
AcDbEntity
  8
0
100
AcDbSpline
 62
7
  6
CONTINUOUS
 70
0
 71
3
 72
18
 73
14
 74
0
 42
0.0000001
 43
0.0000001
 44
0.0000000001
 40
0.0
 40
0.0
 40
0.0
 40
0.0
 40
0.0497651867
 40
0.1083491568
 40
0.2451066026
 40
0.3974046039
 40
0.554214606
 40
0.705032938
 40
0.8386078984
 40
0.8949287722
 40
0.9417890302
 40
0.9772926647
 40
1.0
 40
1.0
 40
1.0
 40
1.0
 10
37.5844958623
 20
59.163586594
 30
0.0
 10
37.5844958623
 20
59.2168313
 30
0.0
 10
37.5780678584
 20
59.3327888506
 30
0.0
 10
37.540665058
 20
59.5926150385
 30
0.0
 10
37.4417761509
 20
59.9528233693
 30
0.0
 10
37.2537239393
 20
60.3926168118
 30
0.0
 10
37.0031683037
 20
60.8177860265
 30
0.0
 10
36.7123042546
 20
61.1911958504
 30
0.0
 10
36.4497712114
 20
61.446448508
 30
0.0
 10
36.2467179031
 20
61.5983536762
 30
0.0
 10
36.1202374917
 20
61.676436471
 30
0.0
 10
36.0188449799
 20
61.7253715183
 30
0.0
 10
35.9600703664
 20
61.7465513849
 30
0.0
 10
35.9365807121
 20
61.7527548791
 30
0.0
  0
SPLINE
  5
31A
100
AcDbEntity
  8
0
100
AcDbSpline
 62
7
  6
CONTINUOUS
 70
0
 71
3
 72
15
 73
11
 74
0
 42
0.0000001
 43
0.0000001
 44
0.0000000001
 40
0.0
 40
0.0
 40
0.0
 40
0.0
 40
0.0200242926
 40
0.0383338756
 40
0.0974082002
 40
0.1969836055
 40
0.3372111392
 40
0.5182471821
 40
0.7393864319
 40
1.0
 40
1.0
 40
1.0
 40
1.0
 10
50.4231614291
 20
43.3190382896
 30
0.0
 10
50.4222841324
 20
43.3175202909
 30
0.0
 10
50.4192769564
 20
43.3117936576
 30
0.0
 10
50.4243434143
 20
43.3248056005
 30
0.0
 10
50.4275202656
 20
43.3355212478
 30
0.0
 10
50.4352137181
 20
43.3631573896
 30
0.0
 10
50.441957317
 20
43.3982874047
 30
0.0
 10
50.4484249119
 20
43.4457955481
 30
0.0
 10
50.4528582041
 20
43.5035293433
 30
0.0
 10
50.45389286
 20
43.545762058
 30
0.0
 10
50.45389286
 20
43.5685806904
 30
0.0
  0
SPLINE
  5
31B
100
AcDbEntity
  8
0
100
AcDbSpline
 62
7
  6
CONTINUOUS
 70
0
 71
3
 72
18
 73
14
 74
0
 42
0.0000001
 43
0.0000001
 44
0.0000000001
 40
0.0
 40
0.0
 40
0.0
 40
0.0
 40
0.0497651867
 40
0.1083491568
 40
0.2451066026
 40
0.3974046039
 40
0.554214606
 40
0.705032938
 40
0.8386078984
 40
0.8949287722
 40
0.9417890302
 40
0.9772926647
 40
1.0
 40
1.0
 40
1.0
 40
1.0
 10
50.45389286
 20
43.5685806904
 30
0.0
 10
50.45389286
 20
43.6218253964
 30
0.0
 10
50.447464856
 20
43.737782947
 30
0.0
 10
50.4100620556
 20
43.9976091349
 30
0.0
 10
50.3111731485
 20
44.3578174657
 30
0.0
 10
50.123120937
 20
44.7976109083
 30
0.0
 10
49.8725653014
 20
45.2227801229
 30
0.0
 10
49.5817012523
 20
45.5961899469
 30
0.0
 10
49.3191682091
 20
45.8514426045
 30
0.0
 10
49.1161149007
 20
46.0033477726
 30
0.0
 10
48.9896344893
 20
46.0814305675
 30
0.0
 10
48.8882419776
 20
46.1303656147
 30
0.0
 10
48.8294673641
 20
46.1515454813
 30
0.0
 10
48.8059777098
 20
46.1577489756
 30
0.0
  0
SPLINE
  5
31C
100
AcDbEntity
  8
0
100
AcDbSpline
 62
7
  6
CONTINUOUS
 70
0
 71
3
 72
9
 73
5
 74
0
 42
0.0000001
 43
0.0000001
 44
0.0000000001
 40
0.0
 40
0.0
 40
0.0
 40
0.0
 40
0.2361853719
 40
1.0
 40
1.0
 40
1.0
 40
1.0
 10
60.2520148591
 20
73.9801244233
 30
0.0
 10
60.2418124582
 20
73.9444593934
 30
0.0
 10
60.2049318322
 20
73.7916588658
 30
0.0
 10
60.1916475588
 20
73.6336755387
 30
0.0
 10
60.1916475588
 20
73.513709769
 30
0.0
  0
SPLINE
  5
31D
100
AcDbEntity
  8
0
100
AcDbSpline
 62
7
  6
CONTINUOUS
 70
0
 71
3
 72
18
 73
14
 74
0
 42
0.0000001
 43
0.0000001
 44
0.0000000001
 40
0.0
 40
0.0
 40
0.0
 40
0.0
 40
0.0428479429
 40
0.0874623066
 40
0.1352840435
 40
0.1872323096
 40
0.2437220832
 40
0.3047263631
 40
0.4383562007
 40
0.5826594577
 40
0.729784539
 40
0.8713400481
 40
1.0
 40
1.0
 40
1.0
 40
1.0
 10
59.5969975593
 20
73.9313552674
 30
0.0
 10
59.6524649972
 20
73.9633848051
 30
0.0
 10
59.7747523122
 20
74.0141622403
 30
0.0
 10
59.9765803476
 20
74.0437901745
 30
0.0
 10
60.1933233467
 20
74.0278043662
 30
0.0
 10
60.4201556633
 20
73.9675539292
 30
0.0
 10
60.6526489391
 20
73.8648292425
 30
0.0
 10
60.9735728457
 20
73.668378995
 30
0.0
 10
61.3559024253
 20
73.3297890758
 30
0.0
 10
61.7488278362
 20
72.826768421
 30
0.0
 10
62.0583586001
 20
72.254724209
 30
0.0
 10
62.259181439
 20
71.6609826371
 30
0.0
 10
62.3129855661
 20
71.2565866669
 30
0.0
 10
62.3129855661
 20
71.0642601429
 30
0.0
  0
SPLINE
  5
31E
100
AcDbEntity
  8
0
100
AcDbSpline
 62
7
  6
CONTINUOUS
 70
0
 71
3
 72
13
 73
9
 74
0
 42
0.0000001
 43
0.0000001
 44
0.0000000001
 40
0.0
 40
0.0
 40
0.0
 40
0.0
 40
0.4098061816
 40
0.5738815118
 40
0.7105563265
 40
0.819987979
 40
0.9028668521
 40
1.0
 40
1.0
 40
1.0
 40
1.0
 10
67.5058232389
 20
27.0807382448
 30
0.0
 10
67.5373966376
 20
27.0526898844
 30
0.0
 10
67.5809765303
 20
27.0126925925
 30
0.0
 10
67.6321413146
 20
26.9601755551
 30
0.0
 10
67.660106324
 20
26.928664561
 30
0.0
 10
67.6808804506
 20
26.901245004
 30
0.0
 10
67.6958332347
 20
26.87688481
 30
0.0
 10
67.7022135515
 20
26.8551576431
 30
0.0
 10
67.6967829344
 20
26.8467487428
 30
0.0
  0
SPLINE
  5
31F
100
AcDbEntity
  8
0
100
AcDbSpline
 62
7
  6
CONTINUOUS
 70
0
 71
3
 72
11
 73
7
 74
0
 42
0.0000001
 43
0.0000001
 44
0.0000000001
 40
0.0
 40
0.0
 40
0.0
 40
0.0
 40
0.2177843137
 40
0.4509117637
 40
0.7102976701
 40
1.0
 40
1.0
 40
1.0
 40
1.0
 10
55.8707505468
 20
79.7321176015
 30
0.0
 10
55.9202293427
 20
79.7606840052
 30
0.0
 10
56.0339145685
 20
79.8019413047
 30
0.0
 10
56.2227437913
 20
79.8067224243
 30
0.0
 10
56.4239914886
 20
79.758124693
 30
0.0
 10
56.5549252107
 20
79.6958369817
 30
0.0
 10
56.6207434468
 20
79.657837665
 30
0.0
  0
SPLINE
  5
320
100
AcDbEntity
  8
0
100
AcDbSpline
 62
7
  6
CONTINUOUS
 70
0
 71
3
 72
11
 73
7
 74
0
 42
0.0000001
 43
0.0000001
 44
0.0000000001
 40
0.0
 40
0.0
 40
0.0
 40
0.0
 40
0.2177833598
 40
0.4509104088
 40
0.7102966711
 40
1.0
 40
1.0
 40
1.0
 40
1.0
 10
54.810094791
 20
79.1197513707
 30
0.0
 10
54.7606149025
 20
79.0911843054
 30
0.0
 10
54.6680400648
 20
79.013356824
 30
0.0
 10
54.5694831781
 20
78.8522118267
 30
0.0
 10
54.5109461833
 20
78.6536212811
 30
0.0
 10
54.4994231032
 20
78.5090811568
 30
0.0
 10
54.4994231032
 20
78.4330789403
 30
0.0
  0
SPLINE
  5
321
100
AcDbEntity
  8
0
100
AcDbSpline
 62
7
  6
CONTINUOUS
 70
0
 71
3
 72
13
 73
9
 74
0
 42
0.0000001
 43
0.0000001
 44
0.0000000001
 40
0.0
 40
0.0
 40
0.0
 40
0.0
 40
0.1141762243
 40
0.2375705078
 40
0.5000006893
 40
0.7624304955
 40
0.8858242827
 40
1.0
 40
1.0
 40
1.0
 40
1.0
 10
18.2954787749
 20
54.4275914888
 30
0.0
 10
18.2471061371
 20
54.4555188124
 30
0.0
 10
18.1412130928
 20
54.5047676001
 30
0.0
 10
17.9066396319
 20
54.5761340035
 30
0.0
 10
17.5883706774
 20
54.6106169544
 30
0.0
 10
17.2701021345
 20
54.5761324342
 30
0.0
 10
17.0355296983
 20
54.5047649531
 30
0.0
 10
16.9296374341
 20
54.4555156379
 30
0.0
 10
16.8812652125
 20
54.4275880895
 30
0.0
  0
SPLINE
  5
322
100
AcDbEntity
  8
0
100
AcDbSpline
 62
7
  6
CONTINUOUS
 70
0
 71
3
 72
11
 73
7
 74
0
 42
0.0000001
 43
0.0000001
 44
0.0000000001
 40
0.0
 40
0.0
 40
0.0
 40
0.0
 40
0.2177825102
 40
0.4509091639
 40
0.7102957096
 40
1.0
 40
1.0
 40
1.0
 40
1.0
 10
9.7673383133
 20
51.9038327224
 30
0.0
 10
9.7178583513
 20
51.9323993513
 30
0.0
 10
9.6252832481
 20
52.0102263312
 30
0.0
 10
9.5267262096
 20
52.171371249
 30
0.0
 10
9.4681891581
 20
52.369962278
 30
0.0
 10
9.4566660899
 20
52.5145029024
 30
0.0
 10
9.4566660899
 20
52.5905054621
 30
0.0
  0
SPLINE
  5
323
100
AcDbEntity
  8
0
100
AcDbSpline
 62
7
  6
CONTINUOUS
 70
0
 71
3
 72
15
 73
11
 74
0
 42
0.0000001
 43
0.0000001
 44
0.0000000001
 40
0.0
 40
0.0
 40
0.0
 40
0.0
 40
0.1141242661
 40
0.2373486253
 40
0.3669740476
 40
0.5000015346
 40
0.6330288076
 40
0.7626536034
 40
0.8858770013
 40
1.0
 40
1.0
 40
1.0
 40
1.0
 10
9.4566660899
 20
74.6360707246
 30
0.0
 10
9.4566660899
 20
74.7198914576
 30
0.0
 10
9.4720566153
 20
74.8943751772
 30
0.0
 10
9.5332292222
 20
75.1575946737
 30
0.0
 10
9.6313425871
 20
75.4242168799
 30
0.0
 10
9.7625684427
 20
75.684206042
 30
0.0
 10
9.9221112596
 20
75.9278459656
 30
0.0
 10
10.1039544108
 20
76.1461255034
 30
0.0
 10
10.3013208943
 20
76.3307113564
 30
0.0
 10
10.4447316594
 20
76.4312808676
 30
0.0
 10
10.5173218457
 20
76.4731905811
 30
0.0
  0
SPLINE
  5
324
100
AcDbEntity
  8
0
100
AcDbSpline
 62
7
  6
CONTINUOUS
 70
0
 71
3
 72
11
 73
7
 74
0
 42
0.0000001
 43
0.0000001
 44
0.0000000001
 40
0.0
 40
0.0
 40
0.0
 40
0.0
 40
0.2177839237
 40
0.4509111717
 40
0.7102971901
 40
1.0
 40
1.0
 40
1.0
 40
1.0
 10
10.828002901
 20
51.2914715907
 30
0.0
 10
10.8774812374
 20
51.262905931
 30
0.0
 10
10.9911653198
 20
51.2216500474
 30
0.0
 10
11.1799922542
 20
51.2168705997
 30
0.0
 10
11.3812372853
 20
51.2654694709
 30
0.0
 10
11.5121691314
 20
51.3277575252
 30
0.0
 10
11.5779864334
 20
51.3657569354
 30
0.0
  0
SPLINE
  5
325
100
AcDbEntity
  8
0
100
AcDbSpline
 62
7
  6
CONTINUOUS
 70
0
 71
3
 72
17
 73
13
 74
0
 42
0.0000001
 43
0.0000001
 44
0.0000000001
 40
0.0
 40
0.0
 40
0.0
 40
0.0
 40
0.1995495473
 40
0.314433576
 40
0.3531767854
 40
0.3814030171
 40
0.4177373664
 40
0.4673511683
 40
0.5291624137
 40
0.6024819686
 40
0.7814766056
 40
1.0
 40
1.0
 40
1.0
 40
1.0
 10
65.7018154573
 20
24.703421186
 30
0.0
 10
65.7067714425
 20
24.6976321486
 30
0.0
 10
65.71594997
 20
24.6873755231
 30
0.0
 10
65.7222154579
 20
24.6805709426
 30
0.0
 10
65.7305909533
 20
24.6720347175
 30
0.0
 10
65.7261691151
 20
24.676374826
 30
0.0
 10
65.7235465282
 20
24.6788652175
 30
0.0
 10
65.7192249171
 20
24.6829462162
 30
0.0
 10
65.7141207809
 20
24.6876537258
 30
0.0
 10
65.7052095371
 20
24.6957602541
 30
0.0
 10
65.6918086788
 20
24.7077015655
 30
0.0
 10
65.6803656786
 20
24.7176935588
 30
0.0
 10
65.6740547253
 20
24.72315392
 30
0.0
  0
SPLINE
  5
326
100
AcDbEntity
  8
0
100
AcDbSpline
 62
7
  6
CONTINUOUS
 70
0
 71
3
 72
9
 73
5
 74
0
 42
0.0000001
 43
0.0000001
 44
0.0000000001
 40
0.0
 40
0.0
 40
0.0
 40
0.0
 40
0.204919656
 40
1.0
 40
1.0
 40
1.0
 40
1.0
 10
65.6740547253
 20
24.72315392
 30
0.0
 10
65.6648787458
 20
24.7310931582
 30
0.0
 10
65.6198351258
 20
24.7695298032
 30
0.0
 10
65.5738889806
 20
24.8068983053
 30
0.0
 10
65.5371048359
 20
24.8362810114
 30
0.0
  0
SPLINE
  5
327
100
AcDbEntity
  8
0
100
AcDbSpline
 62
7
  6
CONTINUOUS
 70
0
 71
3
 72
15
 73
11
 74
0
 42
0.0000001
 43
0.0000001
 44
0.0000000001
 40
0.0
 40
0.0
 40
0.0
 40
0.0
 40
0.0943066651
 40
0.2165761844
 40
0.3567295
 40
0.5055192699
 40
0.6536040679
 40
0.7917014332
 40
0.910569789
 40
1.0
 40
1.0
 40
1.0
 40
1.0
 10
65.5371048359
 20
24.8362810114
 30
0.0
 10
65.4189940695
 20
24.9306263866
 30
0.0
 10
65.1417318766
 20
25.1397090686
 30
0.0
 10
64.6761885796
 20
25.4717707922
 30
0.0
 10
64.1316640307
 20
25.8432851055
 30
0.0
 10
63.5461693885
 20
26.2279543037
 30
0.0
 10
62.9570853604
 20
26.6009780147
 30
0.0
 10
62.4024442145
 20
26.9385925284
 30
0.0
 10
61.9220217463
 20
27.2170096107
 30
0.0
 10
61.6285271274
 20
27.3764490318
 30
0.0
 10
61.5005088726
 20
27.4409503989
 30
0.0
  0
SPLINE
  5
328
100
AcDbEntity
  8
0
100
AcDbSpline
 62
7
  6
CONTINUOUS
 70
0
 71
3
 72
9
 73
5
 74
0
 42
0.0000001
 43
0.0000001
 44
0.0000000001
 40
0.0
 40
0.0
 40
0.0
 40
0.0
 40
0.2954334156
 40
1.0
 40
1.0
 40
1.0
 40
1.0
 10
61.5005088726
 20
27.4409503989
 30
0.0
 10
61.4874593011
 20
27.4475253612
 30
0.0
 10
61.4432007812
 20
27.4696039146
 30
0.0
 10
61.3986388313
 20
27.4910912389
 30
0.0
 10
61.3669243794
 20
27.5055344512
 30
0.0
  0
SPLINE
  5
329
100
AcDbEntity
  8
0
100
AcDbSpline
 62
7
  6
CONTINUOUS
 70
0
 71
3
 72
9
 73
5
 74
0
 42
0.0000001
 43
0.0000001
 44
0.0000000001
 40
0.0
 40
0.0
 40
0.0
 40
0.0
 40
0.3821161788
 40
1.0
 40
1.0
 40
1.0
 40
1.0
 10
61.3669243794
 20
27.5055344512
 30
0.0
 10
61.3605504886
 20
27.5084372117
 30
0.0
 10
61.3438269218
 20
27.5159337607
 30
0.0
 10
61.327028552
 20
27.5232900549
 30
0.0
 10
61.3164755987
 20
27.5274001678
 30
0.0
  0
SPLINE
  5
32A
100
AcDbEntity
  8
0
100
AcDbSpline
 62
7
  6
CONTINUOUS
 70
0
 71
3
 72
15
 73
11
 74
0
 42
0.0000001
 43
0.0000001
 44
0.0000000001
 40
0.0
 40
0.0
 40
0.0
 40
0.0
 40
0.1141236058
 40
0.2373475862
 40
0.3669728832
 40
0.5000004526
 40
0.6330279586
 40
0.7626530685
 40
0.8858767805
 40
1.0
 40
1.0
 40
1.0
 40
1.0
 10
19.3561345307
 20
79.5350302335
 30
0.0
 10
19.2351498898
 20
79.6048791683
 30
0.0
 10
18.970479174
 20
79.7280646489
 30
0.0
 10
18.5395781397
 20
79.859114744
 30
0.0
 10
18.0729815075
 20
79.9396817683
 30
0.0
 10
17.5883648401
 20
79.9669283524
 30
0.0
 10
17.1037485275
 20
79.9396795235
 30
0.0
 10
16.6371529082
 20
79.8591103175
 30
0.0
 10
16.2062535816
 20
79.7280581223
 30
0.0
 10
15.9415843524
 20
79.6048713059
 30
0.0
 10
15.8206006248
 20
79.5350217351
 30
0.0
  0
SPLINE
  5
32B
100
AcDbEntity
  8
0
100
AcDbSpline
 62
7
  6
CONTINUOUS
 70
0
 71
3
 72
17
 73
13
 74
0
 42
0.0000001
 43
0.0000001
 44
0.0000000001
 40
0.0
 40
0.0
 40
0.0
 40
0.0
 40
0.1995495473
 40
0.314433576
 40
0.3531767854
 40
0.3814030171
 40
0.4177373664
 40
0.4673511683
 40
0.5291624137
 40
0.6024819686
 40
0.7814766056
 40
1.0
 40
1.0
 40
1.0
 40
1.0
 10
30.4877511449
 20
45.0338107612
 30
0.0
 10
30.4927071301
 20
45.0280217237
 30
0.0
 10
30.5018856577
 20
45.0177650982
 30
0.0
 10
30.5081511456
 20
45.0109605177
 30
0.0
 10
30.516526641
 20
45.0024242926
 30
0.0
 10
30.5121048028
 20
45.0067644011
 30
0.0
 10
30.5094822159
 20
45.0092547926
 30
0.0
 10
30.5051606048
 20
45.0133357914
 30
0.0
 10
30.5000564685
 20
45.0180433009
 30
0.0
 10
30.4911452248
 20
45.0261498292
 30
0.0
 10
30.4777443664
 20
45.0380911406
 30
0.0
 10
30.4663013663
 20
45.0480831339
 30
0.0
 10
30.459990413
 20
45.0535434951
 30
0.0
  0
SPLINE
  5
32C
100
AcDbEntity
  8
0
100
AcDbSpline
 62
7
  6
CONTINUOUS
 70
0
 71
3
 72
9
 73
5
 74
0
 42
0.0000001
 43
0.0000001
 44
0.0000000001
 40
0.0
 40
0.0
 40
0.0
 40
0.0
 40
0.204919656
 40
1.0
 40
1.0
 40
1.0
 40
1.0
 10
30.459990413
 20
45.0535434951
 30
0.0
 10
30.4508144335
 20
45.0614827333
 30
0.0
 10
30.4057708135
 20
45.0999193784
 30
0.0
 10
30.3598246683
 20
45.1372878804
 30
0.0
 10
30.3230405236
 20
45.1666705865
 30
0.0
  0
SPLINE
  5
32D
100
AcDbEntity
  8
0
100
AcDbSpline
 62
7
  6
CONTINUOUS
 70
0
 71
3
 72
15
 73
11
 74
0
 42
0.0000001
 43
0.0000001
 44
0.0000000001
 40
0.0
 40
0.0
 40
0.0
 40
0.0
 40
0.1141242661
 40
0.2373486253
 40
0.3669740476
 40
0.5000015346
 40
0.6330288076
 40
0.7626536034
 40
0.8858770013
 40
1.0
 40
1.0
 40
1.0
 40
1.0
 10
19.7096982252
 20
79.3309361193
 30
0.0
 10
19.7096982252
 20
79.470637341
 30
0.0
 10
19.7353491008
 20
79.7614435403
 30
0.0
 10
19.8373034457
 20
80.2001427012
 30
0.0
 10
20.0008257205
 20
80.6445130449
 30
0.0
 10
20.2195354799
 20
81.077828315
 30
0.0
 10
20.4854401748
 20
81.4838948543
 30
0.0
 10
20.7885120934
 20
81.8476940841
 30
0.0
 10
21.1174562326
 20
82.1553371724
 30
0.0
 10
21.3564741743
 20
82.3229530244
 30
0.0
 10
21.4774578182
 20
82.3928025469
 30
0.0
  0
SPLINE
  5
32E
100
AcDbEntity
  8
0
100
AcDbSpline
 62
7
  6
CONTINUOUS
 70
0
 71
3
 72
15
 73
11
 74
0
 42
0.0000001
 43
0.0000001
 44
0.0000000001
 40
0.0
 40
0.0
 40
0.0
 40
0.0
 40
0.0943066651
 40
0.2165761844
 40
0.3567295
 40
0.5055192699
 40
0.6536040679
 40
0.7917014332
 40
0.910569789
 40
1.0
 40
1.0
 40
1.0
 40
1.0
 10
30.3230405236
 20
45.1666705865
 30
0.0
 10
30.2049297571
 20
45.2610159617
 30
0.0
 10
29.9276675642
 20
45.4700986437
 30
0.0
 10
29.4621242672
 20
45.8021603673
 30
0.0
 10
28.9175997183
 20
46.1736746807
 30
0.0
 10
28.3321050762
 20
46.5583438788
 30
0.0
 10
27.7430210481
 20
46.9313675898
 30
0.0
 10
27.1883799021
 20
47.2689821035
 30
0.0
 10
26.707957434
 20
47.5473991858
 30
0.0
 10
26.4144628151
 20
47.7068386069
 30
0.0
 10
26.2864445603
 20
47.771339974
 30
0.0
  0
SPLINE
  5
32F
100
AcDbEntity
  8
0
100
AcDbSpline
 62
7
  6
CONTINUOUS
 70
0
 71
3
 72
9
 73
5
 74
0
 42
0.0000001
 43
0.0000001
 44
0.0000000001
 40
0.0
 40
0.0
 40
0.0
 40
0.0
 40
0.2954334156
 40
1.0
 40
1.0
 40
1.0
 40
1.0
 10
26.2864445603
 20
47.771339974
 30
0.0
 10
26.2733949888
 20
47.7779149363
 30
0.0
 10
26.2291364689
 20
47.7999934897
 30
0.0
 10
26.184574519
 20
47.821480814
 30
0.0
 10
26.1528600671
 20
47.8359240263
 30
0.0
  0
SPLINE
  5
330
100
AcDbEntity
  8
0
100
AcDbSpline
 62
7
  6
CONTINUOUS
 70
0
 71
3
 72
9
 73
5
 74
0
 42
0.0000001
 43
0.0000001
 44
0.0000000001
 40
0.0
 40
0.0
 40
0.0
 40
0.0
 40
0.3821161788
 40
1.0
 40
1.0
 40
1.0
 40
1.0
 10
26.1528600671
 20
47.8359240263
 30
0.0
 10
26.1464861763
 20
47.8388267868
 30
0.0
 10
26.1297626095
 20
47.8463233358
 30
0.0
 10
26.1129642397
 20
47.85367963
 30
0.0
 10
26.1024112864
 20
47.8577897429
 30
0.0
  0
SPLINE
  5
331
100
AcDbEntity
  8
0
100
AcDbSpline
 62
7
  6
CONTINUOUS
 70
0
 71
3
 72
15
 73
11
 74
0
 42
0.0000001
 43
0.0000001
 44
0.0000000001
 40
0.0
 40
0.0
 40
0.0
 40
0.0
 40
0.0323973863
 40
0.0563434832
 40
0.0868011245
 40
0.1685648296
 40
0.2789652975
 40
0.4181279905
 40
0.5854920139
 40
1.0
 40
1.0
 40
1.0
 40
1.0
 10
16.5245026058
 20
53.7398994252
 30
0.0
 10
16.5222404364
 20
53.7364126794
 30
0.0
 10
16.5226883793
 20
53.7281419258
 30
0.0
 10
16.5269365705
 20
53.7180470348
 30
0.0
 10
16.5357371289
 20
53.7028078791
 30
0.0
 10
16.5535461307
 20
53.6804239184
 30
0.0
 10
16.5826087087
 20
53.64936369
 30
0.0
 10
16.6212695467
 20
53.6123747244
 30
0.0
 10
16.6903579708
 20
53.5508469241
 30
0.0
 10
16.7481028512
 20
53.5034901437
 30
0.0
 10
16.7896522249
 20
53.4703010334
 30
0.0
  0
SPLINE
  5
332
100
AcDbEntity
  8
0
100
AcDbSpline
 62
7
  6
CONTINUOUS
 70
0
 71
3
 72
11
 73
7
 74
0
 42
0.0000001
 43
0.0000001
 44
0.0000000001
 40
0.0
 40
0.0
 40
0.0
 40
0.0
 40
0.2177843137
 40
0.4509117637
 40
0.7102976701
 40
1.0
 40
1.0
 40
1.0
 40
1.0
 10
28.8591590462
 20
95.3269144241
 30
0.0
 10
28.908637842
 20
95.3554808279
 30
0.0
 10
29.0223230679
 20
95.3967381274
 30
0.0
 10
29.2111522907
 20
95.4015192469
 30
0.0
 10
29.412399988
 20
95.3529215157
 30
0.0
 10
29.5433337101
 20
95.2906338043
 30
0.0
 10
29.6091519461
 20
95.2526344877
 30
0.0
  0
SPLINE
  5
333
100
AcDbEntity
  8
0
100
AcDbSpline
 62
7
  6
CONTINUOUS
 70
0
 71
3
 72
11
 73
7
 74
0
 42
0.0000001
 43
0.0000001
 44
0.0000000001
 40
0.0
 40
0.0
 40
0.0
 40
0.0
 40
0.2177833598
 40
0.4509104088
 40
0.7102966711
 40
1.0
 40
1.0
 40
1.0
 40
1.0
 10
27.7985032904
 20
94.7145481934
 30
0.0
 10
27.7490234019
 20
94.6859811281
 30
0.0
 10
27.6564485641
 20
94.6081536467
 30
0.0
 10
27.5578916775
 20
94.4470086494
 30
0.0
 10
27.4993546827
 20
94.2484181038
 30
0.0
 10
27.4878316026
 20
94.1038779795
 30
0.0
 10
27.4878316026
 20
94.0278757629
 30
0.0
  0
SPLINE
  5
334
100
AcDbEntity
  8
0
100
AcDbSpline
 62
7
  6
CONTINUOUS
 70
0
 71
3
 72
11
 73
7
 74
0
 42
0.0000001
 43
0.0000001
 44
0.0000000001
 40
0.0
 40
0.0
 40
0.0
 40
0.0
 40
0.2897016594
 40
0.5490895814
 40
0.7822189142
 40
1.0
 40
1.0
 40
1.0
 40
1.0
 10
62.3129855661
 20
71.0642601429
 30
0.0
 10
62.3129855661
 20
70.9502572195
 30
0.0
 10
62.2957011676
 20
70.7334467081
 30
0.0
 10
62.2079001048
 20
70.435558231
 30
0.0
 10
62.0600615043
 20
70.1938387874
 30
0.0
 10
61.9211958016
 20
70.0771042584
 30
0.0
 10
61.8469798097
 20
70.0342484137
 30
0.0
  0
SPLINE
  5
335
100
AcDbEntity
  8
0
100
AcDbSpline
 62
7
  6
CONTINUOUS
 70
0
 71
3
 72
13
 73
9
 74
0
 42
0.0000001
 43
0.0000001
 44
0.0000000001
 40
0.0
 40
0.0
 40
0.0
 40
0.0
 40
0.114175582
 40
0.23756922
 40
0.49999856
 40
0.7624286893
 40
0.8858231943
 40
1.0
 40
1.0
 40
1.0
 40
1.0
 10
53.792319266
 20
71.0845642408
 30
0.0
 10
53.8406914889
 20
71.11249179
 30
0.0
 10
53.9362890117
 20
71.1795722313
 30
0.0
 10
54.1153814111
 20
71.3470339687
 30
0.0
 10
54.3043794153
 20
71.6054211354
 30
0.0
 10
54.433648776
 20
71.8982928321
 30
0.0
 10
54.4891284369
 20
72.1371237602
 30
0.0
 10
54.4994231032
 20
72.2534548647
 30
0.0
 10
54.4994231032
 20
72.3093108118
 30
0.0
  0
SPLINE
  5
336
100
AcDbEntity
  8
0
100
AcDbSpline
 62
7
  6
CONTINUOUS
 70
0
 71
3
 72
15
 73
11
 74
0
 42
0.0000001
 43
0.0000001
 44
0.0000000001
 40
0.0
 40
0.0
 40
0.0
 40
0.0
 40
0.1141242661
 40
0.2373486253
 40
0.3669740476
 40
0.5000015346
 40
0.6330288076
 40
0.7626536034
 40
0.8858770013
 40
1.0
 40
1.0
 40
1.0
 40
1.0
 10
45.660625138
 20
64.3485004285
 30
0.0
 10
45.660625138
 20
64.4882016501
 30
0.0
 10
45.6862760137
 20
64.7790078494
 30
0.0
 10
45.7882303586
 20
65.2177070103
 30
0.0
 10
45.9517526334
 20
65.6620773541
 30
0.0
 10
46.1704623928
 20
66.0953926241
 30
0.0
 10
46.4363670876
 20
66.5014591634
 30
0.0
 10
46.7394390063
 20
66.8652583932
 30
0.0
 10
47.0683831455
 20
67.1729014815
 30
0.0
 10
47.3074010872
 20
67.3405173336
 30
0.0
 10
47.4283847311
 20
67.410366856
 30
0.0
  0
SPLINE
  5
337
100
AcDbEntity
  8
0
100
AcDbSpline
 62
7
  6
CONTINUOUS
 70
0
 71
3
 72
15
 73
11
 74
0
 42
0.0000001
 43
0.0000001
 44
0.0000000001
 40
0.0
 40
0.0
 40
0.0
 40
0.0
 40
0.1141229605
 40
0.2373462928
 40
0.366971064
 40
0.4999983279
 40
0.633025824
 40
0.762651271
 40
0.8858756957
 40
1.0
 40
1.0
 40
1.0
 40
1.0
 10
62.8433237479
 20
64.6343289572
 30
0.0
 10
62.9643073512
 20
64.7041784562
 30
0.0
 10
63.2033252135
 20
64.8717941989
 30
0.0
 10
63.5322692343
 20
65.1794371849
 30
0.0
 10
63.8353411161
 20
65.5432362838
 30
0.0
 10
64.1012458426
 20
65.9493027672
 30
0.0
 10
64.3199556663
 20
66.3826180378
 30
0.0
 10
64.483478036
 20
66.8269884789
 30
0.0
 10
64.5854324102
 20
67.2656877935
 30
0.0
 10
64.6110833409
 20
67.5564941163
 30
0.0
 10
64.6110833409
 20
67.6961953847
 30
0.0
  0
SPLINE
  5
338
100
AcDbEntity
  8
0
100
AcDbSpline
 62
7
  6
CONTINUOUS
 70
0
 71
3
 72
15
 73
11
 74
0
 42
0.0000001
 43
0.0000001
 44
0.0000000001
 40
0.0
 40
0.0
 40
0.0
 40
0.0
 40
0.1141232787
 40
0.2373467935
 40
0.3669716251
 40
0.4999988493
 40
0.6330262331
 40
0.7626515288
 40
0.885875802
 40
1.0
 40
1.0
 40
1.0
 40
1.0
 10
63.5504187532
 20
75.6570782707
 30
0.0
 10
63.6230094632
 20
75.6151689528
 30
0.0
 10
63.7664212999
 20
75.5146002731
 30
0.0
 10
63.9637893913
 20
75.3300154246
 30
0.0
 10
64.1456340654
 20
75.1117368255
 30
0.0
 10
64.3051782554
 20
74.8680976828
 30
0.0
 10
64.4364052635
 20
74.6081091254
 30
0.0
 10
64.5345195187
 20
74.341487298
 30
0.0
 10
64.5956926621
 20
74.0782679587
 30
0.0
 10
64.6110833409
 20
73.9037842463
 30
0.0
 10
64.6110833409
 20
73.8199635132
 30
0.0
  0
SPLINE
  5
339
100
AcDbEntity
  8
0
100
AcDbSpline
 62
7
  6
CONTINUOUS
 70
0
 71
3
 72
15
 73
11
 74
0
 42
0.0000001
 43
0.0000001
 44
0.0000000001
 40
0.0
 40
0.0
 40
0.0
 40
0.0
 40
0.1183285566
 40
0.2471060899
 40
0.3824168175
 40
0.5196879973
 40
0.6540792156
 40
0.7810885294
 40
0.8970820426
 40
1.0
 40
1.0
 40
1.0
 40
1.0
 10
60.1916475588
 20
73.513709769
 30
0.0
 10
60.1916475588
 20
73.3648873475
 30
0.0
 10
60.2239610219
 20
73.0537731957
 30
0.0
 10
60.3497475291
 20
72.5878903776
 30
0.0
 10
60.5489278333
 20
72.1223291243
 30
0.0
 10
60.8111651523
 20
71.6810472707
 30
0.0
 10
61.1231401392
 20
71.2865310284
 30
0.0
 10
61.4691396852
 20
70.9588000077
 30
0.0
 10
61.8316649207
 20
70.7144671303
 30
0.0
 10
62.0894107387
 20
70.6091190799
 30
0.0
 10
62.2149509568
 20
70.5775837126
 30
0.0
  0
SPLINE
  5
33A
100
AcDbEntity
  8
0
100
AcDbSpline
 62
7
  6
CONTINUOUS
 70
0
 71
3
 72
20
 73
16
 74
0
 42
0.0000001
 43
0.0000001
 44
0.0000000001
 40
0.0
 40
0.0
 40
0.0
 40
0.0
 40
0.0623916035
 40
0.1288092748
 40
0.2703025718
 40
0.4173642577
 40
0.5616164443
 40
0.6302527556
 40
0.6953793506
 40
0.7563616492
 40
0.8128308978
 40
0.864763655
 40
0.9125655983
 40
0.957167102
 40
1.0
 40
1.0
 40
1.0
 40
1.0
 10
42.8321862375
 20
61.0824489438
 30
0.0
 10
42.8321862375
 20
60.945607202
 30
0.0
 10
42.8507969557
 20
60.6628945707
 30
0.0
 10
42.9546733271
 20
60.078320051
 30
0.0
 10
43.2057707559
 20
59.3361310193
 30
0.0
 10
43.659410431
 20
58.4977949439
 30
0.0
 10
44.1480926735
 20
57.8719092609
 30
0.0
 10
44.5878872336
 20
57.4483230149
 30
0.0
 10
44.9248654907
 20
57.1844751031
 30
0.0
 10
45.2673239441
 20
56.9749851996
 30
0.0
 10
45.6082948627
 20
56.8243055657
 30
0.0
 10
45.940986654
 20
56.735862729
 30
0.0
 10
46.2588882695
 20
56.7125288686
 30
0.0
 10
46.5549380058
 20
56.7558504854
 30
0.0
 10
46.7342645616
 20
56.8304260132
 30
0.0
 10
46.8156310597
 20
56.8773834723
 30
0.0
  0
SPLINE
  5
33B
100
AcDbEntity
  8
0
100
AcDbSpline
 62
7
  6
CONTINUOUS
 70
0
 71
3
 72
20
 73
16
 74
0
 42
0.0000001
 43
0.0000001
 44
0.0000000001
 40
0.0
 40
0.0
 40
0.0
 40
0.0
 40
0.0623916035
 40
0.1288092748
 40
0.2703025718
 40
0.4173642577
 40
0.5616164443
 40
0.6302527556
 40
0.6953793506
 40
0.7563616492
 40
0.8128308978
 40
0.864763655
 40
0.9125655983
 40
0.957167102
 40
1.0
 40
1.0
 40
1.0
 40
1.0
 10
25.1544431088
 20
55.3666706727
 30
0.0
 10
25.1544431088
 20
55.229828931
 30
0.0
 10
25.173053827
 20
54.9471162997
 30
0.0
 10
25.2769301985
 20
54.36254178
 30
0.0
 10
25.5280276272
 20
53.6203527483
 30
0.0
 10
25.9816673023
 20
52.7820166729
 30
0.0
 10
26.4703495449
 20
52.1561309898
 30
0.0
 10
26.9101441049
 20
51.7325447439
 30
0.0
 10
27.247122362
 20
51.4686968321
 30
0.0
 10
27.5895808154
 20
51.2592069286
 30
0.0
 10
27.930551734
 20
51.1085272947
 30
0.0
 10
28.2632435254
 20
51.020084458
 30
0.0
 10
28.5811451409
 20
50.9967505975
 30
0.0
 10
28.8771948772
 20
51.0400722144
 30
0.0
 10
29.0565214329
 20
51.1146477422
 30
0.0
 10
29.137887931
 20
51.1616052013
 30
0.0
  0
SPLINE
  5
33C
100
AcDbEntity
  8
0
100
AcDbSpline
 62
7
  6
CONTINUOUS
 70
0
 71
3
 72
17
 73
13
 74
0
 42
0.0000001
 43
0.0000001
 44
0.0000000001
 40
0.0
 40
0.0
 40
0.0
 40
0.0
 40
0.0428570455
 40
0.087485165
 40
0.1353123244
 40
0.1872781392
 40
0.3045378316
 40
0.4381995438
 40
0.5825378192
 40
0.7296849502
 40
0.8713141218
 40
1.0
 40
1.0
 40
1.0
 40
1.0
 10
45.4845625106
 20
63.8369372963
 30
0.0
 10
45.4636087309
 20
63.8248391859
 30
0.0
 10
45.4174340653
 20
63.8055962849
 30
0.0
 10
45.341179933
 20
63.7944741957
 30
0.0
 10
45.2592972264
 20
63.8004496257
 30
0.0
 10
45.1403321186
 20
63.8321483296
 30
0.0
 10
44.9882323533
 20
63.9152740213
 30
0.0
 10
44.820191707
 20
64.0640913841
 30
0.0
 10
44.6716653139
 20
64.2542070683
 30
0.0
 10
44.5547287224
 20
64.470278353
 30
0.0
 10
44.4788807967
 20
64.6946013448
 30
0.0
 10
44.4585386053
 20
64.8473828874
 30
0.0
 10
44.4585386053
 20
64.9200343486
 30
0.0
  0
SPLINE
  5
33D
100
AcDbEntity
  8
0
100
AcDbSpline
 62
7
  6
CONTINUOUS
 70
0
 71
3
 72
25
 73
21
 74
0
 42
0.0000001
 43
0.0000001
 44
0.0000000001
 40
0.0
 40
0.0
 40
0.0
 40
0.0
 40
0.0603490901
 40
0.1143636154
 40
0.1629234024
 40
0.1858956393
 40
0.2084410539
 40
0.2309859043
 40
0.2539549352
 40
0.302521837
 40
0.3565189777
 40
0.4168774049
 40
0.4834396988
 40
0.5552607105
 40
0.6308608867
 40
0.708428407
 40
0.7860015138
 40
0.8615977461
 40
0.9334435829
 40
1.0
 40
1.0
 40
1.0
 40
1.0
 10
43.1150301275
 20
65.8181671447
 30
0.0
 10
43.1150301275
 20
65.6610737815
 30
0.0
 10
43.0911756424
 20
65.362324177
 30
0.0
 10
42.9704626748
 20
64.9520568686
 30
0.0
 10
42.7967989844
 20
64.6690609066
 30
0.0
 10
42.6215092115
 20
64.4965847405
 30
0.0
 10
42.4755165306
 20
64.3946741374
 30
0.0
 10
42.3142690367
 20
64.3192168224
 30
0.0
 10
42.0772697028
 20
64.2535491091
 30
0.0
 10
41.7453975987
 20
64.2447527343
 30
0.0
 10
41.3296397061
 20
64.3453012285
 30
0.0
 10
40.901912065
 20
64.5487695074
 30
0.0
 10
40.4766798926
 20
64.8468950281
 30
0.0
 10
40.0687168777
 20
65.2284935593
 30
0.0
 10
39.6929152867
 20
65.6794795729
 30
0.0
 10
39.3631994047
 20
66.1830618331
 30
0.0
 10
39.0919677869
 20
66.7203764935
 30
0.0
 10
38.889197439
 20
67.2714035168
 30
0.0
 10
38.7627280098
 20
67.8154053127
 30
0.0
 10
38.7309498316
 20
68.176008306
 30
0.0
 10
38.7309498316
 20
68.3492598228
 30
0.0
  0
SPLINE
  5
33E
100
AcDbEntity
  8
0
100
AcDbSpline
 62
7
  6
CONTINUOUS
 70
0
 71
3
 72
11
 73
7
 74
0
 42
0.0000001
 43
0.0000001
 44
0.0000000001
 40
0.0
 40
0.0
 40
0.0
 40
0.0
 40
0.2864448746
 40
0.546184727
 40
0.7817317017
 40
1.0
 40
1.0
 40
1.0
 40
1.0
 10
66.3789400849
 20
25.8764090407
 30
0.0
 10
66.3789400849
 20
25.7631001712
 30
0.0
 10
66.3944454695
 20
25.5464981427
 30
0.0
 10
66.4718400422
 20
25.2450112442
 30
0.0
 10
66.601710285
 20
24.9913993816
 30
0.0
 10
66.725056934
 20
24.8569788718
 30
0.0
 10
66.7925172649
 20
24.8030924191
 30
0.0
  0
SPLINE
  5
33F
100
AcDbEntity
  8
0
100
AcDbSpline
 62
7
  6
CONTINUOUS
 70
0
 71
3
 72
17
 73
13
 74
0
 42
0.0000001
 43
0.0000001
 44
0.0000000001
 40
0.0
 40
0.0
 40
0.0
 40
0.0
 40
0.0435197448
 40
0.0898473457
 40
0.1398729653
 40
0.1940400617
 40
0.3146115542
 40
0.4491430419
 40
0.5919924233
 40
0.7360924521
 40
0.8741916456
 40
1.0
 40
1.0
 40
1.0
 40
1.0
 10
23.5759202088
 20
56.4623364966
 30
0.0
 10
23.5333502475
 20
56.4495974817
 30
0.0
 10
23.4420767441
 20
56.4337439304
 30
0.0
 10
23.2985150639
 20
56.4393658914
 30
0.0
 10
23.1478275623
 20
56.4731158184
 30
0.0
 10
22.9335679143
 20
56.5573471927
 30
0.0
 10
22.6661353962
 20
56.7311475365
 30
0.0
 10
22.3741540057
 20
57.0165557619
 30
0.0
 10
22.1198103051
 20
57.3660497034
 30
0.0
 10
21.9216758491
 20
57.7542569153
 30
0.0
 10
21.7941042977
 20
58.1527333383
 30
0.0
 10
21.7603075962
 20
58.4224989678
 30
0.0
 10
21.7603075962
 20
58.550953657
 30
0.0
  0
SPLINE
  5
340
100
AcDbEntity
  8
0
100
AcDbSpline
 62
7
  6
CONTINUOUS
 70
0
 71
3
 72
15
 73
11
 74
0
 42
0.0000001
 43
0.0000001
 44
0.0000000001
 40
0.0
 40
0.0
 40
0.0
 40
0.0
 40
0.1141229605
 40
0.2373462928
 40
0.366971064
 40
0.4999983279
 40
0.633025824
 40
0.762651271
 40
0.8858756957
 40
1.0
 40
1.0
 40
1.0
 40
1.0
 10
11.5779864334
 20
75.8608294493
 30
0.0
 10
11.5053962714
 20
75.8189197499
 30
0.0
 10
11.361985554
 20
75.7183503043
 30
0.0
 10
11.1646191416
 20
75.5337645127
 30
0.0
 10
10.9827760125
 20
75.3154850533
 30
0.0
 10
10.8232331765
 20
75.0718451633
 30
0.0
 10
10.6920072824
 20
74.811856001
 30
0.0
 10
10.5938938605
 20
74.5452337363
 30
0.0
 10
10.532721236
 20
74.2820141476
 30
0.0
 10
10.5173306776
 20
74.1075303539
 30
0.0
 10
10.5173306776
 20
74.0237095928
 30
0.0
  0
SPLINE
  5
341
100
AcDbEntity
  8
0
100
AcDbSpline
 62
7
  6
CONTINUOUS
 70
0
 71
3
 72
25
 73
21
 74
0
 42
0.0000001
 43
0.0000001
 44
0.0000000001
 40
0.0
 40
0.0
 40
0.0
 40
0.0
 40
0.0603490901
 40
0.1143636154
 40
0.1629234024
 40
0.1858956393
 40
0.2084410539
 40
0.2309859043
 40
0.2539549352
 40
0.302521837
 40
0.3565189777
 40
0.4168774049
 40
0.4834396988
 40
0.5552607105
 40
0.6308608867
 40
0.708428407
 40
0.7860015138
 40
0.8615977461
 40
0.9334435829
 40
1.0
 40
1.0
 40
1.0
 40
1.0
 10
24.0230675485
 20
56.01985588
 30
0.0
 10
24.0230675485
 20
55.8627625168
 30
0.0
 10
23.9992130634
 20
55.5640129123
 30
0.0
 10
23.8785000959
 20
55.1537456039
 30
0.0
 10
23.7048364054
 20
54.8707496418
 30
0.0
 10
23.5295466325
 20
54.6982734757
 30
0.0
 10
23.3835539517
 20
54.5963628726
 30
0.0
 10
23.2223064577
 20
54.5209055577
 30
0.0
 10
22.9853071238
 20
54.4552378444
 30
0.0
 10
22.6534350197
 20
54.4464414695
 30
0.0
 10
22.2376771271
 20
54.5469899637
 30
0.0
 10
21.809949486
 20
54.7504582426
 30
0.0
 10
21.3847173136
 20
55.0485837633
 30
0.0
 10
20.9767542987
 20
55.4301822946
 30
0.0
 10
20.6009527077
 20
55.8811683082
 30
0.0
 10
20.2712368257
 20
56.3847505683
 30
0.0
 10
20.000005208
 20
56.9220652287
 30
0.0
 10
19.7972348601
 20
57.4730922521
 30
0.0
 10
19.6707654308
 20
58.0170940479
 30
0.0
 10
19.6389872526
 20
58.3776970413
 30
0.0
 10
19.6389872526
 20
58.550948558
 30
0.0
  0
SPLINE
  5
342
100
AcDbEntity
  8
0
100
AcDbSpline
 62
7
  6
CONTINUOUS
 70
0
 71
3
 72
11
 73
7
 74
0
 42
0.0000001
 43
0.0000001
 44
0.0000000001
 40
0.0
 40
0.0
 40
0.0
 40
0.0
 40
0.2897042895
 40
0.5490907647
 40
0.7822174449
 40
1.0
 40
1.0
 40
1.0
 40
1.0
 10
10.5173306776
 20
51.9781443303
 30
0.0
 10
10.5173306776
 20
51.9021417706
 30
0.0
 10
10.5288537199
 20
51.7576011624
 30
0.0
 10
10.5873907863
 20
51.5590101451
 30
0.0
 10
10.6859478214
 20
51.3978652369
 30
0.0
 10
10.7785229154
 20
51.3200382024
 30
0.0
 10
10.828002901
 20
51.2914715907
 30
0.0
  0
SPLINE
  5
343
100
AcDbEntity
  8
0
100
AcDbSpline
 62
7
  6
CONTINUOUS
 70
0
 71
3
 72
21
 73
17
 74
0
 42
0.0000001
 43
0.0000001
 44
0.0000000001
 40
0.0
 40
0.0
 40
0.0
 40
0.0
 40
0.1332222187
 40
0.1932358227
 40
0.2492442263
 40
0.3021084947
 40
0.35302189
 40
0.4034355991
 40
0.4548835359
 40
0.5087552476
 40
0.5661166387
 40
0.6276721938
 40
0.6937483273
 40
0.7643717591
 40
0.8392983816
 40
1.0
 40
1.0
 40
1.0
 40
1.0
 10
19.6389872526
 20
58.550948558
 30
0.0
 10
19.6389872526
 20
58.7467794658
 30
0.0
 10
19.6671545046
 20
59.0333959341
 30
0.0
 10
19.7807819239
 20
59.3829750669
 30
0.0
 10
19.8953104226
 20
59.6046878754
 30
0.0
 10
20.0408066142
 20
59.790982758
 30
0.0
 10
20.2151357551
 20
59.9385112702
 30
0.0
 10
20.4154488333
 20
60.0439131639
 30
0.0
 10
20.6376641305
 20
60.105444049
 30
0.0
 10
20.8776326357
 20
60.1222876861
 30
0.0
 10
21.1313198418
 20
60.0950013344
 30
0.0
 10
21.3948815367
 20
60.024352103
 30
0.0
 10
21.6645292994
 20
59.9118720518
 30
0.0
 10
21.936352167
 20
59.7592873766
 30
0.0
 10
22.3047999742
 20
59.4996521014
 30
0.0
 10
22.5590096798
 20
59.2611209147
 30
0.0
 10
22.7187865001
 20
59.0871285209
 30
0.0
  0
SPLINE
  5
344
100
AcDbEntity
  8
0
100
AcDbSpline
 62
7
  6
CONTINUOUS
 70
0
 71
3
 72
12
 73
8
 74
0
 42
0.0000001
 43
0.0000001
 44
0.0000000001
 40
0.0
 40
0.0
 40
0.0
 40
0.0
 40
0.2577338646
 40
0.5194762266
 40
0.7709219183
 40
0.8889875331
 40
1.0
 40
1.0
 40
1.0
 40
1.0
 10
22.7187865001
 20
59.0871285209
 30
0.0
 10
22.9163495843
 20
58.871987965
 30
0.0
 10
23.2752046719
 20
58.4008843261
 30
0.0
 10
23.6859404078
 20
57.6259045203
 30
0.0
 10
23.9127133436
 20
56.9427276558
 30
0.0
 10
24.0063200119
 20
56.4054583151
 30
0.0
 10
24.0230675485
 20
56.1456664461
 30
0.0
 10
24.0230675485
 20
56.01985588
 30
0.0
  0
SPLINE
  5
345
100
AcDbEntity
  8
0
100
AcDbSpline
 62
7
  6
CONTINUOUS
 70
0
 71
3
 72
13
 73
9
 74
0
 42
0.0000001
 43
0.0000001
 44
0.0000000001
 40
0.0
 40
0.0
 40
0.0
 40
0.0
 40
0.2893774239
 40
0.5483147234
 40
0.6677439956
 40
0.7817688028
 40
0.8919075562
 40
1.0
 40
1.0
 40
1.0
 40
1.0
 10
24.8715992187
 20
55.5299669745
 30
0.0
 10
24.8715992187
 20
55.7174877601
 30
0.0
 10
24.8998673344
 20
56.0738679463
 30
0.0
 10
25.0236683319
 20
56.4931167611
 30
0.0
 10
25.1739773783
 20
56.7756790184
 30
0.0
 10
25.3065435949
 20
56.9556600179
 30
0.0
 10
25.4606049731
 20
57.1073767504
 30
0.0
 10
25.5772644981
 20
57.188731129
 30
0.0
 10
25.6379260256
 20
57.2237532374
 30
0.0
  0
SPLINE
  5
346
100
AcDbEntity
  8
0
100
AcDbSpline
 62
7
  6
CONTINUOUS
 70
0
 71
3
 72
16
 73
12
 74
0
 42
0.0000001
 43
0.0000001
 44
0.0000000001
 40
0.0
 40
0.0
 40
0.0
 40
0.0
 40
0.4111119905
 40
0.5810186899
 40
0.723753711
 40
0.8375406747
 40
0.8831724986
 40
0.9211708313
 40
0.9515067204
 40
0.9742936368
 40
1.0
 40
1.0
 40
1.0
 40
1.0
 10
17.2948365046
 20
53.3799452355
 30
0.0
 10
17.1929148342
 20
53.4387884082
 30
0.0
 10
17.0479672118
 20
53.5204477701
 30
0.0
 10
16.8645319963
 20
53.6167926737
 30
0.0
 10
16.7549930302
 20
53.6707401012
 30
0.0
 10
16.6760704638
 20
53.7061362723
 30
0.0
 10
16.6233156477
 20
53.7266347285
 30
0.0
 10
16.5925580087
 20
53.7370894201
 30
0.0
 10
16.5668904463
 20
53.7438187099
 30
0.0
 10
16.5457473955
 20
53.7472808904
 30
0.0
 10
16.5285078819
 20
53.746072871
 30
0.0
 10
16.5245026058
 20
53.7398994252
 30
0.0
  0
SPLINE
  5
347
100
AcDbEntity
  8
0
100
AcDbSpline
 62
7
  6
CONTINUOUS
 70
0
 71
3
 72
13
 73
9
 74
0
 42
0.0000001
 43
0.0000001
 44
0.0000000001
 40
0.0
 40
0.0
 40
0.0
 40
0.0
 40
0.2893774239
 40
0.5483147234
 40
0.6677439956
 40
0.7817688028
 40
0.8919075562
 40
1.0
 40
1.0
 40
1.0
 40
1.0
 10
42.5493423474
 20
61.2457452456
 30
0.0
 10
42.5493423474
 20
61.4332660311
 30
0.0
 10
42.577610463
 20
61.7896462174
 30
0.0
 10
42.7014114606
 20
62.2088950321
 30
0.0
 10
42.8517205069
 20
62.4914572894
 30
0.0
 10
42.9842867235
 20
62.6714382889
 30
0.0
 10
43.1383481018
 20
62.8231550214
 30
0.0
 10
43.2550076268
 20
62.9045094
 30
0.0
 10
43.3156691542
 20
62.9395315084
 30
0.0
  0
SPLINE
  5
348
100
AcDbEntity
  8
0
100
AcDbSpline
 62
7
  6
CONTINUOUS
 70
0
 71
3
 72
26
 73
22
 74
0
 42
0.0000001
 43
0.0000001
 44
0.0000000001
 40
0.0
 40
0.0
 40
0.0
 40
0.0
 40
0.1135418772
 40
0.2140588847
 40
0.3010047376
 40
0.3739769165
 40
0.4328635543
 40
0.4777252266
 40
0.509041076
 40
0.5202064321
 40
0.5291357071
 40
0.537086145
 40
0.5457552647
 40
0.556507983
 40
0.5700972039
 40
0.6070273914
 40
0.6577783863
 40
0.7225832725
 40
0.8014124406
 40
0.8940157571
 40
1.0
 40
1.0
 40
1.0
 40
1.0
 10
30.5191986661
 20
45.0236999868
 30
0.0
 10
30.5468327786
 20
45.0010645805
 30
0.0
 10
30.5986004217
 20
44.9579823653
 30
0.0
 10
30.6701359153
 20
44.8959206391
 30
0.0
 10
30.7305894228
 20
44.8405872246
 30
0.0
 10
30.7796342098
 20
44.7922771709
 30
0.0
 10
30.8172162535
 20
44.7511964842
 30
0.0
 10
30.8431477171
 20
44.7175707265
 30
0.0
 10
30.856943606
 20
44.6933968412
 30
0.0
 10
30.8607992255
 20
44.6775648675
 30
0.0
 10
30.8602663501
 20
44.6685299872
 30
0.0
 10
30.8560268587
 20
44.6613096552
 30
0.0
 10
30.8484465495
 20
44.6567100348
 30
0.0
 10
30.838228086
 20
44.6543858829
 30
0.0
 10
30.8188825881
 20
44.6538499864
 30
0.0
 10
30.7872652143
 20
44.6591834785
 30
0.0
 10
30.7410808955
 20
44.6721756158
 30
0.0
 10
30.6834379788
 20
44.6927499702
 30
0.0
 10
30.6146077893
 20
44.7208133244
 30
0.0
 10
30.5348671995
 20
44.7563253853
 30
0.0
 10
30.478409145
 20
44.7830923222
 30
0.0
 10
30.4484069831
 20
44.7976409017
 30
0.0
  0
SPLINE
  5
349
100
AcDbEntity
  8
0
100
AcDbSpline
 62
7
  6
CONTINUOUS
 70
0
 71
3
 72
9
 73
5
 74
0
 42
0.0000001
 43
0.0000001
 44
0.0000000001
 40
0.0
 40
0.0
 40
0.0
 40
0.0
 40
0.2327552374
 40
1.0
 40
1.0
 40
1.0
 40
1.0
 10
30.4484069831
 20
44.7976409017
 30
0.0
 10
30.4336304518
 20
44.8048063034
 30
0.0
 10
30.3702812717
 20
44.8358720517
 30
0.0
 10
30.3074338927
 20
44.867954742
 30
0.0
 10
30.2594216226
 20
44.89295986
 30
0.0
  0
SPLINE
  5
34A
100
AcDbEntity
  8
0
100
AcDbSpline
 62
7
  6
CONTINUOUS
 70
0
 71
3
 72
15
 73
11
 74
0
 42
0.0000001
 43
0.0000001
 44
0.0000000001
 40
0.0
 40
0.0
 40
0.0
 40
0.0
 40
0.1006065254
 40
0.2226466112
 40
0.3595031949
 40
0.5037233073
 40
0.6474444058
 40
0.7828329934
 40
0.9025178971
 40
1.0
 40
1.0
 40
1.0
 40
1.0
 10
30.2594216226
 20
44.89295986
 30
0.0
 10
30.1105215496
 20
44.9705080344
 30
0.0
 10
29.7851083353
 20
45.1499871087
 30
0.0
 10
29.2674370642
 20
45.4532129396
 30
0.0
 10
28.6938752864
 20
45.8047705509
 30
0.0
 10
28.0958818797
 20
46.1854809027
 30
0.0
 10
27.5062388845
 20
46.5745697483
 30
0.0
 10
26.9571687387
 20
46.9506533229
 30
0.0
 10
26.4787183683
 20
47.2930524906
 30
0.0
 10
26.1897254896
 20
47.5118781768
 30
0.0
 10
26.0626264305
 20
47.6134032856
 30
0.0
  0
SPLINE
  5
34B
100
AcDbEntity
  8
0
100
AcDbSpline
 62
7
  6
CONTINUOUS
 70
0
 71
3
 72
9
 73
5
 74
0
 42
0.0000001
 43
0.0000001
 44
0.0000000001
 40
0.0
 40
0.0
 40
0.0
 40
0.0
 40
0.2671591429
 40
1.0
 40
1.0
 40
1.0
 40
1.0
 10
26.0626264305
 20
47.6134032856
 30
0.0
 10
26.0489836883
 20
47.6243009343
 30
0.0
 10
25.99804518
 20
47.6652504186
 30
0.0
 10
25.9476260796
 20
47.7068511392
 30
0.0
 10
25.9111193634
 20
47.7378569704
 30
0.0
  0
SPLINE
  5
34C
100
AcDbEntity
  8
0
100
AcDbSpline
 62
7
  6
CONTINUOUS
 70
0
 71
3
 72
26
 73
22
 74
0
 42
0.0000001
 43
0.0000001
 44
0.0000000001
 40
0.0
 40
0.0
 40
0.0
 40
0.0
 40
0.1080491009
 40
0.2027050228
 40
0.2835533912
 40
0.3504519716
 40
0.4034042456
 40
0.4426548042
 40
0.4574345678
 40
0.469344959
 40
0.4789953141
 40
0.4874987163
 40
0.5068374746
 40
0.5201715002
 40
0.536573833
 40
0.5793187018
 40
0.6358487208
 40
0.7063160253
 40
0.7906772921
 40
0.8886928666
 40
1.0
 40
1.0
 40
1.0
 40
1.0
 10
25.9111193634
 20
47.7378569704
 30
0.0
 10
25.8884396089
 20
47.7571193065
 30
0.0
 10
25.8462126155
 20
47.7936378274
 30
0.0
 10
25.7883876864
 20
47.8461339464
 30
0.0
 10
25.7404285398
 20
47.89258379
 30
0.0
 10
25.7024434453
 20
47.9327887168
 30
0.0
 10
25.6745564254
 20
47.9665986565
 30
0.0
 10
25.6581981409
 20
47.9912966735
 30
0.0
 10
25.6509790982
 20
48.0080232148
 30
0.0
 10
25.6486429626
 20
48.0178257271
 30
0.0
 10
25.6489248604
 20
48.0262593978
 30
0.0
 10
25.6536561961
 20
48.0358915196
 30
0.0
 10
25.6652171601
 20
48.0405875233
 30
0.0
 10
25.6785556758
 20
48.0417231418
 30
0.0
 10
25.6986066162
 20
48.0407799892
 30
0.0
 10
25.7299287504
 20
48.0345410891
 30
0.0
 10
25.7747972931
 20
48.0213112213
 30
0.0
 10
25.829550763
 20
48.0014852884
 30
0.0
 10
25.8940193577
 20
47.9751417462
 30
0.0
 10
25.9679516685
 20
47.9423277361
 30
0.0
 10
26.0201027603
 20
47.9177555815
 30
0.0
 10
26.0477199459
 20
47.9044551728
 30
0.0
  0
SPLINE
  5
34D
100
AcDbEntity
  8
0
100
AcDbSpline
 62
7
  6
CONTINUOUS
 70
0
 71
3
 72
10
 73
6
 74
0
 42
0.0000001
 43
0.0000001
 44
0.0000000001
 40
0.0
 40
0.0
 40
0.0
 40
0.0
 40
0.1917765133
 40
0.4267174706
 40
1.0
 40
1.0
 40
1.0
 40
1.0
 10
26.0477199459
 20
47.9044551728
 30
0.0
 10
26.1347041156
 20
47.8625636845
 30
0.0
 10
26.3258881123
 20
47.7644637841
 30
0.0
 10
26.7672864838
 20
47.522316472
 30
0.0
 10
27.117802578
 20
47.3154722015
 30
0.0
 10
27.3646824058
 20
47.1659906442
 30
0.0
  0
SPLINE
  5
34E
100
AcDbEntity
  8
0
100
AcDbSpline
 62
7
  6
CONTINUOUS
 70
0
 71
3
 72
12
 73
8
 74
0
 42
0.0000001
 43
0.0000001
 44
0.0000000001
 40
0.0
 40
0.0
 40
0.0
 40
0.0
 40
0.2699830595
 40
0.5437847047
 40
0.7951181261
 40
0.904720422
 40
1.0
 40
1.0
 40
1.0
 40
1.0
 10
27.4579311609
 20
47.1093308385
 30
0.0
 10
27.7265149791
 20
46.9455673404
 30
0.0
 10
28.2632929324
 20
46.6088207774
 30
0.0
 10
29.037413471
 20
46.0997764787
 30
0.0
 10
29.6461271294
 20
45.6795611415
 30
0.0
 10
30.0763431282
 20
45.367321069
 30
0.0
 10
30.2667906706
 20
45.223344159
 30
0.0
 10
30.354366433
 20
45.1551170455
 30
0.0
  0
SPLINE
  5
34F
100
AcDbEntity
  8
0
100
AcDbSpline
 62
7
  6
CONTINUOUS
 70
0
 71
3
 72
26
 73
22
 74
0
 42
0.0000001
 43
0.0000001
 44
0.0000000001
 40
0.0
 40
0.0
 40
0.0
 40
0.0
 40
0.1135418772
 40
0.2140588847
 40
0.3010047376
 40
0.3739769165
 40
0.4328635543
 40
0.4777252266
 40
0.509041076
 40
0.5202064321
 40
0.5291357071
 40
0.537086145
 40
0.5457552647
 40
0.556507983
 40
0.5700972039
 40
0.6070273914
 40
0.6577783863
 40
0.7225832725
 40
0.8014124406
 40
0.8940157571
 40
1.0
 40
1.0
 40
1.0
 40
1.0
 10
65.7332629784
 20
24.6933104116
 30
0.0
 10
65.760897091
 20
24.6706750054
 30
0.0
 10
65.812664734
 20
24.6275927902
 30
0.0
 10
65.8842002277
 20
24.565531064
 30
0.0
 10
65.9446537351
 20
24.5101976495
 30
0.0
 10
65.9936985222
 20
24.4618875957
 30
0.0
 10
66.0312805658
 20
24.4208069091
 30
0.0
 10
66.0572120294
 20
24.3871811514
 30
0.0
 10
66.0710079183
 20
24.3630072661
 30
0.0
 10
66.0748635379
 20
24.3471752924
 30
0.0
 10
66.0743306625
 20
24.3381404121
 30
0.0
 10
66.070091171
 20
24.3309200801
 30
0.0
 10
66.0625108618
 20
24.3263204597
 30
0.0
 10
66.0522923983
 20
24.3239963078
 30
0.0
 10
66.0329469005
 20
24.3234604113
 30
0.0
 10
66.0013295266
 20
24.3287939034
 30
0.0
 10
65.9551452078
 20
24.3417860407
 30
0.0
 10
65.8975022911
 20
24.3623603951
 30
0.0
 10
65.8286721017
 20
24.3904237493
 30
0.0
 10
65.7489315118
 20
24.4259358102
 30
0.0
 10
65.6924734573
 20
24.452702747
 30
0.0
 10
65.6624712954
 20
24.4672513266
 30
0.0
  0
SPLINE
  5
350
100
AcDbEntity
  8
0
100
AcDbSpline
 62
7
  6
CONTINUOUS
 70
0
 71
3
 72
9
 73
5
 74
0
 42
0.0000001
 43
0.0000001
 44
0.0000000001
 40
0.0
 40
0.0
 40
0.0
 40
0.0
 40
0.2327552374
 40
1.0
 40
1.0
 40
1.0
 40
1.0
 10
65.6624712954
 20
24.4672513266
 30
0.0
 10
65.6476947641
 20
24.4744167283
 30
0.0
 10
65.584345584
 20
24.5054824766
 30
0.0
 10
65.521498205
 20
24.5375651669
 30
0.0
 10
65.4734859349
 20
24.5625702849
 30
0.0
  0
SPLINE
  5
351
100
AcDbEntity
  8
0
100
AcDbSpline
 62
7
  6
CONTINUOUS
 70
0
 71
3
 72
15
 73
11
 74
0
 42
0.0000001
 43
0.0000001
 44
0.0000000001
 40
0.0
 40
0.0
 40
0.0
 40
0.0
 40
0.1006065254
 40
0.2226466112
 40
0.3595031949
 40
0.5037233073
 40
0.6474444058
 40
0.7828329934
 40
0.9025178971
 40
1.0
 40
1.0
 40
1.0
 40
1.0
 10
65.4734859349
 20
24.5625702849
 30
0.0
 10
65.3245858619
 20
24.6401184593
 30
0.0
 10
64.9991726477
 20
24.8195975336
 30
0.0
 10
64.4815013765
 20
25.1228233645
 30
0.0
 10
63.9079395987
 20
25.4743809758
 30
0.0
 10
63.309946192
 20
25.8550913276
 30
0.0
 10
62.7203031968
 20
26.2441801732
 30
0.0
 10
62.171233051
 20
26.6202637478
 30
0.0
 10
61.6927826806
 20
26.9626629154
 30
0.0
 10
61.4037898019
 20
27.1814886017
 30
0.0
 10
61.2766907428
 20
27.2830137105
 30
0.0
  0
SPLINE
  5
352
100
AcDbEntity
  8
0
100
AcDbSpline
 62
7
  6
CONTINUOUS
 70
0
 71
3
 72
9
 73
5
 74
0
 42
0.0000001
 43
0.0000001
 44
0.0000000001
 40
0.0
 40
0.0
 40
0.0
 40
0.0
 40
0.2671591429
 40
1.0
 40
1.0
 40
1.0
 40
1.0
 10
61.2766907428
 20
27.2830137105
 30
0.0
 10
61.2630480006
 20
27.2939113592
 30
0.0
 10
61.2121094924
 20
27.3348608435
 30
0.0
 10
61.1616903919
 20
27.3764615641
 30
0.0
 10
61.1251836757
 20
27.4074673953
 30
0.0
  0
SPLINE
  5
353
100
AcDbEntity
  8
0
100
AcDbSpline
 62
7
  6
CONTINUOUS
 70
0
 71
3
 72
26
 73
22
 74
0
 42
0.0000001
 43
0.0000001
 44
0.0000000001
 40
0.0
 40
0.0
 40
0.0
 40
0.0
 40
0.1080491009
 40
0.2027050228
 40
0.2835533912
 40
0.3504519716
 40
0.4034042456
 40
0.4426548042
 40
0.4574345678
 40
0.469344959
 40
0.4789953141
 40
0.4874987163
 40
0.5068374746
 40
0.5201715002
 40
0.536573833
 40
0.5793187018
 40
0.6358487208
 40
0.7063160253
 40
0.7906772921
 40
0.8886928666
 40
1.0
 40
1.0
 40
1.0
 40
1.0
 10
61.1251836757
 20
27.4074673953
 30
0.0
 10
61.1025039212
 20
27.4267297314
 30
0.0
 10
61.0602769279
 20
27.4632482523
 30
0.0
 10
61.0024519988
 20
27.5157443713
 30
0.0
 10
60.9544928521
 20
27.5621942148
 30
0.0
 10
60.9165077576
 20
27.6023991417
 30
0.0
 10
60.8886207377
 20
27.6362090813
 30
0.0
 10
60.8722624532
 20
27.6609070984
 30
0.0
 10
60.8650434105
 20
27.6776336397
 30
0.0
 10
60.8627072749
 20
27.687436152
 30
0.0
 10
60.8629891727
 20
27.6958698227
 30
0.0
 10
60.8677205084
 20
27.7055019444
 30
0.0
 10
60.8792814724
 20
27.7101979482
 30
0.0
 10
60.8926199881
 20
27.7113335667
 30
0.0
 10
60.9126709285
 20
27.7103904141
 30
0.0
 10
60.9439930628
 20
27.704151514
 30
0.0
 10
60.9888616054
 20
27.6909216462
 30
0.0
 10
61.0436150753
 20
27.6710957133
 30
0.0
 10
61.10808367
 20
27.6447521711
 30
0.0
 10
61.1820159808
 20
27.611938161
 30
0.0
 10
61.2341670727
 20
27.5873660064
 30
0.0
 10
61.2617842582
 20
27.5740655977
 30
0.0
  0
SPLINE
  5
354
100
AcDbEntity
  8
0
100
AcDbSpline
 62
7
  6
CONTINUOUS
 70
0
 71
3
 72
10
 73
6
 74
0
 42
0.0000001
 43
0.0000001
 44
0.0000000001
 40
0.0
 40
0.0
 40
0.0
 40
0.0
 40
0.1917765133
 40
0.4267174706
 40
1.0
 40
1.0
 40
1.0
 40
1.0
 10
61.2617842582
 20
27.5740655977
 30
0.0
 10
61.3487684279
 20
27.5321741094
 30
0.0
 10
61.5399524246
 20
27.434074209
 30
0.0
 10
61.9813507961
 20
27.1919268969
 30
0.0
 10
62.3318668903
 20
26.9850826264
 30
0.0
 10
62.5787467181
 20
26.8356010691
 30
0.0
  0
SPLINE
  5
355
100
AcDbEntity
  8
0
100
AcDbSpline
 62
7
  6
CONTINUOUS
 70
0
 71
3
 72
12
 73
8
 74
0
 42
0.0000001
 43
0.0000001
 44
0.0000000001
 40
0.0
 40
0.0
 40
0.0
 40
0.0
 40
0.2699830595
 40
0.5437847047
 40
0.7951181261
 40
0.904720422
 40
1.0
 40
1.0
 40
1.0
 40
1.0
 10
62.6719954732
 20
26.7789412634
 30
0.0
 10
62.9405792914
 20
26.6151777653
 30
0.0
 10
63.4773572447
 20
26.2784312023
 30
0.0
 10
64.2514777833
 20
25.7693869035
 30
0.0
 10
64.8601914417
 20
25.3491715663
 30
0.0
 10
65.2904074405
 20
25.0369314939
 30
0.0
 10
65.480854983
 20
24.8929545839
 30
0.0
 10
65.5684307453
 20
24.8247274703
 30
0.0
  0
SPLINE
  5
356
100
AcDbEntity
  8
0
100
AcDbSpline
 62
7
  6
CONTINUOUS
 70
0
 71
3
 72
25
 73
21
 74
0
 42
0.0000001
 43
0.0000001
 44
0.0000000001
 40
0.0
 40
0.0
 40
0.0
 40
0.0
 40
0.0603490901
 40
0.1143636154
 40
0.1629234024
 40
0.1858956393
 40
0.2084410539
 40
0.2309859043
 40
0.2539549352
 40
0.302521837
 40
0.3565189777
 40
0.4168774049
 40
0.4834396988
 40
0.5552607105
 40
0.6308608867
 40
0.708428407
 40
0.7860015138
 40
0.8615977461
 40
0.9334435829
 40
1.0
 40
1.0
 40
1.0
 40
1.0
 10
64.3283218819
 20
45.4059203378
 30
0.0
 10
64.3283218819
 20
45.2488269746
 30
0.0
 10
64.3044673968
 20
44.9500773701
 30
0.0
 10
64.1837544293
 20
44.5398100617
 30
0.0
 10
64.0100907388
 20
44.2568140997
 30
0.0
 10
63.8348009659
 20
44.0843379335
 30
0.0
 10
63.6888082851
 20
43.9824273305
 30
0.0
 10
63.5275607911
 20
43.9069700155
 30
0.0
 10
63.2905614572
 20
43.8413023022
 30
0.0
 10
62.9586893531
 20
43.8325059274
 30
0.0
 10
62.5429314605
 20
43.9330544216
 30
0.0
 10
62.1152038194
 20
44.1365227004
 30
0.0
 10
61.689971647
 20
44.4346482212
 30
0.0
 10
61.2820086321
 20
44.8162467524
 30
0.0
 10
60.9062070411
 20
45.267232766
 30
0.0
 10
60.5764911591
 20
45.7708150262
 30
0.0
 10
60.3052595413
 20
46.3081296866
 30
0.0
 10
60.1024891935
 20
46.8591567099
 30
0.0
 10
59.9760197642
 20
47.4031585058
 30
0.0
 10
59.944241586
 20
47.7637614991
 30
0.0
 10
59.944241586
 20
47.9370130158
 30
0.0
  0
SPLINE
  5
357
100
AcDbEntity
  8
0
100
AcDbSpline
 62
7
  6
CONTINUOUS
 70
0
 71
3
 72
21
 73
17
 74
0
 42
0.0000001
 43
0.0000001
 44
0.0000000001
 40
0.0
 40
0.0
 40
0.0
 40
0.0
 40
0.1332222187
 40
0.1932358227
 40
0.2492442263
 40
0.3021084947
 40
0.35302189
 40
0.4034355991
 40
0.4548835359
 40
0.5087552476
 40
0.5661166387
 40
0.6276721938
 40
0.6937483273
 40
0.7643717591
 40
0.8392983816
 40
1.0
 40
1.0
 40
1.0
 40
1.0
 10
59.944241586
 20
47.9370130158
 30
0.0
 10
59.944241586
 20
48.1328439236
 30
0.0
 10
59.972408838
 20
48.419460392
 30
0.0
 10
60.0860362573
 20
48.7690395247
 30
0.0
 10
60.200564756
 20
48.9907523332
 30
0.0
 10
60.3460609476
 20
49.1770472158
 30
0.0
 10
60.5203900885
 20
49.324575728
 30
0.0
 10
60.7207031667
 20
49.4299776218
 30
0.0
 10
60.9429184639
 20
49.4915085068
 30
0.0
 10
61.182886969
 20
49.508352144
 30
0.0
 10
61.4365741752
 20
49.4810657922
 30
0.0
 10
61.7001358701
 20
49.4104165609
 30
0.0
 10
61.9697836328
 20
49.2979365096
 30
0.0
 10
62.2416065004
 20
49.1453518345
 30
0.0
 10
62.6100543076
 20
48.8857165593
 30
0.0
 10
62.8642640132
 20
48.6471853725
 30
0.0
 10
63.0240408334
 20
48.4731929788
 30
0.0
  0
SPLINE
  5
358
100
AcDbEntity
  8
0
100
AcDbSpline
 62
7
  6
CONTINUOUS
 70
0
 71
3
 72
12
 73
8
 74
0
 42
0.0000001
 43
0.0000001
 44
0.0000000001
 40
0.0
 40
0.0
 40
0.0
 40
0.0
 40
0.2577338646
 40
0.5194762266
 40
0.7709219183
 40
0.8889875331
 40
1.0
 40
1.0
 40
1.0
 40
1.0
 10
63.0240408334
 20
48.4731929788
 30
0.0
 10
63.2216039177
 20
48.2580524228
 30
0.0
 10
63.5804590053
 20
47.7869487839
 30
0.0
 10
63.9911947412
 20
47.0119689781
 30
0.0
 10
64.217967677
 20
46.3287921136
 30
0.0
 10
64.3115743453
 20
45.791522773
 30
0.0
 10
64.3283218819
 20
45.531730904
 30
0.0
 10
64.3283218819
 20
45.4059203378
 30
0.0
  0
SPLINE
  5
359
100
AcDbEntity
  8
0
100
AcDbSpline
 62
7
  6
CONTINUOUS
 70
0
 71
3
 72
13
 73
9
 74
0
 42
0.0000001
 43
0.0000001
 44
0.0000000001
 40
0.0
 40
0.0
 40
0.0
 40
0.0
 40
0.1141757996
 40
0.2375697486
 40
0.4999996443
 40
0.7624297362
 40
0.885823858
 40
1.0
 40
1.0
 40
1.0
 40
1.0
 10
16.8812652125
 20
78.9226606033
 30
0.0
 10
16.929637469
 20
78.9505881719
 30
0.0
 10
17.0355298649
 20
78.9998374884
 30
0.0
 10
17.2701024459
 20
79.071205046
 30
0.0
 10
17.588371095
 20
79.1056894683
 30
0.0
 10
17.9066399433
 20
79.0712064194
 30
0.0
 10
18.1412132594
 20
78.9998400926
 30
0.0
 10
18.247106172
 20
78.9505913062
 30
0.0
 10
18.2954787749
 20
78.9226640027
 30
0.0
  0
SPLINE
  5
35A
100
AcDbEntity
  8
0
100
AcDbSpline
 62
7
  6
CONTINUOUS
 70
0
 71
3
 72
19
 73
15
 74
0
 42
0.0000001
 43
0.0000001
 44
0.0000000001
 40
0.0
 40
0.0
 40
0.0
 40
0.0
 40
0.0427990848
 40
0.0872791531
 40
0.1348147068
 40
0.1863144087
 40
0.2422139981
 40
0.3025286284
 40
0.3669500264
 40
0.4349200998
 40
0.5782428507
 40
0.725372703
 40
0.868354907
 40
1.0
 40
1.0
 40
1.0
 40
1.0
 10
47.0156275067
 20
56.5309773993
 30
0.0
 10
46.926848864
 20
56.4797222566
 30
0.0
 10
46.7317691192
 20
56.3978080397
 30
0.0
 10
46.410077925
 20
56.3474554869
 30
0.0
 10
46.0646423652
 20
56.368075516
 30
0.0
 10
45.7027760772
 20
56.4578813476
 30
0.0
 10
45.3312998373
 20
56.6143272037
 30
0.0
 10
44.9572236042
 20
56.8338478948
 30
0.0
 10
44.5877004041
 20
57.1119496778
 30
0.0
 10
44.1025298918
 20
57.5613279127
 30
0.0
 10
43.5571435131
 20
58.2304853484
 30
0.0
 10
43.0390405955
 20
59.1352953785
 30
0.0
 10
42.6852201599
 20
60.086267162
 30
0.0
 10
42.5709957024
 20
60.7397732334
 30
0.0
 10
42.5544450444
 20
61.0546541668
 30
0.0
  0
SPLINE
  5
35B
100
AcDbEntity
  8
0
100
AcDbSpline
 62
7
  6
CONTINUOUS
 70
0
 71
3
 72
13
 73
9
 74
0
 42
0.0000001
 43
0.0000001
 44
0.0000000001
 40
0.0
 40
0.0
 40
0.0
 40
0.0
 40
0.1080963512
 40
0.2182387316
 40
0.3322535299
 40
0.4516812195
 40
0.7106594539
 40
1.0
 40
1.0
 40
1.0
 40
1.0
 10
46.8156310597
 20
56.8773834723
 30
0.0
 10
46.8697415787
 20
56.9086112201
 30
0.0
 10
46.9737674791
 20
56.9812122841
 30
0.0
 10
47.1111733586
 20
57.1165153786
 30
0.0
 10
47.2294434163
 20
57.2770090684
 30
0.0
 10
47.3634731196
 20
57.5290601919
 30
0.0
 10
47.4738818627
 20
57.9029807365
 30
0.0
 10
47.4991104234
 20
58.2208337943
 30
0.0
 10
47.4991104234
 20
58.3880599639
 30
0.0
  0
SPLINE
  5
35C
100
AcDbEntity
  8
0
100
AcDbSpline
 62
7
  6
CONTINUOUS
 70
0
 71
3
 72
17
 73
13
 74
0
 42
0.0000001
 43
0.0000001
 44
0.0000000001
 40
0.0
 40
0.0
 40
0.0
 40
0.0
 40
0.0435197448
 40
0.0898473457
 40
0.1398729653
 40
0.1940400617
 40
0.3146115542
 40
0.4491430419
 40
0.5919924233
 40
0.7360924521
 40
0.8741916456
 40
1.0
 40
1.0
 40
1.0
 40
1.0
 10
42.6678827877
 20
66.2606477614
 30
0.0
 10
42.6253128264
 20
66.2479087464
 30
0.0
 10
42.5340393231
 20
66.2320551951
 30
0.0
 10
42.3904776428
 20
66.2376771562
 30
0.0
 10
42.2397901412
 20
66.2714270831
 30
0.0
 10
42.0255304933
 20
66.3556584575
 30
0.0
 10
41.7580979752
 20
66.5294588012
 30
0.0
 10
41.4661165847
 20
66.8148670267
 30
0.0
 10
41.2117728841
 20
67.1643609682
 30
0.0
 10
41.0136384281
 20
67.55256818
 30
0.0
 10
40.8860668767
 20
67.9510446031
 30
0.0
 10
40.8522701751
 20
68.2208102325
 30
0.0
 10
40.8522701751
 20
68.3492649218
 30
0.0
  0
SPLINE
  5
35D
100
AcDbEntity
  8
0
100
AcDbSpline
 62
7
  6
CONTINUOUS
 70
0
 71
3
 72
20
 73
16
 74
0
 42
0.0000001
 43
0.0000001
 44
0.0000000001
 40
0.0
 40
0.0
 40
0.0
 40
0.0
 40
0.0428310736
 40
0.0874317158
 40
0.1352330217
 40
0.1871652205
 40
0.2436340434
 40
0.30461495
 40
0.3697400921
 40
0.438374741
 40
0.5826258321
 40
0.7296914542
 40
0.8711893759
 40
0.9376086108
 40
1.0
 40
1.0
 40
1.0
 40
1.0
 10
43.5863757291
 20
62.6339502887
 30
0.0
 10
43.6677384792
 20
62.6809062448
 30
0.0
 10
43.8470571471
 20
62.7554853799
 30
0.0
 10
44.1431006051
 20
62.7988035368
 30
0.0
 10
44.4609971179
 20
62.7754733066
 30
0.0
 10
44.7936882616
 20
62.6870402257
 30
0.0
 10
45.1346531479
 20
62.5363596919
 30
0.0
 10
45.4771105055
 20
62.3268823683
 30
0.0
 10
45.8140826109
 20
62.0630420538
 30
0.0
 10
46.2538731693
 20
61.6394652587
 30
0.0
 10
46.7425649518
 20
61.0135838409
 30
0.0
 10
47.196220928
 20
60.1752376244
 30
0.0
 10
47.4473307883
 20
59.4330287423
 30
0.0
 10
47.5512090347
 20
58.8484411894
 30
0.0
 10
47.5698208072
 20
58.565725657
 30
0.0
 10
47.5698208072
 20
58.4288843793
 30
0.0
  0
SPLINE
  5
35E
100
AcDbEntity
  8
0
100
AcDbSpline
 62
7
  6
CONTINUOUS
 70
0
 71
3
 72
11
 73
7
 74
0
 42
0.0000001
 43
0.0000001
 44
0.0000000001
 40
0.0
 40
0.0
 40
0.0
 40
0.0
 40
0.2897016594
 40
0.5490895814
 40
0.7822189142
 40
1.0
 40
1.0
 40
1.0
 40
1.0
 10
28.7252736216
 20
90.4556959826
 30
0.0
 10
28.7252736216
 20
90.569698906
 30
0.0
 10
28.7425580201
 20
90.7865094174
 30
0.0
 10
28.8303590829
 20
91.0843978945
 30
0.0
 10
28.9781976835
 20
91.326117338
 30
0.0
 10
29.1170633862
 20
91.442851867
 30
0.0
 10
29.191279378
 20
91.4857077117
 30
0.0
  0
SPLINE
  5
35F
100
AcDbEntity
  8
0
100
AcDbSpline
 62
7
  6
CONTINUOUS
 70
0
 71
3
 72
13
 73
9
 74
0
 42
0.0000001
 43
0.0000001
 44
0.0000000001
 40
0.0
 40
0.0
 40
0.0
 40
0.0
 40
0.1080963512
 40
0.2182387316
 40
0.3322535299
 40
0.4516812195
 40
0.7106594539
 40
1.0
 40
1.0
 40
1.0
 40
1.0
 10
29.137887931
 20
51.1616052013
 30
0.0
 10
29.19199845
 20
51.1928329491
 30
0.0
 10
29.2960243504
 20
51.2654340131
 30
0.0
 10
29.43343023
 20
51.4007371076
 30
0.0
 10
29.5517002876
 20
51.5612307974
 30
0.0
 10
29.6857299909
 20
51.8132819209
 30
0.0
 10
29.796138734
 20
52.1872024655
 30
0.0
 10
29.8213672948
 20
52.5050555233
 30
0.0
 10
29.8213672948
 20
52.6722816929
 30
0.0
  0
SPLINE
  5
360
100
AcDbEntity
  8
0
100
AcDbSpline
 62
7
  6
CONTINUOUS
 70
0
 71
3
 72
20
 73
16
 74
0
 42
0.0000001
 43
0.0000001
 44
0.0000000001
 40
0.0
 40
0.0
 40
0.0
 40
0.0
 40
0.0428310736
 40
0.0874317158
 40
0.1352330217
 40
0.1871652205
 40
0.2436340434
 40
0.30461495
 40
0.3697400921
 40
0.438374741
 40
0.5826258321
 40
0.7296914542
 40
0.8711893759
 40
0.9376086108
 40
1.0
 40
1.0
 40
1.0
 40
1.0
 10
25.9086326005
 20
56.9181720177
 30
0.0
 10
25.9899953506
 20
56.9651279737
 30
0.0
 10
26.1693140185
 20
57.0397071089
 30
0.0
 10
26.4653574764
 20
57.0830252657
 30
0.0
 10
26.7832539892
 20
57.0596950355
 30
0.0
 10
27.115945133
 20
56.9712619547
 30
0.0
 10
27.4569100192
 20
56.8205814209
 30
0.0
 10
27.7993673768
 20
56.6111040973
 30
0.0
 10
28.1363394822
 20
56.3472637827
 30
0.0
 10
28.5761300407
 20
55.9236869877
 30
0.0
 10
29.0648218231
 20
55.2978055698
 30
0.0
 10
29.5184777993
 20
54.4594593534
 30
0.0
 10
29.7695876596
 20
53.7172504712
 30
0.0
 10
29.8734659061
 20
53.1326629184
 30
0.0
 10
29.8920776785
 20
52.8499473859
 30
0.0
 10
29.8920776785
 20
52.7131061083
 30
0.0
  0
SPLINE
  5
361
100
AcDbEntity
  8
0
100
AcDbSpline
 62
7
  6
CONTINUOUS
 70
0
 71
3
 72
15
 73
11
 74
0
 42
0.0000001
 43
0.0000001
 44
0.0000000001
 40
0.0
 40
0.0
 40
0.0
 40
0.0
 40
0.1141241598
 40
0.2373483675
 40
0.3669736385
 40
0.5000010132
 40
0.6330282465
 40
0.7626531028
 40
0.8858766831
 40
1.0
 40
1.0
 40
1.0
 40
1.0
 10
38.801587205
 20
87.4960236906
 30
0.0
 10
38.801587205
 20
87.5798443956
 30
0.0
 10
38.7861965592
 20
87.7543280339
 30
0.0
 10
38.7250234333
 20
88.017547281
 30
0.0
 10
38.6269092351
 20
88.28416905
 30
0.0
 10
38.4956822656
 20
88.5441576071
 30
0.0
 10
38.3361380946
 20
88.7877967833
 30
0.0
 10
38.1542933984
 20
89.0060754609
 30
0.0
 10
37.9569252359
 20
89.1906603708
 30
0.0
 10
37.8135133516
 20
89.2912291162
 30
0.0
 10
37.7409226172
 20
89.3331384481
 30
0.0
  0
SPLINE
  5
362
100
AcDbEntity
  8
0
100
AcDbSpline
 62
7
  6
CONTINUOUS
 70
0
 71
3
 72
15
 73
11
 74
0
 42
0.0000001
 43
0.0000001
 44
0.0000000001
 40
0.0
 40
0.0
 40
0.0
 40
0.0
 40
0.0323973863
 40
0.0563434832
 40
0.0868011245
 40
0.1685648296
 40
0.2789652975
 40
0.4181279905
 40
0.5854920139
 40
1.0
 40
1.0
 40
1.0
 40
1.0
 10
72.5118779079
 20
20.17673976
 30
0.0
 10
72.5141400772
 20
20.1802265059
 30
0.0
 10
72.5136921344
 20
20.1884972594
 30
0.0
 10
72.5094439432
 20
20.1985921505
 30
0.0
 10
72.5006433848
 20
20.2138313062
 30
0.0
 10
72.482834383
 20
20.2362152669
 30
0.0
 10
72.453771805
 20
20.2672754953
 30
0.0
 10
72.415110967
 20
20.3042644609
 30
0.0
 10
72.3460225428
 20
20.3657922612
 30
0.0
 10
72.2882776625
 20
20.4131490416
 30
0.0
 10
72.2467282887
 20
20.4463381519
 30
0.0
  0
SPLINE
  5
363
100
AcDbEntity
  8
0
100
AcDbSpline
 62
7
  6
CONTINUOUS
 70
0
 71
3
 72
18
 73
14
 74
0
 42
0.0000001
 43
0.0000001
 44
0.0000000001
 40
0.0
 40
0.0
 40
0.0
 40
0.0
 40
0.0428479429
 40
0.0874623066
 40
0.1352840435
 40
0.1872323096
 40
0.2437220832
 40
0.3047263631
 40
0.4383562007
 40
0.5826594577
 40
0.729784539
 40
0.8713400481
 40
1.0
 40
1.0
 40
1.0
 40
1.0
 10
31.4412616284
 20
87.5886008581
 30
0.0
 10
31.3857941905
 20
87.5565713204
 30
0.0
 10
31.2635068755
 20
87.5057938852
 30
0.0
 10
31.0616788401
 20
87.4761659509
 30
0.0
 10
30.844935841
 20
87.4921517593
 30
0.0
 10
30.6181035244
 20
87.5524021962
 30
0.0
 10
30.3856102486
 20
87.655126883
 30
0.0
 10
30.064686342
 20
87.8515771305
 30
0.0
 10
29.6823567624
 20
88.1901670497
 30
0.0
 10
29.2894313516
 20
88.6931877044
 30
0.0
 10
28.9799005876
 20
89.2652319165
 30
0.0
 10
28.7790777487
 20
89.8589734884
 30
0.0
 10
28.7252736216
 20
90.2633694585
 30
0.0
 10
28.7252736216
 20
90.4556959826
 30
0.0
  0
SPLINE
  5
364
100
AcDbEntity
  8
0
100
AcDbSpline
 62
7
  6
CONTINUOUS
 70
0
 71
3
 72
12
 73
8
 74
0
 42
0.0000001
 43
0.0000001
 44
0.0000000001
 40
0.0
 40
0.0
 40
0.0
 40
0.0
 40
0.1079029703
 40
0.2183322903
 40
0.4522787072
 40
0.7116711112
 40
1.0
 40
1.0
 40
1.0
 40
1.0
 10
43.3220257453
 20
62.9405261518
 30
0.0
 10
43.2660095627
 20
62.9034428076
 30
0.0
 10
43.1586276637
 20
62.8189514723
 30
0.0
 10
42.9668769388
 20
62.6114117565
 30
0.0
 10
42.7778655096
 20
62.2804042212
 30
0.0
 10
42.6462196871
 20
61.8081696396
 30
0.0
 10
42.6200527311
 20
61.4660788998
 30
0.0
 10
42.6200527311
 20
61.286569661
 30
0.0
  0
SPLINE
  5
365
100
AcDbEntity
  8
0
100
AcDbSpline
 62
7
  6
CONTINUOUS
 70
0
 71
3
 72
17
 73
13
 74
0
 42
0.0000001
 43
0.0000001
 44
0.0000000001
 40
0.0
 40
0.0
 40
0.0
 40
0.0
 40
0.0435197448
 40
0.0898473457
 40
0.1398729653
 40
0.1940400617
 40
0.3146115542
 40
0.4491430419
 40
0.5919924233
 40
0.7360924521
 40
0.8741916456
 40
1.0
 40
1.0
 40
1.0
 40
1.0
 10
37.5766927667
 20
58.9937009798
 30
0.0
 10
37.5341228054
 20
58.9809619649
 30
0.0
 10
37.442849302
 20
58.9651084136
 30
0.0
 10
37.2992876218
 20
58.9707303746
 30
0.0
 10
37.1486001202
 20
59.0044803015
 30
0.0
 10
36.9343404722
 20
59.0887116759
 30
0.0
 10
36.6669079541
 20
59.2625120196
 30
0.0
 10
36.3749265636
 20
59.5479202451
 30
0.0
 10
36.120582863
 20
59.8974141866
 30
0.0
 10
35.922448407
 20
60.2856213985
 30
0.0
 10
35.7948768556
 20
60.6840978215
 30
0.0
 10
35.7610801541
 20
60.953863451
 30
0.0
 10
35.7610801541
 20
61.0823181402
 30
0.0
  0
SPLINE
  5
366
100
AcDbEntity
  8
0
100
AcDbSpline
 62
7
  6
CONTINUOUS
 70
0
 71
3
 72
11
 73
7
 74
0
 42
0.0000001
 43
0.0000001
 44
0.0000000001
 40
0.0
 40
0.0
 40
0.0
 40
0.0
 40
0.289702329
 40
0.5490881649
 40
0.7822156415
 40
1.0
 40
1.0
 40
1.0
 40
1.0
 10
55.5600876909
 20
79.0454714342
 30
0.0
 10
55.4942694548
 20
79.0834707509
 30
0.0
 10
55.3633357598
 20
79.1457584765
 30
0.0
 10
55.1620880651
 20
79.1943561891
 30
0.0
 10
54.9732588523
 20
79.1895750677
 30
0.0
 10
54.8595735839
 20
79.1483178034
 30
0.0
 10
54.810094791
 20
79.1197513707
 30
0.0
  0
SPLINE
  5
367
100
AcDbEntity
  8
0
100
AcDbSpline
 62
7
  6
CONTINUOUS
 70
0
 71
3
 72
15
 73
11
 74
0
 42
0.0000001
 43
0.0000001
 44
0.0000000001
 40
0.0
 40
0.0
 40
0.0
 40
0.0
 40
0.1141241598
 40
0.2373483675
 40
0.3669736385
 40
0.5000010132
 40
0.6330282465
 40
0.7626531028
 40
0.8858766831
 40
1.0
 40
1.0
 40
1.0
 40
1.0
 10
63.5504275851
 20
73.2075972824
 30
0.0
 10
63.5504275851
 20
73.2914179874
 30
0.0
 10
63.5350369393
 20
73.4659016257
 30
0.0
 10
63.4738638135
 20
73.7291208728
 30
0.0
 10
63.3757496153
 20
73.9957426418
 30
0.0
 10
63.2445226457
 20
74.2557311989
 30
0.0
 10
63.0849784747
 20
74.4993703751
 30
0.0
 10
62.9031337785
 20
74.7176490527
 30
0.0
 10
62.705765616
 20
74.9022339626
 30
0.0
 10
62.5623537317
 20
75.002802708
 30
0.0
 10
62.4897629974
 20
75.0447120399
 30
0.0
  0
SPLINE
  5
368
100
AcDbEntity
  8
0
100
AcDbSpline
 62
7
  6
CONTINUOUS
 70
0
 71
3
 72
11
 73
7
 74
0
 42
0.0000001
 43
0.0000001
 44
0.0000000001
 40
0.0
 40
0.0
 40
0.0
 40
0.0
 40
0.2897016594
 40
0.5490895814
 40
0.7822189142
 40
1.0
 40
1.0
 40
1.0
 40
1.0
 10
59.1309918029
 20
72.9013435382
 30
0.0
 10
59.1309918029
 20
73.0153464616
 30
0.0
 10
59.1482762015
 20
73.232156973
 30
0.0
 10
59.2360772642
 20
73.5300454501
 30
0.0
 10
59.3839158648
 20
73.7717648937
 30
0.0
 10
59.5227815675
 20
73.8884994226
 30
0.0
 10
59.5969975593
 20
73.9313552674
 30
0.0
  0
SPLINE
  5
369
100
AcDbEntity
  8
0
100
AcDbSpline
 62
7
  6
CONTINUOUS
 70
0
 71
3
 72
12
 73
8
 74
0
 42
0.0000001
 43
0.0000001
 44
0.0000000001
 40
0.0
 40
0.0
 40
0.0
 40
0.0
 40
0.1079029703
 40
0.2183322903
 40
0.4522787072
 40
0.7116711112
 40
1.0
 40
1.0
 40
1.0
 40
1.0
 10
25.6442826166
 20
57.2247478808
 30
0.0
 10
25.5882664341
 20
57.1876645366
 30
0.0
 10
25.480884535
 20
57.1031732013
 30
0.0
 10
25.2891338101
 20
56.8956334855
 30
0.0
 10
25.1001223809
 20
56.5646259502
 30
0.0
 10
24.9684765584
 20
56.0923913686
 30
0.0
 10
24.9423096024
 20
55.7503006288
 30
0.0
 10
24.9423096024
 20
55.5707913899
 30
0.0
  0
SPLINE
  5
36A
100
AcDbEntity
  8
0
100
AcDbSpline
 62
7
  6
CONTINUOUS
 70
0
 71
3
 72
13
 73
9
 74
0
 42
0.0000001
 43
0.0000001
 44
0.0000000001
 40
0.0
 40
0.0
 40
0.0
 40
0.0
 40
0.114176888
 40
0.2375715548
 40
0.5000017735
 40
0.762431024
 40
0.8858245003
 40
1.0
 40
1.0
 40
1.0
 40
1.0
 10
63.5504275851
 20
67.0838291539
 30
0.0
 10
63.5504275851
 20
67.0279731666
 30
0.0
 10
63.5401328541
 20
66.9116419474
 30
0.0
 10
63.484653187
 20
66.6728108557
 30
0.0
 10
63.3553836883
 20
66.3799391159
 30
0.0
 10
63.1663856525
 20
66.1215520902
 30
0.0
 10
62.9872933918
 20
65.9540904399
 30
0.0
 10
62.8916959359
 20
65.887010112
 30
0.0
 10
62.8433237479
 20
65.8590825829
 30
0.0
  0
SPLINE
  5
36B
100
AcDbEntity
  8
0
100
AcDbSpline
 62
7
  6
CONTINUOUS
 70
0
 71
3
 72
19
 73
15
 74
0
 42
0.0000001
 43
0.0000001
 44
0.0000000001
 40
0.0
 40
0.0
 40
0.0
 40
0.0
 40
0.0427990848
 40
0.0872791531
 40
0.1348147068
 40
0.1863144087
 40
0.2422139981
 40
0.3025286284
 40
0.3669500264
 40
0.4349200998
 40
0.5782428507
 40
0.725372703
 40
0.868354907
 40
1.0
 40
1.0
 40
1.0
 40
1.0
 10
29.337884378
 20
50.8151991282
 30
0.0
 10
29.2491057353
 20
50.7639439855
 30
0.0
 10
29.0540259905
 20
50.6820297687
 30
0.0
 10
28.7323347963
 20
50.6316772159
 30
0.0
 10
28.3868992365
 20
50.652297245
 30
0.0
 10
28.0250329486
 20
50.7421030766
 30
0.0
 10
27.6535567086
 20
50.8985489327
 30
0.0
 10
27.2794804755
 20
51.1180696238
 30
0.0
 10
26.9099572755
 20
51.3961714068
 30
0.0
 10
26.4247867631
 20
51.8455496416
 30
0.0
 10
25.8794003844
 20
52.5147070774
 30
0.0
 10
25.3612974669
 20
53.4195171075
 30
0.0
 10
25.0074770312
 20
54.370488891
 30
0.0
 10
24.8932525737
 20
55.0239949624
 30
0.0
 10
24.8767019157
 20
55.3388758958
 30
0.0
  0
SPLINE
  5
36C
100
AcDbEntity
  8
0
100
AcDbSpline
 62
7
  6
CONTINUOUS
 70
0
 71
3
 72
11
 73
7
 74
0
 42
0.0000001
 43
0.0000001
 44
0.0000000001
 40
0.0
 40
0.0
 40
0.0
 40
0.0
 40
0.289702329
 40
0.5490881649
 40
0.7822156415
 40
1.0
 40
1.0
 40
1.0
 40
1.0
 10
28.5484961903
 20
94.6402682569
 30
0.0
 10
28.4826779542
 20
94.6782675735
 30
0.0
 10
28.3517442591
 20
94.7405552992
 30
0.0
 10
28.1504965645
 20
94.7891530118
 30
0.0
 10
27.9616673517
 20
94.7843718904
 30
0.0
 10
27.8479820833
 20
94.7431146261
 30
0.0
 10
27.7985032904
 20
94.7145481934
 30
0.0
  0
SPLINE
  5
36D
100
AcDbEntity
  8
0
100
AcDbSpline
 62
7
  6
CONTINUOUS
 70
0
 71
3
 72
17
 73
13
 74
0
 42
0.0000001
 43
0.0000001
 44
0.0000000001
 40
0.0
 40
0.0
 40
0.0
 40
0.0
 40
0.0435197448
 40
0.0898473457
 40
0.1398729653
 40
0.1940400617
 40
0.3146115542
 40
0.4491430419
 40
0.5919924233
 40
0.7360924521
 40
0.8741916456
 40
1.0
 40
1.0
 40
1.0
 40
1.0
 10
50.4460897644
 20
43.3986950762
 30
0.0
 10
50.403519803
 20
43.3859560613
 30
0.0
 10
50.3122462997
 20
43.37010251
 30
0.0
 10
50.1686846195
 20
43.375724471
 30
0.0
 10
50.0179971179
 20
43.409474398
 30
0.0
 10
49.8037374699
 20
43.4937057723
 30
0.0
 10
49.5363049518
 20
43.6675061161
 30
0.0
 10
49.2443235613
 20
43.9529143415
 30
0.0
 10
48.9899798607
 20
44.3024082831
 30
0.0
 10
48.7918454047
 20
44.6906154949
 30
0.0
 10
48.6642738533
 20
45.0890919179
 30
0.0
 10
48.6304771518
 20
45.3588575474
 30
0.0
 10
48.6304771518
 20
45.4873122366
 30
0.0
  0
SPLINE
  5
36E
100
AcDbEntity
  8
0
100
AcDbSpline
 62
7
  6
CONTINUOUS
 70
0
 71
3
 72
15
 73
11
 74
0
 42
0.0000001
 43
0.0000001
 44
0.0000000001
 40
0.0
 40
0.0
 40
0.0
 40
0.0
 40
0.1141241598
 40
0.2373483675
 40
0.3669736385
 40
0.5000010132
 40
0.6330282465
 40
0.7626531028
 40
0.8858766831
 40
1.0
 40
1.0
 40
1.0
 40
1.0
 10
66.3789400849
 20
49.9375390696
 30
0.0
 10
66.3789400849
 20
50.0493000096
 30
0.0
 10
66.3584192238
 20
50.2819448607
 30
0.0
 10
66.276855056
 20
50.6329038567
 30
0.0
 10
66.1460361251
 20
50.9883995488
 30
0.0
 10
65.9710668324
 20
51.3350509582
 30
0.0
 10
65.758341271
 20
51.6599031932
 30
0.0
 10
65.5158816761
 20
51.95094143
 30
0.0
 10
65.2527241261
 20
52.1970546432
 30
0.0
 10
65.0615082804
 20
52.3311463037
 30
0.0
 10
64.9647206346
 20
52.3870254129
 30
0.0
  0
SPLINE
  5
36F
100
AcDbEntity
  8
0
100
AcDbSpline
 62
7
  6
CONTINUOUS
 70
0
 71
3
 72
15
 73
11
 74
0
 42
0.0000001
 43
0.0000001
 44
0.0000000001
 40
0.0
 40
0.0
 40
0.0
 40
0.0
 40
0.1141229605
 40
0.2373462928
 40
0.366971064
 40
0.4999983279
 40
0.633025824
 40
0.762651271
 40
0.8858756957
 40
1.0
 40
1.0
 40
1.0
 40
1.0
 10
31.7305488328
 20
76.4733116063
 30
0.0
 10
31.6095652295
 20
76.4034621073
 30
0.0
 10
31.3705473672
 20
76.2358463646
 30
0.0
 10
31.0416033464
 20
75.9282033786
 30
0.0
 10
30.7385314646
 20
75.5644042797
 30
0.0
 10
30.4726267381
 20
75.1583377963
 30
0.0
 10
30.2539169145
 20
74.7250225257
 30
0.0
 10
30.0903945447
 20
74.2806520846
 30
0.0
 10
29.9884401705
 20
73.8419527701
 30
0.0
 10
29.9627892398
 20
73.5511464472
 30
0.0
 10
29.9627892398
 20
73.4114451788
 30
0.0
  0
SPLINE
  5
370
100
AcDbEntity
  8
0
100
AcDbSpline
 62
7
  6
CONTINUOUS
 70
0
 71
3
 72
17
 73
13
 74
0
 42
0.0000001
 43
0.0000001
 44
0.0000000001
 40
0.0
 40
0.0
 40
0.0
 40
0.0
 40
0.0435197448
 40
0.0898473457
 40
0.1398729653
 40
0.1940400617
 40
0.3146115542
 40
0.4491430419
 40
0.5919924233
 40
0.7360924521
 40
0.8741916456
 40
1.0
 40
1.0
 40
1.0
 40
1.0
 10
63.8811745421
 20
45.8484009545
 30
0.0
 10
63.8386045808
 20
45.8356619395
 30
0.0
 10
63.7473310775
 20
45.8198083882
 30
0.0
 10
63.6037693972
 20
45.8254303493
 30
0.0
 10
63.4530818956
 20
45.8591802762
 30
0.0
 10
63.2388222477
 20
45.9434116506
 30
0.0
 10
62.9713897296
 20
46.1172119943
 30
0.0
 10
62.6794083391
 20
46.4026202198
 30
0.0
 10
62.4250646385
 20
46.7521141613
 30
0.0
 10
62.2269301825
 20
47.1403213731
 30
0.0
 10
62.0993586311
 20
47.5387977962
 30
0.0
 10
62.0655619296
 20
47.8085634256
 30
0.0
 10
62.0655619296
 20
47.9370181149
 30
0.0
  0
SPLINE
  5
371
100
AcDbEntity
  8
0
100
AcDbSpline
 62
7
  6
CONTINUOUS
 70
0
 71
3
 72
11
 73
7
 74
0
 42
0.0000001
 43
0.0000001
 44
0.0000000001
 40
0.0
 40
0.0
 40
0.0
 40
0.0
 40
0.2836996847
 40
0.543574541
 40
0.7805831709
 40
1.0
 40
1.0
 40
1.0
 40
1.0
 10
48.6304771518
 20
45.4873122366
 30
0.0
 10
48.6304771518
 20
45.5540840383
 30
0.0
 10
48.638999842
 20
45.6822781725
 30
0.0
 10
48.6807787356
 20
45.862177662
 30
0.0
 10
48.7508877409
 20
46.0168541994
 30
0.0
 10
48.8177776448
 20
46.1026581624
 30
0.0
 10
48.8548331639
 20
46.1386275724
 30
0.0
  0
SPLINE
  5
372
100
AcDbEntity
  8
0
100
AcDbSpline
 62
7
  6
CONTINUOUS
 70
0
 71
3
 72
13
 73
9
 74
0
 42
0.0000001
 43
0.0000001
 44
0.0000000001
 40
0.0
 40
0.0
 40
0.0
 40
0.0
 40
0.114176888
 40
0.2375715548
 40
0.5000017735
 40
0.762431024
 40
0.8858245003
 40
1.0
 40
1.0
 40
1.0
 40
1.0
 10
38.801587205
 20
81.3722555622
 30
0.0
 10
38.801587205
 20
81.3163995748
 30
0.0
 10
38.7912924739
 20
81.2000683556
 30
0.0
 10
38.7358128069
 20
80.9612372639
 30
0.0
 10
38.6065433082
 20
80.6683655241
 30
0.0
 10
38.4175452723
 20
80.4099784984
 30
0.0
 10
38.2384530117
 20
80.2425168481
 30
0.0
 10
38.1428555558
 20
80.1754365202
 30
0.0
 10
38.0944833677
 20
80.1475089911
 30
0.0
  0
SPLINE
  5
373
100
AcDbEntity
  8
0
100
AcDbSpline
 62
7
  6
CONTINUOUS
 70
0
 71
3
 72
11
 73
7
 74
0
 42
0.0000001
 43
0.0000001
 44
0.0000000001
 40
0.0
 40
0.0
 40
0.0
 40
0.0
 40
0.2836996847
 40
0.543574541
 40
0.7805831709
 40
1.0
 40
1.0
 40
1.0
 40
1.0
 10
35.7610801541
 20
61.0823181402
 30
0.0
 10
35.7610801541
 20
61.1490899418
 30
0.0
 10
35.7696028443
 20
61.277284076
 30
0.0
 10
35.8113817379
 20
61.4571835656
 30
0.0
 10
35.8814907433
 20
61.611860103
 30
0.0
 10
35.9483806471
 20
61.697664066
 30
0.0
 10
35.9854361662
 20
61.733633476
 30
0.0
  0
SPLINE
  5
374
100
AcDbEntity
  8
0
100
AcDbSpline
 62
7
  6
CONTINUOUS
 70
0
 71
3
 72
18
 73
14
 74
0
 42
0.0000001
 43
0.0000001
 44
0.0000000001
 40
0.0
 40
0.0
 40
0.0
 40
0.0
 40
0.0428479429
 40
0.0874623066
 40
0.1352840435
 40
0.1872323096
 40
0.2437220832
 40
0.3047263631
 40
0.4383562007
 40
0.5826594577
 40
0.729784539
 40
0.8713400481
 40
1.0
 40
1.0
 40
1.0
 40
1.0
 10
61.8469798097
 20
70.0342484137
 30
0.0
 10
61.7915123718
 20
70.002218876
 30
0.0
 10
61.6692250568
 20
69.9514414408
 30
0.0
 10
61.4673970215
 20
69.9218135065
 30
0.0
 10
61.2506540223
 20
69.9377993149
 30
0.0
 10
61.0238217057
 20
69.9980497518
 30
0.0
 10
60.7913284299
 20
70.1007744386
 30
0.0
 10
60.4704045233
 20
70.2972246861
 30
0.0
 10
60.0880749437
 20
70.6358146053
 30
0.0
 10
59.6951495329
 20
71.1388352601
 30
0.0
 10
59.3856187689
 20
71.7108794721
 30
0.0
 10
59.18479593
 20
72.304621044
 30
0.0
 10
59.1309918029
 20
72.7090170142
 30
0.0
 10
59.1309918029
 20
72.9013435382
 30
0.0
  0
SPLINE
  5
375
100
AcDbEntity
  8
0
100
AcDbSpline
 62
7
  6
CONTINUOUS
 70
0
 71
3
 72
11
 73
7
 74
0
 42
0.0000001
 43
0.0000001
 44
0.0000000001
 40
0.0
 40
0.0
 40
0.0
 40
0.0
 40
0.2836996847
 40
0.543574541
 40
0.7805831709
 40
1.0
 40
1.0
 40
1.0
 40
1.0
 10
40.8522701751
 20
68.3492649218
 30
0.0
 10
40.8522701751
 20
68.4160367234
 30
0.0
 10
40.8607928654
 20
68.5442308576
 30
0.0
 10
40.902571759
 20
68.7241303471
 30
0.0
 10
40.9726807643
 20
68.8788068845
 30
0.0
 10
41.0395706682
 20
68.9646108476
 30
0.0
 10
41.0766261873
 20
69.0005802576
 30
0.0
  0
SPLINE
  5
376
100
AcDbEntity
  8
0
100
AcDbSpline
 62
7
  6
CONTINUOUS
 70
0
 71
3
 72
25
 73
21
 74
0
 42
0.0000001
 43
0.0000001
 44
0.0000000001
 40
0.0
 40
0.0
 40
0.0
 40
0.0
 40
0.0603490901
 40
0.1143636154
 40
0.1629234024
 40
0.1858956393
 40
0.2084410539
 40
0.2309859043
 40
0.2539549352
 40
0.302521837
 40
0.3565189777
 40
0.4168774049
 40
0.4834396988
 40
0.5552607105
 40
0.6308608867
 40
0.708428407
 40
0.7860015138
 40
0.8615977461
 40
0.9334435829
 40
1.0
 40
1.0
 40
1.0
 40
1.0
 10
50.8932371041
 20
42.9562144596
 30
0.0
 10
50.8932371041
 20
42.7991210964
 30
0.0
 10
50.869382619
 20
42.5003714919
 30
0.0
 10
50.7486696515
 20
42.0901041835
 30
0.0
 10
50.575005961
 20
41.8071082215
 30
0.0
 10
50.3997161881
 20
41.6346320553
 30
0.0
 10
50.2537235073
 20
41.5327214522
 30
0.0
 10
50.0924760133
 20
41.4572641373
 30
0.0
 10
49.8554766794
 20
41.391596424
 30
0.0
 10
49.5236045753
 20
41.3828000491
 30
0.0
 10
49.1078466827
 20
41.4833485433
 30
0.0
 10
48.6801190416
 20
41.6868168222
 30
0.0
 10
48.2548868692
 20
41.9849423429
 30
0.0
 10
47.8469238543
 20
42.3665408742
 30
0.0
 10
47.4711222633
 20
42.8175268878
 30
0.0
 10
47.1414063813
 20
43.3211091479
 30
0.0
 10
46.8701747636
 20
43.8584238083
 30
0.0
 10
46.6674044157
 20
44.4094508317
 30
0.0
 10
46.5409349864
 20
44.9534526275
 30
0.0
 10
46.5091568082
 20
45.3140556209
 30
0.0
 10
46.5091568082
 20
45.4873071376
 30
0.0
  0
SPLINE
  5
377
100
AcDbEntity
  8
0
100
AcDbSpline
 62
7
  6
CONTINUOUS
 70
0
 71
3
 72
11
 73
7
 74
0
 42
0.0000001
 43
0.0000001
 44
0.0000000001
 40
0.0
 40
0.0
 40
0.0
 40
0.0
 40
0.2836996847
 40
0.543574541
 40
0.7805831709
 40
1.0
 40
1.0
 40
1.0
 40
1.0
 10
21.7603075962
 20
58.550953657
 30
0.0
 10
21.7603075962
 20
58.6177254586
 30
0.0
 10
21.7688302864
 20
58.7459195929
 30
0.0
 10
21.81060918
 20
58.9258190824
 30
0.0
 10
21.8807181853
 20
59.0804956198
 30
0.0
 10
21.9476080892
 20
59.1662995828
 30
0.0
 10
21.9846636083
 20
59.2022689928
 30
0.0
  0
SPLINE
  5
378
100
AcDbEntity
  8
0
100
AcDbSpline
 62
7
  6
CONTINUOUS
 70
0
 71
3
 72
20
 73
16
 74
0
 42
0.0000001
 43
0.0000001
 44
0.0000000001
 40
0.0
 40
0.0
 40
0.0
 40
0.0
 40
0.0623916035
 40
0.1288092748
 40
0.2703025718
 40
0.4173642577
 40
0.5616164443
 40
0.6302527556
 40
0.6953793506
 40
0.7563616492
 40
0.8128308978
 40
0.864763655
 40
0.9125655983
 40
0.957167102
 40
1.0
 40
1.0
 40
1.0
 40
1.0
 10
47.4991104234
 20
58.3880599639
 30
0.0
 10
47.4991104234
 20
58.5249017056
 30
0.0
 10
47.4804997052
 20
58.807614337
 30
0.0
 10
47.3766233337
 20
59.3921888567
 30
0.0
 10
47.125525905
 20
60.1343778884
 30
0.0
 10
46.6718862299
 20
60.9727139638
 30
0.0
 10
46.1832039873
 20
61.5985996468
 30
0.0
 10
45.7434094273
 20
62.0221858928
 30
0.0
 10
45.4064311702
 20
62.2860338046
 30
0.0
 10
45.0639727168
 20
62.495523708
 30
0.0
 10
44.7230017982
 20
62.6462033419
 30
0.0
 10
44.3903100068
 20
62.7346461787
 30
0.0
 10
44.0724083913
 20
62.7579800391
 30
0.0
 10
43.7763586551
 20
62.7146584222
 30
0.0
 10
43.5970320993
 20
62.6400828945
 30
0.0
 10
43.5156656012
 20
62.5931254354
 30
0.0
  0
SPLINE
  5
379
100
AcDbEntity
  8
0
100
AcDbSpline
 62
7
  6
CONTINUOUS
 70
0
 71
3
 72
21
 73
17
 74
0
 42
0.0000001
 43
0.0000001
 44
0.0000000001
 40
0.0
 40
0.0
 40
0.0
 40
0.0
 40
0.1332222187
 40
0.1932358227
 40
0.2492442263
 40
0.3021084947
 40
0.35302189
 40
0.4034355991
 40
0.4548835359
 40
0.5087552476
 40
0.5661166387
 40
0.6276721938
 40
0.6937483273
 40
0.7643717591
 40
0.8392983816
 40
1.0
 40
1.0
 40
1.0
 40
1.0
 10
46.5091568082
 20
45.4873071376
 30
0.0
 10
46.5091568082
 20
45.6831380454
 30
0.0
 10
46.5373240602
 20
45.9697545137
 30
0.0
 10
46.6509514795
 20
46.3193336465
 30
0.0
 10
46.7654799782
 20
46.541046455
 30
0.0
 10
46.9109761698
 20
46.7273413376
 30
0.0
 10
47.0853053107
 20
46.8748698498
 30
0.0
 10
47.2856183889
 20
46.9802717436
 30
0.0
 10
47.5078336861
 20
47.0418026286
 30
0.0
 10
47.7478021912
 20
47.0586462658
 30
0.0
 10
48.0014893974
 20
47.031359914
 30
0.0
 10
48.2650510923
 20
46.9607106826
 30
0.0
 10
48.534698855
 20
46.8482306314
 30
0.0
 10
48.8065217226
 20
46.6956459563
 30
0.0
 10
49.1749695298
 20
46.436010681
 30
0.0
 10
49.4291792354
 20
46.1974794943
 30
0.0
 10
49.5889560557
 20
46.0234871006
 30
0.0
  0
SPLINE
  5
37A
100
AcDbEntity
  8
0
100
AcDbSpline
 62
7
  6
CONTINUOUS
 70
0
 71
3
 72
12
 73
8
 74
0
 42
0.0000001
 43
0.0000001
 44
0.0000000001
 40
0.0
 40
0.0
 40
0.0
 40
0.0
 40
0.2577338646
 40
0.5194762266
 40
0.7709219183
 40
0.8889875331
 40
1.0
 40
1.0
 40
1.0
 40
1.0
 10
49.5889560557
 20
46.0234871006
 30
0.0
 10
49.7865191399
 20
45.8083465446
 30
0.0
 10
50.1453742275
 20
45.3372429057
 30
0.0
 10
50.5561099634
 20
44.5622630999
 30
0.0
 10
50.7828828992
 20
43.8790862354
 30
0.0
 10
50.8764895675
 20
43.3418168947
 30
0.0
 10
50.8932371041
 20
43.0820250258
 30
0.0
 10
50.8932371041
 20
42.9562144596
 30
0.0
  0
SPLINE
  5
37B
100
AcDbEntity
  8
0
100
AcDbSpline
 62
7
  6
CONTINUOUS
 70
0
 71
3
 72
11
 73
7
 74
0
 42
0.0000001
 43
0.0000001
 44
0.0000000001
 40
0.0
 40
0.0
 40
0.0
 40
0.0
 40
0.2836996847
 40
0.543574541
 40
0.7805831709
 40
1.0
 40
1.0
 40
1.0
 40
1.0
 10
62.0655619296
 20
47.9370181149
 30
0.0
 10
62.0655619296
 20
48.0037899165
 30
0.0
 10
62.0740846198
 20
48.1319840507
 30
0.0
 10
62.1158635134
 20
48.3118835402
 30
0.0
 10
62.1859725187
 20
48.4665600776
 30
0.0
 10
62.2528624226
 20
48.5523640406
 30
0.0
 10
62.2899179417
 20
48.5883334507
 30
0.0
  0
SPLINE
  5
37C
100
AcDbEntity
  8
0
100
AcDbSpline
 62
7
  6
CONTINUOUS
 70
0
 71
3
 72
13
 73
9
 74
0
 42
0.0000001
 43
0.0000001
 44
0.0000000001
 40
0.0
 40
0.0
 40
0.0
 40
0.0
 40
0.289346821
 40
0.5483220505
 40
0.6677482885
 40
0.781762844
 40
0.8919044568
 40
1.0
 40
1.0
 40
1.0
 40
1.0
 10
47.5698208072
 20
58.4288843793
 30
0.0
 10
47.5698208072
 20
58.261654439
 30
0.0
 10
47.5445919875
 20
57.9437993071
 30
0.0
 10
47.4341829921
 20
57.5698770177
 30
0.0
 10
47.3001507524
 20
57.3178300023
 30
0.0
 10
47.1818829028
 20
57.1573368479
 30
0.0
 10
47.0444809826
 20
57.0220301092
 30
0.0
 10
46.9404516703
 20
56.9494353203
 30
0.0
 10
46.8863416992
 20
56.9182074497
 30
0.0
  0
SPLINE
  5
37D
100
AcDbEntity
  8
0
100
AcDbSpline
 62
7
  6
CONTINUOUS
 70
0
 71
3
 72
19
 73
15
 74
0
 42
0.0000001
 43
0.0000001
 44
0.0000000001
 40
0.0
 40
0.0
 40
0.0
 40
0.0
 40
0.1312169412
 40
0.2734278022
 40
0.4197696175
 40
0.5626445003
 40
0.6306042139
 40
0.695185683
 40
0.7558299541
 40
0.8121990698
 40
0.8642487799
 40
0.9123129872
 40
0.9571571559
 40
1.0
 40
1.0
 40
1.0
 40
1.0
 10
24.9488631341
 20
55.3537669862
 30
0.0
 10
24.9672019709
 20
55.0446705693
 30
0.0
 10
25.0813449937
 20
54.4042859566
 30
0.0
 10
25.4278559756
 20
53.4718059126
 30
0.0
 10
25.9327839844
 20
52.582906567
 30
0.0
 10
26.4635813676
 20
51.9224733859
 30
0.0
 10
26.936214507
 20
51.4751335558
 30
0.0
 10
27.2972216849
 20
51.1953887976
 30
0.0
 10
27.6635668195
 20
50.9712019855
 30
0.0
 10
28.0285145637
 20
50.8070052789
 30
0.0
 10
28.38538459
 20
50.7062534123
 30
0.0
 10
28.7277459588
 20
50.6714465824
 30
0.0
 10
29.0488007141
 20
50.704498827
 30
0.0
 10
29.2464858863
 20
50.7731391451
 30
0.0
 10
29.3371608296
 20
50.8178492497
 30
0.0
  0
SPLINE
  5
37E
100
AcDbEntity
  8
0
100
AcDbSpline
 62
7
  6
CONTINUOUS
 70
0
 71
3
 72
19
 73
15
 74
0
 42
0.0000001
 43
0.0000001
 44
0.0000000001
 40
0.0
 40
0.0
 40
0.0
 40
0.0
 40
0.1312169412
 40
0.2734278022
 40
0.4197696175
 40
0.5626445003
 40
0.6306042139
 40
0.695185683
 40
0.7558299541
 40
0.8121990698
 40
0.8642487799
 40
0.9123129872
 40
0.9571571559
 40
1.0
 40
1.0
 40
1.0
 40
1.0
 10
42.6266062628
 20
61.0695452572
 30
0.0
 10
42.6449450996
 20
60.7604488403
 30
0.0
 10
42.7590881224
 20
60.1200642276
 30
0.0
 10
43.1055991043
 20
59.1875841837
 30
0.0
 10
43.610527113
 20
58.2986848381
 30
0.0
 10
44.1413244963
 20
57.6382516569
 30
0.0
 10
44.6139576357
 20
57.1909118268
 30
0.0
 10
44.9749648136
 20
56.9111670686
 30
0.0
 10
45.3413099482
 20
56.6869802565
 30
0.0
 10
45.7062576924
 20
56.5227835499
 30
0.0
 10
46.0631277187
 20
56.4220316833
 30
0.0
 10
46.4054890874
 20
56.3872248534
 30
0.0
 10
46.7265438428
 20
56.420277098
 30
0.0
 10
46.924229015
 20
56.4889174162
 30
0.0
 10
47.0149039583
 20
56.5336275207
 30
0.0
  0
SPLINE
  5
37F
100
AcDbEntity
  8
0
100
AcDbSpline
 62
7
  6
CONTINUOUS
 70
0
 71
3
 72
13
 73
9
 74
0
 42
0.0000001
 43
0.0000001
 44
0.0000000001
 40
0.0
 40
0.0
 40
0.0
 40
0.0
 40
0.289346821
 40
0.5483220505
 40
0.6677482885
 40
0.781762844
 40
0.8919044568
 40
1.0
 40
1.0
 40
1.0
 40
1.0
 10
29.8920776785
 20
52.7131061083
 30
0.0
 10
29.8920776785
 20
52.545876168
 30
0.0
 10
29.8668488589
 20
52.2280210361
 30
0.0
 10
29.7564398634
 20
51.8540987467
 30
0.0
 10
29.6224076238
 20
51.6020517313
 30
0.0
 10
29.5041397741
 20
51.4415585769
 30
0.0
 10
29.3667378539
 20
51.3062518382
 30
0.0
 10
29.2627085417
 20
51.2336570493
 30
0.0
 10
29.2085985705
 20
51.2024291787
 30
0.0
  0
SPLINE
  5
380
100
AcDbEntity
  8
0
100
AcDbSpline
 62
7
  6
CONTINUOUS
 70
0
 71
3
 72
20
 73
16
 74
0
 42
0.0000001
 43
0.0000001
 44
0.0000000001
 40
0.0
 40
0.0
 40
0.0
 40
0.0
 40
0.0623916035
 40
0.1288092748
 40
0.2703025718
 40
0.4173642577
 40
0.5616164443
 40
0.6302527556
 40
0.6953793506
 40
0.7563616492
 40
0.8128308978
 40
0.864763655
 40
0.9125655983
 40
0.957167102
 40
1.0
 40
1.0
 40
1.0
 40
1.0
 10
29.8213672948
 20
52.6722816929
 30
0.0
 10
29.8213672948
 20
52.8091234346
 30
0.0
 10
29.8027565766
 20
53.0918360659
 30
0.0
 10
29.6988802051
 20
53.6764105857
 30
0.0
 10
29.4477827763
 20
54.4185996173
 30
0.0
 10
28.9941431012
 20
55.2569356928
 30
0.0
 10
28.5054608587
 20
55.8828213758
 30
0.0
 10
28.0656662986
 20
56.3064076218
 30
0.0
 10
27.7286880415
 20
56.5702555336
 30
0.0
 10
27.3862295881
 20
56.779745437
 30
0.0
 10
27.0452586695
 20
56.9304250709
 30
0.0
 10
26.7125668782
 20
57.0188679077
 30
0.0
 10
26.3946652627
 20
57.0422017681
 30
0.0
 10
26.0986155264
 20
56.9988801512
 30
0.0
 10
25.9192889706
 20
56.9243046235
 30
0.0
 10
25.8379224726
 20
56.8773471644
 30
0.0
  0
SPLINE
  5
381
100
AcDbEntity
  8
0
100
AcDbSpline
 62
7
  6
CONTINUOUS
 70
0
 71
3
 72
25
 73
21
 74
0
 42
0.0000001
 43
0.0000001
 44
0.0000000001
 40
0.0
 40
0.0
 40
0.0
 40
0.0
 40
0.0603490901
 40
0.1143636154
 40
0.1629234024
 40
0.1858956393
 40
0.2084410539
 40
0.2309859043
 40
0.2539549352
 40
0.302521837
 40
0.3565189777
 40
0.4168774049
 40
0.4834396988
 40
0.5552607105
 40
0.6308608867
 40
0.708428407
 40
0.7860015138
 40
0.8615977461
 40
0.9334435829
 40
1.0
 40
1.0
 40
1.0
 40
1.0
 10
38.0238401065
 20
58.5512203632
 30
0.0
 10
38.0238401065
 20
58.3941269999
 30
0.0
 10
37.9999856213
 20
58.0953773954
 30
0.0
 10
37.8792726538
 20
57.685110087
 30
0.0
 10
37.7056089633
 20
57.402114125
 30
0.0
 10
37.5303191904
 20
57.2296379589
 30
0.0
 10
37.3843265096
 20
57.1277273558
 30
0.0
 10
37.2230790157
 20
57.0522700408
 30
0.0
 10
36.9860796818
 20
56.9866023275
 30
0.0
 10
36.6542075776
 20
56.9778059527
 30
0.0
 10
36.238449685
 20
57.0783544469
 30
0.0
 10
35.8107220439
 20
57.2818227258
 30
0.0
 10
35.3854898715
 20
57.5799482465
 30
0.0
 10
34.9775268566
 20
57.9615467778
 30
0.0
 10
34.6017252657
 20
58.4125327914
 30
0.0
 10
34.2720093837
 20
58.9161150515
 30
0.0
 10
34.0007777659
 20
59.4534297119
 30
0.0
 10
33.798007418
 20
60.0044567352
 30
0.0
 10
33.6715379887
 20
60.5484585311
 30
0.0
 10
33.6397598105
 20
60.9090615245
 30
0.0
 10
33.6397598105
 20
61.0823130412
 30
0.0
  0
SPLINE
  5
382
100
AcDbEntity
  8
0
100
AcDbSpline
 62
7
  6
CONTINUOUS
 70
0
 71
3
 72
15
 73
11
 74
0
 42
0.0000001
 43
0.0000001
 44
0.0000000001
 40
0.0
 40
0.0
 40
0.0
 40
0.0
 40
0.1141229605
 40
0.2373462928
 40
0.366971064
 40
0.4999983279
 40
0.633025824
 40
0.762651271
 40
0.8858756957
 40
1.0
 40
1.0
 40
1.0
 40
1.0
 10
56.479389213
 20
62.1848851981
 30
0.0
 10
56.3584056096
 20
62.1150356991
 30
0.0
 10
56.1193877473
 20
61.9474199564
 30
0.0
 10
55.7904437266
 20
61.6397769704
 30
0.0
 10
55.4873718448
 20
61.2759778715
 30
0.0
 10
55.2214671182
 20
60.8699113881
 30
0.0
 10
55.0027572946
 20
60.4365961175
 30
0.0
 10
54.8392349249
 20
59.9922256764
 30
0.0
 10
54.7372805507
 20
59.5535263619
 30
0.0
 10
54.7116296199
 20
59.262720039
 30
0.0
 10
54.7116296199
 20
59.1230187706
 30
0.0
  0
SPLINE
  5
383
100
AcDbEntity
  8
0
100
AcDbSpline
 62
7
  6
CONTINUOUS
 70
0
 71
3
 72
21
 73
17
 74
0
 42
0.0000001
 43
0.0000001
 44
0.0000000001
 40
0.0
 40
0.0
 40
0.0
 40
0.0
 40
0.1332222187
 40
0.1932358227
 40
0.2492442263
 40
0.3021084947
 40
0.35302189
 40
0.4034355991
 40
0.4548835359
 40
0.5087552476
 40
0.5661166387
 40
0.6276721938
 40
0.6937483273
 40
0.7643717591
 40
0.8392983816
 40
1.0
 40
1.0
 40
1.0
 40
1.0
 10
33.6397598105
 20
61.0823130412
 30
0.0
 10
33.6397598105
 20
61.278143949
 30
0.0
 10
33.6679270625
 20
61.5647604173
 30
0.0
 10
33.7815544818
 20
61.91433955
 30
0.0
 10
33.8960829805
 20
62.1360523586
 30
0.0
 10
34.0415791721
 20
62.3223472412
 30
0.0
 10
34.215908313
 20
62.4698757534
 30
0.0
 10
34.4162213912
 20
62.5752776471
 30
0.0
 10
34.6384366885
 20
62.6368085321
 30
0.0
 10
34.8784051936
 20
62.6536521693
 30
0.0
 10
35.1320923997
 20
62.6263658176
 30
0.0
 10
35.3956540947
 20
62.5557165862
 30
0.0
 10
35.6653018573
 20
62.443236535
 30
0.0
 10
35.9371247249
 20
62.2906518598
 30
0.0
 10
36.3055725321
 20
62.0310165846
 30
0.0
 10
36.5597822377
 20
61.7924853979
 30
0.0
 10
36.719559058
 20
61.6184930041
 30
0.0
  0
SPLINE
  5
384
100
AcDbEntity
  8
0
100
AcDbSpline
 62
7
  6
CONTINUOUS
 70
0
 71
3
 72
12
 73
8
 74
0
 42
0.0000001
 43
0.0000001
 44
0.0000000001
 40
0.0
 40
0.0
 40
0.0
 40
0.0
 40
0.2577338646
 40
0.5194762266
 40
0.7709219183
 40
0.8889875331
 40
1.0
 40
1.0
 40
1.0
 40
1.0
 10
36.719559058
 20
61.6184930041
 30
0.0
 10
36.9171221422
 20
61.4033524482
 30
0.0
 10
37.2759772298
 20
60.9322488092
 30
0.0
 10
37.6867129657
 20
60.1572690034
 30
0.0
 10
37.9134859015
 20
59.474092139
 30
0.0
 10
38.0070925698
 20
58.9368227983
 30
0.0
 10
38.0238401065
 20
58.6770309293
 30
0.0
 10
38.0238401065
 20
58.5512203632
 30
0.0
  0
SPLINE
  5
385
100
AcDbEntity
  8
0
100
AcDbSpline
 62
7
  6
CONTINUOUS
 70
0
 71
3
 72
21
 73
17
 74
0
 42
0.0000001
 43
0.0000001
 44
0.0000000001
 40
0.0
 40
0.0
 40
0.0
 40
0.0
 40
0.1332222187
 40
0.1932358227
 40
0.2492442263
 40
0.3021084947
 40
0.35302189
 40
0.4034355991
 40
0.4548835359
 40
0.5087552476
 40
0.5661166387
 40
0.6276721938
 40
0.6937483273
 40
0.7643717591
 40
0.8392983816
 40
1.0
 40
1.0
 40
1.0
 40
1.0
 10
38.7309498316
 20
68.3492598228
 30
0.0
 10
38.7309498316
 20
68.5450907305
 30
0.0
 10
38.7591170836
 20
68.8317071989
 30
0.0
 10
38.8727445029
 20
69.1812863316
 30
0.0
 10
38.9872730016
 20
69.4029991401
 30
0.0
 10
39.1327691932
 20
69.5892940227
 30
0.0
 10
39.307098334
 20
69.7368225349
 30
0.0
 10
39.5074114122
 20
69.8422244287
 30
0.0
 10
39.7296267095
 20
69.9037553137
 30
0.0
 10
39.9695952146
 20
69.9205989509
 30
0.0
 10
40.2232824208
 20
69.8933125991
 30
0.0
 10
40.4868441157
 20
69.8226633678
 30
0.0
 10
40.7564918784
 20
69.7101833165
 30
0.0
 10
41.028314746
 20
69.5575986414
 30
0.0
 10
41.3967625532
 20
69.2979633662
 30
0.0
 10
41.6509722588
 20
69.0594321794
 30
0.0
 10
41.810749079
 20
68.8854397857
 30
0.0
  0
SPLINE
  5
386
100
AcDbEntity
  8
0
100
AcDbSpline
 62
7
  6
CONTINUOUS
 70
0
 71
3
 72
12
 73
8
 74
0
 42
0.0000001
 43
0.0000001
 44
0.0000000001
 40
0.0
 40
0.0
 40
0.0
 40
0.0
 40
0.2577338646
 40
0.5194762266
 40
0.7709219183
 40
0.8889875331
 40
1.0
 40
1.0
 40
1.0
 40
1.0
 10
41.810749079
 20
68.8854397857
 30
0.0
 10
42.0083121633
 20
68.6702992297
 30
0.0
 10
42.3671672509
 20
68.1991955908
 30
0.0
 10
42.7779029868
 20
67.424215785
 30
0.0
 10
43.0046759226
 20
66.7410389205
 30
0.0
 10
43.0982825909
 20
66.2037695799
 30
0.0
 10
43.1150301275
 20
65.9439777109
 30
0.0
 10
43.1150301275
 20
65.8181671447
 30
0.0
  0
SPLINE
  5
387
100
AcDbEntity
  8
0
100
AcDbSpline
 62
7
  6
CONTINUOUS
 70
0
 71
3
 72
19
 73
15
 74
0
 42
0.0000001
 43
0.0000001
 44
0.0000000001
 40
0.0
 40
0.0
 40
0.0
 40
0.0
 40
0.0900617776
 40
0.1886559675
 40
0.2918555362
 40
0.3950549493
 40
0.4936486942
 40
0.5837098063
 40
0.6627811341
 40
0.730917647
 40
0.7918540704
 40
0.8527907573
 40
0.9209279142
 40
1.0
 40
1.0
 40
1.0
 40
1.0
 10
65.6718126959
 20
47.0797176294
 30
0.0
 10
65.6718126959
 20
47.2307322198
 30
0.0
 10
65.6344292092
 20
47.5474268608
 30
0.0
 10
65.4917726322
 20
48.017592166
 30
0.0
 10
65.2687414256
 20
48.4800171733
 30
0.0
 10
64.9798419215
 20
48.90432266
 30
0.0
 10
64.6437956192
 20
49.2630802491
 30
0.0
 10
64.2817491013
 20
49.5333137275
 30
0.0
 10
63.9149053416
 20
49.697589283
 30
0.0
 10
63.5615673347
 20
49.7423215704
 30
0.0
 10
63.245029849
 20
49.6500056157
 30
0.0
 10
63.0068124281
 20
49.4219974124
 30
0.0
 10
62.8688817497
 20
49.0937792599
 30
0.0
 10
62.8433737953
 20
48.8452678445
 30
0.0
 10
62.8433737953
 20
48.7126806475
 30
0.0
  0
SPLINE
  5
388
100
AcDbEntity
  8
0
100
AcDbSpline
 62
7
  6
CONTINUOUS
 70
0
 71
3
 72
19
 73
15
 74
0
 42
0.0000001
 43
0.0000001
 44
0.0000000001
 40
0.0
 40
0.0
 40
0.0
 40
0.0
 40
0.0790720858
 40
0.1472092427
 40
0.2081459296
 40
0.269082353
 40
0.3372188659
 40
0.4162901937
 40
0.5063513058
 40
0.6049450507
 40
0.7081444638
 40
0.8113440325
 40
0.9099382224
 40
1.0
 40
1.0
 40
1.0
 40
1.0
 10
60.7220622837
 20
47.4879481859
 30
0.0
 10
60.7220622837
 20
47.6205353829
 30
0.0
 10
60.7475702381
 20
47.8690467983
 30
0.0
 10
60.8855009165
 20
48.1972649508
 30
0.0
 10
61.1237183374
 20
48.4252731541
 30
0.0
 10
61.440255823
 20
48.5175891088
 30
0.0
 10
61.79359383
 20
48.4728568214
 30
0.0
 10
62.1604375897
 20
48.3085812659
 30
0.0
 10
62.5224841076
 20
48.0383477875
 30
0.0
 10
62.8585304098
 20
47.6795901984
 30
0.0
 10
63.147429914
 20
47.2552847117
 30
0.0
 10
63.3704611206
 20
46.7928597044
 30
0.0
 10
63.5131176975
 20
46.3226943992
 30
0.0
 10
63.5505011843
 20
46.0059997581
 30
0.0
 10
63.5505011843
 20
45.8549851678
 30
0.0
  0
SPLINE
  5
389
100
AcDbEntity
  8
0
100
AcDbSpline
 62
7
  6
CONTINUOUS
 70
0
 71
3
 72
19
 73
15
 74
0
 42
0.0000001
 43
0.0000001
 44
0.0000000001
 40
0.0
 40
0.0
 40
0.0
 40
0.0
 40
0.0900617776
 40
0.1886559675
 40
0.2918555362
 40
0.3950549493
 40
0.4936486942
 40
0.5837098063
 40
0.6627811341
 40
0.730917647
 40
0.7918540704
 40
0.8527907573
 40
0.9209279142
 40
1.0
 40
1.0
 40
1.0
 40
1.0
 10
62.8433737953
 20
48.7126806475
 30
0.0
 10
62.8433737953
 20
48.5616660571
 30
0.0
 10
62.8807572821
 20
48.2449714161
 30
0.0
 10
63.023413859
 20
47.7748061109
 30
0.0
 10
63.2464450656
 20
47.3123811036
 30
0.0
 10
63.5353445697
 20
46.8880756169
 30
0.0
 10
63.871390872
 20
46.5293180278
 30
0.0
 10
64.2334373899
 20
46.2590845494
 30
0.0
 10
64.6002811496
 20
46.0948089939
 30
0.0
 10
64.9536191566
 20
46.0500767065
 30
0.0
 10
65.2701566422
 20
46.1423926612
 30
0.0
 10
65.5083740631
 20
46.3704008645
 30
0.0
 10
65.6463047415
 20
46.698619017
 30
0.0
 10
65.6718126959
 20
46.9471304324
 30
0.0
 10
65.6718126959
 20
47.0797176294
 30
0.0
  0
SPLINE
  5
38A
100
AcDbEntity
  8
0
100
AcDbSpline
 62
7
  6
CONTINUOUS
 70
0
 71
3
 72
19
 73
15
 74
0
 42
0.0000001
 43
0.0000001
 44
0.0000000001
 40
0.0
 40
0.0
 40
0.0
 40
0.0
 40
0.0790720858
 40
0.1472092427
 40
0.2081459296
 40
0.269082353
 40
0.3372188659
 40
0.4162901937
 40
0.5063513058
 40
0.6049450507
 40
0.7081444638
 40
0.8113440325
 40
0.9099382224
 40
1.0
 40
1.0
 40
1.0
 40
1.0
 10
63.5505011843
 20
45.8549851678
 30
0.0
 10
63.5505011843
 20
45.7223979708
 30
0.0
 10
63.5249932299
 20
45.4738865554
 30
0.0
 10
63.3870625515
 20
45.1456684028
 30
0.0
 10
63.1488451306
 20
44.9176601996
 30
0.0
 10
62.8323076449
 20
44.8253442449
 30
0.0
 10
62.4789696379
 20
44.8700765323
 30
0.0
 10
62.1121258783
 20
45.0343520878
 30
0.0
 10
61.7500793604
 20
45.3045855661
 30
0.0
 10
61.4140330581
 20
45.6633431553
 30
0.0
 10
61.125133554
 20
46.087648642
 30
0.0
 10
60.9021023474
 20
46.5500736492
 30
0.0
 10
60.7594457704
 20
47.0202389545
 30
0.0
 10
60.7220622837
 20
47.3369335955
 30
0.0
 10
60.7220622837
 20
47.4879481859
 30
0.0
  0
ENDSEC
  0
SECTION
  2
OBJECTS
  0
DICTIONARY
  5
C
100
AcDbDictionary
280
0
281
1
  3
ACAD_GROUP
350
D
  3
ACAD_MLINESTYLE
350
17
  3
ACAD_LAYOUT
350
1A
  3
ACAD_PLOTSETTINGS
350
19
  3
ACAD_PLOTSTYLENAME
350
E
  0
DICTIONARY
  5
D
102
{ACAD_REACTORS
330
C
102
}
100
AcDbDictionary
280
0
281
1
  0
ACDBDICTIONARYWDFLT
  5
E
102
{ACAD_REACTORS
330
C
102
}
100
AcDbDictionary
281
1
  3
Normal
350
F
100
AcDbDictionaryWithDefault
340
F
  0
DICTIONARY
  5
17
102
{ACAD_REACTORS
330
C
102
}
100
AcDbDictionary
280
0
281
1
  3
Standard
350
18
  0
DICTIONARY
  5
19
102
{ACAD_REACTORS
330
C
102
}
100
AcDbDictionary
281
1
  0
DICTIONARY
  5
1A
102
{ACAD_REACTORS
330
C
102
}
100
AcDbDictionary
281
1
  3
Model
350
38B
  3
Layout1
350
38C
  0
ACDBPLACEHOLDER
  5
F
102
{ACAD_REACTORS
330
E
102
}
  0
MLINESTYLE
  5
18
102
{ACAD_REACTORS
330
17
102
}
100
AcDbMlineStyle
  2
STANDARD
 70
0
  3

 62
256
 51
90.0
 52
90.0
 71
2
 49
0.5
 62
256
  6
BYLAYER
 49
-0.5
 62
256
  6
BYLAYER
  0
LAYOUT
  5
38B
102
{ACAD_REACTORS
330
1A
102
}
100
AcDbPlotSettings
  1

  2
none_device
  4

  6

 40
0.0
 41
0.0
 42
0.0
 43
0.0
 44
210.0
 45
297.0
 46
0.0
 47
0.0
 48
0.0
 49
0.0
140
0.0
141
0.0
142
1.0
143
1.0
 70
1024
 72
1
 73
0
 74
0
  7

 75
0
147
1.0
148
0.0
149
0.0
100
AcDbLayout
  1
Model
 70
0
 71
0
 10
0.0
 20
0.0
 11
210.0
 21
297.0
 12
0.0
 22
0.0
 32
0.0
 14
0.0
 24
0.0
 34
0.0
 15
0.0
 25
0.0
 35
0.0
146
0.0
 13
0.0
 23
0.0
 33
0.0
 16
1.0
 26
0.0
 36
0.0
 17
0.0
 27
1.0
 37
0.0
 76
0
330
210
345
0
346
0
  0
LAYOUT
  5
38C
102
{ACAD_REACTORS
330
1A
102
}
100
AcDbPlotSettings
  1

  2
none_device
  4

  6

 40
0.0
 41
0.0
 42
0.0
 43
0.0
 44
210.0
 45
297.0
 46
0.0
 47
0.0
 48
0.0
 49
0.0
140
0.0
141
0.0
142
1.0
143
1.0
 70
0
 72
1
 73
0
 74
0
  7

 75
0
147
1.0
148
0.0
149
0.0
100
AcDbLayout
  1
Layout1
 70
0
 71
1
 10
0.0
 20
0.0
 11
210.0
 21
297.0
 12
0.0
 22
0.0
 32
0.0
 14
0.0
 24
0.0
 34
0.0
 15
0.0
 25
0.0
 35
0.0
146
0.0
 13
0.0
 23
0.0
 33
0.0
 16
1.0
 26
0.0
 36
0.0
 17
0.0
 27
1.0
 37
0.0
 76
0
330
211
345
0
346
0
  0
ENDSEC
  0
EOF
