  0
SECTION
  2
HEADER
  9
$ACADVER
  1
AC1009
  9
$DWGCODEPAGE
  3
ansi_1250
  9
$INSBASE
 10
0.0
 20
0.0
 30
0.0
  9
$EXTMIN
 10
-9.405512
 20
-12.244094
 30
0.0
  9
$EXTMAX
 10
14.488189
 20
12.244094
 30
0.0
  9
$LIMMIN
 10
0.0
 20
0.0
  9
$LIMMAX
 10
0.0
 20
0.0
  9
$ORTHOMODE
 70
     0
  9
$REGENMODE
 70
     1
  9
$FILLMODE
 70
     1
  9
$QTEXTMODE
 70
     0
  9
$MIRRTEXT
 70
     1
  9
$DRAGMODE
 70
     2
  9
$LTSCALE
 40
1.0
  9
$OSMODE
 70
     0
  9
$ATTMODE
 70
     1
  9
$TEXTSIZE
 40
0.2
  9
$TRACEWID
 40
0.05
  9
$TEXTSTYLE
  7
STANDARD
  9
$CLAYER
  8
0
  9
$CELTYPE
  6
CONTINUOUS
  9
$CECOLOR
 62
   256
  9
$DIMSCALE
 40
1.0
  9
$DIMASZ
 40
0.18
  9
$DIMEXO
 40
0.0625
  9
$DIMDLI
 40
0.38
  9
$DIMRND
 40
0.0
  9
$DIMDLE
 40
0.0
  9
$DIMEXE
 40
0.18
  9
$DIMTP
 40
0.0
  9
$DIMTM
 40
0.0
  9
$DIMTXT
 40
0.18
  9
$DIMCEN
 40
0.09
  9
$DIMTSZ
 40
0.0
  9
$DIMTOL
 70
     0
  9
$DIMLIM
 70
     0
  9
$DIMTIH
 70
     1
  9
$DIMTOH
 70
     1
  9
$DIMSE1
 70
     0
  9
$DIMSE2
 70
     0
  9
$DIMTAD
 70
     0
  9
$DIMZIN
 70
     0
  9
$DIMBLK
  1

  9
$DIMASO
 70
     1
  9
$DIMSHO
 70
     1
  9
$DIMPOST
  1

  9
$DIMAPOST
  1

  9
$DIMALT
 70
     0
  9
$DIMALTD
 70
     2
  9
$DIMALTF
 40
25.4
  9
$DIMLFAC
 40
1.0
  9
$DIMTOFL
 70
     0
  9
$DIMTVP
 40
0.0
  9
$DIMTIX
 70
     0
  9
$DIMSOXD
 70
     0
  9
$DIMSAH
 70
     0
  9
$DIMBLK1
  1

  9
$DIMBLK2
  1

  9
$DIMSTYLE
  2
STANDARD
  9
$DIMCLRD
 70
     0
  9
$DIMCLRE
 70
     0
  9
$DIMCLRT
 70
     0
  9
$DIMTFAC
 40
1.0
  9
$DIMGAP
 40
0.09
  9
$LUNITS
 70
     2
  9
$LUPREC
 70
     4
  9
$AXISMODE
 70
     0
  9
$AXISUNIT
 10
0.0
 20
0.0
  9
$SKETCHINC
 40
0.1
  9
$FILLETRAD
 40
0.0
  9
$AUNITS
 70
     0
  9
$AUPREC
 70
     0
  9
$MENU
  1
acad
  9
$ELEVATION
 40
0.0
  9
$PELEVATION
 40
0.0
  9
$THICKNESS
 40
0.0
  9
$LIMCHECK
 70
     0
  9
$BLIPMODE
 70
     1
  9
$CHAMFERA
 40
0.0
  9
$CHAMFERB
 40
0.0
  9
$SKPOLY
 70
     0
  9
$TDCREATE
 40
0.000000000
  9
$TDUPDATE
 40
0.000000000
  9
$TDINDWG
 40
0.0000000000
  9
$TDUSRTIMER
 40
0.0000000000
  9
$USRTIMER
 70
     1
  9
$ANGBASE
 50
0.0
  9
$ANGDIR
 70
     0
  9
$PDMODE
 70
     0
  9
$PDSIZE
 40
0.0
  9
$PLINEWID
 40
0.0
  9
$COORDS
 70
     0
  9
$SPLFRAME
 70
     0
  9
$SPLINETYPE
 70
     6
  9
$SPLINESEGS
 70
     8
  9
$ATTDIA
 70
     0
  9
$ATTREQ
 70
     1
  9
$HANDLING
 70
     1
  9
$HANDSEED
  5
551
  9
$SURFTAB1
 70
     6
  9
$SURFTAB2
 70
     6
  9
$SURFTYPE
 70
     6
  9
$SURFU
 70
     6
  9
$SURFV
 70
     6
  9
$UCSNAME
  2

  9
$UCSORG
 10
0.0
 20
0.0
 30
0.0
  9
$UCSXDIR
 10
1.0
 20
0.0
 30
0.0
  9
$UCSYDIR
 10
0.0
 20
1.0
 30
0.0
  9
$PUCSNAME
  2

  9
$PUCSORG
 10
0.0
 20
0.0
 30
0.0
  9
$PUCSXDIR
 10
1.0
 20
0.0
 30
0.0
  9
$PUCSYDIR
 10
0.0
 20
1.0
 30
0.0
  9
$USERI1
 70
     0
  9
$USERI2
 70
     0
  9
$USERI3
 70
     0
  9
$USERI4
 70
     0
  9
$USERI5
 70
     0
  9
$USERR1
 40
0.0
  9
$USERR2
 40
0.0
  9
$USERR3
 40
0.0
  9
$USERR4
 40
0.0
  9
$USERR5
 40
0.0
  9
$WORLDVIEW
 70
     1
  9
$SHADEDGE
 70
     3
  9
$SHADEDIF
 70
    70
  9
$TILEMODE
 70
     1
  9
$MAXACTVP
 70
    16
  9
$PINSBASE
 10
0.0
 20
0.0
 30
0.0
  9
$PLIMCHECK
 70
     0
  9
$PEXTMIN
 10
1.000000E+20
 20
1.000000E+20
 30
1.000000E+20
  9
$PEXTMAX
 10
-1.000000E+20
 20
-1.000000E+20
 30
-1.000000E+20
  9
$PLIMMIN
 10
0.0
 20
0.0
  9
$PLIMMAX
 10
12.0
 20
9.0
  9
$UNITMODE
 70
     0
  9
$VISRETAIN
 70
     0
  9
$PLINEGEN
 70
     1
  9
$PSLTSCALE
 70
     0
  9
$TREEDEPTH
 70
  3020
  0
ENDSEC
  0
SECTION
  2
TABLES
  0
TABLE
  2
VPORT
 70
     1
  0
VPORT
  2
*ACTIVE
 70
     0
 10
0.0
 20
0.0
 11
1.0
 21
1.0
 12
6.591288
 22
4.579184
 13
0.0
 23
0.0
 14
1.0
 24
1.0
 15
0.0
 25
0.0
 16
0.0
 26
0.0
 36
1.0
 17
0.0
 27
0.0
 37
0.0
 40
9.158369
 41
0.688564
 42
50.0
 43
0.0
 44
0.0
 50
0.0
 51
0.0
 71
     0
 72
   100
 73
     1
 74
     1
 75
     0
 76
     0
 77
     0
 78
     0
  0
ENDTAB
  0
TABLE
  2
LTYPE
 70
     5
  0
LTYPE
  2
CONTINUOUS
 70
    64
  3
Solid line
 72
    65
 73
     0
 40
0.0
  0
LTYPE
  2
CENTER
 70
    64
  3
Center ____ _ ____ _ ____ _ ____ _ ____ _ ____
 72
    65
 73
     4
 40
50.8
 49
31.75
 49
-6.35
 49
6.35
 49
-6.35
  0
LTYPE
  2
HIDDEN
 70
    64
  3
Hidden __ __ __ __ __ __ __ __ __ __ __ __ __ __
 72
    65
 73
     2
 40
9.525
 49
6.35
 49
-3.175
  0
LTYPE
  2
CENTER2
 70
    64
  3
Center (.5x) ___ _ ___ _ ___ _ ___ _ ___ _ ___
 72
    65
 73
     4
 40
28.575
 49
19.05
 49
-3.175
 49
3.175
 49
-3.175
  0
LTYPE
  2
HIDDEN2
 70
    64
  3
Hidden (.5x) _ _ _ _ _ _ _ _ _ _ _ _ _ _ _ _ _
 72
    65
 73
     2
 40
4.7625
 49
3.175
 49
-1.5875
  0
ENDTAB
  0
TABLE
  2
LAYER
 70
     1
  0
LAYER
  2
0
 70
     0
 62
     7
  6
CONTINUOUS
  0
ENDTAB
  0
TABLE
  2
STYLE
 70
     1
  0
STYLE
  2
STANDARD
 70
     0
 40
0.0
 41
1.0
 50
0.0
 71
     0
 42
0.0
  3
txt
  4

  0
ENDTAB
  0
TABLE
  2
VIEW
 70
     0
  0
ENDTAB
  0
TABLE
  2
UCS
 70
     0
  0
ENDTAB
  0
TABLE
  2
APPID
 70
     1
  0
APPID
  2
ACAD
 70
     0
  0
ENDTAB
  0
TABLE
  2
DIMSTYLE
 70
     1
  0
DIMSTYLE
  2
STANDARD
 70
     0
  3

  4

  5

  6

  7

 40
1.0
 41
0.18
 42
0.0625
 43
0.38
 44
0.18
 45
0.0
 46
0.0
 47
0.0
 48
0.0
 71
     0
 72
     0
 73
     1
 74
     1
 75
     0
 76
     0
 77
     0
 78
     0
140
0.18
141
0.09
142
0.0
143
25.4
144
1.0
145
0.0
146
1.0
147
0.09
170
     0
171
     2
172
     0
173
     0
174
     0
175
     0
176
     0
177
     0
178
     0
  0
ENDTAB
  0
ENDSEC
  0
SECTION
  2
BLOCKS
  0
ENDSEC
  0
SECTION
  2
ENTITIES
  0
LINE
  8
0
  6
CONTINUOUS
 62
     7
  5
30B
 10
4.992126
 20
-2.877953
 30
0.0
 11
4.992126
 21
-1.956693
 31
0.0
  0
LINE
  8
0
  6
CONTINUOUS
 62
     7
  5
30C
 10
4.992126
 20
-2.937118
 30
0.0
 11
4.992126
 21
-2.877953
 31
0.0
  0
LINE
  8
0
  6
CONTINUOUS
 62
     7
  5
30D
 10
4.992126
 20
5.704724
 30
0.0
 11
4.992126
 21
5.763889
 31
0.0
  0
LINE
  8
0
  6
CONTINUOUS
 62
     7
  5
30E
 10
4.992126
 20
4.783465
 30
0.0
 11
4.992126
 21
5.704724
 31
0.0
  0
LINE
  8
0
  6
CONTINUOUS
 62
     7
  5
30F
 10
0.838583
 20
-0.854331
 30
0.0
 11
0.838583
 21
-0.26378
 31
0.0
  0
LINE
  8
0
  6
CONTINUOUS
 62
     7
  5
310
 10
0.838583
 20
-2.366142
 30
0.0
 11
0.838583
 21
-0.854331
 31
0.0
  0
LINE
  8
0
  6
CONTINUOUS
 62
     7
  5
311
 10
0.838583
 20
-2.956693
 30
0.0
 11
0.838583
 21
-2.366142
 31
0.0
  0
LINE
  8
0
  6
CONTINUOUS
 62
     7
  5
312
 10
0.0
 20
-2.956693
 30
0.0
 11
0.838583
 21
-2.956693
 31
0.0
  0
LINE
  8
0
  6
CONTINUOUS
 62
     7
  5
313
 10
0.0
 20
-2.366142
 30
0.0
 11
0.838583
 21
-2.366142
 31
0.0
  0
LINE
  8
0
  6
CONTINUOUS
 62
     7
  5
314
 10
0.0
 20
-2.366142
 30
0.0
 11
0.0
 21
-2.956693
 31
0.0
  0
LINE
  8
0
  6
CONTINUOUS
 62
     7
  5
315
 10
0.0
 20
-0.854331
 30
0.0
 11
0.838583
 21
-0.854331
 31
0.0
  0
LINE
  8
0
  6
CONTINUOUS
 62
     7
  5
316
 10
0.0
 20
-0.854331
 30
0.0
 11
0.0
 21
-2.366142
 31
0.0
  0
LINE
  8
0
  6
CONTINUOUS
 62
     7
  5
317
 10
0.0
 20
-0.26378
 30
0.0
 11
0.838583
 21
-0.26378
 31
0.0
  0
LINE
  8
0
  6
CONTINUOUS
 62
     7
  5
318
 10
0.0
 20
-0.26378
 30
0.0
 11
0.0
 21
-0.854331
 31
0.0
  0
LINE
  8
0
  6
CONTINUOUS
 62
     7
  5
319
 10
0.759843
 20
3.090551
 30
0.0
 11
0.759843
 21
-0.26378
 31
0.0
  0
LINE
  8
0
  6
CONTINUOUS
 62
     7
  5
31A
 10
0.0
 20
3.090551
 30
0.0
 11
0.838583
 21
3.090551
 31
0.0
  0
LINE
  8
0
  6
CONTINUOUS
 62
     7
  5
31B
 10
0.838583
 20
3.681102
 30
0.0
 11
0.838583
 21
5.192913
 31
0.0
  0
LINE
  8
0
  6
CONTINUOUS
 62
     7
  5
31C
 10
0.0
 20
5.192913
 30
0.0
 11
0.838583
 21
5.192913
 31
0.0
  0
LINE
  8
0
  6
CONTINUOUS
 62
     7
  5
31D
 10
0.0
 20
5.192913
 30
0.0
 11
0.0
 21
3.681102
 31
0.0
  0
LINE
  8
0
  6
CONTINUOUS
 62
     7
  5
31E
 10
0.0
 20
3.681102
 30
0.0
 11
0.838583
 21
3.681102
 31
0.0
  0
LINE
  8
0
  6
CONTINUOUS
 62
     7
  5
31F
 10
0.838583
 20
5.192913
 30
0.0
 11
0.838583
 21
5.783465
 31
0.0
  0
LINE
  8
0
  6
CONTINUOUS
 62
     7
  5
320
 10
0.0
 20
5.783465
 30
0.0
 11
0.838583
 21
5.783465
 31
0.0
  0
LINE
  8
0
  6
CONTINUOUS
 62
     7
  5
321
 10
0.0
 20
5.783465
 30
0.0
 11
0.0
 21
5.192913
 31
0.0
  0
LINE
  8
0
  6
CONTINUOUS
 62
     7
  5
322
 10
0.838583
 20
3.090551
 30
0.0
 11
0.838583
 21
3.681102
 31
0.0
  0
LINE
  8
0
  6
CONTINUOUS
 62
     7
  5
323
 10
0.0
 20
3.681102
 30
0.0
 11
0.0
 21
3.090551
 31
0.0
  0
LINE
  8
0
  6
CONTINUOUS
 62
     7
  5
324
 10
2.749016
 20
5.783465
 30
0.0
 11
0.838583
 21
5.766792
 31
0.0
  0
LINE
  8
0
  6
CONTINUOUS
 62
     7
  5
325
 10
2.749016
 20
5.783465
 30
0.0
 11
2.749016
 21
5.704724
 31
0.0
  0
LINE
  8
0
  6
CONTINUOUS
 62
     7
  5
326
 10
2.749016
 20
5.704724
 30
0.0
 11
2.749016
 21
-2.877953
 31
0.0
  0
LINE
  8
0
  6
CONTINUOUS
 62
     7
  5
327
 10
2.749016
 20
-2.956693
 30
0.0
 11
0.838583
 21
-2.940021
 31
0.0
  0
LINE
  8
0
  6
CONTINUOUS
 62
     7
  5
328
 10
2.749016
 20
-2.877953
 30
0.0
 11
2.749016
 21
-2.956693
 31
0.0
  0
LINE
  8
0
  6
CONTINUOUS
 62
     7
  5
329
 10
2.749016
 20
5.783465
 30
0.0
 11
4.992126
 21
5.763889
 31
0.0
  0
LINE
  8
0
  6
CONTINUOUS
 62
     7
  5
32A
 10
2.749016
 20
-2.956693
 30
0.0
 11
4.992126
 21
-2.937118
 31
0.0
  0
LINE
  8
0
  6
CONTINUOUS
 62
     7
  5
32B
 10
4.992126
 20
-2.956693
 30
0.0
 11
4.992126
 21
-2.937118
 31
0.0
  0
LINE
  8
0
  6
CONTINUOUS
 62
     7
  5
32C
 10
4.992126
 20
5.763889
 30
0.0
 11
4.992126
 21
5.783465
 31
0.0
  0
LINE
  8
0
  6
CONTINUOUS
 62
     7
  5
32D
 10
4.992126
 20
-1.956693
 30
0.0
 11
4.992126
 21
4.783465
 31
0.0
  0
LINE
  8
0
  6
CONTINUOUS
 62
     7
  5
32E
 10
8.128692
 20
0.374016
 30
0.0
 11
6.830709
 21
0.374016
 31
0.0
  0
LINE
  8
0
  6
CONTINUOUS
 62
     7
  5
32F
 10
8.239835
 20
0.374016
 30
0.0
 11
8.128692
 21
0.374016
 31
0.0
  0
LINE
  8
0
  6
CONTINUOUS
 62
     7
  5
330
 10
8.402187
 20
0.374016
 30
0.0
 11
8.239835
 21
0.374016
 31
0.0
  0
LINE
  8
0
  6
CONTINUOUS
 62
     7
  5
331
 10
8.405512
 20
0.374016
 30
0.0
 11
8.402187
 21
0.374016
 31
0.0
  0
LINE
  8
0
  6
CONTINUOUS
 62
     7
  5
332
 10
8.402187
 20
-0.374016
 30
0.0
 11
8.405512
 21
-0.374016
 31
0.0
  0
LINE
  8
0
  6
CONTINUOUS
 62
     7
  5
333
 10
8.239835
 20
-0.374016
 30
0.0
 11
8.402187
 21
-0.374016
 31
0.0
  0
LINE
  8
0
  6
CONTINUOUS
 62
     7
  5
334
 10
8.128692
 20
-0.374016
 30
0.0
 11
8.239835
 21
-0.374016
 31
0.0
  0
LINE
  8
0
  6
CONTINUOUS
 62
     7
  5
335
 10
6.830709
 20
-0.374016
 30
0.0
 11
8.128692
 21
-0.374016
 31
0.0
  0
LINE
  8
0
  6
CONTINUOUS
 62
     7
  5
336
 10
8.405512
 20
-0.374016
 30
0.0
 11
8.562992
 21
-0.374016
 31
0.0
  0
LINE
  8
0
  6
CONTINUOUS
 62
     7
  5
337
 10
8.562992
 20
0.374016
 30
0.0
 11
8.405512
 21
0.374016
 31
0.0
  0
LINE
  8
0
  6
CONTINUOUS
 62
     7
  5
338
 10
8.562992
 20
0.492126
 30
0.0
 11
7.57874
 21
0.492126
 31
0.0
  0
LINE
  8
0
  6
CONTINUOUS
 62
     7
  5
339
 10
7.57874
 20
-0.492126
 30
0.0
 11
8.562992
 21
-0.492126
 31
0.0
  0
LINE
  8
0
  6
CONTINUOUS
 62
     7
  5
33A
 10
8.464567
 20
-0.139209
 30
0.0
 11
8.464567
 21
-0.11811
 31
0.0
  0
LINE
  8
0
  6
CONTINUOUS
 62
     7
  5
33B
 10
8.464567
 20
-0.368741
 30
0.0
 11
8.464567
 21
-0.139209
 31
0.0
  0
LINE
  8
0
  6
CONTINUOUS
 62
     7
  5
33C
 10
8.464567
 20
-0.374016
 30
0.0
 11
8.464567
 21
-0.368741
 31
0.0
  0
LINE
  8
0
  6
CONTINUOUS
 62
     7
  5
33D
 10
8.464567
 20
0.368741
 30
0.0
 11
8.464567
 21
0.374016
 31
0.0
  0
LINE
  8
0
  6
CONTINUOUS
 62
     7
  5
33E
 10
8.464567
 20
0.139209
 30
0.0
 11
8.464567
 21
0.368741
 31
0.0
  0
LINE
  8
0
  6
CONTINUOUS
 62
     7
  5
33F
 10
8.464567
 20
0.11811
 30
0.0
 11
8.464567
 21
0.139209
 31
0.0
  0
LINE
  8
0
  6
CONTINUOUS
 62
     7
  5
340
 10
8.464567
 20
0.11811
 30
0.0
 11
8.405512
 21
0.11811
 31
0.0
  0
LINE
  8
0
  6
CONTINUOUS
 62
     7
  5
341
 10
8.405512
 20
-0.11811
 30
0.0
 11
8.464567
 21
-0.11811
 31
0.0
  0
LINE
  8
0
  6
CONTINUOUS
 62
     7
  5
342
 10
8.759843
 20
-0.500216
 30
0.0
 11
8.759843
 21
0.500216
 31
0.0
  0
LINE
  8
0
  6
CONTINUOUS
 62
     7
  5
343
 10
7.38189
 20
-0.375638
 30
0.0
 11
7.38189
 21
-0.500216
 31
0.0
  0
LINE
  8
0
  6
CONTINUOUS
 62
     7
  5
344
 10
7.38189
 20
0.500216
 30
0.0
 11
7.38189
 21
0.375638
 31
0.0
  0
LINE
  8
0
  6
CONTINUOUS
 62
     7
  5
345
 10
8.405512
 20
0.374016
 30
0.0
 11
8.405512
 21
-0.374016
 31
0.0
  0
LINE
  8
0
  6
CONTINUOUS
 62
     7
  5
346
 10
5.188976
 20
5.333465
 30
0.0
 11
5.188976
 21
4.783465
 31
0.0
  0
LINE
  8
0
  6
CONTINUOUS
 62
     7
  5
347
 10
4.992126
 20
5.333465
 30
0.0
 11
5.188976
 21
5.333465
 31
0.0
  0
LINE
  8
0
  6
CONTINUOUS
 62
     7
  5
348
 10
5.188976
 20
4.783465
 30
0.0
 11
4.992126
 21
4.783465
 31
0.0
  0
LINE
  8
0
  6
CONTINUOUS
 62
     7
  5
349
 10
4.992126
 20
-1.956693
 30
0.0
 11
5.188976
 21
-1.956693
 31
0.0
  0
LINE
  8
0
  6
CONTINUOUS
 62
     7
  5
34A
 10
5.188976
 20
4.783465
 30
0.0
 11
5.188976
 21
-1.956693
 31
0.0
  0
LINE
  8
0
  6
CONTINUOUS
 62
     7
  5
34B
 10
4.992126
 20
5.783465
 30
0.0
 11
5.070866
 21
5.783465
 31
0.0
  0
LINE
  8
0
  6
CONTINUOUS
 62
     7
  5
34C
 10
5.070866
 20
-2.956693
 30
0.0
 11
4.992126
 21
-2.956693
 31
0.0
  0
LINE
  8
0
  6
CONTINUOUS
 62
     7
  5
34D
 10
5.188976
 20
-1.956693
 30
0.0
 11
5.188976
 21
-2.506693
 31
0.0
  0
LINE
  8
0
  6
CONTINUOUS
 62
     7
  5
34E
 10
4.992126
 20
-2.506693
 30
0.0
 11
5.188976
 21
-2.506693
 31
0.0
  0
LINE
  8
0
  6
CONTINUOUS
 62
     7
  5
34F
 10
5.070866
 20
-2.720472
 30
0.0
 11
5.070866
 21
-2.956693
 31
0.0
  0
LINE
  8
0
  6
CONTINUOUS
 62
     7
  5
350
 10
5.070866
 20
5.783465
 30
0.0
 11
5.070866
 21
5.547244
 31
0.0
  0
LINE
  8
0
  6
CONTINUOUS
 62
     7
  5
351
 10
6.362205
 20
5.547244
 30
0.0
 11
5.070866
 21
5.547244
 31
0.0
  0
LINE
  8
0
  6
CONTINUOUS
 62
     7
  5
352
 10
6.362205
 20
-2.720472
 30
0.0
 11
5.070866
 21
-2.720472
 31
0.0
  0
LINE
  8
0
  6
CONTINUOUS
 62
     7
  5
353
 10
6.362205
 20
5.547244
 30
0.0
 11
6.362205
 21
-2.720472
 31
0.0
  0
LINE
  8
0
  6
CONTINUOUS
 62
     7
  5
354
 10
6.633858
 20
5.251969
 30
0.0
 11
6.633858
 21
-2.425197
 31
0.0
  0
LINE
  8
0
  6
CONTINUOUS
 62
     7
  5
355
 10
6.633858
 20
-2.425197
 30
0.0
 11
6.362205
 21
-2.425197
 31
0.0
  0
LINE
  8
0
  6
CONTINUOUS
 62
     7
  5
356
 10
6.633858
 20
5.251969
 30
0.0
 11
6.362205
 21
5.251969
 31
0.0
  0
LINE
  8
0
  6
CONTINUOUS
 62
     7
  5
357
 10
6.830709
 20
2.224409
 30
0.0
 11
6.830709
 21
-2.224409
 31
0.0
  0
LINE
  8
0
  6
CONTINUOUS
 62
     7
  5
358
 10
6.830709
 20
-2.224409
 30
0.0
 11
6.633858
 21
-2.224409
 31
0.0
  0
LINE
  8
0
  6
CONTINUOUS
 62
     7
  5
359
 10
6.830709
 20
2.224409
 30
0.0
 11
6.633858
 21
2.224409
 31
0.0
  0
LINE
  8
0
  6
CONTINUOUS
 62
     7
  5
35A
 10
1.904173
 20
5.980315
 30
0.0
 11
1.904091
 21
5.975906
 31
0.0
  0
LINE
  8
0
  6
CONTINUOUS
 62
     7
  5
35B
 10
1.904091
 20
5.975906
 30
0.0
 11
1.903844
 21
5.971504
 31
0.0
  0
LINE
  8
0
  6
CONTINUOUS
 62
     7
  5
35C
 10
1.903844
 20
5.971504
 30
0.0
 11
1.903433
 21
5.967113
 31
0.0
  0
LINE
  8
0
  6
CONTINUOUS
 62
     7
  5
35D
 10
1.903433
 20
5.967113
 30
0.0
 11
1.902858
 21
5.962741
 31
0.0
  0
LINE
  8
0
  6
CONTINUOUS
 62
     7
  5
35E
 10
1.902858
 20
5.962741
 30
0.0
 11
1.902121
 21
5.958394
 31
0.0
  0
LINE
  8
0
  6
CONTINUOUS
 62
     7
  5
35F
 10
1.902121
 20
5.958394
 30
0.0
 11
1.901222
 21
5.954077
 31
0.0
  0
LINE
  8
0
  6
CONTINUOUS
 62
     7
  5
360
 10
1.901222
 20
5.954077
 30
0.0
 11
1.900162
 21
5.949796
 31
0.0
  0
LINE
  8
0
  6
CONTINUOUS
 62
     7
  5
361
 10
1.900162
 20
5.949796
 30
0.0
 11
1.898944
 21
5.945559
 31
0.0
  0
LINE
  8
0
  6
CONTINUOUS
 62
     7
  5
362
 10
1.898944
 20
5.945559
 30
0.0
 11
1.897568
 21
5.941369
 31
0.0
  0
LINE
  8
0
  6
CONTINUOUS
 62
     7
  5
363
 10
1.897568
 20
5.941369
 30
0.0
 11
1.896036
 21
5.937234
 31
0.0
  0
LINE
  8
0
  6
CONTINUOUS
 62
     7
  5
364
 10
1.896036
 20
5.937234
 30
0.0
 11
1.894351
 21
5.933159
 31
0.0
  0
LINE
  8
0
  6
CONTINUOUS
 62
     7
  5
365
 10
1.894351
 20
5.933159
 30
0.0
 11
1.892516
 21
5.92915
 31
0.0
  0
LINE
  8
0
  6
CONTINUOUS
 62
     7
  5
366
 10
1.892516
 20
5.92915
 30
0.0
 11
1.890532
 21
5.925212
 31
0.0
  0
LINE
  8
0
  6
CONTINUOUS
 62
     7
  5
367
 10
1.890532
 20
5.925212
 30
0.0
 11
1.888402
 21
5.921351
 31
0.0
  0
LINE
  8
0
  6
CONTINUOUS
 62
     7
  5
368
 10
1.888402
 20
5.921351
 30
0.0
 11
1.88613
 21
5.917572
 31
0.0
  0
LINE
  8
0
  6
CONTINUOUS
 62
     7
  5
369
 10
1.88613
 20
5.917572
 30
0.0
 11
1.883718
 21
5.91388
 31
0.0
  0
LINE
  8
0
  6
CONTINUOUS
 62
     7
  5
36A
 10
1.883718
 20
5.91388
 30
0.0
 11
1.88117
 21
5.910281
 31
0.0
  0
LINE
  8
0
  6
CONTINUOUS
 62
     7
  5
36B
 10
1.88117
 20
5.910281
 30
0.0
 11
1.878489
 21
5.90678
 31
0.0
  0
LINE
  8
0
  6
CONTINUOUS
 62
     7
  5
36C
 10
1.878489
 20
5.90678
 30
0.0
 11
1.87568
 21
5.903381
 31
0.0
  0
LINE
  8
0
  6
CONTINUOUS
 62
     7
  5
36D
 10
1.87568
 20
5.903381
 30
0.0
 11
1.872746
 21
5.90009
 31
0.0
  0
LINE
  8
0
  6
CONTINUOUS
 62
     7
  5
36E
 10
1.872746
 20
5.90009
 30
0.0
 11
1.869691
 21
5.89691
 31
0.0
  0
LINE
  8
0
  6
CONTINUOUS
 62
     7
  5
36F
 10
1.869691
 20
5.89691
 30
0.0
 11
1.866519
 21
5.893846
 31
0.0
  0
LINE
  8
0
  6
CONTINUOUS
 62
     7
  5
370
 10
1.866519
 20
5.893846
 30
0.0
 11
1.863235
 21
5.890903
 31
0.0
  0
LINE
  8
0
  6
CONTINUOUS
 62
     7
  5
371
 10
1.863235
 20
5.890903
 30
0.0
 11
1.859844
 21
5.888085
 31
0.0
  0
LINE
  8
0
  6
CONTINUOUS
 62
     7
  5
372
 10
1.859844
 20
5.888085
 30
0.0
 11
1.85635
 21
5.885395
 31
0.0
  0
LINE
  8
0
  6
CONTINUOUS
 62
     7
  5
373
 10
1.85635
 20
5.885395
 30
0.0
 11
1.852758
 21
5.882838
 31
0.0
  0
LINE
  8
0
  6
CONTINUOUS
 62
     7
  5
374
 10
1.852758
 20
5.882838
 30
0.0
 11
1.849073
 21
5.880416
 31
0.0
  0
LINE
  8
0
  6
CONTINUOUS
 62
     7
  5
375
 10
1.849073
 20
5.880416
 30
0.0
 11
1.8453
 21
5.878134
 31
0.0
  0
LINE
  8
0
  6
CONTINUOUS
 62
     7
  5
376
 10
1.8453
 20
5.878134
 30
0.0
 11
1.841444
 21
5.875994
 31
0.0
  0
LINE
  8
0
  6
CONTINUOUS
 62
     7
  5
377
 10
1.841444
 20
5.875994
 30
0.0
 11
1.837512
 21
5.873999
 31
0.0
  0
LINE
  8
0
  6
CONTINUOUS
 62
     7
  5
378
 10
1.837512
 20
5.873999
 30
0.0
 11
1.833507
 21
5.872153
 31
0.0
  0
LINE
  8
0
  6
CONTINUOUS
 62
     7
  5
379
 10
1.833507
 20
5.872153
 30
0.0
 11
1.829437
 21
5.870457
 31
0.0
  0
LINE
  8
0
  6
CONTINUOUS
 62
     7
  5
37A
 10
1.829437
 20
5.870457
 30
0.0
 11
1.825306
 21
5.868915
 31
0.0
  0
LINE
  8
0
  6
CONTINUOUS
 62
     7
  5
37B
 10
1.825306
 20
5.868915
 30
0.0
 11
1.82112
 21
5.867527
 31
0.0
  0
LINE
  8
0
  6
CONTINUOUS
 62
     7
  5
37C
 10
1.82112
 20
5.867527
 30
0.0
 11
1.816885
 21
5.866297
 31
0.0
  0
LINE
  8
0
  6
CONTINUOUS
 62
     7
  5
37D
 10
1.816885
 20
6.094333
 30
0.0
 11
1.82112
 21
6.093103
 31
0.0
  0
LINE
  8
0
  6
CONTINUOUS
 62
     7
  5
37E
 10
1.82112
 20
6.093103
 30
0.0
 11
1.825306
 21
6.091715
 31
0.0
  0
LINE
  8
0
  6
CONTINUOUS
 62
     7
  5
37F
 10
1.825306
 20
6.091715
 30
0.0
 11
1.829437
 21
6.090173
 31
0.0
  0
LINE
  8
0
  6
CONTINUOUS
 62
     7
  5
380
 10
1.829437
 20
6.090173
 30
0.0
 11
1.833507
 21
6.088477
 31
0.0
  0
LINE
  8
0
  6
CONTINUOUS
 62
     7
  5
381
 10
1.833507
 20
6.088477
 30
0.0
 11
1.837512
 21
6.086631
 31
0.0
  0
LINE
  8
0
  6
CONTINUOUS
 62
     7
  5
382
 10
1.837512
 20
6.086631
 30
0.0
 11
1.841444
 21
6.084636
 31
0.0
  0
LINE
  8
0
  6
CONTINUOUS
 62
     7
  5
383
 10
1.841444
 20
6.084636
 30
0.0
 11
1.8453
 21
6.082496
 31
0.0
  0
LINE
  8
0
  6
CONTINUOUS
 62
     7
  5
384
 10
1.8453
 20
6.082496
 30
0.0
 11
1.849073
 21
6.080214
 31
0.0
  0
LINE
  8
0
  6
CONTINUOUS
 62
     7
  5
385
 10
1.849073
 20
6.080214
 30
0.0
 11
1.852758
 21
6.077792
 31
0.0
  0
LINE
  8
0
  6
CONTINUOUS
 62
     7
  5
386
 10
1.852758
 20
6.077792
 30
0.0
 11
1.85635
 21
6.075235
 31
0.0
  0
LINE
  8
0
  6
CONTINUOUS
 62
     7
  5
387
 10
1.85635
 20
6.075235
 30
0.0
 11
1.859844
 21
6.072545
 31
0.0
  0
LINE
  8
0
  6
CONTINUOUS
 62
     7
  5
388
 10
1.859844
 20
6.072545
 30
0.0
 11
1.863235
 21
6.069727
 31
0.0
  0
LINE
  8
0
  6
CONTINUOUS
 62
     7
  5
389
 10
1.863235
 20
6.069727
 30
0.0
 11
1.866519
 21
6.066784
 31
0.0
  0
LINE
  8
0
  6
CONTINUOUS
 62
     7
  5
38A
 10
1.866519
 20
6.066784
 30
0.0
 11
1.869691
 21
6.06372
 31
0.0
  0
LINE
  8
0
  6
CONTINUOUS
 62
     7
  5
38B
 10
1.869691
 20
6.06372
 30
0.0
 11
1.872746
 21
6.06054
 31
0.0
  0
LINE
  8
0
  6
CONTINUOUS
 62
     7
  5
38C
 10
1.872746
 20
6.06054
 30
0.0
 11
1.87568
 21
6.057249
 31
0.0
  0
LINE
  8
0
  6
CONTINUOUS
 62
     7
  5
38D
 10
1.87568
 20
6.057249
 30
0.0
 11
1.878489
 21
6.05385
 31
0.0
  0
LINE
  8
0
  6
CONTINUOUS
 62
     7
  5
38E
 10
1.878489
 20
6.05385
 30
0.0
 11
1.88117
 21
6.050349
 31
0.0
  0
LINE
  8
0
  6
CONTINUOUS
 62
     7
  5
38F
 10
1.88117
 20
6.050349
 30
0.0
 11
1.883718
 21
6.04675
 31
0.0
  0
LINE
  8
0
  6
CONTINUOUS
 62
     7
  5
390
 10
1.883718
 20
6.04675
 30
0.0
 11
1.88613
 21
6.043058
 31
0.0
  0
LINE
  8
0
  6
CONTINUOUS
 62
     7
  5
391
 10
1.88613
 20
6.043058
 30
0.0
 11
1.888402
 21
6.039279
 31
0.0
  0
LINE
  8
0
  6
CONTINUOUS
 62
     7
  5
392
 10
1.888402
 20
6.039279
 30
0.0
 11
1.890532
 21
6.035418
 31
0.0
  0
LINE
  8
0
  6
CONTINUOUS
 62
     7
  5
393
 10
1.890532
 20
6.035418
 30
0.0
 11
1.892516
 21
6.03148
 31
0.0
  0
LINE
  8
0
  6
CONTINUOUS
 62
     7
  5
394
 10
1.892516
 20
6.03148
 30
0.0
 11
1.894351
 21
6.027471
 31
0.0
  0
LINE
  8
0
  6
CONTINUOUS
 62
     7
  5
395
 10
1.894351
 20
6.027471
 30
0.0
 11
1.896036
 21
6.023396
 31
0.0
  0
LINE
  8
0
  6
CONTINUOUS
 62
     7
  5
396
 10
1.896036
 20
6.023396
 30
0.0
 11
1.897568
 21
6.019261
 31
0.0
  0
LINE
  8
0
  6
CONTINUOUS
 62
     7
  5
397
 10
1.897568
 20
6.019261
 30
0.0
 11
1.898944
 21
6.015071
 31
0.0
  0
LINE
  8
0
  6
CONTINUOUS
 62
     7
  5
398
 10
1.898944
 20
6.015071
 30
0.0
 11
1.900162
 21
6.010833
 31
0.0
  0
LINE
  8
0
  6
CONTINUOUS
 62
     7
  5
399
 10
1.900162
 20
6.010833
 30
0.0
 11
1.901222
 21
6.006553
 31
0.0
  0
LINE
  8
0
  6
CONTINUOUS
 62
     7
  5
39A
 10
1.901222
 20
6.006553
 30
0.0
 11
1.902121
 21
6.002236
 31
0.0
  0
LINE
  8
0
  6
CONTINUOUS
 62
     7
  5
39B
 10
1.902121
 20
6.002236
 30
0.0
 11
1.902858
 21
5.997889
 31
0.0
  0
LINE
  8
0
  6
CONTINUOUS
 62
     7
  5
39C
 10
1.902858
 20
5.997889
 30
0.0
 11
1.903433
 21
5.993517
 31
0.0
  0
LINE
  8
0
  6
CONTINUOUS
 62
     7
  5
39D
 10
1.903433
 20
5.993517
 30
0.0
 11
1.903844
 21
5.989126
 31
0.0
  0
LINE
  8
0
  6
CONTINUOUS
 62
     7
  5
39E
 10
1.903844
 20
5.989126
 30
0.0
 11
1.904091
 21
5.984724
 31
0.0
  0
LINE
  8
0
  6
CONTINUOUS
 62
     7
  5
39F
 10
1.904091
 20
5.984724
 30
0.0
 11
1.904173
 21
5.980315
 31
0.0
  0
LINE
  8
0
  6
CONTINUOUS
 62
     7
  5
3A0
 10
1.816885
 20
5.866297
 30
0.0
 11
1.510472
 21
5.783465
 31
0.0
  0
LINE
  8
0
  6
CONTINUOUS
 62
     7
  5
3A1
 10
1.510472
 20
6.177165
 30
0.0
 11
1.816885
 21
6.094333
 31
0.0
  0
LINE
  8
0
  6
CONTINUOUS
 62
     7
  5
3A2
 10
1.904173
 20
5.980315
 30
0.0
 11
1.904091
 21
5.975906
 31
0.0
  0
LINE
  8
0
  6
CONTINUOUS
 62
     7
  5
3A3
 10
1.904091
 20
5.975906
 30
0.0
 11
1.903844
 21
5.971504
 31
0.0
  0
LINE
  8
0
  6
CONTINUOUS
 62
     7
  5
3A4
 10
1.903844
 20
5.971504
 30
0.0
 11
1.903433
 21
5.967113
 31
0.0
  0
LINE
  8
0
  6
CONTINUOUS
 62
     7
  5
3A5
 10
1.903433
 20
5.967113
 30
0.0
 11
1.902858
 21
5.962741
 31
0.0
  0
LINE
  8
0
  6
CONTINUOUS
 62
     7
  5
3A6
 10
1.902858
 20
5.962741
 30
0.0
 11
1.902121
 21
5.958394
 31
0.0
  0
LINE
  8
0
  6
CONTINUOUS
 62
     7
  5
3A7
 10
1.902121
 20
5.958394
 30
0.0
 11
1.901222
 21
5.954077
 31
0.0
  0
LINE
  8
0
  6
CONTINUOUS
 62
     7
  5
3A8
 10
1.901222
 20
5.954077
 30
0.0
 11
1.900162
 21
5.949796
 31
0.0
  0
LINE
  8
0
  6
CONTINUOUS
 62
     7
  5
3A9
 10
1.900162
 20
5.949796
 30
0.0
 11
1.898944
 21
5.945559
 31
0.0
  0
LINE
  8
0
  6
CONTINUOUS
 62
     7
  5
3AA
 10
1.898944
 20
5.945559
 30
0.0
 11
1.897568
 21
5.941369
 31
0.0
  0
LINE
  8
0
  6
CONTINUOUS
 62
     7
  5
3AB
 10
1.897568
 20
5.941369
 30
0.0
 11
1.896036
 21
5.937234
 31
0.0
  0
LINE
  8
0
  6
CONTINUOUS
 62
     7
  5
3AC
 10
1.896036
 20
5.937234
 30
0.0
 11
1.894351
 21
5.933159
 31
0.0
  0
LINE
  8
0
  6
CONTINUOUS
 62
     7
  5
3AD
 10
1.894351
 20
5.933159
 30
0.0
 11
1.892516
 21
5.92915
 31
0.0
  0
LINE
  8
0
  6
CONTINUOUS
 62
     7
  5
3AE
 10
1.892516
 20
5.92915
 30
0.0
 11
1.890532
 21
5.925212
 31
0.0
  0
LINE
  8
0
  6
CONTINUOUS
 62
     7
  5
3AF
 10
1.890532
 20
5.925212
 30
0.0
 11
1.888402
 21
5.921351
 31
0.0
  0
LINE
  8
0
  6
CONTINUOUS
 62
     7
  5
3B0
 10
1.888402
 20
5.921351
 30
0.0
 11
1.88613
 21
5.917572
 31
0.0
  0
LINE
  8
0
  6
CONTINUOUS
 62
     7
  5
3B1
 10
1.88613
 20
5.917572
 30
0.0
 11
1.883718
 21
5.91388
 31
0.0
  0
LINE
  8
0
  6
CONTINUOUS
 62
     7
  5
3B2
 10
1.883718
 20
5.91388
 30
0.0
 11
1.88117
 21
5.910281
 31
0.0
  0
LINE
  8
0
  6
CONTINUOUS
 62
     7
  5
3B3
 10
1.88117
 20
5.910281
 30
0.0
 11
1.878489
 21
5.90678
 31
0.0
  0
LINE
  8
0
  6
CONTINUOUS
 62
     7
  5
3B4
 10
1.878489
 20
5.90678
 30
0.0
 11
1.87568
 21
5.903381
 31
0.0
  0
LINE
  8
0
  6
CONTINUOUS
 62
     7
  5
3B5
 10
1.87568
 20
5.903381
 30
0.0
 11
1.872746
 21
5.90009
 31
0.0
  0
LINE
  8
0
  6
CONTINUOUS
 62
     7
  5
3B6
 10
1.872746
 20
5.90009
 30
0.0
 11
1.869691
 21
5.89691
 31
0.0
  0
LINE
  8
0
  6
CONTINUOUS
 62
     7
  5
3B7
 10
1.869691
 20
5.89691
 30
0.0
 11
1.866519
 21
5.893846
 31
0.0
  0
LINE
  8
0
  6
CONTINUOUS
 62
     7
  5
3B8
 10
1.866519
 20
5.893846
 30
0.0
 11
1.863235
 21
5.890903
 31
0.0
  0
LINE
  8
0
  6
CONTINUOUS
 62
     7
  5
3B9
 10
1.863235
 20
5.890903
 30
0.0
 11
1.859844
 21
5.888085
 31
0.0
  0
LINE
  8
0
  6
CONTINUOUS
 62
     7
  5
3BA
 10
1.859844
 20
5.888085
 30
0.0
 11
1.85635
 21
5.885395
 31
0.0
  0
LINE
  8
0
  6
CONTINUOUS
 62
     7
  5
3BB
 10
1.85635
 20
5.885395
 30
0.0
 11
1.852758
 21
5.882838
 31
0.0
  0
LINE
  8
0
  6
CONTINUOUS
 62
     7
  5
3BC
 10
1.852758
 20
5.882838
 30
0.0
 11
1.849073
 21
5.880416
 31
0.0
  0
LINE
  8
0
  6
CONTINUOUS
 62
     7
  5
3BD
 10
1.849073
 20
5.880416
 30
0.0
 11
1.8453
 21
5.878134
 31
0.0
  0
LINE
  8
0
  6
CONTINUOUS
 62
     7
  5
3BE
 10
1.8453
 20
5.878134
 30
0.0
 11
1.841444
 21
5.875994
 31
0.0
  0
LINE
  8
0
  6
CONTINUOUS
 62
     7
  5
3BF
 10
1.841444
 20
5.875994
 30
0.0
 11
1.837512
 21
5.873999
 31
0.0
  0
LINE
  8
0
  6
CONTINUOUS
 62
     7
  5
3C0
 10
1.837512
 20
5.873999
 30
0.0
 11
1.833507
 21
5.872153
 31
0.0
  0
LINE
  8
0
  6
CONTINUOUS
 62
     7
  5
3C1
 10
1.833507
 20
5.872153
 30
0.0
 11
1.829437
 21
5.870457
 31
0.0
  0
LINE
  8
0
  6
CONTINUOUS
 62
     7
  5
3C2
 10
1.829437
 20
5.870457
 30
0.0
 11
1.825306
 21
5.868915
 31
0.0
  0
LINE
  8
0
  6
CONTINUOUS
 62
     7
  5
3C3
 10
1.825306
 20
5.868915
 30
0.0
 11
1.82112
 21
5.867527
 31
0.0
  0
LINE
  8
0
  6
CONTINUOUS
 62
     7
  5
3C4
 10
1.82112
 20
5.867527
 30
0.0
 11
1.816885
 21
5.866297
 31
0.0
  0
LINE
  8
0
  6
CONTINUOUS
 62
     7
  5
3C5
 10
1.816885
 20
6.094333
 30
0.0
 11
1.82112
 21
6.093103
 31
0.0
  0
LINE
  8
0
  6
CONTINUOUS
 62
     7
  5
3C6
 10
1.82112
 20
6.093103
 30
0.0
 11
1.825306
 21
6.091715
 31
0.0
  0
LINE
  8
0
  6
CONTINUOUS
 62
     7
  5
3C7
 10
1.825306
 20
6.091715
 30
0.0
 11
1.829437
 21
6.090173
 31
0.0
  0
LINE
  8
0
  6
CONTINUOUS
 62
     7
  5
3C8
 10
1.829437
 20
6.090173
 30
0.0
 11
1.833507
 21
6.088477
 31
0.0
  0
LINE
  8
0
  6
CONTINUOUS
 62
     7
  5
3C9
 10
1.833507
 20
6.088477
 30
0.0
 11
1.837512
 21
6.086631
 31
0.0
  0
LINE
  8
0
  6
CONTINUOUS
 62
     7
  5
3CA
 10
1.837512
 20
6.086631
 30
0.0
 11
1.841444
 21
6.084636
 31
0.0
  0
LINE
  8
0
  6
CONTINUOUS
 62
     7
  5
3CB
 10
1.841444
 20
6.084636
 30
0.0
 11
1.8453
 21
6.082496
 31
0.0
  0
LINE
  8
0
  6
CONTINUOUS
 62
     7
  5
3CC
 10
1.8453
 20
6.082496
 30
0.0
 11
1.849073
 21
6.080214
 31
0.0
  0
LINE
  8
0
  6
CONTINUOUS
 62
     7
  5
3CD
 10
1.849073
 20
6.080214
 30
0.0
 11
1.852758
 21
6.077792
 31
0.0
  0
LINE
  8
0
  6
CONTINUOUS
 62
     7
  5
3CE
 10
1.852758
 20
6.077792
 30
0.0
 11
1.85635
 21
6.075235
 31
0.0
  0
LINE
  8
0
  6
CONTINUOUS
 62
     7
  5
3CF
 10
1.85635
 20
6.075235
 30
0.0
 11
1.859844
 21
6.072545
 31
0.0
  0
LINE
  8
0
  6
CONTINUOUS
 62
     7
  5
3D0
 10
1.859844
 20
6.072545
 30
0.0
 11
1.863235
 21
6.069727
 31
0.0
  0
LINE
  8
0
  6
CONTINUOUS
 62
     7
  5
3D1
 10
1.863235
 20
6.069727
 30
0.0
 11
1.866519
 21
6.066784
 31
0.0
  0
LINE
  8
0
  6
CONTINUOUS
 62
     7
  5
3D2
 10
1.866519
 20
6.066784
 30
0.0
 11
1.869691
 21
6.06372
 31
0.0
  0
LINE
  8
0
  6
CONTINUOUS
 62
     7
  5
3D3
 10
1.869691
 20
6.06372
 30
0.0
 11
1.872746
 21
6.06054
 31
0.0
  0
LINE
  8
0
  6
CONTINUOUS
 62
     7
  5
3D4
 10
1.872746
 20
6.06054
 30
0.0
 11
1.87568
 21
6.057249
 31
0.0
  0
LINE
  8
0
  6
CONTINUOUS
 62
     7
  5
3D5
 10
1.87568
 20
6.057249
 30
0.0
 11
1.878489
 21
6.05385
 31
0.0
  0
LINE
  8
0
  6
CONTINUOUS
 62
     7
  5
3D6
 10
1.878489
 20
6.05385
 30
0.0
 11
1.88117
 21
6.050349
 31
0.0
  0
LINE
  8
0
  6
CONTINUOUS
 62
     7
  5
3D7
 10
1.88117
 20
6.050349
 30
0.0
 11
1.883718
 21
6.04675
 31
0.0
  0
LINE
  8
0
  6
CONTINUOUS
 62
     7
  5
3D8
 10
1.883718
 20
6.04675
 30
0.0
 11
1.88613
 21
6.043058
 31
0.0
  0
LINE
  8
0
  6
CONTINUOUS
 62
     7
  5
3D9
 10
1.88613
 20
6.043058
 30
0.0
 11
1.888402
 21
6.039279
 31
0.0
  0
LINE
  8
0
  6
CONTINUOUS
 62
     7
  5
3DA
 10
1.888402
 20
6.039279
 30
0.0
 11
1.890532
 21
6.035418
 31
0.0
  0
LINE
  8
0
  6
CONTINUOUS
 62
     7
  5
3DB
 10
1.890532
 20
6.035418
 30
0.0
 11
1.892516
 21
6.03148
 31
0.0
  0
LINE
  8
0
  6
CONTINUOUS
 62
     7
  5
3DC
 10
1.892516
 20
6.03148
 30
0.0
 11
1.894351
 21
6.027471
 31
0.0
  0
LINE
  8
0
  6
CONTINUOUS
 62
     7
  5
3DD
 10
1.894351
 20
6.027471
 30
0.0
 11
1.896036
 21
6.023396
 31
0.0
  0
LINE
  8
0
  6
CONTINUOUS
 62
     7
  5
3DE
 10
1.896036
 20
6.023396
 30
0.0
 11
1.897568
 21
6.019261
 31
0.0
  0
LINE
  8
0
  6
CONTINUOUS
 62
     7
  5
3DF
 10
1.897568
 20
6.019261
 30
0.0
 11
1.898944
 21
6.015071
 31
0.0
  0
LINE
  8
0
  6
CONTINUOUS
 62
     7
  5
3E0
 10
1.898944
 20
6.015071
 30
0.0
 11
1.900162
 21
6.010833
 31
0.0
  0
LINE
  8
0
  6
CONTINUOUS
 62
     7
  5
3E1
 10
1.900162
 20
6.010833
 30
0.0
 11
1.901222
 21
6.006553
 31
0.0
  0
LINE
  8
0
  6
CONTINUOUS
 62
     7
  5
3E2
 10
1.901222
 20
6.006553
 30
0.0
 11
1.902121
 21
6.002236
 31
0.0
  0
LINE
  8
0
  6
CONTINUOUS
 62
     7
  5
3E3
 10
1.902121
 20
6.002236
 30
0.0
 11
1.902858
 21
5.997889
 31
0.0
  0
LINE
  8
0
  6
CONTINUOUS
 62
     7
  5
3E4
 10
1.902858
 20
5.997889
 30
0.0
 11
1.903433
 21
5.993517
 31
0.0
  0
LINE
  8
0
  6
CONTINUOUS
 62
     7
  5
3E5
 10
1.903433
 20
5.993517
 30
0.0
 11
1.903844
 21
5.989126
 31
0.0
  0
LINE
  8
0
  6
CONTINUOUS
 62
     7
  5
3E6
 10
1.903844
 20
5.989126
 30
0.0
 11
1.904091
 21
5.984724
 31
0.0
  0
LINE
  8
0
  6
CONTINUOUS
 62
     7
  5
3E7
 10
1.904091
 20
5.984724
 30
0.0
 11
1.904173
 21
5.980315
 31
0.0
  0
LINE
  8
0
  6
CONTINUOUS
 62
     7
  5
3E8
 10
1.510472
 20
9.537402
 30
0.0
 11
1.510472
 21
5.783465
 31
0.0
  0
LINE
  8
0
  6
CONTINUOUS
 62
     7
  5
3E9
 10
0.720472
 20
5.783465
 30
0.0
 11
0.720472
 21
9.537402
 31
0.0
  0
LINE
  8
0
  6
CONTINUOUS
 62
     7
  5
3EA
 10
1.510472
 20
9.537402
 30
0.0
 11
0.720472
 21
9.537402
 31
0.0
  0
LINE
  8
0
  6
CONTINUOUS
 62
     7
  5
3EB
 10
1.510472
 20
5.783465
 30
0.0
 11
0.838583
 21
5.783465
 31
0.0
  0
LINE
  8
0
  6
CONTINUOUS
 62
     7
  5
3EC
 10
1.904173
 20
5.980315
 30
0.0
 11
1.904091
 21
5.975906
 31
0.0
  0
LINE
  8
0
  6
CONTINUOUS
 62
     7
  5
3ED
 10
1.904091
 20
5.975906
 30
0.0
 11
1.903844
 21
5.971504
 31
0.0
  0
LINE
  8
0
  6
CONTINUOUS
 62
     7
  5
3EE
 10
1.903844
 20
5.971504
 30
0.0
 11
1.903433
 21
5.967113
 31
0.0
  0
LINE
  8
0
  6
CONTINUOUS
 62
     7
  5
3EF
 10
1.903433
 20
5.967113
 30
0.0
 11
1.902858
 21
5.962741
 31
0.0
  0
LINE
  8
0
  6
CONTINUOUS
 62
     7
  5
3F0
 10
1.902858
 20
5.962741
 30
0.0
 11
1.902121
 21
5.958394
 31
0.0
  0
LINE
  8
0
  6
CONTINUOUS
 62
     7
  5
3F1
 10
1.902121
 20
5.958394
 30
0.0
 11
1.901222
 21
5.954077
 31
0.0
  0
LINE
  8
0
  6
CONTINUOUS
 62
     7
  5
3F2
 10
1.901222
 20
5.954077
 30
0.0
 11
1.900162
 21
5.949796
 31
0.0
  0
LINE
  8
0
  6
CONTINUOUS
 62
     7
  5
3F3
 10
1.900162
 20
5.949796
 30
0.0
 11
1.898944
 21
5.945559
 31
0.0
  0
LINE
  8
0
  6
CONTINUOUS
 62
     7
  5
3F4
 10
1.898944
 20
5.945559
 30
0.0
 11
1.897568
 21
5.941369
 31
0.0
  0
LINE
  8
0
  6
CONTINUOUS
 62
     7
  5
3F5
 10
1.897568
 20
5.941369
 30
0.0
 11
1.896036
 21
5.937234
 31
0.0
  0
LINE
  8
0
  6
CONTINUOUS
 62
     7
  5
3F6
 10
1.896036
 20
5.937234
 30
0.0
 11
1.894351
 21
5.933159
 31
0.0
  0
LINE
  8
0
  6
CONTINUOUS
 62
     7
  5
3F7
 10
1.894351
 20
5.933159
 30
0.0
 11
1.892516
 21
5.92915
 31
0.0
  0
LINE
  8
0
  6
CONTINUOUS
 62
     7
  5
3F8
 10
1.892516
 20
5.92915
 30
0.0
 11
1.890532
 21
5.925212
 31
0.0
  0
LINE
  8
0
  6
CONTINUOUS
 62
     7
  5
3F9
 10
1.890532
 20
5.925212
 30
0.0
 11
1.888402
 21
5.921351
 31
0.0
  0
LINE
  8
0
  6
CONTINUOUS
 62
     7
  5
3FA
 10
1.888402
 20
5.921351
 30
0.0
 11
1.88613
 21
5.917572
 31
0.0
  0
LINE
  8
0
  6
CONTINUOUS
 62
     7
  5
3FB
 10
1.88613
 20
5.917572
 30
0.0
 11
1.883718
 21
5.91388
 31
0.0
  0
LINE
  8
0
  6
CONTINUOUS
 62
     7
  5
3FC
 10
1.883718
 20
5.91388
 30
0.0
 11
1.88117
 21
5.910281
 31
0.0
  0
LINE
  8
0
  6
CONTINUOUS
 62
     7
  5
3FD
 10
1.88117
 20
5.910281
 30
0.0
 11
1.878489
 21
5.90678
 31
0.0
  0
LINE
  8
0
  6
CONTINUOUS
 62
     7
  5
3FE
 10
1.878489
 20
5.90678
 30
0.0
 11
1.87568
 21
5.903381
 31
0.0
  0
LINE
  8
0
  6
CONTINUOUS
 62
     7
  5
3FF
 10
1.87568
 20
5.903381
 30
0.0
 11
1.872746
 21
5.90009
 31
0.0
  0
LINE
  8
0
  6
CONTINUOUS
 62
     7
  5
400
 10
1.872746
 20
5.90009
 30
0.0
 11
1.869691
 21
5.89691
 31
0.0
  0
LINE
  8
0
  6
CONTINUOUS
 62
     7
  5
401
 10
1.869691
 20
5.89691
 30
0.0
 11
1.866519
 21
5.893846
 31
0.0
  0
LINE
  8
0
  6
CONTINUOUS
 62
     7
  5
402
 10
1.866519
 20
5.893846
 30
0.0
 11
1.863235
 21
5.890903
 31
0.0
  0
LINE
  8
0
  6
CONTINUOUS
 62
     7
  5
403
 10
1.863235
 20
5.890903
 30
0.0
 11
1.859844
 21
5.888085
 31
0.0
  0
LINE
  8
0
  6
CONTINUOUS
 62
     7
  5
404
 10
1.859844
 20
5.888085
 30
0.0
 11
1.85635
 21
5.885395
 31
0.0
  0
LINE
  8
0
  6
CONTINUOUS
 62
     7
  5
405
 10
1.85635
 20
5.885395
 30
0.0
 11
1.852758
 21
5.882838
 31
0.0
  0
LINE
  8
0
  6
CONTINUOUS
 62
     7
  5
406
 10
1.852758
 20
5.882838
 30
0.0
 11
1.849073
 21
5.880416
 31
0.0
  0
LINE
  8
0
  6
CONTINUOUS
 62
     7
  5
407
 10
1.849073
 20
5.880416
 30
0.0
 11
1.8453
 21
5.878134
 31
0.0
  0
LINE
  8
0
  6
CONTINUOUS
 62
     7
  5
408
 10
1.8453
 20
5.878134
 30
0.0
 11
1.841444
 21
5.875994
 31
0.0
  0
LINE
  8
0
  6
CONTINUOUS
 62
     7
  5
409
 10
1.841444
 20
5.875994
 30
0.0
 11
1.837512
 21
5.873999
 31
0.0
  0
LINE
  8
0
  6
CONTINUOUS
 62
     7
  5
40A
 10
1.837512
 20
5.873999
 30
0.0
 11
1.833507
 21
5.872153
 31
0.0
  0
LINE
  8
0
  6
CONTINUOUS
 62
     7
  5
40B
 10
1.833507
 20
5.872153
 30
0.0
 11
1.829437
 21
5.870457
 31
0.0
  0
LINE
  8
0
  6
CONTINUOUS
 62
     7
  5
40C
 10
1.829437
 20
5.870457
 30
0.0
 11
1.825306
 21
5.868915
 31
0.0
  0
LINE
  8
0
  6
CONTINUOUS
 62
     7
  5
40D
 10
1.825306
 20
5.868915
 30
0.0
 11
1.82112
 21
5.867527
 31
0.0
  0
LINE
  8
0
  6
CONTINUOUS
 62
     7
  5
40E
 10
1.82112
 20
5.867527
 30
0.0
 11
1.816885
 21
5.866297
 31
0.0
  0
LINE
  8
0
  6
CONTINUOUS
 62
     7
  5
40F
 10
1.816885
 20
6.094333
 30
0.0
 11
1.82112
 21
6.093103
 31
0.0
  0
LINE
  8
0
  6
CONTINUOUS
 62
     7
  5
410
 10
1.82112
 20
6.093103
 30
0.0
 11
1.825306
 21
6.091715
 31
0.0
  0
LINE
  8
0
  6
CONTINUOUS
 62
     7
  5
411
 10
1.825306
 20
6.091715
 30
0.0
 11
1.829437
 21
6.090173
 31
0.0
  0
LINE
  8
0
  6
CONTINUOUS
 62
     7
  5
412
 10
1.829437
 20
6.090173
 30
0.0
 11
1.833507
 21
6.088477
 31
0.0
  0
LINE
  8
0
  6
CONTINUOUS
 62
     7
  5
413
 10
1.833507
 20
6.088477
 30
0.0
 11
1.837512
 21
6.086631
 31
0.0
  0
LINE
  8
0
  6
CONTINUOUS
 62
     7
  5
414
 10
1.837512
 20
6.086631
 30
0.0
 11
1.841444
 21
6.084636
 31
0.0
  0
LINE
  8
0
  6
CONTINUOUS
 62
     7
  5
415
 10
1.841444
 20
6.084636
 30
0.0
 11
1.8453
 21
6.082496
 31
0.0
  0
LINE
  8
0
  6
CONTINUOUS
 62
     7
  5
416
 10
1.8453
 20
6.082496
 30
0.0
 11
1.849073
 21
6.080214
 31
0.0
  0
LINE
  8
0
  6
CONTINUOUS
 62
     7
  5
417
 10
1.849073
 20
6.080214
 30
0.0
 11
1.852758
 21
6.077792
 31
0.0
  0
LINE
  8
0
  6
CONTINUOUS
 62
     7
  5
418
 10
1.852758
 20
6.077792
 30
0.0
 11
1.85635
 21
6.075235
 31
0.0
  0
LINE
  8
0
  6
CONTINUOUS
 62
     7
  5
419
 10
1.85635
 20
6.075235
 30
0.0
 11
1.859844
 21
6.072545
 31
0.0
  0
LINE
  8
0
  6
CONTINUOUS
 62
     7
  5
41A
 10
1.859844
 20
6.072545
 30
0.0
 11
1.863235
 21
6.069727
 31
0.0
  0
LINE
  8
0
  6
CONTINUOUS
 62
     7
  5
41B
 10
1.863235
 20
6.069727
 30
0.0
 11
1.866519
 21
6.066784
 31
0.0
  0
LINE
  8
0
  6
CONTINUOUS
 62
     7
  5
41C
 10
1.866519
 20
6.066784
 30
0.0
 11
1.869691
 21
6.06372
 31
0.0
  0
LINE
  8
0
  6
CONTINUOUS
 62
     7
  5
41D
 10
1.869691
 20
6.06372
 30
0.0
 11
1.872746
 21
6.06054
 31
0.0
  0
LINE
  8
0
  6
CONTINUOUS
 62
     7
  5
41E
 10
1.872746
 20
6.06054
 30
0.0
 11
1.87568
 21
6.057249
 31
0.0
  0
LINE
  8
0
  6
CONTINUOUS
 62
     7
  5
41F
 10
1.87568
 20
6.057249
 30
0.0
 11
1.878489
 21
6.05385
 31
0.0
  0
LINE
  8
0
  6
CONTINUOUS
 62
     7
  5
420
 10
1.878489
 20
6.05385
 30
0.0
 11
1.88117
 21
6.050349
 31
0.0
  0
LINE
  8
0
  6
CONTINUOUS
 62
     7
  5
421
 10
1.88117
 20
6.050349
 30
0.0
 11
1.883718
 21
6.04675
 31
0.0
  0
LINE
  8
0
  6
CONTINUOUS
 62
     7
  5
422
 10
1.883718
 20
6.04675
 30
0.0
 11
1.88613
 21
6.043058
 31
0.0
  0
LINE
  8
0
  6
CONTINUOUS
 62
     7
  5
423
 10
1.88613
 20
6.043058
 30
0.0
 11
1.888402
 21
6.039279
 31
0.0
  0
LINE
  8
0
  6
CONTINUOUS
 62
     7
  5
424
 10
1.888402
 20
6.039279
 30
0.0
 11
1.890532
 21
6.035418
 31
0.0
  0
LINE
  8
0
  6
CONTINUOUS
 62
     7
  5
425
 10
1.890532
 20
6.035418
 30
0.0
 11
1.892516
 21
6.03148
 31
0.0
  0
LINE
  8
0
  6
CONTINUOUS
 62
     7
  5
426
 10
1.892516
 20
6.03148
 30
0.0
 11
1.894351
 21
6.027471
 31
0.0
  0
LINE
  8
0
  6
CONTINUOUS
 62
     7
  5
427
 10
1.894351
 20
6.027471
 30
0.0
 11
1.896036
 21
6.023396
 31
0.0
  0
LINE
  8
0
  6
CONTINUOUS
 62
     7
  5
428
 10
1.896036
 20
6.023396
 30
0.0
 11
1.897568
 21
6.019261
 31
0.0
  0
LINE
  8
0
  6
CONTINUOUS
 62
     7
  5
429
 10
1.897568
 20
6.019261
 30
0.0
 11
1.898944
 21
6.015071
 31
0.0
  0
LINE
  8
0
  6
CONTINUOUS
 62
     7
  5
42A
 10
1.898944
 20
6.015071
 30
0.0
 11
1.900162
 21
6.010833
 31
0.0
  0
LINE
  8
0
  6
CONTINUOUS
 62
     7
  5
42B
 10
1.900162
 20
6.010833
 30
0.0
 11
1.901222
 21
6.006553
 31
0.0
  0
LINE
  8
0
  6
CONTINUOUS
 62
     7
  5
42C
 10
1.901222
 20
6.006553
 30
0.0
 11
1.902121
 21
6.002236
 31
0.0
  0
LINE
  8
0
  6
CONTINUOUS
 62
     7
  5
42D
 10
1.902121
 20
6.002236
 30
0.0
 11
1.902858
 21
5.997889
 31
0.0
  0
LINE
  8
0
  6
CONTINUOUS
 62
     7
  5
42E
 10
1.902858
 20
5.997889
 30
0.0
 11
1.903433
 21
5.993517
 31
0.0
  0
LINE
  8
0
  6
CONTINUOUS
 62
     7
  5
42F
 10
1.903433
 20
5.993517
 30
0.0
 11
1.903844
 21
5.989126
 31
0.0
  0
LINE
  8
0
  6
CONTINUOUS
 62
     7
  5
430
 10
1.903844
 20
5.989126
 30
0.0
 11
1.904091
 21
5.984724
 31
0.0
  0
LINE
  8
0
  6
CONTINUOUS
 62
     7
  5
431
 10
1.904091
 20
5.984724
 30
0.0
 11
1.904173
 21
5.980315
 31
0.0
  0
LINE
  8
0
  6
CONTINUOUS
 62
     7
  5
432
 10
1.904173
 20
-3.153543
 30
0.0
 11
1.904091
 21
-3.157952
 31
0.0
  0
LINE
  8
0
  6
CONTINUOUS
 62
     7
  5
433
 10
1.904091
 20
-3.157952
 30
0.0
 11
1.903844
 21
-3.162355
 31
0.0
  0
LINE
  8
0
  6
CONTINUOUS
 62
     7
  5
434
 10
1.903844
 20
-3.162355
 30
0.0
 11
1.903433
 21
-3.166745
 31
0.0
  0
LINE
  8
0
  6
CONTINUOUS
 62
     7
  5
435
 10
1.903433
 20
-3.166745
 30
0.0
 11
1.902858
 21
-3.171117
 31
0.0
  0
LINE
  8
0
  6
CONTINUOUS
 62
     7
  5
436
 10
1.902858
 20
-3.171117
 30
0.0
 11
1.902121
 21
-3.175465
 31
0.0
  0
LINE
  8
0
  6
CONTINUOUS
 62
     7
  5
437
 10
1.902121
 20
-3.175465
 30
0.0
 11
1.901222
 21
-3.179781
 31
0.0
  0
LINE
  8
0
  6
CONTINUOUS
 62
     7
  5
438
 10
1.901222
 20
-3.179781
 30
0.0
 11
1.900162
 21
-3.184062
 31
0.0
  0
LINE
  8
0
  6
CONTINUOUS
 62
     7
  5
439
 10
1.900162
 20
-3.184062
 30
0.0
 11
1.898944
 21
-3.1883
 31
0.0
  0
LINE
  8
0
  6
CONTINUOUS
 62
     7
  5
43A
 10
1.898944
 20
-3.1883
 30
0.0
 11
1.897568
 21
-3.192489
 31
0.0
  0
LINE
  8
0
  6
CONTINUOUS
 62
     7
  5
43B
 10
1.897568
 20
-3.192489
 30
0.0
 11
1.896036
 21
-3.196624
 31
0.0
  0
LINE
  8
0
  6
CONTINUOUS
 62
     7
  5
43C
 10
1.896036
 20
-3.196624
 30
0.0
 11
1.894351
 21
-3.200699
 31
0.0
  0
LINE
  8
0
  6
CONTINUOUS
 62
     7
  5
43D
 10
1.894351
 20
-3.200699
 30
0.0
 11
1.892516
 21
-3.204708
 31
0.0
  0
LINE
  8
0
  6
CONTINUOUS
 62
     7
  5
43E
 10
1.892516
 20
-3.204708
 30
0.0
 11
1.890532
 21
-3.208646
 31
0.0
  0
LINE
  8
0
  6
CONTINUOUS
 62
     7
  5
43F
 10
1.890532
 20
-3.208646
 30
0.0
 11
1.888402
 21
-3.212508
 31
0.0
  0
LINE
  8
0
  6
CONTINUOUS
 62
     7
  5
440
 10
1.888402
 20
-3.212508
 30
0.0
 11
1.88613
 21
-3.216287
 31
0.0
  0
LINE
  8
0
  6
CONTINUOUS
 62
     7
  5
441
 10
1.88613
 20
-3.216287
 30
0.0
 11
1.883718
 21
-3.219978
 31
0.0
  0
LINE
  8
0
  6
CONTINUOUS
 62
     7
  5
442
 10
1.883718
 20
-3.219978
 30
0.0
 11
1.88117
 21
-3.223577
 31
0.0
  0
LINE
  8
0
  6
CONTINUOUS
 62
     7
  5
443
 10
1.88117
 20
-3.223577
 30
0.0
 11
1.878489
 21
-3.227078
 31
0.0
  0
LINE
  8
0
  6
CONTINUOUS
 62
     7
  5
444
 10
1.878489
 20
-3.227078
 30
0.0
 11
1.87568
 21
-3.230477
 31
0.0
  0
LINE
  8
0
  6
CONTINUOUS
 62
     7
  5
445
 10
1.87568
 20
-3.230477
 30
0.0
 11
1.872746
 21
-3.233769
 31
0.0
  0
LINE
  8
0
  6
CONTINUOUS
 62
     7
  5
446
 10
1.872746
 20
-3.233769
 30
0.0
 11
1.869691
 21
-3.236949
 31
0.0
  0
LINE
  8
0
  6
CONTINUOUS
 62
     7
  5
447
 10
1.869691
 20
-3.236949
 30
0.0
 11
1.866519
 21
-3.240012
 31
0.0
  0
LINE
  8
0
  6
CONTINUOUS
 62
     7
  5
448
 10
1.866519
 20
-3.240012
 30
0.0
 11
1.863235
 21
-3.242955
 31
0.0
  0
LINE
  8
0
  6
CONTINUOUS
 62
     7
  5
449
 10
1.863235
 20
-3.242955
 30
0.0
 11
1.859844
 21
-3.245773
 31
0.0
  0
LINE
  8
0
  6
CONTINUOUS
 62
     7
  5
44A
 10
1.859844
 20
-3.245773
 30
0.0
 11
1.85635
 21
-3.248463
 31
0.0
  0
LINE
  8
0
  6
CONTINUOUS
 62
     7
  5
44B
 10
1.85635
 20
-3.248463
 30
0.0
 11
1.852758
 21
-3.251021
 31
0.0
  0
LINE
  8
0
  6
CONTINUOUS
 62
     7
  5
44C
 10
1.852758
 20
-3.251021
 30
0.0
 11
1.849073
 21
-3.253442
 31
0.0
  0
LINE
  8
0
  6
CONTINUOUS
 62
     7
  5
44D
 10
1.849073
 20
-3.253442
 30
0.0
 11
1.8453
 21
-3.255725
 31
0.0
  0
LINE
  8
0
  6
CONTINUOUS
 62
     7
  5
44E
 10
1.8453
 20
-3.255725
 30
0.0
 11
1.841444
 21
-3.257865
 31
0.0
  0
LINE
  8
0
  6
CONTINUOUS
 62
     7
  5
44F
 10
1.841444
 20
-3.257865
 30
0.0
 11
1.837512
 21
-3.259859
 31
0.0
  0
LINE
  8
0
  6
CONTINUOUS
 62
     7
  5
450
 10
1.837512
 20
-3.259859
 30
0.0
 11
1.833507
 21
-3.261706
 31
0.0
  0
LINE
  8
0
  6
CONTINUOUS
 62
     7
  5
451
 10
1.833507
 20
-3.261706
 30
0.0
 11
1.829437
 21
-3.263401
 31
0.0
  0
LINE
  8
0
  6
CONTINUOUS
 62
     7
  5
452
 10
1.829437
 20
-3.263401
 30
0.0
 11
1.825306
 21
-3.264944
 31
0.0
  0
LINE
  8
0
  6
CONTINUOUS
 62
     7
  5
453
 10
1.825306
 20
-3.264944
 30
0.0
 11
1.82112
 21
-3.266331
 31
0.0
  0
LINE
  8
0
  6
CONTINUOUS
 62
     7
  5
454
 10
1.82112
 20
-3.266331
 30
0.0
 11
1.816885
 21
-3.267561
 31
0.0
  0
LINE
  8
0
  6
CONTINUOUS
 62
     7
  5
455
 10
1.816885
 20
-3.039526
 30
0.0
 11
1.82112
 21
-3.040756
 31
0.0
  0
LINE
  8
0
  6
CONTINUOUS
 62
     7
  5
456
 10
1.82112
 20
-3.040756
 30
0.0
 11
1.825306
 21
-3.042143
 31
0.0
  0
LINE
  8
0
  6
CONTINUOUS
 62
     7
  5
457
 10
1.825306
 20
-3.042143
 30
0.0
 11
1.829437
 21
-3.043685
 31
0.0
  0
LINE
  8
0
  6
CONTINUOUS
 62
     7
  5
458
 10
1.829437
 20
-3.043685
 30
0.0
 11
1.833507
 21
-3.045381
 31
0.0
  0
LINE
  8
0
  6
CONTINUOUS
 62
     7
  5
459
 10
1.833507
 20
-3.045381
 30
0.0
 11
1.837512
 21
-3.047227
 31
0.0
  0
LINE
  8
0
  6
CONTINUOUS
 62
     7
  5
45A
 10
1.837512
 20
-3.047227
 30
0.0
 11
1.841444
 21
-3.049222
 31
0.0
  0
LINE
  8
0
  6
CONTINUOUS
 62
     7
  5
45B
 10
1.841444
 20
-3.049222
 30
0.0
 11
1.8453
 21
-3.051362
 31
0.0
  0
LINE
  8
0
  6
CONTINUOUS
 62
     7
  5
45C
 10
1.8453
 20
-3.051362
 30
0.0
 11
1.849073
 21
-3.053644
 31
0.0
  0
LINE
  8
0
  6
CONTINUOUS
 62
     7
  5
45D
 10
1.849073
 20
-3.053644
 30
0.0
 11
1.852758
 21
-3.056066
 31
0.0
  0
LINE
  8
0
  6
CONTINUOUS
 62
     7
  5
45E
 10
1.852758
 20
-3.056066
 30
0.0
 11
1.85635
 21
-3.058623
 31
0.0
  0
LINE
  8
0
  6
CONTINUOUS
 62
     7
  5
45F
 10
1.85635
 20
-3.058623
 30
0.0
 11
1.859844
 21
-3.061313
 31
0.0
  0
LINE
  8
0
  6
CONTINUOUS
 62
     7
  5
460
 10
1.859844
 20
-3.061313
 30
0.0
 11
1.863235
 21
-3.064132
 31
0.0
  0
LINE
  8
0
  6
CONTINUOUS
 62
     7
  5
461
 10
1.863235
 20
-3.064132
 30
0.0
 11
1.866519
 21
-3.067075
 31
0.0
  0
LINE
  8
0
  6
CONTINUOUS
 62
     7
  5
462
 10
1.866519
 20
-3.067075
 30
0.0
 11
1.869691
 21
-3.070138
 31
0.0
  0
LINE
  8
0
  6
CONTINUOUS
 62
     7
  5
463
 10
1.869691
 20
-3.070138
 30
0.0
 11
1.872746
 21
-3.073318
 31
0.0
  0
LINE
  8
0
  6
CONTINUOUS
 62
     7
  5
464
 10
1.872746
 20
-3.073318
 30
0.0
 11
1.87568
 21
-3.076609
 31
0.0
  0
LINE
  8
0
  6
CONTINUOUS
 62
     7
  5
465
 10
1.87568
 20
-3.076609
 30
0.0
 11
1.878489
 21
-3.080008
 31
0.0
  0
LINE
  8
0
  6
CONTINUOUS
 62
     7
  5
466
 10
1.878489
 20
-3.080008
 30
0.0
 11
1.88117
 21
-3.08351
 31
0.0
  0
LINE
  8
0
  6
CONTINUOUS
 62
     7
  5
467
 10
1.88117
 20
-3.08351
 30
0.0
 11
1.883718
 21
-3.087109
 31
0.0
  0
LINE
  8
0
  6
CONTINUOUS
 62
     7
  5
468
 10
1.883718
 20
-3.087109
 30
0.0
 11
1.88613
 21
-3.0908
 31
0.0
  0
LINE
  8
0
  6
CONTINUOUS
 62
     7
  5
469
 10
1.88613
 20
-3.0908
 30
0.0
 11
1.888402
 21
-3.094579
 31
0.0
  0
LINE
  8
0
  6
CONTINUOUS
 62
     7
  5
46A
 10
1.888402
 20
-3.094579
 30
0.0
 11
1.890532
 21
-3.09844
 31
0.0
  0
LINE
  8
0
  6
CONTINUOUS
 62
     7
  5
46B
 10
1.890532
 20
-3.09844
 30
0.0
 11
1.892516
 21
-3.102378
 31
0.0
  0
LINE
  8
0
  6
CONTINUOUS
 62
     7
  5
46C
 10
1.892516
 20
-3.102378
 30
0.0
 11
1.894351
 21
-3.106388
 31
0.0
  0
LINE
  8
0
  6
CONTINUOUS
 62
     7
  5
46D
 10
1.894351
 20
-3.106388
 30
0.0
 11
1.896036
 21
-3.110463
 31
0.0
  0
LINE
  8
0
  6
CONTINUOUS
 62
     7
  5
46E
 10
1.896036
 20
-3.110463
 30
0.0
 11
1.897568
 21
-3.114598
 31
0.0
  0
LINE
  8
0
  6
CONTINUOUS
 62
     7
  5
46F
 10
1.897568
 20
-3.114598
 30
0.0
 11
1.898944
 21
-3.118787
 31
0.0
  0
LINE
  8
0
  6
CONTINUOUS
 62
     7
  5
470
 10
1.898944
 20
-3.118787
 30
0.0
 11
1.900162
 21
-3.123025
 31
0.0
  0
LINE
  8
0
  6
CONTINUOUS
 62
     7
  5
471
 10
1.900162
 20
-3.123025
 30
0.0
 11
1.901222
 21
-3.127305
 31
0.0
  0
LINE
  8
0
  6
CONTINUOUS
 62
     7
  5
472
 10
1.901222
 20
-3.127305
 30
0.0
 11
1.902121
 21
-3.131622
 31
0.0
  0
LINE
  8
0
  6
CONTINUOUS
 62
     7
  5
473
 10
1.902121
 20
-3.131622
 30
0.0
 11
1.902858
 21
-3.13597
 31
0.0
  0
LINE
  8
0
  6
CONTINUOUS
 62
     7
  5
474
 10
1.902858
 20
-3.13597
 30
0.0
 11
1.903433
 21
-3.140341
 31
0.0
  0
LINE
  8
0
  6
CONTINUOUS
 62
     7
  5
475
 10
1.903433
 20
-3.140341
 30
0.0
 11
1.903844
 21
-3.144732
 31
0.0
  0
LINE
  8
0
  6
CONTINUOUS
 62
     7
  5
476
 10
1.903844
 20
-3.144732
 30
0.0
 11
1.904091
 21
-3.149135
 31
0.0
  0
LINE
  8
0
  6
CONTINUOUS
 62
     7
  5
477
 10
1.904091
 20
-3.149135
 30
0.0
 11
1.904173
 21
-3.153543
 31
0.0
  0
LINE
  8
0
  6
CONTINUOUS
 62
     7
  5
478
 10
0.720472
 20
-3.566929
 30
0.0
 11
0.562992
 21
-3.566929
 31
0.0
  0
LINE
  8
0
  6
CONTINUOUS
 62
     7
  5
479
 10
0.720472
 20
-11.566929
 30
0.0
 11
0.562992
 21
-11.566929
 31
0.0
  0
LINE
  8
0
  6
CONTINUOUS
 62
     7
  5
47A
 10
1.816885
 20
-3.267561
 30
0.0
 11
1.510472
 21
-3.350394
 31
0.0
  0
LINE
  8
0
  6
CONTINUOUS
 62
     7
  5
47B
 10
1.904173
 20
-3.153543
 30
0.0
 11
1.904091
 21
-3.157952
 31
0.0
  0
LINE
  8
0
  6
CONTINUOUS
 62
     7
  5
47C
 10
1.904091
 20
-3.157952
 30
0.0
 11
1.903844
 21
-3.162355
 31
0.0
  0
LINE
  8
0
  6
CONTINUOUS
 62
     7
  5
47D
 10
1.903844
 20
-3.162355
 30
0.0
 11
1.903433
 21
-3.166745
 31
0.0
  0
LINE
  8
0
  6
CONTINUOUS
 62
     7
  5
47E
 10
1.903433
 20
-3.166745
 30
0.0
 11
1.902858
 21
-3.171117
 31
0.0
  0
LINE
  8
0
  6
CONTINUOUS
 62
     7
  5
47F
 10
1.902858
 20
-3.171117
 30
0.0
 11
1.902121
 21
-3.175465
 31
0.0
  0
LINE
  8
0
  6
CONTINUOUS
 62
     7
  5
480
 10
1.902121
 20
-3.175465
 30
0.0
 11
1.901222
 21
-3.179781
 31
0.0
  0
LINE
  8
0
  6
CONTINUOUS
 62
     7
  5
481
 10
1.901222
 20
-3.179781
 30
0.0
 11
1.900162
 21
-3.184062
 31
0.0
  0
LINE
  8
0
  6
CONTINUOUS
 62
     7
  5
482
 10
1.900162
 20
-3.184062
 30
0.0
 11
1.898944
 21
-3.1883
 31
0.0
  0
LINE
  8
0
  6
CONTINUOUS
 62
     7
  5
483
 10
1.898944
 20
-3.1883
 30
0.0
 11
1.897568
 21
-3.192489
 31
0.0
  0
LINE
  8
0
  6
CONTINUOUS
 62
     7
  5
484
 10
1.897568
 20
-3.192489
 30
0.0
 11
1.896036
 21
-3.196624
 31
0.0
  0
LINE
  8
0
  6
CONTINUOUS
 62
     7
  5
485
 10
1.896036
 20
-3.196624
 30
0.0
 11
1.894351
 21
-3.200699
 31
0.0
  0
LINE
  8
0
  6
CONTINUOUS
 62
     7
  5
486
 10
1.894351
 20
-3.200699
 30
0.0
 11
1.892516
 21
-3.204708
 31
0.0
  0
LINE
  8
0
  6
CONTINUOUS
 62
     7
  5
487
 10
1.892516
 20
-3.204708
 30
0.0
 11
1.890532
 21
-3.208646
 31
0.0
  0
LINE
  8
0
  6
CONTINUOUS
 62
     7
  5
488
 10
1.890532
 20
-3.208646
 30
0.0
 11
1.888402
 21
-3.212508
 31
0.0
  0
LINE
  8
0
  6
CONTINUOUS
 62
     7
  5
489
 10
1.888402
 20
-3.212508
 30
0.0
 11
1.88613
 21
-3.216287
 31
0.0
  0
LINE
  8
0
  6
CONTINUOUS
 62
     7
  5
48A
 10
1.88613
 20
-3.216287
 30
0.0
 11
1.883718
 21
-3.219978
 31
0.0
  0
LINE
  8
0
  6
CONTINUOUS
 62
     7
  5
48B
 10
1.883718
 20
-3.219978
 30
0.0
 11
1.88117
 21
-3.223577
 31
0.0
  0
LINE
  8
0
  6
CONTINUOUS
 62
     7
  5
48C
 10
1.88117
 20
-3.223577
 30
0.0
 11
1.878489
 21
-3.227078
 31
0.0
  0
LINE
  8
0
  6
CONTINUOUS
 62
     7
  5
48D
 10
1.878489
 20
-3.227078
 30
0.0
 11
1.87568
 21
-3.230477
 31
0.0
  0
LINE
  8
0
  6
CONTINUOUS
 62
     7
  5
48E
 10
1.87568
 20
-3.230477
 30
0.0
 11
1.872746
 21
-3.233769
 31
0.0
  0
LINE
  8
0
  6
CONTINUOUS
 62
     7
  5
48F
 10
1.872746
 20
-3.233769
 30
0.0
 11
1.869691
 21
-3.236949
 31
0.0
  0
LINE
  8
0
  6
CONTINUOUS
 62
     7
  5
490
 10
1.869691
 20
-3.236949
 30
0.0
 11
1.866519
 21
-3.240012
 31
0.0
  0
LINE
  8
0
  6
CONTINUOUS
 62
     7
  5
491
 10
1.866519
 20
-3.240012
 30
0.0
 11
1.863235
 21
-3.242955
 31
0.0
  0
LINE
  8
0
  6
CONTINUOUS
 62
     7
  5
492
 10
1.863235
 20
-3.242955
 30
0.0
 11
1.859844
 21
-3.245773
 31
0.0
  0
LINE
  8
0
  6
CONTINUOUS
 62
     7
  5
493
 10
1.859844
 20
-3.245773
 30
0.0
 11
1.85635
 21
-3.248463
 31
0.0
  0
LINE
  8
0
  6
CONTINUOUS
 62
     7
  5
494
 10
1.85635
 20
-3.248463
 30
0.0
 11
1.852758
 21
-3.251021
 31
0.0
  0
LINE
  8
0
  6
CONTINUOUS
 62
     7
  5
495
 10
1.852758
 20
-3.251021
 30
0.0
 11
1.849073
 21
-3.253442
 31
0.0
  0
LINE
  8
0
  6
CONTINUOUS
 62
     7
  5
496
 10
1.849073
 20
-3.253442
 30
0.0
 11
1.8453
 21
-3.255725
 31
0.0
  0
LINE
  8
0
  6
CONTINUOUS
 62
     7
  5
497
 10
1.8453
 20
-3.255725
 30
0.0
 11
1.841444
 21
-3.257865
 31
0.0
  0
LINE
  8
0
  6
CONTINUOUS
 62
     7
  5
498
 10
1.841444
 20
-3.257865
 30
0.0
 11
1.837512
 21
-3.259859
 31
0.0
  0
LINE
  8
0
  6
CONTINUOUS
 62
     7
  5
499
 10
1.837512
 20
-3.259859
 30
0.0
 11
1.833507
 21
-3.261706
 31
0.0
  0
LINE
  8
0
  6
CONTINUOUS
 62
     7
  5
49A
 10
1.833507
 20
-3.261706
 30
0.0
 11
1.829437
 21
-3.263401
 31
0.0
  0
LINE
  8
0
  6
CONTINUOUS
 62
     7
  5
49B
 10
1.829437
 20
-3.263401
 30
0.0
 11
1.825306
 21
-3.264944
 31
0.0
  0
LINE
  8
0
  6
CONTINUOUS
 62
     7
  5
49C
 10
1.825306
 20
-3.264944
 30
0.0
 11
1.82112
 21
-3.266331
 31
0.0
  0
LINE
  8
0
  6
CONTINUOUS
 62
     7
  5
49D
 10
1.82112
 20
-3.266331
 30
0.0
 11
1.816885
 21
-3.267561
 31
0.0
  0
LINE
  8
0
  6
CONTINUOUS
 62
     7
  5
49E
 10
1.816885
 20
-3.039526
 30
0.0
 11
1.82112
 21
-3.040756
 31
0.0
  0
LINE
  8
0
  6
CONTINUOUS
 62
     7
  5
49F
 10
1.82112
 20
-3.040756
 30
0.0
 11
1.825306
 21
-3.042143
 31
0.0
  0
LINE
  8
0
  6
CONTINUOUS
 62
     7
  5
4A0
 10
1.825306
 20
-3.042143
 30
0.0
 11
1.829437
 21
-3.043685
 31
0.0
  0
LINE
  8
0
  6
CONTINUOUS
 62
     7
  5
4A1
 10
1.829437
 20
-3.043685
 30
0.0
 11
1.833507
 21
-3.045381
 31
0.0
  0
LINE
  8
0
  6
CONTINUOUS
 62
     7
  5
4A2
 10
1.833507
 20
-3.045381
 30
0.0
 11
1.837512
 21
-3.047227
 31
0.0
  0
LINE
  8
0
  6
CONTINUOUS
 62
     7
  5
4A3
 10
1.837512
 20
-3.047227
 30
0.0
 11
1.841444
 21
-3.049222
 31
0.0
  0
LINE
  8
0
  6
CONTINUOUS
 62
     7
  5
4A4
 10
1.841444
 20
-3.049222
 30
0.0
 11
1.8453
 21
-3.051362
 31
0.0
  0
LINE
  8
0
  6
CONTINUOUS
 62
     7
  5
4A5
 10
1.8453
 20
-3.051362
 30
0.0
 11
1.849073
 21
-3.053644
 31
0.0
  0
LINE
  8
0
  6
CONTINUOUS
 62
     7
  5
4A6
 10
1.849073
 20
-3.053644
 30
0.0
 11
1.852758
 21
-3.056066
 31
0.0
  0
LINE
  8
0
  6
CONTINUOUS
 62
     7
  5
4A7
 10
1.852758
 20
-3.056066
 30
0.0
 11
1.85635
 21
-3.058623
 31
0.0
  0
LINE
  8
0
  6
CONTINUOUS
 62
     7
  5
4A8
 10
1.85635
 20
-3.058623
 30
0.0
 11
1.859844
 21
-3.061313
 31
0.0
  0
LINE
  8
0
  6
CONTINUOUS
 62
     7
  5
4A9
 10
1.859844
 20
-3.061313
 30
0.0
 11
1.863235
 21
-3.064132
 31
0.0
  0
LINE
  8
0
  6
CONTINUOUS
 62
     7
  5
4AA
 10
1.863235
 20
-3.064132
 30
0.0
 11
1.866519
 21
-3.067075
 31
0.0
  0
LINE
  8
0
  6
CONTINUOUS
 62
     7
  5
4AB
 10
1.866519
 20
-3.067075
 30
0.0
 11
1.869691
 21
-3.070138
 31
0.0
  0
LINE
  8
0
  6
CONTINUOUS
 62
     7
  5
4AC
 10
1.869691
 20
-3.070138
 30
0.0
 11
1.872746
 21
-3.073318
 31
0.0
  0
LINE
  8
0
  6
CONTINUOUS
 62
     7
  5
4AD
 10
1.872746
 20
-3.073318
 30
0.0
 11
1.87568
 21
-3.076609
 31
0.0
  0
LINE
  8
0
  6
CONTINUOUS
 62
     7
  5
4AE
 10
1.87568
 20
-3.076609
 30
0.0
 11
1.878489
 21
-3.080008
 31
0.0
  0
LINE
  8
0
  6
CONTINUOUS
 62
     7
  5
4AF
 10
1.878489
 20
-3.080008
 30
0.0
 11
1.88117
 21
-3.08351
 31
0.0
  0
LINE
  8
0
  6
CONTINUOUS
 62
     7
  5
4B0
 10
1.88117
 20
-3.08351
 30
0.0
 11
1.883718
 21
-3.087109
 31
0.0
  0
LINE
  8
0
  6
CONTINUOUS
 62
     7
  5
4B1
 10
1.883718
 20
-3.087109
 30
0.0
 11
1.88613
 21
-3.0908
 31
0.0
  0
LINE
  8
0
  6
CONTINUOUS
 62
     7
  5
4B2
 10
1.88613
 20
-3.0908
 30
0.0
 11
1.888402
 21
-3.094579
 31
0.0
  0
LINE
  8
0
  6
CONTINUOUS
 62
     7
  5
4B3
 10
1.888402
 20
-3.094579
 30
0.0
 11
1.890532
 21
-3.09844
 31
0.0
  0
LINE
  8
0
  6
CONTINUOUS
 62
     7
  5
4B4
 10
1.890532
 20
-3.09844
 30
0.0
 11
1.892516
 21
-3.102378
 31
0.0
  0
LINE
  8
0
  6
CONTINUOUS
 62
     7
  5
4B5
 10
1.892516
 20
-3.102378
 30
0.0
 11
1.894351
 21
-3.106388
 31
0.0
  0
LINE
  8
0
  6
CONTINUOUS
 62
     7
  5
4B6
 10
1.894351
 20
-3.106388
 30
0.0
 11
1.896036
 21
-3.110463
 31
0.0
  0
LINE
  8
0
  6
CONTINUOUS
 62
     7
  5
4B7
 10
1.896036
 20
-3.110463
 30
0.0
 11
1.897568
 21
-3.114598
 31
0.0
  0
LINE
  8
0
  6
CONTINUOUS
 62
     7
  5
4B8
 10
1.897568
 20
-3.114598
 30
0.0
 11
1.898944
 21
-3.118787
 31
0.0
  0
LINE
  8
0
  6
CONTINUOUS
 62
     7
  5
4B9
 10
1.898944
 20
-3.118787
 30
0.0
 11
1.900162
 21
-3.123025
 31
0.0
  0
LINE
  8
0
  6
CONTINUOUS
 62
     7
  5
4BA
 10
1.900162
 20
-3.123025
 30
0.0
 11
1.901222
 21
-3.127305
 31
0.0
  0
LINE
  8
0
  6
CONTINUOUS
 62
     7
  5
4BB
 10
1.901222
 20
-3.127305
 30
0.0
 11
1.902121
 21
-3.131622
 31
0.0
  0
LINE
  8
0
  6
CONTINUOUS
 62
     7
  5
4BC
 10
1.902121
 20
-3.131622
 30
0.0
 11
1.902858
 21
-3.13597
 31
0.0
  0
LINE
  8
0
  6
CONTINUOUS
 62
     7
  5
4BD
 10
1.902858
 20
-3.13597
 30
0.0
 11
1.903433
 21
-3.140341
 31
0.0
  0
LINE
  8
0
  6
CONTINUOUS
 62
     7
  5
4BE
 10
1.903433
 20
-3.140341
 30
0.0
 11
1.903844
 21
-3.144732
 31
0.0
  0
LINE
  8
0
  6
CONTINUOUS
 62
     7
  5
4BF
 10
1.903844
 20
-3.144732
 30
0.0
 11
1.904091
 21
-3.149135
 31
0.0
  0
LINE
  8
0
  6
CONTINUOUS
 62
     7
  5
4C0
 10
1.904091
 20
-3.149135
 30
0.0
 11
1.904173
 21
-3.153543
 31
0.0
  0
LINE
  8
0
  6
CONTINUOUS
 62
     7
  5
4C1
 10
1.510472
 20
-2.956693
 30
0.0
 11
1.816885
 21
-3.039526
 31
0.0
  0
LINE
  8
0
  6
CONTINUOUS
 62
     7
  5
4C2
 10
1.510472
 20
-2.956693
 30
0.0
 11
1.510472
 21
-6.71063
 31
0.0
  0
LINE
  8
0
  6
CONTINUOUS
 62
     7
  5
4C3
 10
0.720472
 20
-3.567929
 30
0.0
 11
0.720472
 21
-2.956693
 31
0.0
  0
LINE
  8
0
  6
CONTINUOUS
 62
     7
  5
4C4
 10
1.510472
 20
-6.71063
 30
0.0
 11
0.720472
 21
-6.71063
 31
0.0
  0
LINE
  8
0
  6
CONTINUOUS
 62
     7
  5
4C5
 10
1.510472
 20
-2.956693
 30
0.0
 11
0.838583
 21
-2.956693
 31
0.0
  0
LINE
  8
0
  6
CONTINUOUS
 62
     7
  5
4C6
 10
-5.822835
 20
-8.354331
 30
0.0
 11
-7.082677
 21
-8.354331
 31
0.0
  0
LINE
  8
0
  6
CONTINUOUS
 62
     7
  5
4C7
 10
-5.822835
 20
-6.779528
 30
0.0
 11
-5.822835
 21
-8.354331
 31
0.0
  0
LINE
  8
0
  6
CONTINUOUS
 62
     7
  5
4C8
 10
-7.082677
 20
-6.779528
 30
0.0
 11
-5.822835
 21
-6.779528
 31
0.0
  0
LINE
  8
0
  6
CONTINUOUS
 62
     7
  5
4C9
 10
-7.082677
 20
-8.354331
 30
0.0
 11
-7.082677
 21
-6.779528
 31
0.0
  0
LINE
  8
0
  6
CONTINUOUS
 62
     7
  5
4CA
 10
-5.822835
 20
-8.354331
 30
0.0
 11
-5.822835
 21
-9.929134
 31
0.0
  0
LINE
  8
0
  6
CONTINUOUS
 62
     7
  5
4CB
 10
-7.082677
 20
-9.929134
 30
0.0
 11
-7.082677
 21
-8.354331
 31
0.0
  0
LINE
  8
0
  6
CONTINUOUS
 62
     7
  5
4CC
 10
-5.822835
 20
-9.929134
 30
0.0
 11
-7.082677
 21
-9.929134
 31
0.0
  0
LINE
  8
0
  6
CONTINUOUS
 62
     7
  5
4CD
 10
-4.561992
 20
-8.354331
 30
0.0
 11
-5.821835
 21
-8.354331
 31
0.0
  0
LINE
  8
0
  6
CONTINUOUS
 62
     7
  5
4CE
 10
-4.561992
 20
-6.779528
 30
0.0
 11
-4.561992
 21
-8.354331
 31
0.0
  0
LINE
  8
0
  6
CONTINUOUS
 62
     7
  5
4CF
 10
-5.821835
 20
-6.779528
 30
0.0
 11
-4.561992
 21
-6.779528
 31
0.0
  0
LINE
  8
0
  6
CONTINUOUS
 62
     7
  5
4D0
 10
-5.821835
 20
-8.354331
 30
0.0
 11
-5.821835
 21
-6.779528
 31
0.0
  0
LINE
  8
0
  6
CONTINUOUS
 62
     7
  5
4D1
 10
-4.561992
 20
-8.354331
 30
0.0
 11
-4.561992
 21
-9.929134
 31
0.0
  0
LINE
  8
0
  6
CONTINUOUS
 62
     7
  5
4D2
 10
-5.821835
 20
-9.929134
 30
0.0
 11
-5.821835
 21
-8.354331
 31
0.0
  0
LINE
  8
0
  6
CONTINUOUS
 62
     7
  5
4D3
 10
-4.561992
 20
-9.929134
 30
0.0
 11
-5.821835
 21
-9.929134
 31
0.0
  0
LINE
  8
0
  6
CONTINUOUS
 62
     7
  5
4D4
 10
-3.30115
 20
-8.354331
 30
0.0
 11
-4.560992
 21
-8.354331
 31
0.0
  0
LINE
  8
0
  6
CONTINUOUS
 62
     7
  5
4D5
 10
-3.30115
 20
-6.779528
 30
0.0
 11
-3.30115
 21
-8.354331
 31
0.0
  0
LINE
  8
0
  6
CONTINUOUS
 62
     7
  5
4D6
 10
-4.560992
 20
-6.779528
 30
0.0
 11
-3.30115
 21
-6.779528
 31
0.0
  0
LINE
  8
0
  6
CONTINUOUS
 62
     7
  5
4D7
 10
-4.560992
 20
-8.354331
 30
0.0
 11
-4.560992
 21
-6.779528
 31
0.0
  0
LINE
  8
0
  6
CONTINUOUS
 62
     7
  5
4D8
 10
-3.30115
 20
-8.354331
 30
0.0
 11
-3.30115
 21
-9.929134
 31
0.0
  0
LINE
  8
0
  6
CONTINUOUS
 62
     7
  5
4D9
 10
-4.560992
 20
-9.929134
 30
0.0
 11
-4.560992
 21
-8.354331
 31
0.0
  0
LINE
  8
0
  6
CONTINUOUS
 62
     7
  5
4DA
 10
-3.30115
 20
-9.929134
 30
0.0
 11
-4.560992
 21
-9.929134
 31
0.0
  0
LINE
  8
0
  6
CONTINUOUS
 62
     7
  5
4DB
 10
-2.040307
 20
-8.354331
 30
0.0
 11
-3.30015
 21
-8.354331
 31
0.0
  0
LINE
  8
0
  6
CONTINUOUS
 62
     7
  5
4DC
 10
-2.040307
 20
-6.779528
 30
0.0
 11
-2.040307
 21
-8.354331
 31
0.0
  0
LINE
  8
0
  6
CONTINUOUS
 62
     7
  5
4DD
 10
-3.30015
 20
-6.779528
 30
0.0
 11
-2.040307
 21
-6.779528
 31
0.0
  0
LINE
  8
0
  6
CONTINUOUS
 62
     7
  5
4DE
 10
-3.30015
 20
-8.354331
 30
0.0
 11
-3.30015
 21
-6.779528
 31
0.0
  0
LINE
  8
0
  6
CONTINUOUS
 62
     7
  5
4DF
 10
-2.040307
 20
-8.354331
 30
0.0
 11
-2.040307
 21
-9.929134
 31
0.0
  0
LINE
  8
0
  6
CONTINUOUS
 62
     7
  5
4E0
 10
-3.30015
 20
-9.929134
 30
0.0
 11
-3.30015
 21
-8.354331
 31
0.0
  0
LINE
  8
0
  6
CONTINUOUS
 62
     7
  5
4E1
 10
-2.040307
 20
-9.929134
 30
0.0
 11
-3.30015
 21
-9.929134
 31
0.0
  0
LINE
  8
0
  6
CONTINUOUS
 62
     7
  5
4E2
 10
-9.248031
 20
-9.338583
 30
0.0
 11
-9.090551
 21
-9.338583
 31
0.0
  0
LINE
  8
0
  6
CONTINUOUS
 62
     7
  5
4E3
 10
-9.248031
 20
-5.795276
 30
0.0
 11
-9.090551
 21
-5.795276
 31
0.0
  0
LINE
  8
0
  6
CONTINUOUS
 62
     7
  5
4E4
 10
-9.090551
 20
-9.338583
 30
0.0
 11
-7.240157
 21
-9.338583
 31
0.0
  0
LINE
  8
0
  6
CONTINUOUS
 62
     7
  5
4E5
 10
-7.240157
 20
-5.795276
 30
0.0
 11
-7.240157
 21
-9.338583
 31
0.0
  0
LINE
  8
0
  6
CONTINUOUS
 62
     7
  5
4E6
 10
-9.090551
 20
-5.795276
 30
0.0
 11
-7.240157
 21
-5.795276
 31
0.0
  0
LINE
  8
0
  6
CONTINUOUS
 62
     7
  5
4E7
 10
-9.405512
 20
-5.795276
 30
0.0
 11
-9.405512
 21
-9.338583
 31
0.0
  0
LINE
  8
0
  6
CONTINUOUS
 62
     7
  5
4E8
 10
-9.405512
 20
-9.338583
 30
0.0
 11
-9.248031
 21
-9.338583
 31
0.0
  0
LINE
  8
0
  6
CONTINUOUS
 62
     7
  5
4E9
 10
-9.248031
 20
-5.795276
 30
0.0
 11
-9.248031
 21
-9.338583
 31
0.0
  0
LINE
  8
0
  6
CONTINUOUS
 62
     7
  5
4EA
 10
-9.405512
 20
-5.795276
 30
0.0
 11
-9.248031
 21
-5.795276
 31
0.0
  0
LINE
  8
0
  6
CONTINUOUS
 62
     7
  5
4EB
 10
-8.53937
 20
-9.338583
 30
0.0
 11
-8.53937
 21
-11.565929
 31
0.0
  0
LINE
  8
0
  6
CONTINUOUS
 62
     7
  5
4EC
 10
-8.53937
 20
-11.565929
 30
0.0
 11
0.523622
 21
-11.565929
 31
0.0
  0
LINE
  8
0
  6
CONTINUOUS
 62
     7
  5
4ED
 10
-8.53937
 20
-3.567929
 30
0.0
 11
0.523622
 21
-3.567929
 31
0.0
  0
LINE
  8
0
  6
CONTINUOUS
 62
     7
  5
4EE
 10
-8.53937
 20
-3.567929
 30
0.0
 11
-8.53937
 21
-5.795276
 31
0.0
  0
LINE
  8
0
  6
CONTINUOUS
 62
     7
  5
4EF
 10
0.523622
 20
-11.565929
 30
0.0
 11
0.720472
 21
-11.565929
 31
0.0
  0
LINE
  8
0
  6
CONTINUOUS
 62
     7
  5
4F0
 10
0.720472
 20
-3.567929
 30
0.0
 11
0.720472
 21
-11.565929
 31
0.0
  0
LINE
  8
0
  6
CONTINUOUS
 62
     7
  5
4F1
 10
0.523622
 20
-3.567929
 30
0.0
 11
0.720472
 21
-3.567929
 31
0.0
  0
LINE
  8
0
  6
CONTINUOUS
 62
     7
  5
4F2
 10
-8.53937
 20
-3.566929
 30
0.0
 11
0.366142
 21
-3.566929
 31
0.0
  0
LINE
  8
0
  6
CONTINUOUS
 62
     7
  5
4F3
 10
-8.53937
 20
-11.565929
 30
0.0
 11
-8.53937
 21
-11.566929
 31
0.0
  0
LINE
  8
0
  6
CONTINUOUS
 62
     7
  5
4F4
 10
-8.53937
 20
-11.566929
 30
0.0
 11
0.366142
 21
-11.566929
 31
0.0
  0
LINE
  8
0
  6
CONTINUOUS
 62
     7
  5
4F5
 10
0.366142
 20
-11.566929
 30
0.0
 11
0.562992
 21
-11.566929
 31
0.0
  0
LINE
  8
0
  6
CONTINUOUS
 62
     7
  5
4F6
 10
0.562992
 20
-11.565929
 30
0.0
 11
0.562992
 21
-11.566929
 31
0.0
  0
LINE
  8
0
  6
CONTINUOUS
 62
     7
  5
4F7
 10
0.366142
 20
-3.566929
 30
0.0
 11
0.562992
 21
-3.566929
 31
0.0
  0
LINE
  8
0
  6
CONTINUOUS
 62
     7
  5
4F8
 10
1.904173
 20
-3.153543
 30
0.0
 11
1.904091
 21
-3.157952
 31
0.0
  0
LINE
  8
0
  6
CONTINUOUS
 62
     7
  5
4F9
 10
1.904091
 20
-3.157952
 30
0.0
 11
1.903844
 21
-3.162355
 31
0.0
  0
LINE
  8
0
  6
CONTINUOUS
 62
     7
  5
4FA
 10
1.903844
 20
-3.162355
 30
0.0
 11
1.903433
 21
-3.166745
 31
0.0
  0
LINE
  8
0
  6
CONTINUOUS
 62
     7
  5
4FB
 10
1.903433
 20
-3.166745
 30
0.0
 11
1.902858
 21
-3.171117
 31
0.0
  0
LINE
  8
0
  6
CONTINUOUS
 62
     7
  5
4FC
 10
1.902858
 20
-3.171117
 30
0.0
 11
1.902121
 21
-3.175465
 31
0.0
  0
LINE
  8
0
  6
CONTINUOUS
 62
     7
  5
4FD
 10
1.902121
 20
-3.175465
 30
0.0
 11
1.901222
 21
-3.179781
 31
0.0
  0
LINE
  8
0
  6
CONTINUOUS
 62
     7
  5
4FE
 10
1.901222
 20
-3.179781
 30
0.0
 11
1.900162
 21
-3.184062
 31
0.0
  0
LINE
  8
0
  6
CONTINUOUS
 62
     7
  5
4FF
 10
1.900162
 20
-3.184062
 30
0.0
 11
1.898944
 21
-3.1883
 31
0.0
  0
LINE
  8
0
  6
CONTINUOUS
 62
     7
  5
500
 10
1.898944
 20
-3.1883
 30
0.0
 11
1.897568
 21
-3.192489
 31
0.0
  0
LINE
  8
0
  6
CONTINUOUS
 62
     7
  5
501
 10
1.897568
 20
-3.192489
 30
0.0
 11
1.896036
 21
-3.196624
 31
0.0
  0
LINE
  8
0
  6
CONTINUOUS
 62
     7
  5
502
 10
1.896036
 20
-3.196624
 30
0.0
 11
1.894351
 21
-3.200699
 31
0.0
  0
LINE
  8
0
  6
CONTINUOUS
 62
     7
  5
503
 10
1.894351
 20
-3.200699
 30
0.0
 11
1.892516
 21
-3.204708
 31
0.0
  0
LINE
  8
0
  6
CONTINUOUS
 62
     7
  5
504
 10
1.892516
 20
-3.204708
 30
0.0
 11
1.890532
 21
-3.208646
 31
0.0
  0
LINE
  8
0
  6
CONTINUOUS
 62
     7
  5
505
 10
1.890532
 20
-3.208646
 30
0.0
 11
1.888402
 21
-3.212508
 31
0.0
  0
LINE
  8
0
  6
CONTINUOUS
 62
     7
  5
506
 10
1.888402
 20
-3.212508
 30
0.0
 11
1.88613
 21
-3.216287
 31
0.0
  0
LINE
  8
0
  6
CONTINUOUS
 62
     7
  5
507
 10
1.88613
 20
-3.216287
 30
0.0
 11
1.883718
 21
-3.219978
 31
0.0
  0
LINE
  8
0
  6
CONTINUOUS
 62
     7
  5
508
 10
1.883718
 20
-3.219978
 30
0.0
 11
1.88117
 21
-3.223577
 31
0.0
  0
LINE
  8
0
  6
CONTINUOUS
 62
     7
  5
509
 10
1.88117
 20
-3.223577
 30
0.0
 11
1.878489
 21
-3.227078
 31
0.0
  0
LINE
  8
0
  6
CONTINUOUS
 62
     7
  5
50A
 10
1.878489
 20
-3.227078
 30
0.0
 11
1.87568
 21
-3.230477
 31
0.0
  0
LINE
  8
0
  6
CONTINUOUS
 62
     7
  5
50B
 10
1.87568
 20
-3.230477
 30
0.0
 11
1.872746
 21
-3.233769
 31
0.0
  0
LINE
  8
0
  6
CONTINUOUS
 62
     7
  5
50C
 10
1.872746
 20
-3.233769
 30
0.0
 11
1.869691
 21
-3.236949
 31
0.0
  0
LINE
  8
0
  6
CONTINUOUS
 62
     7
  5
50D
 10
1.869691
 20
-3.236949
 30
0.0
 11
1.866519
 21
-3.240012
 31
0.0
  0
LINE
  8
0
  6
CONTINUOUS
 62
     7
  5
50E
 10
1.866519
 20
-3.240012
 30
0.0
 11
1.863235
 21
-3.242955
 31
0.0
  0
LINE
  8
0
  6
CONTINUOUS
 62
     7
  5
50F
 10
1.863235
 20
-3.242955
 30
0.0
 11
1.859844
 21
-3.245773
 31
0.0
  0
LINE
  8
0
  6
CONTINUOUS
 62
     7
  5
510
 10
1.859844
 20
-3.245773
 30
0.0
 11
1.85635
 21
-3.248463
 31
0.0
  0
LINE
  8
0
  6
CONTINUOUS
 62
     7
  5
511
 10
1.85635
 20
-3.248463
 30
0.0
 11
1.852758
 21
-3.251021
 31
0.0
  0
LINE
  8
0
  6
CONTINUOUS
 62
     7
  5
512
 10
1.852758
 20
-3.251021
 30
0.0
 11
1.849073
 21
-3.253442
 31
0.0
  0
LINE
  8
0
  6
CONTINUOUS
 62
     7
  5
513
 10
1.849073
 20
-3.253442
 30
0.0
 11
1.8453
 21
-3.255725
 31
0.0
  0
LINE
  8
0
  6
CONTINUOUS
 62
     7
  5
514
 10
1.8453
 20
-3.255725
 30
0.0
 11
1.841444
 21
-3.257865
 31
0.0
  0
LINE
  8
0
  6
CONTINUOUS
 62
     7
  5
515
 10
1.841444
 20
-3.257865
 30
0.0
 11
1.837512
 21
-3.259859
 31
0.0
  0
LINE
  8
0
  6
CONTINUOUS
 62
     7
  5
516
 10
1.837512
 20
-3.259859
 30
0.0
 11
1.833507
 21
-3.261706
 31
0.0
  0
LINE
  8
0
  6
CONTINUOUS
 62
     7
  5
517
 10
1.833507
 20
-3.261706
 30
0.0
 11
1.829437
 21
-3.263401
 31
0.0
  0
LINE
  8
0
  6
CONTINUOUS
 62
     7
  5
518
 10
1.829437
 20
-3.263401
 30
0.0
 11
1.825306
 21
-3.264944
 31
0.0
  0
LINE
  8
0
  6
CONTINUOUS
 62
     7
  5
519
 10
1.825306
 20
-3.264944
 30
0.0
 11
1.82112
 21
-3.266331
 31
0.0
  0
LINE
  8
0
  6
CONTINUOUS
 62
     7
  5
51A
 10
1.82112
 20
-3.266331
 30
0.0
 11
1.816885
 21
-3.267561
 31
0.0
  0
LINE
  8
0
  6
CONTINUOUS
 62
     7
  5
51B
 10
1.816885
 20
-3.039526
 30
0.0
 11
1.82112
 21
-3.040756
 31
0.0
  0
LINE
  8
0
  6
CONTINUOUS
 62
     7
  5
51C
 10
1.82112
 20
-3.040756
 30
0.0
 11
1.825306
 21
-3.042143
 31
0.0
  0
LINE
  8
0
  6
CONTINUOUS
 62
     7
  5
51D
 10
1.825306
 20
-3.042143
 30
0.0
 11
1.829437
 21
-3.043685
 31
0.0
  0
LINE
  8
0
  6
CONTINUOUS
 62
     7
  5
51E
 10
1.829437
 20
-3.043685
 30
0.0
 11
1.833507
 21
-3.045381
 31
0.0
  0
LINE
  8
0
  6
CONTINUOUS
 62
     7
  5
51F
 10
1.833507
 20
-3.045381
 30
0.0
 11
1.837512
 21
-3.047227
 31
0.0
  0
LINE
  8
0
  6
CONTINUOUS
 62
     7
  5
520
 10
1.837512
 20
-3.047227
 30
0.0
 11
1.841444
 21
-3.049222
 31
0.0
  0
LINE
  8
0
  6
CONTINUOUS
 62
     7
  5
521
 10
1.841444
 20
-3.049222
 30
0.0
 11
1.8453
 21
-3.051362
 31
0.0
  0
LINE
  8
0
  6
CONTINUOUS
 62
     7
  5
522
 10
1.8453
 20
-3.051362
 30
0.0
 11
1.849073
 21
-3.053644
 31
0.0
  0
LINE
  8
0
  6
CONTINUOUS
 62
     7
  5
523
 10
1.849073
 20
-3.053644
 30
0.0
 11
1.852758
 21
-3.056066
 31
0.0
  0
LINE
  8
0
  6
CONTINUOUS
 62
     7
  5
524
 10
1.852758
 20
-3.056066
 30
0.0
 11
1.85635
 21
-3.058623
 31
0.0
  0
LINE
  8
0
  6
CONTINUOUS
 62
     7
  5
525
 10
1.85635
 20
-3.058623
 30
0.0
 11
1.859844
 21
-3.061313
 31
0.0
  0
LINE
  8
0
  6
CONTINUOUS
 62
     7
  5
526
 10
1.859844
 20
-3.061313
 30
0.0
 11
1.863235
 21
-3.064132
 31
0.0
  0
LINE
  8
0
  6
CONTINUOUS
 62
     7
  5
527
 10
1.863235
 20
-3.064132
 30
0.0
 11
1.866519
 21
-3.067075
 31
0.0
  0
LINE
  8
0
  6
CONTINUOUS
 62
     7
  5
528
 10
1.866519
 20
-3.067075
 30
0.0
 11
1.869691
 21
-3.070138
 31
0.0
  0
LINE
  8
0
  6
CONTINUOUS
 62
     7
  5
529
 10
1.869691
 20
-3.070138
 30
0.0
 11
1.872746
 21
-3.073318
 31
0.0
  0
LINE
  8
0
  6
CONTINUOUS
 62
     7
  5
52A
 10
1.872746
 20
-3.073318
 30
0.0
 11
1.87568
 21
-3.076609
 31
0.0
  0
LINE
  8
0
  6
CONTINUOUS
 62
     7
  5
52B
 10
1.87568
 20
-3.076609
 30
0.0
 11
1.878489
 21
-3.080008
 31
0.0
  0
LINE
  8
0
  6
CONTINUOUS
 62
     7
  5
52C
 10
1.878489
 20
-3.080008
 30
0.0
 11
1.88117
 21
-3.08351
 31
0.0
  0
LINE
  8
0
  6
CONTINUOUS
 62
     7
  5
52D
 10
1.88117
 20
-3.08351
 30
0.0
 11
1.883718
 21
-3.087109
 31
0.0
  0
LINE
  8
0
  6
CONTINUOUS
 62
     7
  5
52E
 10
1.883718
 20
-3.087109
 30
0.0
 11
1.88613
 21
-3.0908
 31
0.0
  0
LINE
  8
0
  6
CONTINUOUS
 62
     7
  5
52F
 10
1.88613
 20
-3.0908
 30
0.0
 11
1.888402
 21
-3.094579
 31
0.0
  0
LINE
  8
0
  6
CONTINUOUS
 62
     7
  5
530
 10
1.888402
 20
-3.094579
 30
0.0
 11
1.890532
 21
-3.09844
 31
0.0
  0
LINE
  8
0
  6
CONTINUOUS
 62
     7
  5
531
 10
1.890532
 20
-3.09844
 30
0.0
 11
1.892516
 21
-3.102378
 31
0.0
  0
LINE
  8
0
  6
CONTINUOUS
 62
     7
  5
532
 10
1.892516
 20
-3.102378
 30
0.0
 11
1.894351
 21
-3.106388
 31
0.0
  0
LINE
  8
0
  6
CONTINUOUS
 62
     7
  5
533
 10
1.894351
 20
-3.106388
 30
0.0
 11
1.896036
 21
-3.110463
 31
0.0
  0
LINE
  8
0
  6
CONTINUOUS
 62
     7
  5
534
 10
1.896036
 20
-3.110463
 30
0.0
 11
1.897568
 21
-3.114598
 31
0.0
  0
LINE
  8
0
  6
CONTINUOUS
 62
     7
  5
535
 10
1.897568
 20
-3.114598
 30
0.0
 11
1.898944
 21
-3.118787
 31
0.0
  0
LINE
  8
0
  6
CONTINUOUS
 62
     7
  5
536
 10
1.898944
 20
-3.118787
 30
0.0
 11
1.900162
 21
-3.123025
 31
0.0
  0
LINE
  8
0
  6
CONTINUOUS
 62
     7
  5
537
 10
1.900162
 20
-3.123025
 30
0.0
 11
1.901222
 21
-3.127305
 31
0.0
  0
LINE
  8
0
  6
CONTINUOUS
 62
     7
  5
538
 10
1.901222
 20
-3.127305
 30
0.0
 11
1.902121
 21
-3.131622
 31
0.0
  0
LINE
  8
0
  6
CONTINUOUS
 62
     7
  5
539
 10
1.902121
 20
-3.131622
 30
0.0
 11
1.902858
 21
-3.13597
 31
0.0
  0
LINE
  8
0
  6
CONTINUOUS
 62
     7
  5
53A
 10
1.902858
 20
-3.13597
 30
0.0
 11
1.903433
 21
-3.140341
 31
0.0
  0
LINE
  8
0
  6
CONTINUOUS
 62
     7
  5
53B
 10
1.903433
 20
-3.140341
 30
0.0
 11
1.903844
 21
-3.144732
 31
0.0
  0
LINE
  8
0
  6
CONTINUOUS
 62
     7
  5
53C
 10
1.903844
 20
-3.144732
 30
0.0
 11
1.904091
 21
-3.149135
 31
0.0
  0
LINE
  8
0
  6
CONTINUOUS
 62
     7
  5
53D
 10
1.904091
 20
-3.149135
 30
0.0
 11
1.904173
 21
-3.153543
 31
0.0
  0
LINE
  8
0
  6
CONTINUOUS
 62
     7
  5
53E
 10
8.562992
 20
0.374016
 30
0.0
 11
8.562992
 21
0.492126
 31
0.0
  0
LINE
  8
0
  6
CONTINUOUS
 62
     7
  5
53F
 10
7.57874
 20
0.492126
 30
0.0
 11
7.57874
 21
0.374016
 31
0.0
  0
LINE
  8
0
  6
CONTINUOUS
 62
     7
  5
540
 10
7.57874
 20
-0.374016
 30
0.0
 11
7.57874
 21
-0.492126
 31
0.0
  0
LINE
  8
0
  6
CONTINUOUS
 62
     7
  5
541
 10
8.562992
 20
-0.492126
 30
0.0
 11
8.562992
 21
-0.374016
 31
0.0
  0
ARC
  8
0
  6
CONTINUOUS
 62
     7
  5
542
 10
8.700787
 20
0.500216
 30
0.0
 40
0.059055
 50
0.0
 51
84.314311
  0
ARC
  8
0
  6
CONTINUOUS
 62
     7
  5
543
 10
8.700787
 20
-0.500216
 30
0.0
 40
0.059055
 50
275.685689
 51
0.0
  0
ARC
  8
0
  6
CONTINUOUS
 62
     7
  5
544
 10
7.440945
 20
-0.500216
 30
0.0
 40
0.059055
 50
180.0
 51
264.314311
  0
ARC
  8
0
  6
CONTINUOUS
 62
     7
  5
545
 10
7.440945
 20
0.500216
 30
0.0
 40
0.059055
 50
95.685689
 51
180.0
  0
ARC
  8
0
  6
CONTINUOUS
 62
     7
  5
546
 10
8.070866
 20
5.826772
 30
0.0
 40
6.417323
 50
264.314311
 51
275.685689
  0
ARC
  8
0
  6
CONTINUOUS
 62
     7
  5
547
 10
8.070866
 20
-5.826772
 30
0.0
 40
6.417323
 50
84.314311
 51
95.685689
  0
LINE
  8
0
  6
CONTINUOUS
 62
     7
  5
548
 10
0.720472
 20
8.629921
 30
0.0
 11
1.510472
 21
8.629921
 31
0.0
  0
LINE
  8
0
  6
CONTINUOUS
 62
     3
  5
549
 10
0.0
 20
-1.53937
 30
0.0
 11
0.838583
 21
-1.53937
 31
0.0
  0
LINE
  8
0
  6
CONTINUOUS
 62
     3
  5
54A
 10
0.0
 20
4.366142
 30
0.0
 11
0.838583
 21
4.366142
 31
0.0
  0
LINE
  8
0
  6
CONTINUOUS
 62
     3
  5
54B
 10
0.720472
 20
-6.088583
 30
0.0
 11
1.510472
 21
-6.088583
 31
0.0
  0
LINE
  8
0
  6
CONTINUOUS
 62
     3
  5
54C
 10
0.720472
 20
-4.336614
 30
0.0
 11
1.510472
 21
-4.336614
 31
0.0
  0
LINE
  8
0
  6
CONTINUOUS
 62
     3
  5
54D
 10
0.720472
 20
8.915354
 30
0.0
 11
1.510472
 21
8.915354
 31
0.0
  0
LINE
  8
0
  6
CONTINUOUS
 62
     3
  5
54E
 10
0.720472
 20
7.163386
 30
0.0
 11
1.510472
 21
7.163386
 31
0.0
  0
ENDSEC
  0
EOF
