  0
SECTION
  2
HEADER
  9
$ACADVER
  1
AC1006
  9
$EXTMIN
 10
-2.339000
 20
-4.345000
  9
$EXTMAX
 10
2.336756
 20
4.346000
  9
$LTSCALE
 40
0.000394
  9
$PDMODE
 70
    35
  9
$PDSIZE
 40
0.000315
  0
ENDSEC
  0
SECTION
  2
TABLES
  0
TABLE
  2
LTYPE
 70
     9
  0
LTYPE
  2
CONTINUOUS
 70
    64
  3
Solid line
 72
    65
 73
     0
 40
0.000000
  0
LTYPE
  2
DASHED
 70
    64
  3
__ __ __ __ __ __ __ __ __ __ __ __ __ __ __
 72
    65
 73
     2
 40
0.000003
 49
0.000002
 49
-0.000001
  0
LTYPE
  2
HIDDEN
 70
    64
  3
 _ _ _ _ _ _ _ _ _ _ _ _ _ _ _ _ _ _ _ _ _ _
 72
    65
 73
     2
 40
0.000001
 49
0.000001
 49
-0.000000
  0
LTYPE
  2
CENTER
 70
    64
  3
____ _ ____ _ ____ _ ____ _ ____ _ ____ _ ____
 72
    65
 73
     4
 40
0.000008
 49
0.000005
 49
-0.000001
 49
0.000001
 49
-0.000001
  0
LTYPE
  2
PHANTOM
 70
    64
  3
_____ _ _ _____ _ _ _____ _ _ _____ _ _ ____
 72
    65
 73
     6
 40
0.000010
 49
0.000005
 49
-0.000001
 49
0.000001
 49
-0.000001
 49
0.000001
 49
-0.000001
  0
LTYPE
  2
DOT
 70
    64
  3
...............................................
 72
    65
 73
     2
 40
0.000001
 49
0.000000
 49
-0.000001
  0
LTYPE
  2
DASHDOT
 70
    64
  3
__ . __ . __ . __ . __ . __ . __ . __ . __ . __
 72
    65
 73
     4
 40
0.000004
 49
0.000002
 49
-0.000001
 49
0.000000
 49
-0.000001
  0
LTYPE
  2
BORDER
 70
    64
  3
__ __ . __ __ . __ __ . __ __ . __ __ . __ __
 72
    65
 73
     6
 40
0.000007
 49
0.000002
 49
-0.000001
 49
0.000002
 49
-0.000001
 49
0.000000
 49
-0.000001
  0
LTYPE
  2
DIVIDE
 70
    64
  3
__ . . __ . . __ . . __ . . __ . . __ . . __
 72
    65
 73
     6
 40
0.000005
 49
0.000002
 49
-0.000001
 49
0.000000
 49
-0.000001
 49
0.000000
 49
-0.000001
  0
LTYPE
  2
DOTDOT
 70
    64
  3
 . .  . .  . .  . .  . .  . . 
 72
    65
 73
     5
 40
0.000002
 49
-0.000001
 49
0.000000
 49
-0.000001
 49
0.000000
 49
-0.000001
  0
ENDTAB
  0
TABLE
  2
STYLE
 70
     0
  0
ENDTAB
  0
TABLE
  2
LAYER
 70
     3
  0
LAYER
  2
FOREGROUND
 70
    64
 62
     7
  6
CONTINUOUS
  0
LAYER
  2
BACKGROUND
 70
    65
 62
    -7
  6
CONTINUOUS
  0
LAYER
  2
PLAN_1
 70
    64
 62
     7
  6
CONTINUOUS
  0
ENDTAB
  0
ENDSEC
  0
SECTION
  2
ENTITIES
  0
POLYLINE
  8
PLAN_1
  6
CONTINUOUS
 66
     1
 40
0.003000
 41
0.003000
  0
VERTEX
  8
PLAN_1
  6
CONTINUOUS
 10
0.222130
 20
-4.339567
  0
VERTEX
  8
PLAN_1
  6
CONTINUOUS
 10
0.188996
 20
-4.339567
  0
VERTEX
  8
PLAN_1
  6
CONTINUOUS
 10
0.135220
 20
-4.258091
  0
VERTEX
  8
PLAN_1
  6
CONTINUOUS
 10
0.080358
 20
-4.339567
  0
VERTEX
  8
PLAN_1
  6
CONTINUOUS
 10
0.047768
 20
-4.339567
  0
VERTEX
  8
PLAN_1
  6
CONTINUOUS
 10
0.118925
 20
-4.237449
  0
VERTEX
  8
PLAN_1
  6
CONTINUOUS
 10
0.052110
 20
-4.140217
  0
VERTEX
  8
PLAN_1
  6
CONTINUOUS
 10
0.085787
 20
-4.140217
  0
VERTEX
  8
PLAN_1
  6
CONTINUOUS
 10
0.136307
 20
-4.216807
  0
VERTEX
  8
PLAN_1
  6
CONTINUOUS
 10
0.186823
 20
-4.140217
  0
VERTEX
  8
PLAN_1
  6
CONTINUOUS
 10
0.219413
 20
-4.140217
  0
VERTEX
  8
PLAN_1
  6
CONTINUOUS
 10
0.152059
 20
-4.237449
  0
VERTEX
  8
PLAN_1
  6
CONTINUOUS
 10
0.222130
 20
-4.339567
  0
SEQEND
  8
0
  0
POLYLINE
  8
PLAN_1
  6
CONTINUOUS
 66
     1
 40
0.003000
 41
0.003000
  0
VERTEX
  8
PLAN_1
  6
CONTINUOUS
 10
0.388886
 20
-4.200512
  0
VERTEX
  8
PLAN_1
  6
CONTINUOUS
 10
0.387260
 20
-4.193992
  0
VERTEX
  8
PLAN_1
  6
CONTINUOUS
 10
0.385087
 20
-4.188563
  0
VERTEX
  8
PLAN_1
  6
CONTINUOUS
 10
0.382370
 20
-4.183673
  0
VERTEX
  8
PLAN_1
  6
CONTINUOUS
 10
0.379654
 20
-4.179327
  0
VERTEX
  8
PLAN_1
  6
CONTINUOUS
 10
0.376394
 20
-4.175524
  0
VERTEX
  8
PLAN_1
  6
CONTINUOUS
 10
0.372591
 20
-4.171724
  0
VERTEX
  8
PLAN_1
  6
CONTINUOUS
 10
0.368791
 20
-4.169008
  0
VERTEX
  8
PLAN_1
  6
CONTINUOUS
 10
0.364988
 20
-4.166835
  0
VERTEX
  8
PLAN_1
  6
CONTINUOUS
 10
0.361185
 20
-4.164661
  0
VERTEX
  8
PLAN_1
  6
CONTINUOUS
 10
0.356839
 20
-4.163031
  0
VERTEX
  8
PLAN_1
  6
CONTINUOUS
 10
0.352492
 20
-4.161402
  0
VERTEX
  8
PLAN_1
  6
CONTINUOUS
 10
0.348693
 20
-4.160315
  0
VERTEX
  8
PLAN_1
  6
CONTINUOUS
 10
0.340543
 20
-4.159228
  0
VERTEX
  8
PLAN_1
  6
CONTINUOUS
 10
0.332941
 20
-4.159228
  0
VERTEX
  8
PLAN_1
  6
CONTINUOUS
 10
0.326421
 20
-4.159228
  0
VERTEX
  8
PLAN_1
  6
CONTINUOUS
 10
0.319902
 20
-4.160315
  0
VERTEX
  8
PLAN_1
  6
CONTINUOUS
 10
0.313386
 20
-4.161945
  0
VERTEX
  8
PLAN_1
  6
CONTINUOUS
 10
0.307409
 20
-4.164118
  0
VERTEX
  8
PLAN_1
  6
CONTINUOUS
 10
0.301976
 20
-4.166835
  0
VERTEX
  8
PLAN_1
  6
CONTINUOUS
 10
0.296547
 20
-4.170094
  0
VERTEX
  8
PLAN_1
  6
CONTINUOUS
 10
0.291114
 20
-4.174437
  0
VERTEX
  8
PLAN_1
  6
CONTINUOUS
 10
0.286768
 20
-4.178783
  0
VERTEX
  8
PLAN_1
  6
CONTINUOUS
 10
0.282421
 20
-4.184217
  0
VERTEX
  8
PLAN_1
  6
CONTINUOUS
 10
0.278622
 20
-4.190193
  0
VERTEX
  8
PLAN_1
  6
CONTINUOUS
 10
0.275362
 20
-4.196709
  0
VERTEX
  8
PLAN_1
  6
CONTINUOUS
 10
0.272646
 20
-4.203772
  0
VERTEX
  8
PLAN_1
  6
CONTINUOUS
 10
0.270472
 20
-4.211374
  0
VERTEX
  8
PLAN_1
  6
CONTINUOUS
 10
0.268843
 20
-4.219524
  0
VERTEX
  8
PLAN_1
  6
CONTINUOUS
 10
0.267756
 20
-4.228756
  0
VERTEX
  8
PLAN_1
  6
CONTINUOUS
 10
0.267756
 20
-4.237992
  0
VERTEX
  8
PLAN_1
  6
CONTINUOUS
 10
0.267756
 20
-4.246681
  0
VERTEX
  8
PLAN_1
  6
CONTINUOUS
 10
0.268299
 20
-4.255374
  0
VERTEX
  8
PLAN_1
  6
CONTINUOUS
 10
0.269386
 20
-4.262980
  0
VERTEX
  8
PLAN_1
  6
CONTINUOUS
 10
0.271016
 20
-4.271126
  0
VERTEX
  8
PLAN_1
  6
CONTINUOUS
 10
0.273189
 20
-4.278189
  0
VERTEX
  8
PLAN_1
  6
CONTINUOUS
 10
0.275362
 20
-4.285248
  0
VERTEX
  8
PLAN_1
  6
CONTINUOUS
 10
0.278622
 20
-4.291224
  0
VERTEX
  8
PLAN_1
  6
CONTINUOUS
 10
0.281878
 20
-4.297201
  0
VERTEX
  8
PLAN_1
  6
CONTINUOUS
 10
0.286224
 20
-4.302630
  0
VERTEX
  8
PLAN_1
  6
CONTINUOUS
 10
0.291114
 20
-4.306976
  0
VERTEX
  8
PLAN_1
  6
CONTINUOUS
 10
0.296547
 20
-4.311323
  0
VERTEX
  8
PLAN_1
  6
CONTINUOUS
 10
0.302520
 20
-4.314583
  0
VERTEX
  8
PLAN_1
  6
CONTINUOUS
 10
0.309039
 20
-4.317295
  0
VERTEX
  8
PLAN_1
  6
CONTINUOUS
 10
0.316642
 20
-4.319469
  0
VERTEX
  8
PLAN_1
  6
CONTINUOUS
 10
0.324791
 20
-4.320555
  0
VERTEX
  8
PLAN_1
  6
CONTINUOUS
 10
0.333484
 20
-4.321098
  0
VERTEX
  8
PLAN_1
  6
CONTINUOUS
 10
0.340543
 20
-4.320555
  0
VERTEX
  8
PLAN_1
  6
CONTINUOUS
 10
0.348693
 20
-4.318925
  0
VERTEX
  8
PLAN_1
  6
CONTINUOUS
 10
0.353035
 20
-4.317839
  0
VERTEX
  8
PLAN_1
  6
CONTINUOUS
 10
0.356839
 20
-4.316213
  0
VERTEX
  8
PLAN_1
  6
CONTINUOUS
 10
0.361185
 20
-4.314039
  0
VERTEX
  8
PLAN_1
  6
CONTINUOUS
 10
0.364988
 20
-4.311323
  0
VERTEX
  8
PLAN_1
  6
CONTINUOUS
 10
0.369335
 20
-4.308063
  0
VERTEX
  8
PLAN_1
  6
CONTINUOUS
 10
0.373134
 20
-4.304260
  0
VERTEX
  8
PLAN_1
  6
CONTINUOUS
 10
0.376937
 20
-4.299913
  0
VERTEX
  8
PLAN_1
  6
CONTINUOUS
 10
0.380197
 20
-4.294484
  0
VERTEX
  8
PLAN_1
  6
CONTINUOUS
 10
0.383457
 20
-4.288508
  0
VERTEX
  8
PLAN_1
  6
CONTINUOUS
 10
0.386173
 20
-4.281988
  0
VERTEX
  8
PLAN_1
  6
CONTINUOUS
 10
0.388886
 20
-4.274929
  0
VERTEX
  8
PLAN_1
  6
CONTINUOUS
 10
0.390516
 20
-4.266236
  0
VERTEX
  8
PLAN_1
  6
CONTINUOUS
 10
0.416591
 20
-4.266236
  0
VERTEX
  8
PLAN_1
  6
CONTINUOUS
 10
0.415504
 20
-4.273299
  0
VERTEX
  8
PLAN_1
  6
CONTINUOUS
 10
0.413874
 20
-4.279819
  0
VERTEX
  8
PLAN_1
  6
CONTINUOUS
 10
0.412244
 20
-4.285791
  0
VERTEX
  8
PLAN_1
  6
CONTINUOUS
 10
0.410614
 20
-4.291224
  0
VERTEX
  8
PLAN_1
  6
CONTINUOUS
 10
0.407898
 20
-4.296657
  0
VERTEX
  8
PLAN_1
  6
CONTINUOUS
 10
0.405724
 20
-4.301543
  0
VERTEX
  8
PLAN_1
  6
CONTINUOUS
 10
0.403012
 20
-4.306433
  0
VERTEX
  8
PLAN_1
  6
CONTINUOUS
 10
0.400295
 20
-4.310236
  0
VERTEX
  8
PLAN_1
  6
CONTINUOUS
 10
0.397579
 20
-4.314583
  0
VERTEX
  8
PLAN_1
  6
CONTINUOUS
 10
0.394319
 20
-4.317839
  0
VERTEX
  8
PLAN_1
  6
CONTINUOUS
 10
0.391602
 20
-4.321098
  0
VERTEX
  8
PLAN_1
  6
CONTINUOUS
 10
0.388343
 20
-4.324358
  0
VERTEX
  8
PLAN_1
  6
CONTINUOUS
 10
0.381283
 20
-4.329791
  0
VERTEX
  8
PLAN_1
  6
CONTINUOUS
 10
0.374764
 20
-4.334138
  0
VERTEX
  8
PLAN_1
  6
CONTINUOUS
 10
0.367705
 20
-4.337394
  0
VERTEX
  8
PLAN_1
  6
CONTINUOUS
 10
0.360642
 20
-4.340110
  0
VERTEX
  8
PLAN_1
  6
CONTINUOUS
 10
0.354122
 20
-4.341740
  0
VERTEX
  8
PLAN_1
  6
CONTINUOUS
 10
0.348150
 20
-4.343370
  0
VERTEX
  8
PLAN_1
  6
CONTINUOUS
 10
0.337283
 20
-4.344457
  0
VERTEX
  8
PLAN_1
  6
CONTINUOUS
 10
0.329681
 20
-4.345000
  0
VERTEX
  8
PLAN_1
  6
CONTINUOUS
 10
0.320988
 20
-4.344457
  0
VERTEX
  8
PLAN_1
  6
CONTINUOUS
 10
0.312843
 20
-4.343370
  0
VERTEX
  8
PLAN_1
  6
CONTINUOUS
 10
0.304693
 20
-4.341740
  0
VERTEX
  8
PLAN_1
  6
CONTINUOUS
 10
0.296547
 20
-4.339024
  0
VERTEX
  8
PLAN_1
  6
CONTINUOUS
 10
0.288398
 20
-4.335764
  0
VERTEX
  8
PLAN_1
  6
CONTINUOUS
 10
0.281335
 20
-4.331421
  0
VERTEX
  8
PLAN_1
  6
CONTINUOUS
 10
0.274276
 20
-4.326531
  0
VERTEX
  8
PLAN_1
  6
CONTINUOUS
 10
0.267756
 20
-4.320555
  0
VERTEX
  8
PLAN_1
  6
CONTINUOUS
 10
0.261783
 20
-4.314039
  0
VERTEX
  8
PLAN_1
  6
CONTINUOUS
 10
0.256350
 20
-4.306433
  0
VERTEX
  8
PLAN_1
  6
CONTINUOUS
 10
0.251461
 20
-4.297744
  0
VERTEX
  8
PLAN_1
  6
CONTINUOUS
 10
0.247657
 20
-4.287965
  0
VERTEX
  8
PLAN_1
  6
CONTINUOUS
 10
0.244402
 20
-4.277102
  0
VERTEX
  8
PLAN_1
  6
CONTINUOUS
 10
0.241685
 20
-4.265693
  0
VERTEX
  8
PLAN_1
  6
CONTINUOUS
 10
0.240598
 20
-4.252657
  0
VERTEX
  8
PLAN_1
  6
CONTINUOUS
 10
0.240055
 20
-4.239079
  0
VERTEX
  8
PLAN_1
  6
CONTINUOUS
 10
0.240055
 20
-4.227669
  0
VERTEX
  8
PLAN_1
  6
CONTINUOUS
 10
0.241685
 20
-4.216807
  0
VERTEX
  8
PLAN_1
  6
CONTINUOUS
 10
0.243315
 20
-4.206488
  0
VERTEX
  8
PLAN_1
  6
CONTINUOUS
 10
0.246028
 20
-4.196709
  0
VERTEX
  8
PLAN_1
  6
CONTINUOUS
 10
0.249831
 20
-4.187476
  0
VERTEX
  8
PLAN_1
  6
CONTINUOUS
 10
0.254177
 20
-4.179327
  0
VERTEX
  8
PLAN_1
  6
CONTINUOUS
 10
0.259067
 20
-4.171181
  0
VERTEX
  8
PLAN_1
  6
CONTINUOUS
 10
0.264496
 20
-4.164118
  0
VERTEX
  8
PLAN_1
  6
CONTINUOUS
 10
0.271016
 20
-4.157598
  0
VERTEX
  8
PLAN_1
  6
CONTINUOUS
 10
0.278079
 20
-4.151626
  0
VERTEX
  8
PLAN_1
  6
CONTINUOUS
 10
0.285681
 20
-4.146736
  0
VERTEX
  8
PLAN_1
  6
CONTINUOUS
 10
0.293831
 20
-4.142933
  0
VERTEX
  8
PLAN_1
  6
CONTINUOUS
 10
0.302520
 20
-4.139673
  0
VERTEX
  8
PLAN_1
  6
CONTINUOUS
 10
0.312299
 20
-4.136961
  0
VERTEX
  8
PLAN_1
  6
CONTINUOUS
 10
0.322075
 20
-4.135874
  0
VERTEX
  8
PLAN_1
  6
CONTINUOUS
 10
0.332941
 20
-4.135331
  0
VERTEX
  8
PLAN_1
  6
CONTINUOUS
 10
0.342173
 20
-4.135331
  0
VERTEX
  8
PLAN_1
  6
CONTINUOUS
 10
0.350866
 20
-4.136417
  0
VERTEX
  8
PLAN_1
  6
CONTINUOUS
 10
0.359012
 20
-4.138043
  0
VERTEX
  8
PLAN_1
  6
CONTINUOUS
 10
0.366618
 20
-4.140760
  0
VERTEX
  8
PLAN_1
  6
CONTINUOUS
 10
0.373677
 20
-4.143476
  0
VERTEX
  8
PLAN_1
  6
CONTINUOUS
 10
0.380197
 20
-4.146736
  0
VERTEX
  8
PLAN_1
  6
CONTINUOUS
 10
0.386173
 20
-4.151083
  0
VERTEX
  8
PLAN_1
  6
CONTINUOUS
 10
0.391602
 20
-4.155429
  0
VERTEX
  8
PLAN_1
  6
CONTINUOUS
 10
0.396492
 20
-4.159772
  0
VERTEX
  8
PLAN_1
  6
CONTINUOUS
 10
0.400839
 20
-4.165205
  0
VERTEX
  8
PLAN_1
  6
CONTINUOUS
 10
0.404098
 20
-4.170638
  0
VERTEX
  8
PLAN_1
  6
CONTINUOUS
 10
0.407354
 20
-4.176067
  0
VERTEX
  8
PLAN_1
  6
CONTINUOUS
 10
0.410071
 20
-4.182043
  0
VERTEX
  8
PLAN_1
  6
CONTINUOUS
 10
0.412244
 20
-4.188020
  0
VERTEX
  8
PLAN_1
  6
CONTINUOUS
 10
0.413874
 20
-4.193992
  0
VERTEX
  8
PLAN_1
  6
CONTINUOUS
 10
0.414961
 20
-4.200512
  0
VERTEX
  8
PLAN_1
  6
CONTINUOUS
 10
0.388886
 20
-4.200512
  0
SEQEND
  8
0
  0
POLYLINE
  8
PLAN_1
  6
CONTINUOUS
 66
     1
 40
0.003000
 41
0.003000
  0
VERTEX
  8
PLAN_1
  6
CONTINUOUS
 10
0.476343
 20
-4.339567
  0
VERTEX
  8
PLAN_1
  6
CONTINUOUS
 10
0.449181
 20
-4.339567
  0
VERTEX
  8
PLAN_1
  6
CONTINUOUS
 10
0.449181
 20
-4.140217
  0
VERTEX
  8
PLAN_1
  6
CONTINUOUS
 10
0.476343
 20
-4.140217
  0
VERTEX
  8
PLAN_1
  6
CONTINUOUS
 10
0.476343
 20
-4.236906
  0
VERTEX
  8
PLAN_1
  6
CONTINUOUS
 10
0.573028
 20
-4.140217
  0
VERTEX
  8
PLAN_1
  6
CONTINUOUS
 10
0.609965
 20
-4.140217
  0
VERTEX
  8
PLAN_1
  6
CONTINUOUS
 10
0.526858
 20
-4.221154
  0
VERTEX
  8
PLAN_1
  6
CONTINUOUS
 10
0.612138
 20
-4.339567
  0
VERTEX
  8
PLAN_1
  6
CONTINUOUS
 10
0.577374
 20
-4.339567
  0
VERTEX
  8
PLAN_1
  6
CONTINUOUS
 10
0.507303
 20
-4.239622
  0
VERTEX
  8
PLAN_1
  6
CONTINUOUS
 10
0.476343
 20
-4.270039
  0
VERTEX
  8
PLAN_1
  6
CONTINUOUS
 10
0.476343
 20
-4.339567
  0
SEQEND
  8
0
  0
POLYLINE
  8
PLAN_1
  6
CONTINUOUS
 66
     1
 40
0.003000
 41
0.003000
  0
VERTEX
  8
PLAN_1
  6
CONTINUOUS
 10
0.643642
 20
-4.275472
  0
VERTEX
  8
PLAN_1
  6
CONTINUOUS
 10
0.643642
 20
-4.289594
  0
VERTEX
  8
PLAN_1
  6
CONTINUOUS
 10
0.643642
 20
-4.293941
  0
VERTEX
  8
PLAN_1
  6
CONTINUOUS
 10
0.643642
 20
-4.297744
  0
VERTEX
  8
PLAN_1
  6
CONTINUOUS
 10
0.644728
 20
-4.301543
  0
VERTEX
  8
PLAN_1
  6
CONTINUOUS
 10
0.645272
 20
-4.304803
  0
VERTEX
  8
PLAN_1
  6
CONTINUOUS
 10
0.646358
 20
-4.307520
  0
VERTEX
  8
PLAN_1
  6
CONTINUOUS
 10
0.647988
 20
-4.310236
  0
VERTEX
  8
PLAN_1
  6
CONTINUOUS
 10
0.649618
 20
-4.312409
  0
VERTEX
  8
PLAN_1
  6
CONTINUOUS
 10
0.651248
 20
-4.314583
  0
VERTEX
  8
PLAN_1
  6
CONTINUOUS
 10
0.653421
 20
-4.316213
  0
VERTEX
  8
PLAN_1
  6
CONTINUOUS
 10
0.655594
 20
-4.317839
  0
VERTEX
  8
PLAN_1
  6
CONTINUOUS
 10
0.658307
 20
-4.319469
  0
VERTEX
  8
PLAN_1
  6
CONTINUOUS
 10
0.661024
 20
-4.320012
  0
VERTEX
  8
PLAN_1
  6
CONTINUOUS
 10
0.666457
 20
-4.321642
  0
VERTEX
  8
PLAN_1
  6
CONTINUOUS
 10
0.673520
 20
-4.322185
  0
VERTEX
  8
PLAN_1
  6
CONTINUOUS
 10
0.677862
 20
-4.321642
  0
VERTEX
  8
PLAN_1
  6
CONTINUOUS
 10
0.681665
 20
-4.321098
  0
VERTEX
  8
PLAN_1
  6
CONTINUOUS
 10
0.685469
 20
-4.320555
  0
VERTEX
  8
PLAN_1
  6
CONTINUOUS
 10
0.688728
 20
-4.319469
  0
VERTEX
  8
PLAN_1
  6
CONTINUOUS
 10
0.691984
 20
-4.317839
  0
VERTEX
  8
PLAN_1
  6
CONTINUOUS
 10
0.694157
 20
-4.316213
  0
VERTEX
  8
PLAN_1
  6
CONTINUOUS
 10
0.696874
 20
-4.314039
  0
VERTEX
  8
PLAN_1
  6
CONTINUOUS
 10
0.698504
 20
-4.311866
  0
VERTEX
  8
PLAN_1
  6
CONTINUOUS
 10
0.700134
 20
-4.309693
  0
VERTEX
  8
PLAN_1
  6
CONTINUOUS
 10
0.701764
 20
-4.306976
  0
VERTEX
  8
PLAN_1
  6
CONTINUOUS
 10
0.702850
 20
-4.304260
  0
VERTEX
  8
PLAN_1
  6
CONTINUOUS
 10
0.703937
 20
-4.301000
  0
VERTEX
  8
PLAN_1
  6
CONTINUOUS
 10
0.705024
 20
-4.294484
  0
VERTEX
  8
PLAN_1
  6
CONTINUOUS
 10
0.705024
 20
-4.287421
  0
VERTEX
  8
PLAN_1
  6
CONTINUOUS
 10
0.705024
 20
-4.140217
  0
VERTEX
  8
PLAN_1
  6
CONTINUOUS
 10
0.732181
 20
-4.140217
  0
VERTEX
  8
PLAN_1
  6
CONTINUOUS
 10
0.732181
 20
-4.285791
  0
VERTEX
  8
PLAN_1
  6
CONTINUOUS
 10
0.731638
 20
-4.294484
  0
VERTEX
  8
PLAN_1
  6
CONTINUOUS
 10
0.731094
 20
-4.301543
  0
VERTEX
  8
PLAN_1
  6
CONTINUOUS
 10
0.729465
 20
-4.308606
  0
VERTEX
  8
PLAN_1
  6
CONTINUOUS
 10
0.726752
 20
-4.314583
  0
VERTEX
  8
PLAN_1
  6
CONTINUOUS
 10
0.724035
 20
-4.320012
  0
VERTEX
  8
PLAN_1
  6
CONTINUOUS
 10
0.721319
 20
-4.324902
  0
VERTEX
  8
PLAN_1
  6
CONTINUOUS
 10
0.717516
 20
-4.329248
  0
VERTEX
  8
PLAN_1
  6
CONTINUOUS
 10
0.713713
 20
-4.333051
  0
VERTEX
  8
PLAN_1
  6
CONTINUOUS
 10
0.709370
 20
-4.335764
  0
VERTEX
  8
PLAN_1
  6
CONTINUOUS
 10
0.704480
 20
-4.338480
  0
VERTEX
  8
PLAN_1
  6
CONTINUOUS
 10
0.700134
 20
-4.340654
  0
VERTEX
  8
PLAN_1
  6
CONTINUOUS
 10
0.695244
 20
-4.342283
  0
VERTEX
  8
PLAN_1
  6
CONTINUOUS
 10
0.689815
 20
-4.343370
  0
VERTEX
  8
PLAN_1
  6
CONTINUOUS
 10
0.684925
 20
-4.344457
  0
VERTEX
  8
PLAN_1
  6
CONTINUOUS
 10
0.680035
 20
-4.345000
  0
VERTEX
  8
PLAN_1
  6
CONTINUOUS
 10
0.674602
 20
-4.345000
  0
VERTEX
  8
PLAN_1
  6
CONTINUOUS
 10
0.666457
 20
-4.344457
  0
VERTEX
  8
PLAN_1
  6
CONTINUOUS
 10
0.658850
 20
-4.343370
  0
VERTEX
  8
PLAN_1
  6
CONTINUOUS
 10
0.652335
 20
-4.342283
  0
VERTEX
  8
PLAN_1
  6
CONTINUOUS
 10
0.646358
 20
-4.340110
  0
VERTEX
  8
PLAN_1
  6
CONTINUOUS
 10
0.640925
 20
-4.337394
  0
VERTEX
  8
PLAN_1
  6
CONTINUOUS
 10
0.636583
 20
-4.334138
  0
VERTEX
  8
PLAN_1
  6
CONTINUOUS
 10
0.632236
 20
-4.330878
  0
VERTEX
  8
PLAN_1
  6
CONTINUOUS
 10
0.628976
 20
-4.327075
  0
VERTEX
  8
PLAN_1
  6
CONTINUOUS
 10
0.626260
 20
-4.323272
  0
VERTEX
  8
PLAN_1
  6
CONTINUOUS
 10
0.623543
 20
-4.319469
  0
VERTEX
  8
PLAN_1
  6
CONTINUOUS
 10
0.621913
 20
-4.315126
  0
VERTEX
  8
PLAN_1
  6
CONTINUOUS
 10
0.620283
 20
-4.310780
  0
VERTEX
  8
PLAN_1
  6
CONTINUOUS
 10
0.619201
 20
-4.306976
  0
VERTEX
  8
PLAN_1
  6
CONTINUOUS
 10
0.618657
 20
-4.302630
  0
VERTEX
  8
PLAN_1
  6
CONTINUOUS
 10
0.618114
 20
-4.298827
  0
VERTEX
  8
PLAN_1
  6
CONTINUOUS
 10
0.618114
 20
-4.295571
  0
VERTEX
  8
PLAN_1
  6
CONTINUOUS
 10
0.618114
 20
-4.275472
  0
VERTEX
  8
PLAN_1
  6
CONTINUOUS
 10
0.643642
 20
-4.275472
  0
SEQEND
  8
0
  0
POLYLINE
  8
PLAN_1
  6
CONTINUOUS
 66
     1
 40
0.003000
 41
0.003000
  0
VERTEX
  8
PLAN_1
  6
CONTINUOUS
 10
0.935878
 20
-4.185303
  0
VERTEX
  8
PLAN_1
  6
CONTINUOUS
 10
0.954890
 20
-4.185303
  0
VERTEX
  8
PLAN_1
  6
CONTINUOUS
 10
0.950543
 20
-4.199969
  0
VERTEX
  8
PLAN_1
  6
CONTINUOUS
 10
0.946740
 20
-4.214634
  0
VERTEX
  8
PLAN_1
  6
CONTINUOUS
 10
0.942394
 20
-4.229299
  0
VERTEX
  8
PLAN_1
  6
CONTINUOUS
 10
0.938594
 20
-4.242339
  0
VERTEX
  8
PLAN_1
  6
CONTINUOUS
 10
0.934791
 20
-4.254287
  0
VERTEX
  8
PLAN_1
  6
CONTINUOUS
 10
0.932075
 20
-4.264063
  0
VERTEX
  8
PLAN_1
  6
CONTINUOUS
 10
0.930445
 20
-4.271669
  0
VERTEX
  8
PLAN_1
  6
CONTINUOUS
 10
0.929902
 20
-4.276016
  0
VERTEX
  8
PLAN_1
  6
CONTINUOUS
 10
0.929902
 20
-4.277646
  0
VERTEX
  8
PLAN_1
  6
CONTINUOUS
 10
0.930445
 20
-4.279276
  0
VERTEX
  8
PLAN_1
  6
CONTINUOUS
 10
0.930445
 20
-4.280906
  0
VERTEX
  8
PLAN_1
  6
CONTINUOUS
 10
0.930988
 20
-4.281988
  0
VERTEX
  8
PLAN_1
  6
CONTINUOUS
 10
0.932075
 20
-4.282531
  0
VERTEX
  8
PLAN_1
  6
CONTINUOUS
 10
0.933161
 20
-4.283618
  0
VERTEX
  8
PLAN_1
  6
CONTINUOUS
 10
0.934248
 20
-4.283618
  0
VERTEX
  8
PLAN_1
  6
CONTINUOUS
 10
0.935878
 20
-4.284161
  0
VERTEX
  8
PLAN_1
  6
CONTINUOUS
 10
0.939138
 20
-4.283618
  0
VERTEX
  8
PLAN_1
  6
CONTINUOUS
 10
0.942937
 20
-4.282531
  0
VERTEX
  8
PLAN_1
  6
CONTINUOUS
 10
0.946197
 20
-4.280906
  0
VERTEX
  8
PLAN_1
  6
CONTINUOUS
 10
0.950000
 20
-4.278732
  0
VERTEX
  8
PLAN_1
  6
CONTINUOUS
 10
0.953260
 20
-4.276016
  0
VERTEX
  8
PLAN_1
  6
CONTINUOUS
 10
0.956520
 20
-4.272756
  0
VERTEX
  8
PLAN_1
  6
CONTINUOUS
 10
0.959780
 20
-4.268953
  0
VERTEX
  8
PLAN_1
  6
CONTINUOUS
 10
0.962492
 20
-4.265150
  0
VERTEX
  8
PLAN_1
  6
CONTINUOUS
 10
0.965209
 20
-4.260807
  0
VERTEX
  8
PLAN_1
  6
CONTINUOUS
 10
0.967925
 20
-4.255917
  0
VERTEX
  8
PLAN_1
  6
CONTINUOUS
 10
0.969555
 20
-4.251028
  0
VERTEX
  8
PLAN_1
  6
CONTINUOUS
 10
0.971728
 20
-4.246138
  0
VERTEX
  8
PLAN_1
  6
CONTINUOUS
 10
0.973358
 20
-4.240709
  0
VERTEX
  8
PLAN_1
  6
CONTINUOUS
 10
0.974445
 20
-4.235276
  0
VERTEX
  8
PLAN_1
  6
CONTINUOUS
 10
0.974988
 20
-4.229299
  0
VERTEX
  8
PLAN_1
  6
CONTINUOUS
 10
0.974988
 20
-4.223870
  0
VERTEX
  8
PLAN_1
  6
CONTINUOUS
 10
0.974988
 20
-4.215720
  0
VERTEX
  8
PLAN_1
  6
CONTINUOUS
 10
0.973358
 20
-4.208118
  0
VERTEX
  8
PLAN_1
  6
CONTINUOUS
 10
0.971728
 20
-4.201055
  0
VERTEX
  8
PLAN_1
  6
CONTINUOUS
 10
0.969012
 20
-4.193992
  0
VERTEX
  8
PLAN_1
  6
CONTINUOUS
 10
0.965752
 20
-4.187476
  0
VERTEX
  8
PLAN_1
  6
CONTINUOUS
 10
0.961949
 20
-4.182043
  0
VERTEX
  8
PLAN_1
  6
CONTINUOUS
 10
0.957063
 20
-4.176610
  0
VERTEX
  8
PLAN_1
  6
CONTINUOUS
 10
0.952173
 20
-4.171724
  0
VERTEX
  8
PLAN_1
  6
CONTINUOUS
 10
0.946740
 20
-4.167378
  0
VERTEX
  8
PLAN_1
  6
CONTINUOUS
 10
0.940768
 20
-4.163575
  0
VERTEX
  8
PLAN_1
  6
CONTINUOUS
 10
0.934248
 20
-4.159772
  0
VERTEX
  8
PLAN_1
  6
CONTINUOUS
 10
0.927728
 20
-4.157055
  0
VERTEX
  8
PLAN_1
  6
CONTINUOUS
 10
0.920669
 20
-4.155429
  0
VERTEX
  8
PLAN_1
  6
CONTINUOUS
 10
0.913063
 20
-4.153799
  0
VERTEX
  8
PLAN_1
  6
CONTINUOUS
 10
0.905461
 20
-4.152713
  0
VERTEX
  8
PLAN_1
  6
CONTINUOUS
 10
0.897854
 20
-4.152169
  0
VERTEX
  8
PLAN_1
  6
CONTINUOUS
 10
0.888618
 20
-4.152713
  0
VERTEX
  8
PLAN_1
  6
CONTINUOUS
 10
0.879929
 20
-4.154343
  0
VERTEX
  8
PLAN_1
  6
CONTINUOUS
 10
0.871780
 20
-4.156512
  0
VERTEX
  8
PLAN_1
  6
CONTINUOUS
 10
0.863634
 20
-4.159228
  0
VERTEX
  8
PLAN_1
  6
CONTINUOUS
 10
0.856028
 20
-4.163031
  0
VERTEX
  8
PLAN_1
  6
CONTINUOUS
 10
0.849512
 20
-4.167378
  0
VERTEX
  8
PLAN_1
  6
CONTINUOUS
 10
0.842992
 20
-4.172811
  0
VERTEX
  8
PLAN_1
  6
CONTINUOUS
 10
0.837016
 20
-4.178240
  0
VERTEX
  8
PLAN_1
  6
CONTINUOUS
 10
0.831587
 20
-4.184760
  0
VERTEX
  8
PLAN_1
  6
CONTINUOUS
 10
0.827240
 20
-4.191280
  0
VERTEX
  8
PLAN_1
  6
CONTINUOUS
 10
0.822894
 20
-4.198882
  0
VERTEX
  8
PLAN_1
  6
CONTINUOUS
 10
0.819634
 20
-4.206488
  0
VERTEX
  8
PLAN_1
  6
CONTINUOUS
 10
0.816917
 20
-4.214634
  0
VERTEX
  8
PLAN_1
  6
CONTINUOUS
 10
0.814748
 20
-4.223327
  0
VERTEX
  8
PLAN_1
  6
CONTINUOUS
 10
0.813661
 20
-4.232016
  0
VERTEX
  8
PLAN_1
  6
CONTINUOUS
 10
0.813118
 20
-4.241252
  0
VERTEX
  8
PLAN_1
  6
CONTINUOUS
 10
0.813661
 20
-4.250484
  0
VERTEX
  8
PLAN_1
  6
CONTINUOUS
 10
0.815291
 20
-4.259177
  0
VERTEX
  8
PLAN_1
  6
CONTINUOUS
 10
0.816917
 20
-4.267323
  0
VERTEX
  8
PLAN_1
  6
CONTINUOUS
 10
0.820177
 20
-4.275472
  0
VERTEX
  8
PLAN_1
  6
CONTINUOUS
 10
0.823437
 20
-4.283075
  0
VERTEX
  8
PLAN_1
  6
CONTINUOUS
 10
0.827783
 20
-4.290138
  0
VERTEX
  8
PLAN_1
  6
CONTINUOUS
 10
0.832673
 20
-4.296657
  0
VERTEX
  8
PLAN_1
  6
CONTINUOUS
 10
0.838102
 20
-4.303173
  0
VERTEX
  8
PLAN_1
  6
CONTINUOUS
 10
0.844622
 20
-4.308606
  0
VERTEX
  8
PLAN_1
  6
CONTINUOUS
 10
0.851142
 20
-4.313496
  0
VERTEX
  8
PLAN_1
  6
CONTINUOUS
 10
0.858201
 20
-4.317839
  0
VERTEX
  8
PLAN_1
  6
CONTINUOUS
 10
0.865807
 20
-4.321098
  0
VERTEX
  8
PLAN_1
  6
CONTINUOUS
 10
0.873409
 20
-4.323815
  0
VERTEX
  8
PLAN_1
  6
CONTINUOUS
 10
0.882102
 20
-4.325988
  0
VERTEX
  8
PLAN_1
  6
CONTINUOUS
 10
0.890791
 20
-4.327618
  0
VERTEX
  8
PLAN_1
  6
CONTINUOUS
 10
0.899484
 20
-4.327618
  0
VERTEX
  8
PLAN_1
  6
CONTINUOUS
 10
0.904374
 20
-4.327618
  0
VERTEX
  8
PLAN_1
  6
CONTINUOUS
 10
0.909260
 20
-4.327075
  0
VERTEX
  8
PLAN_1
  6
CONTINUOUS
 10
0.914150
 20
-4.326531
  0
VERTEX
  8
PLAN_1
  6
CONTINUOUS
 10
0.919039
 20
-4.325445
  0
VERTEX
  8
PLAN_1
  6
CONTINUOUS
 10
0.928272
 20
-4.322728
  0
VERTEX
  8
PLAN_1
  6
CONTINUOUS
 10
0.936965
 20
-4.319469
  0
VERTEX
  8
PLAN_1
  6
CONTINUOUS
 10
0.945654
 20
-4.314583
  0
VERTEX
  8
PLAN_1
  6
CONTINUOUS
 10
0.953260
 20
-4.309150
  0
VERTEX
  8
PLAN_1
  6
CONTINUOUS
 10
0.957063
 20
-4.306433
  0
VERTEX
  8
PLAN_1
  6
CONTINUOUS
 10
0.960862
 20
-4.303173
  0
VERTEX
  8
PLAN_1
  6
CONTINUOUS
 10
0.964122
 20
-4.299913
  0
VERTEX
  8
PLAN_1
  6
CONTINUOUS
 10
0.967382
 20
-4.296114
  0
VERTEX
  8
PLAN_1
  6
CONTINUOUS
 10
0.985850
 20
-4.296114
  0
VERTEX
  8
PLAN_1
  6
CONTINUOUS
 10
0.982047
 20
-4.301543
  0
VERTEX
  8
PLAN_1
  6
CONTINUOUS
 10
0.978244
 20
-4.306976
  0
VERTEX
  8
PLAN_1
  6
CONTINUOUS
 10
0.973902
 20
-4.311866
  0
VERTEX
  8
PLAN_1
  6
CONTINUOUS
 10
0.969555
 20
-4.316752
  0
VERTEX
  8
PLAN_1
  6
CONTINUOUS
 10
0.964665
 20
-4.321098
  0
VERTEX
  8
PLAN_1
  6
CONTINUOUS
 10
0.959780
 20
-4.324902
  0
VERTEX
  8
PLAN_1
  6
CONTINUOUS
 10
0.954346
 20
-4.328705
  0
VERTEX
  8
PLAN_1
  6
CONTINUOUS
 10
0.948913
 20
-4.331965
  0
VERTEX
  8
PLAN_1
  6
CONTINUOUS
 10
0.943480
 20
-4.334677
  0
VERTEX
  8
PLAN_1
  6
CONTINUOUS
 10
0.937508
 20
-4.337394
  0
VERTEX
  8
PLAN_1
  6
CONTINUOUS
 10
0.931531
 20
-4.339567
  0
VERTEX
  8
PLAN_1
  6
CONTINUOUS
 10
0.925012
 20
-4.341740
  0
VERTEX
  8
PLAN_1
  6
CONTINUOUS
 10
0.918496
 20
-4.342827
  0
VERTEX
  8
PLAN_1
  6
CONTINUOUS
 10
0.912520
 20
-4.343913
  0
VERTEX
  8
PLAN_1
  6
CONTINUOUS
 10
0.905461
 20
-4.345000
  0
VERTEX
  8
PLAN_1
  6
CONTINUOUS
 10
0.898941
 20
-4.345000
  0
VERTEX
  8
PLAN_1
  6
CONTINUOUS
 10
0.888079
 20
-4.344457
  0
VERTEX
  8
PLAN_1
  6
CONTINUOUS
 10
0.877756
 20
-4.342827
  0
VERTEX
  8
PLAN_1
  6
CONTINUOUS
 10
0.867437
 20
-4.340110
  0
VERTEX
  8
PLAN_1
  6
CONTINUOUS
 10
0.857657
 20
-4.336850
  0
VERTEX
  8
PLAN_1
  6
CONTINUOUS
 10
0.848425
 20
-4.332508
  0
VERTEX
  8
PLAN_1
  6
CONTINUOUS
 10
0.839189
 20
-4.327075
  0
VERTEX
  8
PLAN_1
  6
CONTINUOUS
 10
0.831043
 20
-4.321098
  0
VERTEX
  8
PLAN_1
  6
CONTINUOUS
 10
0.823980
 20
-4.314583
  0
VERTEX
  8
PLAN_1
  6
CONTINUOUS
 10
0.816917
 20
-4.306976
  0
VERTEX
  8
PLAN_1
  6
CONTINUOUS
 10
0.810945
 20
-4.298827
  0
VERTEX
  8
PLAN_1
  6
CONTINUOUS
 10
0.805512
 20
-4.290138
  0
VERTEX
  8
PLAN_1
  6
CONTINUOUS
 10
0.801165
 20
-4.280906
  0
VERTEX
  8
PLAN_1
  6
CONTINUOUS
 10
0.797909
 20
-4.271126
  0
VERTEX
  8
PLAN_1
  6
CONTINUOUS
 10
0.795193
 20
-4.260807
  0
VERTEX
  8
PLAN_1
  6
CONTINUOUS
 10
0.793563
 20
-4.250484
  0
VERTEX
  8
PLAN_1
  6
CONTINUOUS
 10
0.793020
 20
-4.239622
  0
VERTEX
  8
PLAN_1
  6
CONTINUOUS
 10
0.793563
 20
-4.228756
  0
VERTEX
  8
PLAN_1
  6
CONTINUOUS
 10
0.795193
 20
-4.218437
  0
VERTEX
  8
PLAN_1
  6
CONTINUOUS
 10
0.797909
 20
-4.208118
  0
VERTEX
  8
PLAN_1
  6
CONTINUOUS
 10
0.801165
 20
-4.198882
  0
VERTEX
  8
PLAN_1
  6
CONTINUOUS
 10
0.806055
 20
-4.189650
  0
VERTEX
  8
PLAN_1
  6
CONTINUOUS
 10
0.810945
 20
-4.180957
  0
VERTEX
  8
PLAN_1
  6
CONTINUOUS
 10
0.816917
 20
-4.172811
  0
VERTEX
  8
PLAN_1
  6
CONTINUOUS
 10
0.823980
 20
-4.165748
  0
VERTEX
  8
PLAN_1
  6
CONTINUOUS
 10
0.831587
 20
-4.158685
  0
VERTEX
  8
PLAN_1
  6
CONTINUOUS
 10
0.839732
 20
-4.152713
  0
VERTEX
  8
PLAN_1
  6
CONTINUOUS
 10
0.847882
 20
-4.147823
  0
VERTEX
  8
PLAN_1
  6
CONTINUOUS
 10
0.857114
 20
-4.143476
  0
VERTEX
  8
PLAN_1
  6
CONTINUOUS
 10
0.866894
 20
-4.139673
  0
VERTEX
  8
PLAN_1
  6
CONTINUOUS
 10
0.876669
 20
-4.137504
  0
VERTEX
  8
PLAN_1
  6
CONTINUOUS
 10
0.886992
 20
-4.135874
  0
VERTEX
  8
PLAN_1
  6
CONTINUOUS
 10
0.897854
 20
-4.135331
  0
VERTEX
  8
PLAN_1
  6
CONTINUOUS
 10
0.907087
 20
-4.135331
  0
VERTEX
  8
PLAN_1
  6
CONTINUOUS
 10
0.916323
 20
-4.136961
  0
VERTEX
  8
PLAN_1
  6
CONTINUOUS
 10
0.925555
 20
-4.138587
  0
VERTEX
  8
PLAN_1
  6
CONTINUOUS
 10
0.934248
 20
-4.141303
  0
VERTEX
  8
PLAN_1
  6
CONTINUOUS
 10
0.942394
 20
-4.145106
  0
VERTEX
  8
PLAN_1
  6
CONTINUOUS
 10
0.950543
 20
-4.149453
  0
VERTEX
  8
PLAN_1
  6
CONTINUOUS
 10
0.958150
 20
-4.153799
  0
VERTEX
  8
PLAN_1
  6
CONTINUOUS
 10
0.964665
 20
-4.159772
  0
VERTEX
  8
PLAN_1
  6
CONTINUOUS
 10
0.971185
 20
-4.165748
  0
VERTEX
  8
PLAN_1
  6
CONTINUOUS
 10
0.976618
 20
-4.172268
  0
VERTEX
  8
PLAN_1
  6
CONTINUOUS
 10
0.981504
 20
-4.179327
  0
VERTEX
  8
PLAN_1
  6
CONTINUOUS
 10
0.985307
 20
-4.186933
  0
VERTEX
  8
PLAN_1
  6
CONTINUOUS
 10
0.988567
 20
-4.195079
  0
VERTEX
  8
PLAN_1
  6
CONTINUOUS
 10
0.991283
 20
-4.203772
  0
VERTEX
  8
PLAN_1
  6
CONTINUOUS
 10
0.992913
 20
-4.212461
  0
VERTEX
  8
PLAN_1
  6
CONTINUOUS
 10
0.993457
 20
-4.221697
  0
VERTEX
  8
PLAN_1
  6
CONTINUOUS
 10
0.992913
 20
-4.230929
  0
VERTEX
  8
PLAN_1
  6
CONTINUOUS
 10
0.991283
 20
-4.239622
  0
VERTEX
  8
PLAN_1
  6
CONTINUOUS
 10
0.989110
 20
-4.247768
  0
VERTEX
  8
PLAN_1
  6
CONTINUOUS
 10
0.986394
 20
-4.255374
  0
VERTEX
  8
PLAN_1
  6
CONTINUOUS
 10
0.982591
 20
-4.262437
  0
VERTEX
  8
PLAN_1
  6
CONTINUOUS
 10
0.978787
 20
-4.268953
  0
VERTEX
  8
PLAN_1
  6
CONTINUOUS
 10
0.974445
 20
-4.275472
  0
VERTEX
  8
PLAN_1
  6
CONTINUOUS
 10
0.969555
 20
-4.280906
  0
VERTEX
  8
PLAN_1
  6
CONTINUOUS
 10
0.964122
 20
-4.285791
  0
VERTEX
  8
PLAN_1
  6
CONTINUOUS
 10
0.958693
 20
-4.289594
  0
VERTEX
  8
PLAN_1
  6
CONTINUOUS
 10
0.953260
 20
-4.293398
  0
VERTEX
  8
PLAN_1
  6
CONTINUOUS
 10
0.947827
 20
-4.296657
  0
VERTEX
  8
PLAN_1
  6
CONTINUOUS
 10
0.942394
 20
-4.298827
  0
VERTEX
  8
PLAN_1
  6
CONTINUOUS
 10
0.936965
 20
-4.300457
  0
VERTEX
  8
PLAN_1
  6
CONTINUOUS
 10
0.931531
 20
-4.301543
  0
VERTEX
  8
PLAN_1
  6
CONTINUOUS
 10
0.926642
 20
-4.302087
  0
VERTEX
  8
PLAN_1
  6
CONTINUOUS
 10
0.923386
 20
-4.301543
  0
VERTEX
  8
PLAN_1
  6
CONTINUOUS
 10
0.920126
 20
-4.301000
  0
VERTEX
  8
PLAN_1
  6
CONTINUOUS
 10
0.917409
 20
-4.299370
  0
VERTEX
  8
PLAN_1
  6
CONTINUOUS
 10
0.914693
 20
-4.297744
  0
VERTEX
  8
PLAN_1
  6
CONTINUOUS
 10
0.912520
 20
-4.295028
  0
VERTEX
  8
PLAN_1
  6
CONTINUOUS
 10
0.910890
 20
-4.292311
  0
VERTEX
  8
PLAN_1
  6
CONTINUOUS
 10
0.909803
 20
-4.288508
  0
VERTEX
  8
PLAN_1
  6
CONTINUOUS
 10
0.909260
 20
-4.284705
  0
VERTEX
  8
PLAN_1
  6
CONTINUOUS
 10
0.908717
 20
-4.284705
  0
VERTEX
  8
PLAN_1
  6
CONTINUOUS
 10
0.905461
 20
-4.287965
  0
VERTEX
  8
PLAN_1
  6
CONTINUOUS
 10
0.901657
 20
-4.291224
  0
VERTEX
  8
PLAN_1
  6
CONTINUOUS
 10
0.897854
 20
-4.293941
  0
VERTEX
  8
PLAN_1
  6
CONTINUOUS
 10
0.893508
 20
-4.296657
  0
VERTEX
  8
PLAN_1
  6
CONTINUOUS
 10
0.889161
 20
-4.298827
  0
VERTEX
  8
PLAN_1
  6
CONTINUOUS
 10
0.884819
 20
-4.300457
  0
VERTEX
  8
PLAN_1
  6
CONTINUOUS
 10
0.879929
 20
-4.301543
  0
VERTEX
  8
PLAN_1
  6
CONTINUOUS
 10
0.875039
 20
-4.302087
  0
VERTEX
  8
PLAN_1
  6
CONTINUOUS
 10
0.870693
 20
-4.301543
  0
VERTEX
  8
PLAN_1
  6
CONTINUOUS
 10
0.866350
 20
-4.301000
  0
VERTEX
  8
PLAN_1
  6
CONTINUOUS
 10
0.862547
 20
-4.299913
  0
VERTEX
  8
PLAN_1
  6
CONTINUOUS
 10
0.858744
 20
-4.298287
  0
VERTEX
  8
PLAN_1
  6
CONTINUOUS
 10
0.854941
 20
-4.296657
  0
VERTEX
  8
PLAN_1
  6
CONTINUOUS
 10
0.851685
 20
-4.294484
  0
VERTEX
  8
PLAN_1
  6
CONTINUOUS
 10
0.848969
 20
-4.291768
  0
VERTEX
  8
PLAN_1
  6
CONTINUOUS
 10
0.845709
 20
-4.289051
  0
VERTEX
  8
PLAN_1
  6
CONTINUOUS
 10
0.843535
 20
-4.285791
  0
VERTEX
  8
PLAN_1
  6
CONTINUOUS
 10
0.840819
 20
-4.281988
  0
VERTEX
  8
PLAN_1
  6
CONTINUOUS
 10
0.839189
 20
-4.278732
  0
VERTEX
  8
PLAN_1
  6
CONTINUOUS
 10
0.837559
 20
-4.274929
  0
VERTEX
  8
PLAN_1
  6
CONTINUOUS
 10
0.835929
 20
-4.270583
  0
VERTEX
  8
PLAN_1
  6
CONTINUOUS
 10
0.835386
 20
-4.266236
  0
VERTEX
  8
PLAN_1
  6
CONTINUOUS
 10
0.834843
 20
-4.261894
  0
VERTEX
  8
PLAN_1
  6
CONTINUOUS
 10
0.834303
 20
-4.257547
  0
VERTEX
  8
PLAN_1
  6
CONTINUOUS
 10
0.834843
 20
-4.250484
  0
VERTEX
  8
PLAN_1
  6
CONTINUOUS
 10
0.835386
 20
-4.243425
  0
VERTEX
  8
PLAN_1
  6
CONTINUOUS
 10
0.837016
 20
-4.236362
  0
VERTEX
  8
PLAN_1
  6
CONTINUOUS
 10
0.839189
 20
-4.229843
  0
VERTEX
  8
PLAN_1
  6
CONTINUOUS
 10
0.841362
 20
-4.223327
  0
VERTEX
  8
PLAN_1
  6
CONTINUOUS
 10
0.844622
 20
-4.216807
  0
VERTEX
  8
PLAN_1
  6
CONTINUOUS
 10
0.847882
 20
-4.210831
  0
VERTEX
  8
PLAN_1
  6
CONTINUOUS
 10
0.852228
 20
-4.205402
  0
VERTEX
  8
PLAN_1
  6
CONTINUOUS
 10
0.856571
 20
-4.199969
  0
VERTEX
  8
PLAN_1
  6
CONTINUOUS
 10
0.861461
 20
-4.195079
  0
VERTEX
  8
PLAN_1
  6
CONTINUOUS
 10
0.866350
 20
-4.191280
  0
VERTEX
  8
PLAN_1
  6
CONTINUOUS
 10
0.872323
 20
-4.187476
  0
VERTEX
  8
PLAN_1
  6
CONTINUOUS
 10
0.878299
 20
-4.184760
  0
VERTEX
  8
PLAN_1
  6
CONTINUOUS
 10
0.884819
 20
-4.182587
  0
VERTEX
  8
PLAN_1
  6
CONTINUOUS
 10
0.891335
 20
-4.181500
  0
VERTEX
  8
PLAN_1
  6
CONTINUOUS
 10
0.898398
 20
-4.180957
  0
VERTEX
  8
PLAN_1
  6
CONTINUOUS
 10
0.903287
 20
-4.181500
  0
VERTEX
  8
PLAN_1
  6
CONTINUOUS
 10
0.908173
 20
-4.182043
  0
VERTEX
  8
PLAN_1
  6
CONTINUOUS
 10
0.912520
 20
-4.183673
  0
VERTEX
  8
PLAN_1
  6
CONTINUOUS
 10
0.916866
 20
-4.185846
  0
VERTEX
  8
PLAN_1
  6
CONTINUOUS
 10
0.920669
 20
-4.189106
  0
VERTEX
  8
PLAN_1
  6
CONTINUOUS
 10
0.924469
 20
-4.192906
  0
VERTEX
  8
PLAN_1
  6
CONTINUOUS
 10
0.927728
 20
-4.197252
  0
VERTEX
  8
PLAN_1
  6
CONTINUOUS
 10
0.930445
 20
-4.202685
  0
VERTEX
  8
PLAN_1
  6
CONTINUOUS
 10
0.935878
 20
-4.185303
  0
SEQEND
  8
0
  0
POLYLINE
  8
PLAN_1
  6
CONTINUOUS
 66
     1
 40
0.003000
 41
0.003000
  0
VERTEX
  8
PLAN_1
  6
CONTINUOUS
 10
0.898941
 20
-4.201055
  0
VERTEX
  8
PLAN_1
  6
CONTINUOUS
 10
0.894594
 20
-4.201055
  0
VERTEX
  8
PLAN_1
  6
CONTINUOUS
 10
0.890248
 20
-4.202142
  0
VERTEX
  8
PLAN_1
  6
CONTINUOUS
 10
0.885906
 20
-4.203772
  0
VERTEX
  8
PLAN_1
  6
CONTINUOUS
 10
0.882102
 20
-4.205945
  0
VERTEX
  8
PLAN_1
  6
CONTINUOUS
 10
0.878299
 20
-4.208661
  0
VERTEX
  8
PLAN_1
  6
CONTINUOUS
 10
0.875039
 20
-4.211917
  0
VERTEX
  8
PLAN_1
  6
CONTINUOUS
 10
0.871780
 20
-4.215720
  0
VERTEX
  8
PLAN_1
  6
CONTINUOUS
 10
0.869067
 20
-4.219524
  0
VERTEX
  8
PLAN_1
  6
CONTINUOUS
 10
0.866350
 20
-4.223327
  0
VERTEX
  8
PLAN_1
  6
CONTINUOUS
 10
0.864177
 20
-4.227669
  0
VERTEX
  8
PLAN_1
  6
CONTINUOUS
 10
0.862004
 20
-4.232559
  0
VERTEX
  8
PLAN_1
  6
CONTINUOUS
 10
0.860374
 20
-4.236906
  0
VERTEX
  8
PLAN_1
  6
CONTINUOUS
 10
0.858744
 20
-4.241252
  0
VERTEX
  8
PLAN_1
  6
CONTINUOUS
 10
0.858201
 20
-4.246138
  0
VERTEX
  8
PLAN_1
  6
CONTINUOUS
 10
0.857114
 20
-4.250484
  0
VERTEX
  8
PLAN_1
  6
CONTINUOUS
 10
0.857114
 20
-4.254831
  0
VERTEX
  8
PLAN_1
  6
CONTINUOUS
 10
0.857657
 20
-4.260807
  0
VERTEX
  8
PLAN_1
  6
CONTINUOUS
 10
0.858744
 20
-4.265693
  0
VERTEX
  8
PLAN_1
  6
CONTINUOUS
 10
0.860917
 20
-4.270583
  0
VERTEX
  8
PLAN_1
  6
CONTINUOUS
 10
0.863634
 20
-4.274386
  0
VERTEX
  8
PLAN_1
  6
CONTINUOUS
 10
0.866894
 20
-4.277646
  0
VERTEX
  8
PLAN_1
  6
CONTINUOUS
 10
0.871236
 20
-4.279819
  0
VERTEX
  8
PLAN_1
  6
CONTINUOUS
 10
0.875583
 20
-4.281445
  0
VERTEX
  8
PLAN_1
  6
CONTINUOUS
 10
0.880472
 20
-4.281988
  0
VERTEX
  8
PLAN_1
  6
CONTINUOUS
 10
0.884819
 20
-4.281445
  0
VERTEX
  8
PLAN_1
  6
CONTINUOUS
 10
0.889161
 20
-4.280362
  0
VERTEX
  8
PLAN_1
  6
CONTINUOUS
 10
0.892965
 20
-4.278732
  0
VERTEX
  8
PLAN_1
  6
CONTINUOUS
 10
0.896768
 20
-4.276559
  0
VERTEX
  8
PLAN_1
  6
CONTINUOUS
 10
0.900571
 20
-4.273843
  0
VERTEX
  8
PLAN_1
  6
CONTINUOUS
 10
0.903831
 20
-4.270039
  0
VERTEX
  8
PLAN_1
  6
CONTINUOUS
 10
0.907087
 20
-4.266780
  0
VERTEX
  8
PLAN_1
  6
CONTINUOUS
 10
0.909803
 20
-4.262437
  0
VERTEX
  8
PLAN_1
  6
CONTINUOUS
 10
0.912520
 20
-4.258091
  0
VERTEX
  8
PLAN_1
  6
CONTINUOUS
 10
0.915236
 20
-4.253744
  0
VERTEX
  8
PLAN_1
  6
CONTINUOUS
 10
0.916866
 20
-4.249398
  0
VERTEX
  8
PLAN_1
  6
CONTINUOUS
 10
0.918496
 20
-4.244512
  0
VERTEX
  8
PLAN_1
  6
CONTINUOUS
 10
0.920126
 20
-4.239622
  0
VERTEX
  8
PLAN_1
  6
CONTINUOUS
 10
0.921213
 20
-4.235276
  0
VERTEX
  8
PLAN_1
  6
CONTINUOUS
 10
0.921756
 20
-4.230929
  0
VERTEX
  8
PLAN_1
  6
CONTINUOUS
 10
0.921756
 20
-4.226587
  0
VERTEX
  8
PLAN_1
  6
CONTINUOUS
 10
0.921213
 20
-4.221697
  0
VERTEX
  8
PLAN_1
  6
CONTINUOUS
 10
0.920126
 20
-4.216807
  0
VERTEX
  8
PLAN_1
  6
CONTINUOUS
 10
0.917953
 20
-4.212461
  0
VERTEX
  8
PLAN_1
  6
CONTINUOUS
 10
0.915236
 20
-4.208661
  0
VERTEX
  8
PLAN_1
  6
CONTINUOUS
 10
0.911433
 20
-4.205402
  0
VERTEX
  8
PLAN_1
  6
CONTINUOUS
 10
0.907630
 20
-4.203228
  0
VERTEX
  8
PLAN_1
  6
CONTINUOUS
 10
0.903831
 20
-4.201598
  0
VERTEX
  8
PLAN_1
  6
CONTINUOUS
 10
0.898941
 20
-4.201055
  0
SEQEND
  8
0
  0
POLYLINE
  8
PLAN_1
  6
CONTINUOUS
 66
     1
 40
0.003000
 41
0.003000
  0
VERTEX
  8
PLAN_1
  6
CONTINUOUS
 10
1.217791
 20
-4.185303
  0
VERTEX
  8
PLAN_1
  6
CONTINUOUS
 10
1.236803
 20
-4.185303
  0
VERTEX
  8
PLAN_1
  6
CONTINUOUS
 10
1.232457
 20
-4.199969
  0
VERTEX
  8
PLAN_1
  6
CONTINUOUS
 10
1.228654
 20
-4.214634
  0
VERTEX
  8
PLAN_1
  6
CONTINUOUS
 10
1.224311
 20
-4.229299
  0
VERTEX
  8
PLAN_1
  6
CONTINUOUS
 10
1.220508
 20
-4.242339
  0
VERTEX
  8
PLAN_1
  6
CONTINUOUS
 10
1.216705
 20
-4.254287
  0
VERTEX
  8
PLAN_1
  6
CONTINUOUS
 10
1.213988
 20
-4.264063
  0
VERTEX
  8
PLAN_1
  6
CONTINUOUS
 10
1.212358
 20
-4.271669
  0
VERTEX
  8
PLAN_1
  6
CONTINUOUS
 10
1.211815
 20
-4.276016
  0
VERTEX
  8
PLAN_1
  6
CONTINUOUS
 10
1.211815
 20
-4.277646
  0
VERTEX
  8
PLAN_1
  6
CONTINUOUS
 10
1.211815
 20
-4.279276
  0
VERTEX
  8
PLAN_1
  6
CONTINUOUS
 10
1.212358
 20
-4.280906
  0
VERTEX
  8
PLAN_1
  6
CONTINUOUS
 10
1.212902
 20
-4.281988
  0
VERTEX
  8
PLAN_1
  6
CONTINUOUS
 10
1.213988
 20
-4.282531
  0
VERTEX
  8
PLAN_1
  6
CONTINUOUS
 10
1.215075
 20
-4.283618
  0
VERTEX
  8
PLAN_1
  6
CONTINUOUS
 10
1.216161
 20
-4.283618
  0
VERTEX
  8
PLAN_1
  6
CONTINUOUS
 10
1.217791
 20
-4.284161
  0
VERTEX
  8
PLAN_1
  6
CONTINUOUS
 10
1.221051
 20
-4.283618
  0
VERTEX
  8
PLAN_1
  6
CONTINUOUS
 10
1.224854
 20
-4.282531
  0
VERTEX
  8
PLAN_1
  6
CONTINUOUS
 10
1.228110
 20
-4.280906
  0
VERTEX
  8
PLAN_1
  6
CONTINUOUS
 10
1.231913
 20
-4.278732
  0
VERTEX
  8
PLAN_1
  6
CONTINUOUS
 10
1.235173
 20
-4.276016
  0
VERTEX
  8
PLAN_1
  6
CONTINUOUS
 10
1.238433
 20
-4.272756
  0
VERTEX
  8
PLAN_1
  6
CONTINUOUS
 10
1.241693
 20
-4.268953
  0
VERTEX
  8
PLAN_1
  6
CONTINUOUS
 10
1.244409
 20
-4.265150
  0
VERTEX
  8
PLAN_1
  6
CONTINUOUS
 10
1.247122
 20
-4.260807
  0
VERTEX
  8
PLAN_1
  6
CONTINUOUS
 10
1.249295
 20
-4.255917
  0
VERTEX
  8
PLAN_1
  6
CONTINUOUS
 10
1.251469
 20
-4.251028
  0
VERTEX
  8
PLAN_1
  6
CONTINUOUS
 10
1.253642
 20
-4.246138
  0
VERTEX
  8
PLAN_1
  6
CONTINUOUS
 10
1.255272
 20
-4.240709
  0
VERTEX
  8
PLAN_1
  6
CONTINUOUS
 10
1.256358
 20
-4.235276
  0
VERTEX
  8
PLAN_1
  6
CONTINUOUS
 10
1.256902
 20
-4.229299
  0
VERTEX
  8
PLAN_1
  6
CONTINUOUS
 10
1.256902
 20
-4.223870
  0
VERTEX
  8
PLAN_1
  6
CONTINUOUS
 10
1.256358
 20
-4.215720
  0
VERTEX
  8
PLAN_1
  6
CONTINUOUS
 10
1.255272
 20
-4.208118
  0
VERTEX
  8
PLAN_1
  6
CONTINUOUS
 10
1.253642
 20
-4.201055
  0
VERTEX
  8
PLAN_1
  6
CONTINUOUS
 10
1.250925
 20
-4.193992
  0
VERTEX
  8
PLAN_1
  6
CONTINUOUS
 10
1.247665
 20
-4.187476
  0
VERTEX
  8
PLAN_1
  6
CONTINUOUS
 10
1.243323
 20
-4.182043
  0
VERTEX
  8
PLAN_1
  6
CONTINUOUS
 10
1.238976
 20
-4.176610
  0
VERTEX
  8
PLAN_1
  6
CONTINUOUS
 10
1.234087
 20
-4.171724
  0
VERTEX
  8
PLAN_1
  6
CONTINUOUS
 10
1.228654
 20
-4.167378
  0
VERTEX
  8
PLAN_1
  6
CONTINUOUS
 10
1.222681
 20
-4.163575
  0
VERTEX
  8
PLAN_1
  6
CONTINUOUS
 10
1.216161
 20
-4.159772
  0
VERTEX
  8
PLAN_1
  6
CONTINUOUS
 10
1.209102
 20
-4.157055
  0
VERTEX
  8
PLAN_1
  6
CONTINUOUS
 10
1.202039
 20
-4.155429
  0
VERTEX
  8
PLAN_1
  6
CONTINUOUS
 10
1.194976
 20
-4.153799
  0
VERTEX
  8
PLAN_1
  6
CONTINUOUS
 10
1.187374
 20
-4.152713
  0
VERTEX
  8
PLAN_1
  6
CONTINUOUS
 10
1.179768
 20
-4.152169
  0
VERTEX
  8
PLAN_1
  6
CONTINUOUS
 10
1.170535
 20
-4.152713
  0
VERTEX
  8
PLAN_1
  6
CONTINUOUS
 10
1.161843
 20
-4.154343
  0
VERTEX
  8
PLAN_1
  6
CONTINUOUS
 10
1.153697
 20
-4.156512
  0
VERTEX
  8
PLAN_1
  6
CONTINUOUS
 10
1.145547
 20
-4.159228
  0
VERTEX
  8
PLAN_1
  6
CONTINUOUS
 10
1.137945
 20
-4.163031
  0
VERTEX
  8
PLAN_1
  6
CONTINUOUS
 10
1.131425
 20
-4.167378
  0
VERTEX
  8
PLAN_1
  6
CONTINUOUS
 10
1.124906
 20
-4.172811
  0
VERTEX
  8
PLAN_1
  6
CONTINUOUS
 10
1.118933
 20
-4.178240
  0
VERTEX
  8
PLAN_1
  6
CONTINUOUS
 10
1.113500
 20
-4.184760
  0
VERTEX
  8
PLAN_1
  6
CONTINUOUS
 10
1.108610
 20
-4.191280
  0
VERTEX
  8
PLAN_1
  6
CONTINUOUS
 10
1.104807
 20
-4.198882
  0
VERTEX
  8
PLAN_1
  6
CONTINUOUS
 10
1.101551
 20
-4.206488
  0
VERTEX
  8
PLAN_1
  6
CONTINUOUS
 10
1.098835
 20
-4.214634
  0
VERTEX
  8
PLAN_1
  6
CONTINUOUS
 10
1.096661
 20
-4.223327
  0
VERTEX
  8
PLAN_1
  6
CONTINUOUS
 10
1.095575
 20
-4.232016
  0
VERTEX
  8
PLAN_1
  6
CONTINUOUS
 10
1.095031
 20
-4.241252
  0
VERTEX
  8
PLAN_1
  6
CONTINUOUS
 10
1.095575
 20
-4.250484
  0
VERTEX
  8
PLAN_1
  6
CONTINUOUS
 10
1.096661
 20
-4.259177
  0
VERTEX
  8
PLAN_1
  6
CONTINUOUS
 10
1.098835
 20
-4.267323
  0
VERTEX
  8
PLAN_1
  6
CONTINUOUS
 10
1.102094
 20
-4.275472
  0
VERTEX
  8
PLAN_1
  6
CONTINUOUS
 10
1.105350
 20
-4.283075
  0
VERTEX
  8
PLAN_1
  6
CONTINUOUS
 10
1.109697
 20
-4.290138
  0
VERTEX
  8
PLAN_1
  6
CONTINUOUS
 10
1.114587
 20
-4.296657
  0
VERTEX
  8
PLAN_1
  6
CONTINUOUS
 10
1.120020
 20
-4.303173
  0
VERTEX
  8
PLAN_1
  6
CONTINUOUS
 10
1.125992
 20
-4.308606
  0
VERTEX
  8
PLAN_1
  6
CONTINUOUS
 10
1.133055
 20
-4.313496
  0
VERTEX
  8
PLAN_1
  6
CONTINUOUS
 10
1.140114
 20
-4.317839
  0
VERTEX
  8
PLAN_1
  6
CONTINUOUS
 10
1.147720
 20
-4.321098
  0
VERTEX
  8
PLAN_1
  6
CONTINUOUS
 10
1.155327
 20
-4.323815
  0
VERTEX
  8
PLAN_1
  6
CONTINUOUS
 10
1.164016
 20
-4.325988
  0
VERTEX
  8
PLAN_1
  6
CONTINUOUS
 10
1.172709
 20
-4.327618
  0
VERTEX
  8
PLAN_1
  6
CONTINUOUS
 10
1.181398
 20
-4.327618
  0
VERTEX
  8
PLAN_1
  6
CONTINUOUS
 10
1.186287
 20
-4.327618
  0
VERTEX
  8
PLAN_1
  6
CONTINUOUS
 10
1.191177
 20
-4.327075
  0
VERTEX
  8
PLAN_1
  6
CONTINUOUS
 10
1.196063
 20
-4.326531
  0
VERTEX
  8
PLAN_1
  6
CONTINUOUS
 10
1.200953
 20
-4.325445
  0
VERTEX
  8
PLAN_1
  6
CONTINUOUS
 10
1.210185
 20
-4.322728
  0
VERTEX
  8
PLAN_1
  6
CONTINUOUS
 10
1.218878
 20
-4.319469
  0
VERTEX
  8
PLAN_1
  6
CONTINUOUS
 10
1.227571
 20
-4.314583
  0
VERTEX
  8
PLAN_1
  6
CONTINUOUS
 10
1.235173
 20
-4.309150
  0
VERTEX
  8
PLAN_1
  6
CONTINUOUS
 10
1.238976
 20
-4.306433
  0
VERTEX
  8
PLAN_1
  6
CONTINUOUS
 10
1.242780
 20
-4.303173
  0
VERTEX
  8
PLAN_1
  6
CONTINUOUS
 10
1.246035
 20
-4.299913
  0
VERTEX
  8
PLAN_1
  6
CONTINUOUS
 10
1.248752
 20
-4.296114
  0
VERTEX
  8
PLAN_1
  6
CONTINUOUS
 10
1.267764
 20
-4.296114
  0
VERTEX
  8
PLAN_1
  6
CONTINUOUS
 10
1.263961
 20
-4.301543
  0
VERTEX
  8
PLAN_1
  6
CONTINUOUS
 10
1.260161
 20
-4.306976
  0
VERTEX
  8
PLAN_1
  6
CONTINUOUS
 10
1.255815
 20
-4.311866
  0
VERTEX
  8
PLAN_1
  6
CONTINUOUS
 10
1.251469
 20
-4.316752
  0
VERTEX
  8
PLAN_1
  6
CONTINUOUS
 10
1.246579
 20
-4.321098
  0
VERTEX
  8
PLAN_1
  6
CONTINUOUS
 10
1.241693
 20
-4.324902
  0
VERTEX
  8
PLAN_1
  6
CONTINUOUS
 10
1.236260
 20
-4.328705
  0
VERTEX
  8
PLAN_1
  6
CONTINUOUS
 10
1.230827
 20
-4.331965
  0
VERTEX
  8
PLAN_1
  6
CONTINUOUS
 10
1.224854
 20
-4.334677
  0
VERTEX
  8
PLAN_1
  6
CONTINUOUS
 10
1.219421
 20
-4.337394
  0
VERTEX
  8
PLAN_1
  6
CONTINUOUS
 10
1.212902
 20
-4.339567
  0
VERTEX
  8
PLAN_1
  6
CONTINUOUS
 10
1.206929
 20
-4.341740
  0
VERTEX
  8
PLAN_1
  6
CONTINUOUS
 10
1.200409
 20
-4.342827
  0
VERTEX
  8
PLAN_1
  6
CONTINUOUS
 10
1.193890
 20
-4.343913
  0
VERTEX
  8
PLAN_1
  6
CONTINUOUS
 10
1.187374
 20
-4.345000
  0
VERTEX
  8
PLAN_1
  6
CONTINUOUS
 10
1.180854
 20
-4.345000
  0
VERTEX
  8
PLAN_1
  6
CONTINUOUS
 10
1.169992
 20
-4.344457
  0
VERTEX
  8
PLAN_1
  6
CONTINUOUS
 10
1.159126
 20
-4.342827
  0
VERTEX
  8
PLAN_1
  6
CONTINUOUS
 10
1.149350
 20
-4.340110
  0
VERTEX
  8
PLAN_1
  6
CONTINUOUS
 10
1.139571
 20
-4.336850
  0
VERTEX
  8
PLAN_1
  6
CONTINUOUS
 10
1.129795
 20
-4.332508
  0
VERTEX
  8
PLAN_1
  6
CONTINUOUS
 10
1.121102
 20
-4.327075
  0
VERTEX
  8
PLAN_1
  6
CONTINUOUS
 10
1.112957
 20
-4.321098
  0
VERTEX
  8
PLAN_1
  6
CONTINUOUS
 10
1.105894
 20
-4.314583
  0
VERTEX
  8
PLAN_1
  6
CONTINUOUS
 10
1.098835
 20
-4.306976
  0
VERTEX
  8
PLAN_1
  6
CONTINUOUS
 10
1.092858
 20
-4.298827
  0
VERTEX
  8
PLAN_1
  6
CONTINUOUS
 10
1.087425
 20
-4.290138
  0
VERTEX
  8
PLAN_1
  6
CONTINUOUS
 10
1.083083
 20
-4.280906
  0
VERTEX
  8
PLAN_1
  6
CONTINUOUS
 10
1.079823
 20
-4.271126
  0
VERTEX
  8
PLAN_1
  6
CONTINUOUS
 10
1.077106
 20
-4.260807
  0
VERTEX
  8
PLAN_1
  6
CONTINUOUS
 10
1.075476
 20
-4.250484
  0
VERTEX
  8
PLAN_1
  6
CONTINUOUS
 10
1.074933
 20
-4.239622
  0
VERTEX
  8
PLAN_1
  6
CONTINUOUS
 10
1.075476
 20
-4.228756
  0
VERTEX
  8
PLAN_1
  6
CONTINUOUS
 10
1.077106
 20
-4.218437
  0
VERTEX
  8
PLAN_1
  6
CONTINUOUS
 10
1.079823
 20
-4.208118
  0
VERTEX
  8
PLAN_1
  6
CONTINUOUS
 10
1.083083
 20
-4.198882
  0
VERTEX
  8
PLAN_1
  6
CONTINUOUS
 10
1.087425
 20
-4.189650
  0
VERTEX
  8
PLAN_1
  6
CONTINUOUS
 10
1.092858
 20
-4.180957
  0
VERTEX
  8
PLAN_1
  6
CONTINUOUS
 10
1.098835
 20
-4.172811
  0
VERTEX
  8
PLAN_1
  6
CONTINUOUS
 10
1.105894
 20
-4.165748
  0
VERTEX
  8
PLAN_1
  6
CONTINUOUS
 10
1.113500
 20
-4.158685
  0
VERTEX
  8
PLAN_1
  6
CONTINUOUS
 10
1.121102
 20
-4.152713
  0
VERTEX
  8
PLAN_1
  6
CONTINUOUS
 10
1.129795
 20
-4.147823
  0
VERTEX
  8
PLAN_1
  6
CONTINUOUS
 10
1.139028
 20
-4.143476
  0
VERTEX
  8
PLAN_1
  6
CONTINUOUS
 10
1.148807
 20
-4.139673
  0
VERTEX
  8
PLAN_1
  6
CONTINUOUS
 10
1.158583
 20
-4.137504
  0
VERTEX
  8
PLAN_1
  6
CONTINUOUS
 10
1.168906
 20
-4.135874
  0
VERTEX
  8
PLAN_1
  6
CONTINUOUS
 10
1.179768
 20
-4.135331
  0
VERTEX
  8
PLAN_1
  6
CONTINUOUS
 10
1.189004
 20
-4.135331
  0
VERTEX
  8
PLAN_1
  6
CONTINUOUS
 10
1.198236
 20
-4.136961
  0
VERTEX
  8
PLAN_1
  6
CONTINUOUS
 10
1.207472
 20
-4.138587
  0
VERTEX
  8
PLAN_1
  6
CONTINUOUS
 10
1.216161
 20
-4.141303
  0
VERTEX
  8
PLAN_1
  6
CONTINUOUS
 10
1.224311
 20
-4.145106
  0
VERTEX
  8
PLAN_1
  6
CONTINUOUS
 10
1.232457
 20
-4.149453
  0
VERTEX
  8
PLAN_1
  6
CONTINUOUS
 10
1.239520
 20
-4.153799
  0
VERTEX
  8
PLAN_1
  6
CONTINUOUS
 10
1.246579
 20
-4.159772
  0
VERTEX
  8
PLAN_1
  6
CONTINUOUS
 10
1.252555
 20
-4.165748
  0
VERTEX
  8
PLAN_1
  6
CONTINUOUS
 10
1.258531
 20
-4.172268
  0
VERTEX
  8
PLAN_1
  6
CONTINUOUS
 10
1.263421
 20
-4.179327
  0
VERTEX
  8
PLAN_1
  6
CONTINUOUS
 10
1.267220
 20
-4.186933
  0
VERTEX
  8
PLAN_1
  6
CONTINUOUS
 10
1.270480
 20
-4.195079
  0
VERTEX
  8
PLAN_1
  6
CONTINUOUS
 10
1.273197
 20
-4.203772
  0
VERTEX
  8
PLAN_1
  6
CONTINUOUS
 10
1.274827
 20
-4.212461
  0
VERTEX
  8
PLAN_1
  6
CONTINUOUS
 10
1.274827
 20
-4.221697
  0
VERTEX
  8
PLAN_1
  6
CONTINUOUS
 10
1.274827
 20
-4.230929
  0
VERTEX
  8
PLAN_1
  6
CONTINUOUS
 10
1.273197
 20
-4.239622
  0
VERTEX
  8
PLAN_1
  6
CONTINUOUS
 10
1.271024
 20
-4.247768
  0
VERTEX
  8
PLAN_1
  6
CONTINUOUS
 10
1.268307
 20
-4.255374
  0
VERTEX
  8
PLAN_1
  6
CONTINUOUS
 10
1.264504
 20
-4.262437
  0
VERTEX
  8
PLAN_1
  6
CONTINUOUS
 10
1.260705
 20
-4.268953
  0
VERTEX
  8
PLAN_1
  6
CONTINUOUS
 10
1.255815
 20
-4.275472
  0
VERTEX
  8
PLAN_1
  6
CONTINUOUS
 10
1.250925
 20
-4.280906
  0
VERTEX
  8
PLAN_1
  6
CONTINUOUS
 10
1.246035
 20
-4.285791
  0
VERTEX
  8
PLAN_1
  6
CONTINUOUS
 10
1.240606
 20
-4.289594
  0
VERTEX
  8
PLAN_1
  6
CONTINUOUS
 10
1.235173
 20
-4.293398
  0
VERTEX
  8
PLAN_1
  6
CONTINUOUS
 10
1.229740
 20
-4.296657
  0
VERTEX
  8
PLAN_1
  6
CONTINUOUS
 10
1.223768
 20
-4.298827
  0
VERTEX
  8
PLAN_1
  6
CONTINUOUS
 10
1.218878
 20
-4.300457
  0
VERTEX
  8
PLAN_1
  6
CONTINUOUS
 10
1.213445
 20
-4.301543
  0
VERTEX
  8
PLAN_1
  6
CONTINUOUS
 10
1.208559
 20
-4.302087
  0
VERTEX
  8
PLAN_1
  6
CONTINUOUS
 10
1.205299
 20
-4.301543
  0
VERTEX
  8
PLAN_1
  6
CONTINUOUS
 10
1.202039
 20
-4.301000
  0
VERTEX
  8
PLAN_1
  6
CONTINUOUS
 10
1.199323
 20
-4.299370
  0
VERTEX
  8
PLAN_1
  6
CONTINUOUS
 10
1.196606
 20
-4.297744
  0
VERTEX
  8
PLAN_1
  6
CONTINUOUS
 10
1.194433
 20
-4.295028
  0
VERTEX
  8
PLAN_1
  6
CONTINUOUS
 10
1.192803
 20
-4.292311
  0
VERTEX
  8
PLAN_1
  6
CONTINUOUS
 10
1.191720
 20
-4.288508
  0
VERTEX
  8
PLAN_1
  6
CONTINUOUS
 10
1.191177
 20
-4.284705
  0
VERTEX
  8
PLAN_1
  6
CONTINUOUS
 10
1.190634
 20
-4.284705
  0
VERTEX
  8
PLAN_1
  6
CONTINUOUS
 10
1.187374
 20
-4.287965
  0
VERTEX
  8
PLAN_1
  6
CONTINUOUS
 10
1.183571
 20
-4.291224
  0
VERTEX
  8
PLAN_1
  6
CONTINUOUS
 10
1.179768
 20
-4.293941
  0
VERTEX
  8
PLAN_1
  6
CONTINUOUS
 10
1.175421
 20
-4.296657
  0
VERTEX
  8
PLAN_1
  6
CONTINUOUS
 10
1.171079
 20
-4.298827
  0
VERTEX
  8
PLAN_1
  6
CONTINUOUS
 10
1.166732
 20
-4.300457
  0
VERTEX
  8
PLAN_1
  6
CONTINUOUS
 10
1.161843
 20
-4.301543
  0
VERTEX
  8
PLAN_1
  6
CONTINUOUS
 10
1.156953
 20
-4.302087
  0
VERTEX
  8
PLAN_1
  6
CONTINUOUS
 10
1.152610
 20
-4.301543
  0
VERTEX
  8
PLAN_1
  6
CONTINUOUS
 10
1.148264
 20
-4.301000
  0
VERTEX
  8
PLAN_1
  6
CONTINUOUS
 10
1.144461
 20
-4.299913
  0
VERTEX
  8
PLAN_1
  6
CONTINUOUS
 10
1.140657
 20
-4.298287
  0
VERTEX
  8
PLAN_1
  6
CONTINUOUS
 10
1.136858
 20
-4.296657
  0
VERTEX
  8
PLAN_1
  6
CONTINUOUS
 10
1.133598
 20
-4.294484
  0
VERTEX
  8
PLAN_1
  6
CONTINUOUS
 10
1.130339
 20
-4.291768
  0
VERTEX
  8
PLAN_1
  6
CONTINUOUS
 10
1.127622
 20
-4.289051
  0
VERTEX
  8
PLAN_1
  6
CONTINUOUS
 10
1.124906
 20
-4.285791
  0
VERTEX
  8
PLAN_1
  6
CONTINUOUS
 10
1.122732
 20
-4.281988
  0
VERTEX
  8
PLAN_1
  6
CONTINUOUS
 10
1.121102
 20
-4.278732
  0
VERTEX
  8
PLAN_1
  6
CONTINUOUS
 10
1.119476
 20
-4.274929
  0
VERTEX
  8
PLAN_1
  6
CONTINUOUS
 10
1.117846
 20
-4.270583
  0
VERTEX
  8
PLAN_1
  6
CONTINUOUS
 10
1.117303
 20
-4.266236
  0
VERTEX
  8
PLAN_1
  6
CONTINUOUS
 10
1.116760
 20
-4.261894
  0
VERTEX
  8
PLAN_1
  6
CONTINUOUS
 10
1.116217
 20
-4.257547
  0
VERTEX
  8
PLAN_1
  6
CONTINUOUS
 10
1.116760
 20
-4.250484
  0
VERTEX
  8
PLAN_1
  6
CONTINUOUS
 10
1.117303
 20
-4.243425
  0
VERTEX
  8
PLAN_1
  6
CONTINUOUS
 10
1.118933
 20
-4.236362
  0
VERTEX
  8
PLAN_1
  6
CONTINUOUS
 10
1.121102
 20
-4.229843
  0
VERTEX
  8
PLAN_1
  6
CONTINUOUS
 10
1.123276
 20
-4.223327
  0
VERTEX
  8
PLAN_1
  6
CONTINUOUS
 10
1.126535
 20
-4.216807
  0
VERTEX
  8
PLAN_1
  6
CONTINUOUS
 10
1.129795
 20
-4.210831
  0
VERTEX
  8
PLAN_1
  6
CONTINUOUS
 10
1.134142
 20
-4.205402
  0
VERTEX
  8
PLAN_1
  6
CONTINUOUS
 10
1.138488
 20
-4.199969
  0
VERTEX
  8
PLAN_1
  6
CONTINUOUS
 10
1.143374
 20
-4.195079
  0
VERTEX
  8
PLAN_1
  6
CONTINUOUS
 10
1.148264
 20
-4.191280
  0
VERTEX
  8
PLAN_1
  6
CONTINUOUS
 10
1.154240
 20
-4.187476
  0
VERTEX
  8
PLAN_1
  6
CONTINUOUS
 10
1.160213
 20
-4.184760
  0
VERTEX
  8
PLAN_1
  6
CONTINUOUS
 10
1.166732
 20
-4.182587
  0
VERTEX
  8
PLAN_1
  6
CONTINUOUS
 10
1.173252
 20
-4.181500
  0
VERTEX
  8
PLAN_1
  6
CONTINUOUS
 10
1.180311
 20
-4.180957
  0
VERTEX
  8
PLAN_1
  6
CONTINUOUS
 10
1.185201
 20
-4.181500
  0
VERTEX
  8
PLAN_1
  6
CONTINUOUS
 10
1.190091
 20
-4.182043
  0
VERTEX
  8
PLAN_1
  6
CONTINUOUS
 10
1.194433
 20
-4.183673
  0
VERTEX
  8
PLAN_1
  6
CONTINUOUS
 10
1.198780
 20
-4.185846
  0
VERTEX
  8
PLAN_1
  6
CONTINUOUS
 10
1.202583
 20
-4.189106
  0
VERTEX
  8
PLAN_1
  6
CONTINUOUS
 10
1.206386
 20
-4.192906
  0
VERTEX
  8
PLAN_1
  6
CONTINUOUS
 10
1.209646
 20
-4.197252
  0
VERTEX
  8
PLAN_1
  6
CONTINUOUS
 10
1.212358
 20
-4.202685
  0
VERTEX
  8
PLAN_1
  6
CONTINUOUS
 10
1.217791
 20
-4.185303
  0
SEQEND
  8
0
  0
POLYLINE
  8
PLAN_1
  6
CONTINUOUS
 66
     1
 40
0.003000
 41
0.003000
  0
VERTEX
  8
PLAN_1
  6
CONTINUOUS
 10
1.180854
 20
-4.201055
  0
VERTEX
  8
PLAN_1
  6
CONTINUOUS
 10
1.176508
 20
-4.201055
  0
VERTEX
  8
PLAN_1
  6
CONTINUOUS
 10
1.172165
 20
-4.202142
  0
VERTEX
  8
PLAN_1
  6
CONTINUOUS
 10
1.167819
 20
-4.203772
  0
VERTEX
  8
PLAN_1
  6
CONTINUOUS
 10
1.164016
 20
-4.205945
  0
VERTEX
  8
PLAN_1
  6
CONTINUOUS
 10
1.160213
 20
-4.208661
  0
VERTEX
  8
PLAN_1
  6
CONTINUOUS
 10
1.156953
 20
-4.211917
  0
VERTEX
  8
PLAN_1
  6
CONTINUOUS
 10
1.153697
 20
-4.215720
  0
VERTEX
  8
PLAN_1
  6
CONTINUOUS
 10
1.150980
 20
-4.219524
  0
VERTEX
  8
PLAN_1
  6
CONTINUOUS
 10
1.148264
 20
-4.223327
  0
VERTEX
  8
PLAN_1
  6
CONTINUOUS
 10
1.145547
 20
-4.227669
  0
VERTEX
  8
PLAN_1
  6
CONTINUOUS
 10
1.143917
 20
-4.232559
  0
VERTEX
  8
PLAN_1
  6
CONTINUOUS
 10
1.142287
 20
-4.236906
  0
VERTEX
  8
PLAN_1
  6
CONTINUOUS
 10
1.140657
 20
-4.241252
  0
VERTEX
  8
PLAN_1
  6
CONTINUOUS
 10
1.139571
 20
-4.246138
  0
VERTEX
  8
PLAN_1
  6
CONTINUOUS
 10
1.139028
 20
-4.250484
  0
VERTEX
  8
PLAN_1
  6
CONTINUOUS
 10
1.139028
 20
-4.254831
  0
VERTEX
  8
PLAN_1
  6
CONTINUOUS
 10
1.139571
 20
-4.260807
  0
VERTEX
  8
PLAN_1
  6
CONTINUOUS
 10
1.140657
 20
-4.265693
  0
VERTEX
  8
PLAN_1
  6
CONTINUOUS
 10
1.142831
 20
-4.270583
  0
VERTEX
  8
PLAN_1
  6
CONTINUOUS
 10
1.145547
 20
-4.274386
  0
VERTEX
  8
PLAN_1
  6
CONTINUOUS
 10
1.148807
 20
-4.277646
  0
VERTEX
  8
PLAN_1
  6
CONTINUOUS
 10
1.152610
 20
-4.279819
  0
VERTEX
  8
PLAN_1
  6
CONTINUOUS
 10
1.157496
 20
-4.281445
  0
VERTEX
  8
PLAN_1
  6
CONTINUOUS
 10
1.162386
 20
-4.281988
  0
VERTEX
  8
PLAN_1
  6
CONTINUOUS
 10
1.166732
 20
-4.281445
  0
VERTEX
  8
PLAN_1
  6
CONTINUOUS
 10
1.171079
 20
-4.280362
  0
VERTEX
  8
PLAN_1
  6
CONTINUOUS
 10
1.174878
 20
-4.278732
  0
VERTEX
  8
PLAN_1
  6
CONTINUOUS
 10
1.178681
 20
-4.276559
  0
VERTEX
  8
PLAN_1
  6
CONTINUOUS
 10
1.182484
 20
-4.273843
  0
VERTEX
  8
PLAN_1
  6
CONTINUOUS
 10
1.185744
 20
-4.270039
  0
VERTEX
  8
PLAN_1
  6
CONTINUOUS
 10
1.189004
 20
-4.266780
  0
VERTEX
  8
PLAN_1
  6
CONTINUOUS
 10
1.191720
 20
-4.262437
  0
VERTEX
  8
PLAN_1
  6
CONTINUOUS
 10
1.194433
 20
-4.258091
  0
VERTEX
  8
PLAN_1
  6
CONTINUOUS
 10
1.196606
 20
-4.253744
  0
VERTEX
  8
PLAN_1
  6
CONTINUOUS
 10
1.198780
 20
-4.249398
  0
VERTEX
  8
PLAN_1
  6
CONTINUOUS
 10
1.200409
 20
-4.244512
  0
VERTEX
  8
PLAN_1
  6
CONTINUOUS
 10
1.202039
 20
-4.239622
  0
VERTEX
  8
PLAN_1
  6
CONTINUOUS
 10
1.203126
 20
-4.235276
  0
VERTEX
  8
PLAN_1
  6
CONTINUOUS
 10
1.203669
 20
-4.230929
  0
VERTEX
  8
PLAN_1
  6
CONTINUOUS
 10
1.203669
 20
-4.226587
  0
VERTEX
  8
PLAN_1
  6
CONTINUOUS
 10
1.203126
 20
-4.221697
  0
VERTEX
  8
PLAN_1
  6
CONTINUOUS
 10
1.202039
 20
-4.216807
  0
VERTEX
  8
PLAN_1
  6
CONTINUOUS
 10
1.199866
 20
-4.212461
  0
VERTEX
  8
PLAN_1
  6
CONTINUOUS
 10
1.197150
 20
-4.208661
  0
VERTEX
  8
PLAN_1
  6
CONTINUOUS
 10
1.193346
 20
-4.205402
  0
VERTEX
  8
PLAN_1
  6
CONTINUOUS
 10
1.189547
 20
-4.203228
  0
VERTEX
  8
PLAN_1
  6
CONTINUOUS
 10
1.185201
 20
-4.201598
  0
VERTEX
  8
PLAN_1
  6
CONTINUOUS
 10
1.180854
 20
-4.201055
  0
SEQEND
  8
0
  0
POLYLINE
  8
PLAN_1
  6
CONTINUOUS
 66
     1
 40
0.003000
 41
0.003000
  0
VERTEX
  8
PLAN_1
  6
CONTINUOUS
 10
1.338378
 20
-4.140217
  0
VERTEX
  8
PLAN_1
  6
CONTINUOUS
 10
1.419315
 20
-4.140217
  0
VERTEX
  8
PLAN_1
  6
CONTINUOUS
 10
1.428547
 20
-4.140760
  0
VERTEX
  8
PLAN_1
  6
CONTINUOUS
 10
1.437783
 20
-4.142390
  0
VERTEX
  8
PLAN_1
  6
CONTINUOUS
 10
1.446472
 20
-4.144563
  0
VERTEX
  8
PLAN_1
  6
CONTINUOUS
 10
1.454079
 20
-4.147280
  0
VERTEX
  8
PLAN_1
  6
CONTINUOUS
 10
1.461681
 20
-4.151083
  0
VERTEX
  8
PLAN_1
  6
CONTINUOUS
 10
1.468744
 20
-4.155969
  0
VERTEX
  8
PLAN_1
  6
CONTINUOUS
 10
1.474720
 20
-4.161402
  0
VERTEX
  8
PLAN_1
  6
CONTINUOUS
 10
1.480693
 20
-4.167378
  0
VERTEX
  8
PLAN_1
  6
CONTINUOUS
 10
1.485583
 20
-4.173894
  0
VERTEX
  8
PLAN_1
  6
CONTINUOUS
 10
1.490472
 20
-4.181500
  0
VERTEX
  8
PLAN_1
  6
CONTINUOUS
 10
1.494276
 20
-4.189106
  0
VERTEX
  8
PLAN_1
  6
CONTINUOUS
 10
1.497531
 20
-4.197795
  0
VERTEX
  8
PLAN_1
  6
CONTINUOUS
 10
1.499705
 20
-4.207031
  0
VERTEX
  8
PLAN_1
  6
CONTINUOUS
 10
1.501878
 20
-4.216807
  0
VERTEX
  8
PLAN_1
  6
CONTINUOUS
 10
1.502965
 20
-4.226587
  0
VERTEX
  8
PLAN_1
  6
CONTINUOUS
 10
1.502965
 20
-4.237449
  0
VERTEX
  8
PLAN_1
  6
CONTINUOUS
 10
1.502965
 20
-4.245594
  0
VERTEX
  8
PLAN_1
  6
CONTINUOUS
 10
1.501878
 20
-4.254287
  0
VERTEX
  8
PLAN_1
  6
CONTINUOUS
 10
1.500791
 20
-4.263520
  0
VERTEX
  8
PLAN_1
  6
CONTINUOUS
 10
1.499161
 20
-4.272213
  0
VERTEX
  8
PLAN_1
  6
CONTINUOUS
 10
1.496445
 20
-4.280906
  0
VERTEX
  8
PLAN_1
  6
CONTINUOUS
 10
1.493732
 20
-4.289594
  0
VERTEX
  8
PLAN_1
  6
CONTINUOUS
 10
1.489929
 20
-4.297744
  0
VERTEX
  8
PLAN_1
  6
CONTINUOUS
 10
1.485039
 20
-4.305346
  0
VERTEX
  8
PLAN_1
  6
CONTINUOUS
 10
1.480150
 20
-4.312409
  0
VERTEX
  8
PLAN_1
  6
CONTINUOUS
 10
1.473634
 20
-4.318925
  0
VERTEX
  8
PLAN_1
  6
CONTINUOUS
 10
1.470374
 20
-4.322185
  0
VERTEX
  8
PLAN_1
  6
CONTINUOUS
 10
1.467114
 20
-4.324902
  0
VERTEX
  8
PLAN_1
  6
CONTINUOUS
 10
1.463311
 20
-4.327618
  0
VERTEX
  8
PLAN_1
  6
CONTINUOUS
 10
1.458969
 20
-4.329791
  0
VERTEX
  8
PLAN_1
  6
CONTINUOUS
 10
1.454622
 20
-4.331965
  0
VERTEX
  8
PLAN_1
  6
CONTINUOUS
 10
1.450276
 20
-4.334138
  0
VERTEX
  8
PLAN_1
  6
CONTINUOUS
 10
1.445386
 20
-4.335764
  0
VERTEX
  8
PLAN_1
  6
CONTINUOUS
 10
1.440500
 20
-4.337394
  0
VERTEX
  8
PLAN_1
  6
CONTINUOUS
 10
1.435610
 20
-4.338480
  0
VERTEX
  8
PLAN_1
  6
CONTINUOUS
 10
1.429634
 20
-4.339024
  0
VERTEX
  8
PLAN_1
  6
CONTINUOUS
 10
1.424205
 20
-4.339567
  0
VERTEX
  8
PLAN_1
  6
CONTINUOUS
 10
1.418228
 20
-4.339567
  0
VERTEX
  8
PLAN_1
  6
CONTINUOUS
 10
1.338378
 20
-4.339567
  0
VERTEX
  8
PLAN_1
  6
CONTINUOUS
 10
1.338378
 20
-4.140217
  0
SEQEND
  8
0
  0
POLYLINE
  8
PLAN_1
  6
CONTINUOUS
 66
     1
 40
0.003000
 41
0.003000
  0
VERTEX
  8
PLAN_1
  6
CONTINUOUS
 10
1.365539
 20
-4.316752
  0
VERTEX
  8
PLAN_1
  6
CONTINUOUS
 10
1.417685
 20
-4.316752
  0
VERTEX
  8
PLAN_1
  6
CONTINUOUS
 10
1.424205
 20
-4.316213
  0
VERTEX
  8
PLAN_1
  6
CONTINUOUS
 10
1.430177
 20
-4.315669
  0
VERTEX
  8
PLAN_1
  6
CONTINUOUS
 10
1.436154
 20
-4.314039
  0
VERTEX
  8
PLAN_1
  6
CONTINUOUS
 10
1.441587
 20
-4.311866
  0
VERTEX
  8
PLAN_1
  6
CONTINUOUS
 10
1.446472
 20
-4.308606
  0
VERTEX
  8
PLAN_1
  6
CONTINUOUS
 10
1.451362
 20
-4.305346
  0
VERTEX
  8
PLAN_1
  6
CONTINUOUS
 10
1.455709
 20
-4.301543
  0
VERTEX
  8
PLAN_1
  6
CONTINUOUS
 10
1.459512
 20
-4.296657
  0
VERTEX
  8
PLAN_1
  6
CONTINUOUS
 10
1.463311
 20
-4.291224
  0
VERTEX
  8
PLAN_1
  6
CONTINUOUS
 10
1.466028
 20
-4.285791
  0
VERTEX
  8
PLAN_1
  6
CONTINUOUS
 10
1.468744
 20
-4.279276
  0
VERTEX
  8
PLAN_1
  6
CONTINUOUS
 10
1.471461
 20
-4.272213
  0
VERTEX
  8
PLAN_1
  6
CONTINUOUS
 10
1.473091
 20
-4.264606
  0
VERTEX
  8
PLAN_1
  6
CONTINUOUS
 10
1.474177
 20
-4.256461
  0
VERTEX
  8
PLAN_1
  6
CONTINUOUS
 10
1.475264
 20
-4.248311
  0
VERTEX
  8
PLAN_1
  6
CONTINUOUS
 10
1.475264
 20
-4.239079
  0
VERTEX
  8
PLAN_1
  6
CONTINUOUS
 10
1.475264
 20
-4.229843
  0
VERTEX
  8
PLAN_1
  6
CONTINUOUS
 10
1.474177
 20
-4.221154
  0
VERTEX
  8
PLAN_1
  6
CONTINUOUS
 10
1.473091
 20
-4.213547
  0
VERTEX
  8
PLAN_1
  6
CONTINUOUS
 10
1.470917
 20
-4.205945
  0
VERTEX
  8
PLAN_1
  6
CONTINUOUS
 10
1.468744
 20
-4.199425
  0
VERTEX
  8
PLAN_1
  6
CONTINUOUS
 10
1.466028
 20
-4.192906
  0
VERTEX
  8
PLAN_1
  6
CONTINUOUS
 10
1.462768
 20
-4.187476
  0
VERTEX
  8
PLAN_1
  6
CONTINUOUS
 10
1.458969
 20
-4.182587
  0
VERTEX
  8
PLAN_1
  6
CONTINUOUS
 10
1.455165
 20
-4.177697
  0
VERTEX
  8
PLAN_1
  6
CONTINUOUS
 10
1.450819
 20
-4.173894
  0
VERTEX
  8
PLAN_1
  6
CONTINUOUS
 10
1.445929
 20
-4.170638
  0
VERTEX
  8
PLAN_1
  6
CONTINUOUS
 10
1.440500
 20
-4.167921
  0
VERTEX
  8
PLAN_1
  6
CONTINUOUS
 10
1.434524
 20
-4.166291
  0
VERTEX
  8
PLAN_1
  6
CONTINUOUS
 10
1.428547
 20
-4.164661
  0
VERTEX
  8
PLAN_1
  6
CONTINUOUS
 10
1.422575
 20
-4.163575
  0
VERTEX
  8
PLAN_1
  6
CONTINUOUS
 10
1.415512
 20
-4.163575
  0
VERTEX
  8
PLAN_1
  6
CONTINUOUS
 10
1.365539
 20
-4.163575
  0
VERTEX
  8
PLAN_1
  6
CONTINUOUS
 10
1.365539
 20
-4.316752
  0
SEQEND
  8
0
  0
POLYLINE
  8
PLAN_1
  6
CONTINUOUS
 66
     1
 40
0.003000
 41
0.003000
  0
VERTEX
  8
PLAN_1
  6
CONTINUOUS
 10
1.567606
 20
-4.339567
  0
VERTEX
  8
PLAN_1
  6
CONTINUOUS
 10
1.540988
 20
-4.339567
  0
VERTEX
  8
PLAN_1
  6
CONTINUOUS
 10
1.540988
 20
-4.140217
  0
VERTEX
  8
PLAN_1
  6
CONTINUOUS
 10
1.633331
 20
-4.140217
  0
VERTEX
  8
PLAN_1
  6
CONTINUOUS
 10
1.639303
 20
-4.140760
  0
VERTEX
  8
PLAN_1
  6
CONTINUOUS
 10
1.645280
 20
-4.140760
  0
VERTEX
  8
PLAN_1
  6
CONTINUOUS
 10
1.651256
 20
-4.141846
  0
VERTEX
  8
PLAN_1
  6
CONTINUOUS
 10
1.657228
 20
-4.142933
  0
VERTEX
  8
PLAN_1
  6
CONTINUOUS
 10
1.662661
 20
-4.144563
  0
VERTEX
  8
PLAN_1
  6
CONTINUOUS
 10
1.668094
 20
-4.146193
  0
VERTEX
  8
PLAN_1
  6
CONTINUOUS
 10
1.673528
 20
-4.148366
  0
VERTEX
  8
PLAN_1
  6
CONTINUOUS
 10
1.677870
 20
-4.151626
  0
VERTEX
  8
PLAN_1
  6
CONTINUOUS
 10
1.682760
 20
-4.154886
  0
VERTEX
  8
PLAN_1
  6
CONTINUOUS
 10
1.686563
 20
-4.158685
  0
VERTEX
  8
PLAN_1
  6
CONTINUOUS
 10
1.689823
 20
-4.163031
  0
VERTEX
  8
PLAN_1
  6
CONTINUOUS
 10
1.693079
 20
-4.167921
  0
VERTEX
  8
PLAN_1
  6
CONTINUOUS
 10
1.695252
 20
-4.173354
  0
VERTEX
  8
PLAN_1
  6
CONTINUOUS
 10
1.696882
 20
-4.179327
  0
VERTEX
  8
PLAN_1
  6
CONTINUOUS
 10
1.697969
 20
-4.186390
  0
VERTEX
  8
PLAN_1
  6
CONTINUOUS
 10
1.698512
 20
-4.193992
  0
VERTEX
  8
PLAN_1
  6
CONTINUOUS
 10
1.698512
 20
-4.199425
  0
VERTEX
  8
PLAN_1
  6
CONTINUOUS
 10
1.697969
 20
-4.204315
  0
VERTEX
  8
PLAN_1
  6
CONTINUOUS
 10
1.696882
 20
-4.208661
  0
VERTEX
  8
PLAN_1
  6
CONTINUOUS
 10
1.695795
 20
-4.213004
  0
VERTEX
  8
PLAN_1
  6
CONTINUOUS
 10
1.694709
 20
-4.216807
  0
VERTEX
  8
PLAN_1
  6
CONTINUOUS
 10
1.693079
 20
-4.220067
  0
VERTEX
  8
PLAN_1
  6
CONTINUOUS
 10
1.691453
 20
-4.223327
  0
VERTEX
  8
PLAN_1
  6
CONTINUOUS
 10
1.689280
 20
-4.226043
  0
VERTEX
  8
PLAN_1
  6
CONTINUOUS
 10
1.685476
 20
-4.230929
  0
VERTEX
  8
PLAN_1
  6
CONTINUOUS
 10
1.680587
 20
-4.235276
  0
VERTEX
  8
PLAN_1
  6
CONTINUOUS
 10
1.675697
 20
-4.238535
  0
VERTEX
  8
PLAN_1
  6
CONTINUOUS
 10
1.670811
 20
-4.241795
  0
VERTEX
  8
PLAN_1
  6
CONTINUOUS
 10
1.675154
 20
-4.243425
  0
VERTEX
  8
PLAN_1
  6
CONTINUOUS
 10
1.678957
 20
-4.245594
  0
VERTEX
  8
PLAN_1
  6
CONTINUOUS
 10
1.683303
 20
-4.248311
  0
VERTEX
  8
PLAN_1
  6
CONTINUOUS
 10
1.686563
 20
-4.251571
  0
VERTEX
  8
PLAN_1
  6
CONTINUOUS
 10
1.688193
 20
-4.253744
  0
VERTEX
  8
PLAN_1
  6
CONTINUOUS
 10
1.689823
 20
-4.256461
  0
VERTEX
  8
PLAN_1
  6
CONTINUOUS
 10
1.690909
 20
-4.259177
  0
VERTEX
  8
PLAN_1
  6
CONTINUOUS
 10
1.691996
 20
-4.262437
  0
VERTEX
  8
PLAN_1
  6
CONTINUOUS
 10
1.693079
 20
-4.265693
  0
VERTEX
  8
PLAN_1
  6
CONTINUOUS
 10
1.693622
 20
-4.270039
  0
VERTEX
  8
PLAN_1
  6
CONTINUOUS
 10
1.694165
 20
-4.274386
  0
VERTEX
  8
PLAN_1
  6
CONTINUOUS
 10
1.694709
 20
-4.279276
  0
VERTEX
  8
PLAN_1
  6
CONTINUOUS
 10
1.696339
 20
-4.315126
  0
VERTEX
  8
PLAN_1
  6
CONTINUOUS
 10
1.696339
 20
-4.318925
  0
VERTEX
  8
PLAN_1
  6
CONTINUOUS
 10
1.696882
 20
-4.322185
  0
VERTEX
  8
PLAN_1
  6
CONTINUOUS
 10
1.697425
 20
-4.325445
  0
VERTEX
  8
PLAN_1
  6
CONTINUOUS
 10
1.698512
 20
-4.327618
  0
VERTEX
  8
PLAN_1
  6
CONTINUOUS
 10
1.699598
 20
-4.329791
  0
VERTEX
  8
PLAN_1
  6
CONTINUOUS
 10
1.701228
 20
-4.331965
  0
VERTEX
  8
PLAN_1
  6
CONTINUOUS
 10
1.703402
 20
-4.333594
  0
VERTEX
  8
PLAN_1
  6
CONTINUOUS
 10
1.706118
 20
-4.335220
  0
VERTEX
  8
PLAN_1
  6
CONTINUOUS
 10
1.706118
 20
-4.339567
  0
VERTEX
  8
PLAN_1
  6
CONTINUOUS
 10
1.673528
 20
-4.339567
  0
VERTEX
  8
PLAN_1
  6
CONTINUOUS
 10
1.671898
 20
-4.334138
  0
VERTEX
  8
PLAN_1
  6
CONTINUOUS
 10
1.670811
 20
-4.327618
  0
VERTEX
  8
PLAN_1
  6
CONTINUOUS
 10
1.670268
 20
-4.320555
  0
VERTEX
  8
PLAN_1
  6
CONTINUOUS
 10
1.669724
 20
-4.312953
  0
VERTEX
  8
PLAN_1
  6
CONTINUOUS
 10
1.669181
 20
-4.305890
  0
VERTEX
  8
PLAN_1
  6
CONTINUOUS
 10
1.668638
 20
-4.298827
  0
VERTEX
  8
PLAN_1
  6
CONTINUOUS
 10
1.668638
 20
-4.293398
  0
VERTEX
  8
PLAN_1
  6
CONTINUOUS
 10
1.668638
 20
-4.289594
  0
VERTEX
  8
PLAN_1
  6
CONTINUOUS
 10
1.668638
 20
-4.283618
  0
VERTEX
  8
PLAN_1
  6
CONTINUOUS
 10
1.667551
 20
-4.277102
  0
VERTEX
  8
PLAN_1
  6
CONTINUOUS
 10
1.667008
 20
-4.274386
  0
VERTEX
  8
PLAN_1
  6
CONTINUOUS
 10
1.665921
 20
-4.271126
  0
VERTEX
  8
PLAN_1
  6
CONTINUOUS
 10
1.664291
 20
-4.268409
  0
VERTEX
  8
PLAN_1
  6
CONTINUOUS
 10
1.662661
 20
-4.265693
  0
VERTEX
  8
PLAN_1
  6
CONTINUOUS
 10
1.661031
 20
-4.263520
  0
VERTEX
  8
PLAN_1
  6
CONTINUOUS
 10
1.658315
 20
-4.261350
  0
VERTEX
  8
PLAN_1
  6
CONTINUOUS
 10
1.655602
 20
-4.259177
  0
VERTEX
  8
PLAN_1
  6
CONTINUOUS
 10
1.652343
 20
-4.257547
  0
VERTEX
  8
PLAN_1
  6
CONTINUOUS
 10
1.648539
 20
-4.255917
  0
VERTEX
  8
PLAN_1
  6
CONTINUOUS
 10
1.643650
 20
-4.254831
  0
VERTEX
  8
PLAN_1
  6
CONTINUOUS
 10
1.638764
 20
-4.254287
  0
VERTEX
  8
PLAN_1
  6
CONTINUOUS
 10
1.633331
 20
-4.254287
  0
VERTEX
  8
PLAN_1
  6
CONTINUOUS
 10
1.567606
 20
-4.254287
  0
VERTEX
  8
PLAN_1
  6
CONTINUOUS
 10
1.567606
 20
-4.339567
  0
SEQEND
  8
0
  0
POLYLINE
  8
PLAN_1
  6
CONTINUOUS
 66
     1
 40
0.003000
 41
0.003000
  0
VERTEX
  8
PLAN_1
  6
CONTINUOUS
 10
1.567606
 20
-4.230929
  0
VERTEX
  8
PLAN_1
  6
CONTINUOUS
 10
1.630071
 20
-4.230929
  0
VERTEX
  8
PLAN_1
  6
CONTINUOUS
 10
1.637677
 20
-4.230929
  0
VERTEX
  8
PLAN_1
  6
CONTINUOUS
 10
1.644736
 20
-4.229843
  0
VERTEX
  8
PLAN_1
  6
CONTINUOUS
 10
1.648539
 20
-4.229299
  0
VERTEX
  8
PLAN_1
  6
CONTINUOUS
 10
1.651799
 20
-4.228213
  0
VERTEX
  8
PLAN_1
  6
CONTINUOUS
 10
1.655059
 20
-4.226587
  0
VERTEX
  8
PLAN_1
  6
CONTINUOUS
 10
1.657772
 20
-4.224957
  0
VERTEX
  8
PLAN_1
  6
CONTINUOUS
 10
1.660488
 20
-4.222783
  0
VERTEX
  8
PLAN_1
  6
CONTINUOUS
 10
1.663205
 20
-4.220610
  0
VERTEX
  8
PLAN_1
  6
CONTINUOUS
 10
1.665378
 20
-4.217894
  0
VERTEX
  8
PLAN_1
  6
CONTINUOUS
 10
1.667008
 20
-4.214634
  0
VERTEX
  8
PLAN_1
  6
CONTINUOUS
 10
1.668638
 20
-4.210831
  0
VERTEX
  8
PLAN_1
  6
CONTINUOUS
 10
1.669724
 20
-4.206488
  0
VERTEX
  8
PLAN_1
  6
CONTINUOUS
 10
1.670811
 20
-4.202142
  0
VERTEX
  8
PLAN_1
  6
CONTINUOUS
 10
1.670811
 20
-4.196709
  0
VERTEX
  8
PLAN_1
  6
CONTINUOUS
 10
1.670811
 20
-4.191280
  0
VERTEX
  8
PLAN_1
  6
CONTINUOUS
 10
1.669724
 20
-4.186390
  0
VERTEX
  8
PLAN_1
  6
CONTINUOUS
 10
1.668638
 20
-4.182043
  0
VERTEX
  8
PLAN_1
  6
CONTINUOUS
 10
1.667008
 20
-4.178783
  0
VERTEX
  8
PLAN_1
  6
CONTINUOUS
 10
1.665378
 20
-4.175524
  0
VERTEX
  8
PLAN_1
  6
CONTINUOUS
 10
1.663205
 20
-4.172811
  0
VERTEX
  8
PLAN_1
  6
CONTINUOUS
 10
1.660488
 20
-4.170638
  0
VERTEX
  8
PLAN_1
  6
CONTINUOUS
 10
1.657772
 20
-4.168465
  0
VERTEX
  8
PLAN_1
  6
CONTINUOUS
 10
1.655059
 20
-4.166835
  0
VERTEX
  8
PLAN_1
  6
CONTINUOUS
 10
1.652343
 20
-4.165748
  0
VERTEX
  8
PLAN_1
  6
CONTINUOUS
 10
1.649083
 20
-4.165205
  0
VERTEX
  8
PLAN_1
  6
CONTINUOUS
 10
1.646366
 20
-4.164118
  0
VERTEX
  8
PLAN_1
  6
CONTINUOUS
 10
1.640390
 20
-4.163575
  0
VERTEX
  8
PLAN_1
  6
CONTINUOUS
 10
1.634961
 20
-4.163575
  0
VERTEX
  8
PLAN_1
  6
CONTINUOUS
 10
1.567606
 20
-4.163575
  0
VERTEX
  8
PLAN_1
  6
CONTINUOUS
 10
1.567606
 20
-4.230929
  0
SEQEND
  8
0
  0
SOLID
  8
PLAN_1
 10
1.770213
 20
-4.339567
 11
1.741425
 21
-4.339567
 12
1.770213
 22
-4.310236
 13
1.741425
 23
-4.310236
  0
POLYLINE
  8
PLAN_1
  6
CONTINUOUS
 66
     1
 40
0.003000
 41
0.003000
  0
VERTEX
  8
PLAN_1
  6
CONTINUOUS
 10
1.770213
 20
-4.339567
  0
VERTEX
  8
PLAN_1
  6
CONTINUOUS
 10
1.741425
 20
-4.339567
  0
VERTEX
  8
PLAN_1
  6
CONTINUOUS
 10
1.741425
 20
-4.310236
  0
VERTEX
  8
PLAN_1
  6
CONTINUOUS
 10
1.770213
 20
-4.310236
  0
VERTEX
  8
PLAN_1
  6
CONTINUOUS
 10
1.770213
 20
-4.339567
  0
SEQEND
  8
0
  0
POLYLINE
  8
PLAN_1
  6
CONTINUOUS
 66
     1
 40
0.003000
 41
0.003000
  0
VERTEX
  8
PLAN_1
  6
CONTINUOUS
 10
1.965217
 20
-4.339567
  0
VERTEX
  8
PLAN_1
  6
CONTINUOUS
 10
1.818012
 20
-4.339567
  0
VERTEX
  8
PLAN_1
  6
CONTINUOUS
 10
1.818012
 20
-4.140217
  0
VERTEX
  8
PLAN_1
  6
CONTINUOUS
 10
1.963043
 20
-4.140217
  0
VERTEX
  8
PLAN_1
  6
CONTINUOUS
 10
1.963043
 20
-4.164118
  0
VERTEX
  8
PLAN_1
  6
CONTINUOUS
 10
1.845173
 20
-4.164118
  0
VERTEX
  8
PLAN_1
  6
CONTINUOUS
 10
1.845173
 20
-4.225500
  0
VERTEX
  8
PLAN_1
  6
CONTINUOUS
 10
1.953811
 20
-4.225500
  0
VERTEX
  8
PLAN_1
  6
CONTINUOUS
 10
1.953811
 20
-4.249398
  0
VERTEX
  8
PLAN_1
  6
CONTINUOUS
 10
1.845173
 20
-4.249398
  0
VERTEX
  8
PLAN_1
  6
CONTINUOUS
 10
1.845173
 20
-4.315669
  0
VERTEX
  8
PLAN_1
  6
CONTINUOUS
 10
1.965217
 20
-4.315669
  0
VERTEX
  8
PLAN_1
  6
CONTINUOUS
 10
1.965217
 20
-4.339567
  0
SEQEND
  8
0
  0
POLYLINE
  8
PLAN_1
  6
CONTINUOUS
 66
     1
 40
0.003000
 41
0.003000
  0
VERTEX
  8
PLAN_1
  6
CONTINUOUS
 10
2.030402
 20
-4.339567
  0
VERTEX
  8
PLAN_1
  6
CONTINUOUS
 10
2.003240
 20
-4.339567
  0
VERTEX
  8
PLAN_1
  6
CONTINUOUS
 10
2.003240
 20
-4.140217
  0
VERTEX
  8
PLAN_1
  6
CONTINUOUS
 10
2.092866
 20
-4.140217
  0
VERTEX
  8
PLAN_1
  6
CONTINUOUS
 10
2.099929
 20
-4.140760
  0
VERTEX
  8
PLAN_1
  6
CONTINUOUS
 10
2.105902
 20
-4.141303
  0
VERTEX
  8
PLAN_1
  6
CONTINUOUS
 10
2.111878
 20
-4.142933
  0
VERTEX
  8
PLAN_1
  6
CONTINUOUS
 10
2.117854
 20
-4.144563
  0
VERTEX
  8
PLAN_1
  6
CONTINUOUS
 10
2.122740
 20
-4.146736
  0
VERTEX
  8
PLAN_1
  6
CONTINUOUS
 10
2.127630
 20
-4.149453
  0
VERTEX
  8
PLAN_1
  6
CONTINUOUS
 10
2.132520
 20
-4.152713
  0
VERTEX
  8
PLAN_1
  6
CONTINUOUS
 10
2.136323
 20
-4.156512
  0
VERTEX
  8
PLAN_1
  6
CONTINUOUS
 10
2.140122
 20
-4.160315
  0
VERTEX
  8
PLAN_1
  6
CONTINUOUS
 10
2.142839
 20
-4.164661
  0
VERTEX
  8
PLAN_1
  6
CONTINUOUS
 10
2.145555
 20
-4.169008
  0
VERTEX
  8
PLAN_1
  6
CONTINUOUS
 10
2.148272
 20
-4.173894
  0
VERTEX
  8
PLAN_1
  6
CONTINUOUS
 10
2.149902
 20
-4.179327
  0
VERTEX
  8
PLAN_1
  6
CONTINUOUS
 10
2.150988
 20
-4.184760
  0
VERTEX
  8
PLAN_1
  6
CONTINUOUS
 10
2.152075
 20
-4.190736
  0
VERTEX
  8
PLAN_1
  6
CONTINUOUS
 10
2.152075
 20
-4.196709
  0
VERTEX
  8
PLAN_1
  6
CONTINUOUS
 10
2.152075
 20
-4.201598
  0
VERTEX
  8
PLAN_1
  6
CONTINUOUS
 10
2.151531
 20
-4.207031
  0
VERTEX
  8
PLAN_1
  6
CONTINUOUS
 10
2.150445
 20
-4.212461
  0
VERTEX
  8
PLAN_1
  6
CONTINUOUS
 10
2.148815
 20
-4.217350
  0
VERTEX
  8
PLAN_1
  6
CONTINUOUS
 10
2.147185
 20
-4.222783
  0
VERTEX
  8
PLAN_1
  6
CONTINUOUS
 10
2.145012
 20
-4.227669
  0
VERTEX
  8
PLAN_1
  6
CONTINUOUS
 10
2.141752
 20
-4.232016
  0
VERTEX
  8
PLAN_1
  6
CONTINUOUS
 10
2.138496
 20
-4.236362
  0
VERTEX
  8
PLAN_1
  6
CONTINUOUS
 10
2.135236
 20
-4.240709
  0
VERTEX
  8
PLAN_1
  6
CONTINUOUS
 10
2.130890
 20
-4.243969
  0
VERTEX
  8
PLAN_1
  6
CONTINUOUS
 10
2.126000
 20
-4.247768
  0
VERTEX
  8
PLAN_1
  6
CONTINUOUS
 10
2.120571
 20
-4.250484
  0
VERTEX
  8
PLAN_1
  6
CONTINUOUS
 10
2.114594
 20
-4.252657
  0
VERTEX
  8
PLAN_1
  6
CONTINUOUS
 10
2.108075
 20
-4.254287
  0
VERTEX
  8
PLAN_1
  6
CONTINUOUS
 10
2.100472
 20
-4.255374
  0
VERTEX
  8
PLAN_1
  6
CONTINUOUS
 10
2.092866
 20
-4.255374
  0
VERTEX
  8
PLAN_1
  6
CONTINUOUS
 10
2.030402
 20
-4.255374
  0
VERTEX
  8
PLAN_1
  6
CONTINUOUS
 10
2.030402
 20
-4.339567
  0
SEQEND
  8
0
  0
POLYLINE
  8
PLAN_1
  6
CONTINUOUS
 66
     1
 40
0.003000
 41
0.003000
  0
VERTEX
  8
PLAN_1
  6
CONTINUOUS
 10
2.030402
 20
-4.232559
  0
VERTEX
  8
PLAN_1
  6
CONTINUOUS
 10
2.083634
 20
-4.232559
  0
VERTEX
  8
PLAN_1
  6
CONTINUOUS
 10
2.092323
 20
-4.232016
  0
VERTEX
  8
PLAN_1
  6
CONTINUOUS
 10
2.100472
 20
-4.230929
  0
VERTEX
  8
PLAN_1
  6
CONTINUOUS
 10
2.103732
 20
-4.229843
  0
VERTEX
  8
PLAN_1
  6
CONTINUOUS
 10
2.106988
 20
-4.228213
  0
VERTEX
  8
PLAN_1
  6
CONTINUOUS
 10
2.110248
 20
-4.226587
  0
VERTEX
  8
PLAN_1
  6
CONTINUOUS
 10
2.112965
 20
-4.224957
  0
VERTEX
  8
PLAN_1
  6
CONTINUOUS
 10
2.115681
 20
-4.222783
  0
VERTEX
  8
PLAN_1
  6
CONTINUOUS
 10
2.117854
 20
-4.220067
  0
VERTEX
  8
PLAN_1
  6
CONTINUOUS
 10
2.120028
 20
-4.216807
  0
VERTEX
  8
PLAN_1
  6
CONTINUOUS
 10
2.121114
 20
-4.213547
  0
VERTEX
  8
PLAN_1
  6
CONTINUOUS
 10
2.122740
 20
-4.210287
  0
VERTEX
  8
PLAN_1
  6
CONTINUOUS
 10
2.123827
 20
-4.205945
  0
VERTEX
  8
PLAN_1
  6
CONTINUOUS
 10
2.124370
 20
-4.201598
  0
VERTEX
  8
PLAN_1
  6
CONTINUOUS
 10
2.124370
 20
-4.196709
  0
VERTEX
  8
PLAN_1
  6
CONTINUOUS
 10
2.124370
 20
-4.192362
  0
VERTEX
  8
PLAN_1
  6
CONTINUOUS
 10
2.123283
 20
-4.188020
  0
VERTEX
  8
PLAN_1
  6
CONTINUOUS
 10
2.122740
 20
-4.184217
  0
VERTEX
  8
PLAN_1
  6
CONTINUOUS
 10
2.121114
 20
-4.180957
  0
VERTEX
  8
PLAN_1
  6
CONTINUOUS
 10
2.119484
 20
-4.177697
  0
VERTEX
  8
PLAN_1
  6
CONTINUOUS
 10
2.117854
 20
-4.174980
  0
VERTEX
  8
PLAN_1
  6
CONTINUOUS
 10
2.115681
 20
-4.172811
  0
VERTEX
  8
PLAN_1
  6
CONTINUOUS
 10
2.112965
 20
-4.170638
  0
VERTEX
  8
PLAN_1
  6
CONTINUOUS
 10
2.110248
 20
-4.169008
  0
VERTEX
  8
PLAN_1
  6
CONTINUOUS
 10
2.106988
 20
-4.167378
  0
VERTEX
  8
PLAN_1
  6
CONTINUOUS
 10
2.103732
 20
-4.166291
  0
VERTEX
  8
PLAN_1
  6
CONTINUOUS
 10
2.100472
 20
-4.165205
  0
VERTEX
  8
PLAN_1
  6
CONTINUOUS
 10
2.092866
 20
-4.164118
  0
VERTEX
  8
PLAN_1
  6
CONTINUOUS
 10
2.084720
 20
-4.163575
  0
VERTEX
  8
PLAN_1
  6
CONTINUOUS
 10
2.030402
 20
-4.163575
  0
VERTEX
  8
PLAN_1
  6
CONTINUOUS
 10
2.030402
 20
-4.232559
  0
SEQEND
  8
0
  0
POLYLINE
  8
PLAN_1
  6
CONTINUOUS
 66
     1
 40
0.003000
 41
0.003000
  0
VERTEX
  8
PLAN_1
  6
CONTINUOUS
 10
2.305795
 20
-4.198882
  0
VERTEX
  8
PLAN_1
  6
CONTINUOUS
 10
2.305252
 20
-4.193449
  0
VERTEX
  8
PLAN_1
  6
CONTINUOUS
 10
2.304165
 20
-4.188020
  0
VERTEX
  8
PLAN_1
  6
CONTINUOUS
 10
2.302535
 20
-4.183673
  0
VERTEX
  8
PLAN_1
  6
CONTINUOUS
 10
2.300906
 20
-4.179327
  0
VERTEX
  8
PLAN_1
  6
CONTINUOUS
 10
2.298193
 20
-4.175524
  0
VERTEX
  8
PLAN_1
  6
CONTINUOUS
 10
2.295476
 20
-4.172268
  0
VERTEX
  8
PLAN_1
  6
CONTINUOUS
 10
2.292760
 20
-4.169551
  0
VERTEX
  8
PLAN_1
  6
CONTINUOUS
 10
2.288957
 20
-4.166835
  0
VERTEX
  8
PLAN_1
  6
CONTINUOUS
 10
2.285697
 20
-4.164661
  0
VERTEX
  8
PLAN_1
  6
CONTINUOUS
 10
2.281898
 20
-4.163031
  0
VERTEX
  8
PLAN_1
  6
CONTINUOUS
 10
2.277551
 20
-4.161402
  0
VERTEX
  8
PLAN_1
  6
CONTINUOUS
 10
2.273748
 20
-4.160315
  0
VERTEX
  8
PLAN_1
  6
CONTINUOUS
 10
2.265055
 20
-4.158685
  0
VERTEX
  8
PLAN_1
  6
CONTINUOUS
 10
2.256366
 20
-4.158142
  0
VERTEX
  8
PLAN_1
  6
CONTINUOUS
 10
2.249846
 20
-4.158685
  0
VERTEX
  8
PLAN_1
  6
CONTINUOUS
 10
2.242244
 20
-4.159228
  0
VERTEX
  8
PLAN_1
  6
CONTINUOUS
 10
2.238441
 20
-4.160315
  0
VERTEX
  8
PLAN_1
  6
CONTINUOUS
 10
2.234638
 20
-4.161402
  0
VERTEX
  8
PLAN_1
  6
CONTINUOUS
 10
2.230835
 20
-4.162488
  0
VERTEX
  8
PLAN_1
  6
CONTINUOUS
 10
2.227579
 20
-4.164118
  0
VERTEX
  8
PLAN_1
  6
CONTINUOUS
 10
2.224319
 20
-4.166291
  0
VERTEX
  8
PLAN_1
  6
CONTINUOUS
 10
2.221059
 20
-4.169008
  0
VERTEX
  8
PLAN_1
  6
CONTINUOUS
 10
2.218343
 20
-4.171724
  0
VERTEX
  8
PLAN_1
  6
CONTINUOUS
 10
2.215626
 20
-4.174980
  0
VERTEX
  8
PLAN_1
  6
CONTINUOUS
 10
2.213996
 20
-4.178783
  0
VERTEX
  8
PLAN_1
  6
CONTINUOUS
 10
2.212366
 20
-4.183130
  0
VERTEX
  8
PLAN_1
  6
CONTINUOUS
 10
2.211283
 20
-4.188020
  0
VERTEX
  8
PLAN_1
  6
CONTINUOUS
 10
2.211283
 20
-4.192906
  0
VERTEX
  8
PLAN_1
  6
CONTINUOUS
 10
2.211283
 20
-4.196165
  0
VERTEX
  8
PLAN_1
  6
CONTINUOUS
 10
2.211283
 20
-4.198882
  0
VERTEX
  8
PLAN_1
  6
CONTINUOUS
 10
2.212366
 20
-4.201598
  0
VERTEX
  8
PLAN_1
  6
CONTINUOUS
 10
2.212909
 20
-4.203772
  0
VERTEX
  8
PLAN_1
  6
CONTINUOUS
 10
2.215626
 20
-4.208118
  0
VERTEX
  8
PLAN_1
  6
CONTINUOUS
 10
2.218343
 20
-4.210831
  0
VERTEX
  8
PLAN_1
  6
CONTINUOUS
 10
2.222146
 20
-4.213547
  0
VERTEX
  8
PLAN_1
  6
CONTINUOUS
 10
2.225949
 20
-4.215720
  0
VERTEX
  8
PLAN_1
  6
CONTINUOUS
 10
2.230291
 20
-4.217350
  0
VERTEX
  8
PLAN_1
  6
CONTINUOUS
 10
2.234638
 20
-4.218437
  0
VERTEX
  8
PLAN_1
  6
CONTINUOUS
 10
2.291673
 20
-4.231472
  0
VERTEX
  8
PLAN_1
  6
CONTINUOUS
 10
2.296020
 20
-4.232559
  0
VERTEX
  8
PLAN_1
  6
CONTINUOUS
 10
2.300906
 20
-4.234189
  0
VERTEX
  8
PLAN_1
  6
CONTINUOUS
 10
2.305252
 20
-4.235819
  0
VERTEX
  8
PLAN_1
  6
CONTINUOUS
 10
2.309598
 20
-4.237992
  0
VERTEX
  8
PLAN_1
  6
CONTINUOUS
 10
2.313402
 20
-4.240165
  0
VERTEX
  8
PLAN_1
  6
CONTINUOUS
 10
2.317205
 20
-4.242882
  0
VERTEX
  8
PLAN_1
  6
CONTINUOUS
 10
2.320461
 20
-4.245594
  0
VERTEX
  8
PLAN_1
  6
CONTINUOUS
 10
2.323720
 20
-4.248311
  0
VERTEX
  8
PLAN_1
  6
CONTINUOUS
 10
2.326437
 20
-4.252114
  0
VERTEX
  8
PLAN_1
  6
CONTINUOUS
 10
2.329154
 20
-4.255374
  0
VERTEX
  8
PLAN_1
  6
CONTINUOUS
 10
2.331327
 20
-4.259720
  0
VERTEX
  8
PLAN_1
  6
CONTINUOUS
 10
2.333500
 20
-4.264063
  0
VERTEX
  8
PLAN_1
  6
CONTINUOUS
 10
2.334587
 20
-4.268409
  0
VERTEX
  8
PLAN_1
  6
CONTINUOUS
 10
2.335673
 20
-4.273843
  0
VERTEX
  8
PLAN_1
  6
CONTINUOUS
 10
2.336756
 20
-4.279276
  0
VERTEX
  8
PLAN_1
  6
CONTINUOUS
 10
2.336756
 20
-4.284705
  0
VERTEX
  8
PLAN_1
  6
CONTINUOUS
 10
2.336217
 20
-4.293398
  0
VERTEX
  8
PLAN_1
  6
CONTINUOUS
 10
2.334587
 20
-4.301000
  0
VERTEX
  8
PLAN_1
  6
CONTINUOUS
 10
2.332413
 20
-4.308063
  0
VERTEX
  8
PLAN_1
  6
CONTINUOUS
 10
2.329154
 20
-4.314039
  0
VERTEX
  8
PLAN_1
  6
CONTINUOUS
 10
2.325350
 20
-4.319469
  0
VERTEX
  8
PLAN_1
  6
CONTINUOUS
 10
2.321004
 20
-4.324358
  0
VERTEX
  8
PLAN_1
  6
CONTINUOUS
 10
2.316118
 20
-4.328705
  0
VERTEX
  8
PLAN_1
  6
CONTINUOUS
 10
2.310685
 20
-4.332508
  0
VERTEX
  8
PLAN_1
  6
CONTINUOUS
 10
2.304709
 20
-4.335764
  0
VERTEX
  8
PLAN_1
  6
CONTINUOUS
 10
2.298193
 20
-4.338480
  0
VERTEX
  8
PLAN_1
  6
CONTINUOUS
 10
2.292217
 20
-4.340654
  0
VERTEX
  8
PLAN_1
  6
CONTINUOUS
 10
2.285154
 20
-4.342283
  0
VERTEX
  8
PLAN_1
  6
CONTINUOUS
 10
2.278638
 20
-4.343370
  0
VERTEX
  8
PLAN_1
  6
CONTINUOUS
 10
2.272118
 20
-4.344457
  0
VERTEX
  8
PLAN_1
  6
CONTINUOUS
 10
2.265055
 20
-4.345000
  0
VERTEX
  8
PLAN_1
  6
CONTINUOUS
 10
2.258539
 20
-4.345000
  0
VERTEX
  8
PLAN_1
  6
CONTINUOUS
 10
2.246047
 20
-4.344457
  0
VERTEX
  8
PLAN_1
  6
CONTINUOUS
 10
2.235181
 20
-4.343370
  0
VERTEX
  8
PLAN_1
  6
CONTINUOUS
 10
2.225949
 20
-4.341197
  0
VERTEX
  8
PLAN_1
  6
CONTINUOUS
 10
2.218343
 20
-4.338480
  0
VERTEX
  8
PLAN_1
  6
CONTINUOUS
 10
2.211823
 20
-4.335220
  0
VERTEX
  8
PLAN_1
  6
CONTINUOUS
 10
2.206394
 20
-4.332508
  0
VERTEX
  8
PLAN_1
  6
CONTINUOUS
 10
2.202047
 20
-4.329248
  0
VERTEX
  8
PLAN_1
  6
CONTINUOUS
 10
2.198787
 20
-4.325988
  0
VERTEX
  8
PLAN_1
  6
CONTINUOUS
 10
2.192815
 20
-4.320012
  0
VERTEX
  8
PLAN_1
  6
CONTINUOUS
 10
2.188469
 20
-4.314039
  0
VERTEX
  8
PLAN_1
  6
CONTINUOUS
 10
2.184665
 20
-4.308063
  0
VERTEX
  8
PLAN_1
  6
CONTINUOUS
 10
2.181949
 20
-4.302087
  0
VERTEX
  8
PLAN_1
  6
CONTINUOUS
 10
2.180319
 20
-4.295571
  0
VERTEX
  8
PLAN_1
  6
CONTINUOUS
 10
2.179232
 20
-4.289051
  0
VERTEX
  8
PLAN_1
  6
CONTINUOUS
 10
2.178689
 20
-4.281988
  0
VERTEX
  8
PLAN_1
  6
CONTINUOUS
 10
2.178146
 20
-4.275472
  0
VERTEX
  8
PLAN_1
  6
CONTINUOUS
 10
2.203677
 20
-4.275472
  0
VERTEX
  8
PLAN_1
  6
CONTINUOUS
 10
2.203677
 20
-4.281988
  0
VERTEX
  8
PLAN_1
  6
CONTINUOUS
 10
2.204764
 20
-4.287965
  0
VERTEX
  8
PLAN_1
  6
CONTINUOUS
 10
2.206394
 20
-4.292854
  0
VERTEX
  8
PLAN_1
  6
CONTINUOUS
 10
2.208567
 20
-4.297744
  0
VERTEX
  8
PLAN_1
  6
CONTINUOUS
 10
2.211283
 20
-4.302087
  0
VERTEX
  8
PLAN_1
  6
CONTINUOUS
 10
2.213996
 20
-4.305890
  0
VERTEX
  8
PLAN_1
  6
CONTINUOUS
 10
2.217799
 20
-4.309150
  0
VERTEX
  8
PLAN_1
  6
CONTINUOUS
 10
2.221602
 20
-4.312409
  0
VERTEX
  8
PLAN_1
  6
CONTINUOUS
 10
2.225406
 20
-4.314583
  0
VERTEX
  8
PLAN_1
  6
CONTINUOUS
 10
2.229748
 20
-4.316752
  0
VERTEX
  8
PLAN_1
  6
CONTINUOUS
 10
2.234638
 20
-4.318382
  0
VERTEX
  8
PLAN_1
  6
CONTINUOUS
 10
2.238984
 20
-4.320012
  0
VERTEX
  8
PLAN_1
  6
CONTINUOUS
 10
2.243874
 20
-4.320555
  0
VERTEX
  8
PLAN_1
  6
CONTINUOUS
 10
2.248760
 20
-4.321642
  0
VERTEX
  8
PLAN_1
  6
CONTINUOUS
 10
2.253650
 20
-4.321642
  0
VERTEX
  8
PLAN_1
  6
CONTINUOUS
 10
2.258539
 20
-4.322185
  0
VERTEX
  8
PLAN_1
  6
CONTINUOUS
 10
2.266142
 20
-4.321642
  0
VERTEX
  8
PLAN_1
  6
CONTINUOUS
 10
2.274835
 20
-4.320555
  0
VERTEX
  8
PLAN_1
  6
CONTINUOUS
 10
2.279181
 20
-4.320012
  0
VERTEX
  8
PLAN_1
  6
CONTINUOUS
 10
2.283524
 20
-4.318925
  0
VERTEX
  8
PLAN_1
  6
CONTINUOUS
 10
2.287870
 20
-4.317295
  0
VERTEX
  8
PLAN_1
  6
CONTINUOUS
 10
2.291673
 20
-4.315669
  0
VERTEX
  8
PLAN_1
  6
CONTINUOUS
 10
2.295476
 20
-4.314039
  0
VERTEX
  8
PLAN_1
  6
CONTINUOUS
 10
2.299280
 20
-4.311323
  0
VERTEX
  8
PLAN_1
  6
CONTINUOUS
 10
2.302535
 20
-4.308606
  0
VERTEX
  8
PLAN_1
  6
CONTINUOUS
 10
2.305252
 20
-4.305890
  0
VERTEX
  8
PLAN_1
  6
CONTINUOUS
 10
2.307425
 20
-4.302087
  0
VERTEX
  8
PLAN_1
  6
CONTINUOUS
 10
2.309055
 20
-4.298287
  0
VERTEX
  8
PLAN_1
  6
CONTINUOUS
 10
2.310142
 20
-4.293398
  0
VERTEX
  8
PLAN_1
  6
CONTINUOUS
 10
2.310685
 20
-4.288508
  0
VERTEX
  8
PLAN_1
  6
CONTINUOUS
 10
2.310685
 20
-4.284705
  0
VERTEX
  8
PLAN_1
  6
CONTINUOUS
 10
2.310142
 20
-4.281445
  0
VERTEX
  8
PLAN_1
  6
CONTINUOUS
 10
2.309598
 20
-4.278189
  0
VERTEX
  8
PLAN_1
  6
CONTINUOUS
 10
2.308512
 20
-4.274929
  0
VERTEX
  8
PLAN_1
  6
CONTINUOUS
 10
2.307425
 20
-4.272756
  0
VERTEX
  8
PLAN_1
  6
CONTINUOUS
 10
2.305795
 20
-4.270039
  0
VERTEX
  8
PLAN_1
  6
CONTINUOUS
 10
2.304165
 20
-4.267866
  0
VERTEX
  8
PLAN_1
  6
CONTINUOUS
 10
2.301449
 20
-4.265693
  0
VERTEX
  8
PLAN_1
  6
CONTINUOUS
 10
2.299280
 20
-4.264063
  0
VERTEX
  8
PLAN_1
  6
CONTINUOUS
 10
2.296020
 20
-4.262437
  0
VERTEX
  8
PLAN_1
  6
CONTINUOUS
 10
2.292760
 20
-4.260807
  0
VERTEX
  8
PLAN_1
  6
CONTINUOUS
 10
2.288413
 20
-4.259177
  0
VERTEX
  8
PLAN_1
  6
CONTINUOUS
 10
2.279181
 20
-4.255917
  0
VERTEX
  8
PLAN_1
  6
CONTINUOUS
 10
2.268315
 20
-4.253201
  0
VERTEX
  8
PLAN_1
  6
CONTINUOUS
 10
2.227579
 20
-4.243425
  0
VERTEX
  8
PLAN_1
  6
CONTINUOUS
 10
2.221602
 20
-4.242339
  0
VERTEX
  8
PLAN_1
  6
CONTINUOUS
 10
2.215083
 20
-4.240165
  0
VERTEX
  8
PLAN_1
  6
CONTINUOUS
 10
2.211823
 20
-4.238535
  0
VERTEX
  8
PLAN_1
  6
CONTINUOUS
 10
2.208024
 20
-4.236906
  0
VERTEX
  8
PLAN_1
  6
CONTINUOUS
 10
2.204764
 20
-4.234732
  0
VERTEX
  8
PLAN_1
  6
CONTINUOUS
 10
2.201504
 20
-4.232016
  0
VERTEX
  8
PLAN_1
  6
CONTINUOUS
 10
2.198244
 20
-4.229299
  0
VERTEX
  8
PLAN_1
  6
CONTINUOUS
 10
2.194984
 20
-4.226043
  0
VERTEX
  8
PLAN_1
  6
CONTINUOUS
 10
2.192272
 20
-4.222240
  0
VERTEX
  8
PLAN_1
  6
CONTINUOUS
 10
2.189555
 20
-4.218437
  0
VERTEX
  8
PLAN_1
  6
CONTINUOUS
 10
2.187925
 20
-4.213547
  0
VERTEX
  8
PLAN_1
  6
CONTINUOUS
 10
2.186295
 20
-4.208661
  0
VERTEX
  8
PLAN_1
  6
CONTINUOUS
 10
2.185209
 20
-4.203228
  0
VERTEX
  8
PLAN_1
  6
CONTINUOUS
 10
2.184665
 20
-4.196709
  0
VERTEX
  8
PLAN_1
  6
CONTINUOUS
 10
2.185209
 20
-4.190736
  0
VERTEX
  8
PLAN_1
  6
CONTINUOUS
 10
2.185752
 20
-4.185303
  0
VERTEX
  8
PLAN_1
  6
CONTINUOUS
 10
2.186839
 20
-4.179327
  0
VERTEX
  8
PLAN_1
  6
CONTINUOUS
 10
2.189012
 20
-4.173894
  0
VERTEX
  8
PLAN_1
  6
CONTINUOUS
 10
2.191185
 20
-4.168465
  0
VERTEX
  8
PLAN_1
  6
CONTINUOUS
 10
2.193898
 20
-4.163575
  0
VERTEX
  8
PLAN_1
  6
CONTINUOUS
 10
2.197157
 20
-4.158685
  0
VERTEX
  8
PLAN_1
  6
CONTINUOUS
 10
2.200961
 20
-4.154343
  0
VERTEX
  8
PLAN_1
  6
CONTINUOUS
 10
2.205307
 20
-4.149996
  0
VERTEX
  8
PLAN_1
  6
CONTINUOUS
 10
2.210740
 20
-4.146193
  0
VERTEX
  8
PLAN_1
  6
CONTINUOUS
 10
2.216169
 20
-4.142933
  0
VERTEX
  8
PLAN_1
  6
CONTINUOUS
 10
2.222146
 20
-4.140217
  0
VERTEX
  8
PLAN_1
  6
CONTINUOUS
 10
2.229209
 20
-4.138043
  0
VERTEX
  8
PLAN_1
  6
CONTINUOUS
 10
2.236811
 20
-4.136417
  0
VERTEX
  8
PLAN_1
  6
CONTINUOUS
 10
2.244961
 20
-4.135331
  0
VERTEX
  8
PLAN_1
  6
CONTINUOUS
 10
2.253650
 20
-4.135331
  0
VERTEX
  8
PLAN_1
  6
CONTINUOUS
 10
2.265598
 20
-4.135874
  0
VERTEX
  8
PLAN_1
  6
CONTINUOUS
 10
2.277008
 20
-4.136961
  0
VERTEX
  8
PLAN_1
  6
CONTINUOUS
 10
2.286240
 20
-4.139130
  0
VERTEX
  8
PLAN_1
  6
CONTINUOUS
 10
2.294933
 20
-4.141846
  0
VERTEX
  8
PLAN_1
  6
CONTINUOUS
 10
2.301992
 20
-4.145650
  0
VERTEX
  8
PLAN_1
  6
CONTINUOUS
 10
2.308512
 20
-4.149453
  0
VERTEX
  8
PLAN_1
  6
CONTINUOUS
 10
2.313402
 20
-4.153799
  0
VERTEX
  8
PLAN_1
  6
CONTINUOUS
 10
2.318291
 20
-4.158685
  0
VERTEX
  8
PLAN_1
  6
CONTINUOUS
 10
2.321547
 20
-4.163575
  0
VERTEX
  8
PLAN_1
  6
CONTINUOUS
 10
2.324264
 20
-4.169008
  0
VERTEX
  8
PLAN_1
  6
CONTINUOUS
 10
2.326980
 20
-4.174437
  0
VERTEX
  8
PLAN_1
  6
CONTINUOUS
 10
2.328610
 20
-4.179327
  0
VERTEX
  8
PLAN_1
  6
CONTINUOUS
 10
2.330240
 20
-4.189650
  0
VERTEX
  8
PLAN_1
  6
CONTINUOUS
 10
2.331327
 20
-4.198882
  0
VERTEX
  8
PLAN_1
  6
CONTINUOUS
 10
2.305795
 20
-4.198882
  0
SEQEND
  8
0
  0
POLYLINE
  8
PLAN_1
  6
CONTINUOUS
 66
     1
 40
0.008146
 41
0.008146
  0
VERTEX
  8
PLAN_1
  6
CONTINUOUS
 10
-1.981583
 20
3.058102
  0
VERTEX
  8
PLAN_1
  6
CONTINUOUS
 10
-1.981583
 20
3.951102
  0
VERTEX
  8
PLAN_1
  6
CONTINUOUS
 10
-2.179303
 20
3.951102
  0
VERTEX
  8
PLAN_1
  6
CONTINUOUS
 10
-2.179303
 20
3.058102
  0
VERTEX
  8
PLAN_1
  6
CONTINUOUS
 10
-1.981583
 20
3.058102
  0
SEQEND
  8
0
  0
POLYLINE
  8
PLAN_1
  6
CONTINUOUS
 66
     1
 40
0.008146
 41
0.008146
  0
VERTEX
  8
PLAN_1
  6
CONTINUOUS
 10
-1.981583
 20
3.292760
  0
VERTEX
  8
PLAN_1
  6
CONTINUOUS
 10
-1.981583
 20
3.711016
  0
VERTEX
  8
PLAN_1
  6
CONTINUOUS
 10
-1.903362
 20
3.711016
  0
VERTEX
  8
PLAN_1
  6
CONTINUOUS
 10
-1.903362
 20
3.292760
  0
VERTEX
  8
PLAN_1
  6
CONTINUOUS
 10
-1.981583
 20
3.292760
  0
SEQEND
  8
0
  0
POLYLINE
  8
PLAN_1
  6
CONTINUOUS
 66
     1
 40
0.008146
 41
0.008146
  0
VERTEX
  8
PLAN_1
  6
CONTINUOUS
 10
-2.179846
 20
3.253106
  0
VERTEX
  8
PLAN_1
  6
CONTINUOUS
 10
-2.179846
 20
3.748492
  0
VERTEX
  8
PLAN_1
  6
CONTINUOUS
 10
-2.297173
 20
3.748492
  0
VERTEX
  8
PLAN_1
  6
CONTINUOUS
 10
-2.297173
 20
3.253106
  0
VERTEX
  8
PLAN_1
  6
CONTINUOUS
 10
-2.179846
 20
3.253106
  0
SEQEND
  8
0
  0
POLYLINE
  8
PLAN_1
  6
CONTINUOUS
 66
     1
 40
0.007059
 41
0.007059
  0
VERTEX
  8
PLAN_1
  6
CONTINUOUS
 10
-2.296630
 20
3.621929
  0
VERTEX
  8
PLAN_1
  6
CONTINUOUS
 10
-2.183106
 20
3.621929
  0
SEQEND
  8
0
  0
POLYLINE
  8
PLAN_1
  6
CONTINUOUS
 66
     1
 40
0.007059
 41
0.007059
  0
VERTEX
  8
PLAN_1
  6
CONTINUOUS
 10
-2.296630
 20
3.379126
  0
VERTEX
  8
PLAN_1
  6
CONTINUOUS
 10
-2.183106
 20
3.379126
  0
SEQEND
  8
0
  0
POLYLINE
  8
PLAN_1
  6
CONTINUOUS
 66
     1
 40
0.007059
 41
0.007059
  0
VERTEX
  8
PLAN_1
  6
CONTINUOUS
 10
-2.283051
 20
3.748492
  0
VERTEX
  8
PLAN_1
  6
CONTINUOUS
 10
-2.284138
 20
3.745236
  0
VERTEX
  8
PLAN_1
  6
CONTINUOUS
 10
-2.287941
 20
3.737087
  0
VERTEX
  8
PLAN_1
  6
CONTINUOUS
 10
-2.289571
 20
3.731654
  0
VERTEX
  8
PLAN_1
  6
CONTINUOUS
 10
-2.291744
 20
3.724594
  0
VERTEX
  8
PLAN_1
  6
CONTINUOUS
 10
-2.293374
 20
3.716988
  0
VERTEX
  8
PLAN_1
  6
CONTINUOUS
 10
-2.295000
 20
3.708299
  0
VERTEX
  8
PLAN_1
  6
CONTINUOUS
 10
-2.296630
 20
3.699063
  0
VERTEX
  8
PLAN_1
  6
CONTINUOUS
 10
-2.297173
 20
3.689287
  0
VERTEX
  8
PLAN_1
  6
CONTINUOUS
 10
-2.297173
 20
3.678421
  0
VERTEX
  8
PLAN_1
  6
CONTINUOUS
 10
-2.296087
 20
3.667559
  0
VERTEX
  8
PLAN_1
  6
CONTINUOUS
 10
-2.295000
 20
3.662126
  0
VERTEX
  8
PLAN_1
  6
CONTINUOUS
 10
-2.293917
 20
3.656697
  0
VERTEX
  8
PLAN_1
  6
CONTINUOUS
 10
-2.292831
 20
3.650720
  0
VERTEX
  8
PLAN_1
  6
CONTINUOUS
 10
-2.290657
 20
3.644744
  0
VERTEX
  8
PLAN_1
  6
CONTINUOUS
 10
-2.289028
 20
3.639315
  0
VERTEX
  8
PLAN_1
  6
CONTINUOUS
 10
-2.286311
 20
3.633339
  0
VERTEX
  8
PLAN_1
  6
CONTINUOUS
 10
-2.283594
 20
3.627362
  0
VERTEX
  8
PLAN_1
  6
CONTINUOUS
 10
-2.280335
 20
3.621390
  0
VERTEX
  8
PLAN_1
  6
CONTINUOUS
 10
-2.281965
 20
3.617043
  0
VERTEX
  8
PLAN_1
  6
CONTINUOUS
 10
-2.285224
 20
3.604004
  0
VERTEX
  8
PLAN_1
  6
CONTINUOUS
 10
-2.287398
 20
3.594772
  0
VERTEX
  8
PLAN_1
  6
CONTINUOUS
 10
-2.290114
 20
3.583366
  0
VERTEX
  8
PLAN_1
  6
CONTINUOUS
 10
-2.292287
 20
3.569783
  0
VERTEX
  8
PLAN_1
  6
CONTINUOUS
 10
-2.293917
 20
3.554575
  0
VERTEX
  8
PLAN_1
  6
CONTINUOUS
 10
-2.295543
 20
3.537736
  0
VERTEX
  8
PLAN_1
  6
CONTINUOUS
 10
-2.296630
 20
3.519268
  0
VERTEX
  8
PLAN_1
  6
CONTINUOUS
 10
-2.297173
 20
3.499713
  0
VERTEX
  8
PLAN_1
  6
CONTINUOUS
 10
-2.296630
 20
3.477988
  0
VERTEX
  8
PLAN_1
  6
CONTINUOUS
 10
-2.295000
 20
3.455173
  0
VERTEX
  8
PLAN_1
  6
CONTINUOUS
 10
-2.292831
 20
3.431272
  0
VERTEX
  8
PLAN_1
  6
CONTINUOUS
 10
-2.290657
 20
3.418780
  0
VERTEX
  8
PLAN_1
  6
CONTINUOUS
 10
-2.289028
 20
3.405744
  0
VERTEX
  8
PLAN_1
  6
CONTINUOUS
 10
-2.286311
 20
3.392705
  0
VERTEX
  8
PLAN_1
  6
CONTINUOUS
 10
-2.283594
 20
3.379126
  0
VERTEX
  8
PLAN_1
  6
CONTINUOUS
 10
-2.284681
 20
3.376409
  0
VERTEX
  8
PLAN_1
  6
CONTINUOUS
 10
-2.287941
 20
3.368264
  0
VERTEX
  8
PLAN_1
  6
CONTINUOUS
 10
-2.290114
 20
3.362831
  0
VERTEX
  8
PLAN_1
  6
CONTINUOUS
 10
-2.292287
 20
3.355768
  0
VERTEX
  8
PLAN_1
  6
CONTINUOUS
 10
-2.293917
 20
3.348709
  0
VERTEX
  8
PLAN_1
  6
CONTINUOUS
 10
-2.295543
 20
3.340016
  0
VERTEX
  8
PLAN_1
  6
CONTINUOUS
 10
-2.296630
 20
3.330783
  0
VERTEX
  8
PLAN_1
  6
CONTINUOUS
 10
-2.297717
 20
3.321004
  0
VERTEX
  8
PLAN_1
  6
CONTINUOUS
 10
-2.297173
 20
3.310685
  0
VERTEX
  8
PLAN_1
  6
CONTINUOUS
 10
-2.296630
 20
3.299823
  0
VERTEX
  8
PLAN_1
  6
CONTINUOUS
 10
-2.295543
 20
3.294390
  0
VERTEX
  8
PLAN_1
  6
CONTINUOUS
 10
-2.294457
 20
3.288957
  0
VERTEX
  8
PLAN_1
  6
CONTINUOUS
 10
-2.292831
 20
3.283524
  0
VERTEX
  8
PLAN_1
  6
CONTINUOUS
 10
-2.291201
 20
3.277551
  0
VERTEX
  8
PLAN_1
  6
CONTINUOUS
 10
-2.289028
 20
3.271575
  0
VERTEX
  8
PLAN_1
  6
CONTINUOUS
 10
-2.286854
 20
3.266142
  0
VERTEX
  8
PLAN_1
  6
CONTINUOUS
 10
-2.284138
 20
3.260169
  0
VERTEX
  8
PLAN_1
  6
CONTINUOUS
 10
-2.280878
 20
3.254193
  0
SEQEND
  8
0
  0
POLYLINE
  8
PLAN_1
 62
     5
  6
CONTINUOUS
 66
     1
 40
0.003000
 41
0.003000
  0
VERTEX
  8
PLAN_1
 62
     5
  6
CONTINUOUS
 10
-1.314004
 20
3.242244
  0
VERTEX
  8
PLAN_1
 62
     5
  6
CONTINUOUS
 10
-1.305858
 20
3.242244
  0
SEQEND
  8
0
  0
POLYLINE
  8
PLAN_1
 62
     5
  6
CONTINUOUS
 66
     1
 40
0.003000
 41
0.003000
  0
VERTEX
  8
PLAN_1
 62
     5
  6
CONTINUOUS
 10
-1.297709
 20
3.242244
  0
VERTEX
  8
PLAN_1
 62
     5
  6
CONTINUOUS
 10
-1.289020
 20
3.242244
  0
SEQEND
  8
0
  0
POLYLINE
  8
PLAN_1
 62
     5
  6
CONTINUOUS
 66
     1
 40
0.003000
 41
0.003000
  0
VERTEX
  8
PLAN_1
 62
     5
  6
CONTINUOUS
 10
-1.280870
 20
3.242244
  0
VERTEX
  8
PLAN_1
 62
     5
  6
CONTINUOUS
 10
-1.272724
 20
3.242244
  0
SEQEND
  8
0
  0
POLYLINE
  8
PLAN_1
 62
     5
  6
CONTINUOUS
 66
     1
 40
0.003000
 41
0.003000
  0
VERTEX
  8
PLAN_1
 62
     5
  6
CONTINUOUS
 10
-1.264031
 20
3.242244
  0
VERTEX
  8
PLAN_1
 62
     5
  6
CONTINUOUS
 10
-1.255886
 20
3.242244
  0
SEQEND
  8
0
  0
POLYLINE
  8
PLAN_1
 62
     5
  6
CONTINUOUS
 66
     1
 40
0.003000
 41
0.003000
  0
VERTEX
  8
PLAN_1
 62
     5
  6
CONTINUOUS
 10
-1.247736
 20
3.242244
  0
VERTEX
  8
PLAN_1
 62
     5
  6
CONTINUOUS
 10
-1.239047
 20
3.242244
  0
SEQEND
  8
0
  0
POLYLINE
  8
PLAN_1
 62
     5
  6
CONTINUOUS
 66
     1
 40
0.003000
 41
0.003000
  0
VERTEX
  8
PLAN_1
 62
     5
  6
CONTINUOUS
 10
-1.230898
 20
3.242244
  0
VERTEX
  8
PLAN_1
 62
     5
  6
CONTINUOUS
 10
-1.222748
 20
3.242244
  0
SEQEND
  8
0
  0
POLYLINE
  8
PLAN_1
 62
     5
  6
CONTINUOUS
 66
     1
 40
0.003000
 41
0.003000
  0
VERTEX
  8
PLAN_1
 62
     5
  6
CONTINUOUS
 10
-1.214059
 20
3.242244
  0
VERTEX
  8
PLAN_1
 62
     5
  6
CONTINUOUS
 10
-1.205909
 20
3.242244
  0
SEQEND
  8
0
  0
POLYLINE
  8
PLAN_1
 62
     5
  6
CONTINUOUS
 66
     1
 40
0.003000
 41
0.003000
  0
VERTEX
  8
PLAN_1
 62
     5
  6
CONTINUOUS
 10
-1.197764
 20
3.242244
  0
VERTEX
  8
PLAN_1
 62
     5
  6
CONTINUOUS
 10
-1.196677
 20
3.242244
  0
VERTEX
  8
PLAN_1
 62
     5
  6
CONTINUOUS
 10
-1.196677
 20
3.249846
  0
SEQEND
  8
0
  0
POLYLINE
  8
PLAN_1
 62
     5
  6
CONTINUOUS
 66
     1
 40
0.003000
 41
0.003000
  0
VERTEX
  8
PLAN_1
 62
     5
  6
CONTINUOUS
 10
-1.196677
 20
3.258539
  0
VERTEX
  8
PLAN_1
 62
     5
  6
CONTINUOUS
 10
-1.196677
 20
3.266685
  0
SEQEND
  8
0
  0
POLYLINE
  8
PLAN_1
 62
     5
  6
CONTINUOUS
 66
     1
 40
0.003000
 41
0.003000
  0
VERTEX
  8
PLAN_1
 62
     5
  6
CONTINUOUS
 10
-1.196677
 20
3.274835
  0
VERTEX
  8
PLAN_1
 62
     5
  6
CONTINUOUS
 10
-1.196677
 20
3.283524
  0
SEQEND
  8
0
  0
POLYLINE
  8
PLAN_1
 62
     5
  6
CONTINUOUS
 66
     1
 40
0.003000
 41
0.003000
  0
VERTEX
  8
PLAN_1
 62
     5
  6
CONTINUOUS
 10
-1.196677
 20
3.291673
  0
VERTEX
  8
PLAN_1
 62
     5
  6
CONTINUOUS
 10
-1.196677
 20
3.299823
  0
SEQEND
  8
0
  0
POLYLINE
  8
PLAN_1
 62
     5
  6
CONTINUOUS
 66
     1
 40
0.003000
 41
0.003000
  0
VERTEX
  8
PLAN_1
 62
     5
  6
CONTINUOUS
 10
-1.196677
 20
3.308512
  0
VERTEX
  8
PLAN_1
 62
     5
  6
CONTINUOUS
 10
-1.196677
 20
3.316661
  0
SEQEND
  8
0
  0
POLYLINE
  8
PLAN_1
 62
     5
  6
CONTINUOUS
 66
     1
 40
0.003000
 41
0.003000
  0
VERTEX
  8
PLAN_1
 62
     5
  6
CONTINUOUS
 10
-1.196677
 20
3.324807
  0
VERTEX
  8
PLAN_1
 62
     5
  6
CONTINUOUS
 10
-1.196677
 20
3.333500
  0
SEQEND
  8
0
  0
POLYLINE
  8
PLAN_1
 62
     5
  6
CONTINUOUS
 66
     1
 40
0.003000
 41
0.003000
  0
VERTEX
  8
PLAN_1
 62
     5
  6
CONTINUOUS
 10
-1.196677
 20
3.341646
  0
VERTEX
  8
PLAN_1
 62
     5
  6
CONTINUOUS
 10
-1.196677
 20
3.349795
  0
SEQEND
  8
0
  0
POLYLINE
  8
PLAN_1
 62
     5
  6
CONTINUOUS
 66
     1
 40
0.003000
 41
0.003000
  0
VERTEX
  8
PLAN_1
 62
     5
  6
CONTINUOUS
 10
-1.196677
 20
3.358484
  0
VERTEX
  8
PLAN_1
 62
     5
  6
CONTINUOUS
 10
-1.196677
 20
3.366634
  0
SEQEND
  8
0
  0
POLYLINE
  8
PLAN_1
 62
     5
  6
CONTINUOUS
 66
     1
 40
0.003000
 41
0.003000
  0
VERTEX
  8
PLAN_1
 62
     5
  6
CONTINUOUS
 10
-1.196677
 20
3.374780
  0
VERTEX
  8
PLAN_1
 62
     5
  6
CONTINUOUS
 10
-1.196677
 20
3.383472
  0
SEQEND
  8
0
  0
POLYLINE
  8
PLAN_1
 62
     5
  6
CONTINUOUS
 66
     1
 40
0.003000
 41
0.003000
  0
VERTEX
  8
PLAN_1
 62
     5
  6
CONTINUOUS
 10
-1.196677
 20
3.391618
  0
VERTEX
  8
PLAN_1
 62
     5
  6
CONTINUOUS
 10
-1.196677
 20
3.399768
  0
SEQEND
  8
0
  0
POLYLINE
  8
PLAN_1
 62
     5
  6
CONTINUOUS
 66
     1
 40
0.003000
 41
0.003000
  0
VERTEX
  8
PLAN_1
 62
     5
  6
CONTINUOUS
 10
-1.196677
 20
3.408457
  0
VERTEX
  8
PLAN_1
 62
     5
  6
CONTINUOUS
 10
-1.196677
 20
3.416606
  0
SEQEND
  8
0
  0
POLYLINE
  8
PLAN_1
 62
     5
  6
CONTINUOUS
 66
     1
 40
0.003000
 41
0.003000
  0
VERTEX
  8
PLAN_1
 62
     5
  6
CONTINUOUS
 10
-1.196677
 20
3.424756
  0
VERTEX
  8
PLAN_1
 62
     5
  6
CONTINUOUS
 10
-1.196677
 20
3.433445
  0
SEQEND
  8
0
  0
POLYLINE
  8
PLAN_1
 62
     5
  6
CONTINUOUS
 66
     1
 40
0.003000
 41
0.003000
  0
VERTEX
  8
PLAN_1
 62
     5
  6
CONTINUOUS
 10
-1.196677
 20
3.441594
  0
VERTEX
  8
PLAN_1
 62
     5
  6
CONTINUOUS
 10
-1.196677
 20
3.449740
  0
SEQEND
  8
0
  0
POLYLINE
  8
PLAN_1
 62
     5
  6
CONTINUOUS
 66
     1
 40
0.003000
 41
0.003000
  0
VERTEX
  8
PLAN_1
 62
     5
  6
CONTINUOUS
 10
-1.196677
 20
3.458433
  0
VERTEX
  8
PLAN_1
 62
     5
  6
CONTINUOUS
 10
-1.196677
 20
3.466579
  0
SEQEND
  8
0
  0
POLYLINE
  8
PLAN_1
 62
     5
  6
CONTINUOUS
 66
     1
 40
0.003000
 41
0.003000
  0
VERTEX
  8
PLAN_1
 62
     5
  6
CONTINUOUS
 10
-1.196677
 20
3.474728
  0
VERTEX
  8
PLAN_1
 62
     5
  6
CONTINUOUS
 10
-1.196677
 20
3.483417
  0
SEQEND
  8
0
  0
POLYLINE
  8
PLAN_1
 62
     5
  6
CONTINUOUS
 66
     1
 40
0.003000
 41
0.003000
  0
VERTEX
  8
PLAN_1
 62
     5
  6
CONTINUOUS
 10
-1.196677
 20
3.491567
  0
VERTEX
  8
PLAN_1
 62
     5
  6
CONTINUOUS
 10
-1.196677
 20
3.499713
  0
SEQEND
  8
0
  0
POLYLINE
  8
PLAN_1
 62
     5
  6
CONTINUOUS
 66
     1
 40
0.003000
 41
0.003000
  0
VERTEX
  8
PLAN_1
 62
     5
  6
CONTINUOUS
 10
-1.196677
 20
3.508406
  0
VERTEX
  8
PLAN_1
 62
     5
  6
CONTINUOUS
 10
-1.196677
 20
3.516551
  0
SEQEND
  8
0
  0
POLYLINE
  8
PLAN_1
 62
     5
  6
CONTINUOUS
 66
     1
 40
0.003000
 41
0.003000
  0
VERTEX
  8
PLAN_1
 62
     5
  6
CONTINUOUS
 10
-1.196677
 20
3.524701
  0
VERTEX
  8
PLAN_1
 62
     5
  6
CONTINUOUS
 10
-1.196677
 20
3.533390
  0
SEQEND
  8
0
  0
POLYLINE
  8
PLAN_1
 62
     5
  6
CONTINUOUS
 66
     1
 40
0.003000
 41
0.003000
  0
VERTEX
  8
PLAN_1
 62
     5
  6
CONTINUOUS
 10
-1.196677
 20
3.541539
  0
VERTEX
  8
PLAN_1
 62
     5
  6
CONTINUOUS
 10
-1.196677
 20
3.549689
  0
SEQEND
  8
0
  0
POLYLINE
  8
PLAN_1
 62
     5
  6
CONTINUOUS
 66
     1
 40
0.003000
 41
0.003000
  0
VERTEX
  8
PLAN_1
 62
     5
  6
CONTINUOUS
 10
-1.196677
 20
3.558378
  0
VERTEX
  8
PLAN_1
 62
     5
  6
CONTINUOUS
 10
-1.196677
 20
3.566528
  0
SEQEND
  8
0
  0
POLYLINE
  8
PLAN_1
 62
     5
  6
CONTINUOUS
 66
     1
 40
0.003000
 41
0.003000
  0
VERTEX
  8
PLAN_1
 62
     5
  6
CONTINUOUS
 10
-1.196677
 20
3.574673
  0
VERTEX
  8
PLAN_1
 62
     5
  6
CONTINUOUS
 10
-1.196677
 20
3.583366
  0
SEQEND
  8
0
  0
POLYLINE
  8
PLAN_1
 62
     5
  6
CONTINUOUS
 66
     1
 40
0.003000
 41
0.003000
  0
VERTEX
  8
PLAN_1
 62
     5
  6
CONTINUOUS
 10
-1.196677
 20
3.591512
  0
VERTEX
  8
PLAN_1
 62
     5
  6
CONTINUOUS
 10
-1.196677
 20
3.599661
  0
SEQEND
  8
0
  0
POLYLINE
  8
PLAN_1
 62
     5
  6
CONTINUOUS
 66
     1
 40
0.003000
 41
0.003000
  0
VERTEX
  8
PLAN_1
 62
     5
  6
CONTINUOUS
 10
-1.196677
 20
3.608350
  0
VERTEX
  8
PLAN_1
 62
     5
  6
CONTINUOUS
 10
-1.196677
 20
3.616500
  0
SEQEND
  8
0
  0
POLYLINE
  8
PLAN_1
 62
     5
  6
CONTINUOUS
 66
     1
 40
0.003000
 41
0.003000
  0
VERTEX
  8
PLAN_1
 62
     5
  6
CONTINUOUS
 10
-1.196677
 20
3.624646
  0
VERTEX
  8
PLAN_1
 62
     5
  6
CONTINUOUS
 10
-1.196677
 20
3.633339
  0
SEQEND
  8
0
  0
POLYLINE
  8
PLAN_1
 62
     5
  6
CONTINUOUS
 66
     1
 40
0.003000
 41
0.003000
  0
VERTEX
  8
PLAN_1
 62
     5
  6
CONTINUOUS
 10
-1.196677
 20
3.641484
  0
VERTEX
  8
PLAN_1
 62
     5
  6
CONTINUOUS
 10
-1.196677
 20
3.649634
  0
SEQEND
  8
0
  0
POLYLINE
  8
PLAN_1
 62
     5
  6
CONTINUOUS
 66
     1
 40
0.003000
 41
0.003000
  0
VERTEX
  8
PLAN_1
 62
     5
  6
CONTINUOUS
 10
-1.196677
 20
3.658323
  0
VERTEX
  8
PLAN_1
 62
     5
  6
CONTINUOUS
 10
-1.196677
 20
3.666472
  0
SEQEND
  8
0
  0
POLYLINE
  8
PLAN_1
 62
     5
  6
CONTINUOUS
 66
     1
 40
0.003000
 41
0.003000
  0
VERTEX
  8
PLAN_1
 62
     5
  6
CONTINUOUS
 10
-1.196677
 20
3.674622
  0
VERTEX
  8
PLAN_1
 62
     5
  6
CONTINUOUS
 10
-1.196677
 20
3.683311
  0
SEQEND
  8
0
  0
POLYLINE
  8
PLAN_1
 62
     5
  6
CONTINUOUS
 66
     1
 40
0.003000
 41
0.003000
  0
VERTEX
  8
PLAN_1
 62
     5
  6
CONTINUOUS
 10
-1.196677
 20
3.691461
  0
VERTEX
  8
PLAN_1
 62
     5
  6
CONTINUOUS
 10
-1.196677
 20
3.699606
  0
SEQEND
  8
0
  0
POLYLINE
  8
PLAN_1
 62
     5
  6
CONTINUOUS
 66
     1
 40
0.003000
 41
0.003000
  0
VERTEX
  8
PLAN_1
 62
     5
  6
CONTINUOUS
 10
-1.196677
 20
3.708299
  0
VERTEX
  8
PLAN_1
 62
     5
  6
CONTINUOUS
 10
-1.196677
 20
3.716445
  0
SEQEND
  8
0
  0
POLYLINE
  8
PLAN_1
 62
     5
  6
CONTINUOUS
 66
     1
 40
0.003000
 41
0.003000
  0
VERTEX
  8
PLAN_1
 62
     5
  6
CONTINUOUS
 10
-1.196677
 20
3.724594
  0
VERTEX
  8
PLAN_1
 62
     5
  6
CONTINUOUS
 10
-1.196677
 20
3.733283
  0
SEQEND
  8
0
  0
POLYLINE
  8
PLAN_1
 62
     5
  6
CONTINUOUS
 66
     1
 40
0.003000
 41
0.003000
  0
VERTEX
  8
PLAN_1
 62
     5
  6
CONTINUOUS
 10
-1.200480
 20
3.738173
  0
VERTEX
  8
PLAN_1
 62
     5
  6
CONTINUOUS
 10
-1.208626
 20
3.738173
  0
SEQEND
  8
0
  0
POLYLINE
  8
PLAN_1
 62
     5
  6
CONTINUOUS
 66
     1
 40
0.003000
 41
0.003000
  0
VERTEX
  8
PLAN_1
 62
     5
  6
CONTINUOUS
 10
-1.216776
 20
3.738173
  0
VERTEX
  8
PLAN_1
 62
     5
  6
CONTINUOUS
 10
-1.225465
 20
3.738173
  0
SEQEND
  8
0
  0
POLYLINE
  8
PLAN_1
 62
     5
  6
CONTINUOUS
 66
     1
 40
0.003000
 41
0.003000
  0
VERTEX
  8
PLAN_1
 62
     5
  6
CONTINUOUS
 10
-1.233614
 20
3.738173
  0
VERTEX
  8
PLAN_1
 62
     5
  6
CONTINUOUS
 10
-1.241760
 20
3.738173
  0
SEQEND
  8
0
  0
POLYLINE
  8
PLAN_1
 62
     5
  6
CONTINUOUS
 66
     1
 40
0.003000
 41
0.003000
  0
VERTEX
  8
PLAN_1
 62
     5
  6
CONTINUOUS
 10
-1.250453
 20
3.738173
  0
VERTEX
  8
PLAN_1
 62
     5
  6
CONTINUOUS
 10
-1.258598
 20
3.738173
  0
SEQEND
  8
0
  0
POLYLINE
  8
PLAN_1
 62
     5
  6
CONTINUOUS
 66
     1
 40
0.003000
 41
0.003000
  0
VERTEX
  8
PLAN_1
 62
     5
  6
CONTINUOUS
 10
-1.266748
 20
3.738173
  0
VERTEX
  8
PLAN_1
 62
     5
  6
CONTINUOUS
 10
-1.275437
 20
3.738173
  0
SEQEND
  8
0
  0
POLYLINE
  8
PLAN_1
 62
     5
  6
CONTINUOUS
 66
     1
 40
0.003000
 41
0.003000
  0
VERTEX
  8
PLAN_1
 62
     5
  6
CONTINUOUS
 10
-1.283587
 20
3.738173
  0
VERTEX
  8
PLAN_1
 62
     5
  6
CONTINUOUS
 10
-1.291736
 20
3.738173
  0
SEQEND
  8
0
  0
POLYLINE
  8
PLAN_1
 62
     5
  6
CONTINUOUS
 66
     1
 40
0.003000
 41
0.003000
  0
VERTEX
  8
PLAN_1
 62
     5
  6
CONTINUOUS
 10
-1.300425
 20
3.738173
  0
VERTEX
  8
PLAN_1
 62
     5
  6
CONTINUOUS
 10
-1.308575
 20
3.738173
  0
SEQEND
  8
0
  0
POLYLINE
  8
PLAN_1
 62
     5
  6
CONTINUOUS
 66
     1
 40
0.003000
 41
0.003000
  0
VERTEX
  8
PLAN_1
 62
     5
  6
CONTINUOUS
 10
-1.314004
 20
3.735457
  0
VERTEX
  8
PLAN_1
 62
     5
  6
CONTINUOUS
 10
-1.314004
 20
3.726768
  0
SEQEND
  8
0
  0
POLYLINE
  8
PLAN_1
 62
     5
  6
CONTINUOUS
 66
     1
 40
0.003000
 41
0.003000
  0
VERTEX
  8
PLAN_1
 62
     5
  6
CONTINUOUS
 10
-1.314547
 20
3.718618
  0
VERTEX
  8
PLAN_1
 62
     5
  6
CONTINUOUS
 10
-1.314547
 20
3.710472
  0
SEQEND
  8
0
  0
POLYLINE
  8
PLAN_1
 62
     5
  6
CONTINUOUS
 66
     1
 40
0.003000
 41
0.003000
  0
VERTEX
  8
PLAN_1
 62
     5
  6
CONTINUOUS
 10
-1.314547
 20
3.701780
  0
VERTEX
  8
PLAN_1
 62
     5
  6
CONTINUOUS
 10
-1.314547
 20
3.700150
  0
VERTEX
  8
PLAN_1
 62
     5
  6
CONTINUOUS
 10
-1.321067
 20
3.699606
  0
SEQEND
  8
0
  0
POLYLINE
  8
PLAN_1
 62
     5
  6
CONTINUOUS
 66
     1
 40
0.003000
 41
0.003000
  0
VERTEX
  8
PLAN_1
 62
     5
  6
CONTINUOUS
 10
-1.329213
 20
3.699606
  0
VERTEX
  8
PLAN_1
 62
     5
  6
CONTINUOUS
 10
-1.337362
 20
3.699606
  0
SEQEND
  8
0
  0
POLYLINE
  8
PLAN_1
 62
     5
  6
CONTINUOUS
 66
     1
 40
0.003000
 41
0.003000
  0
VERTEX
  8
PLAN_1
 62
     5
  6
CONTINUOUS
 10
-1.346055
 20
3.699063
  0
VERTEX
  8
PLAN_1
 62
     5
  6
CONTINUOUS
 10
-1.348768
 20
3.699063
  0
VERTEX
  8
PLAN_1
 62
     5
  6
CONTINUOUS
 10
-1.348768
 20
3.704496
  0
SEQEND
  8
0
  0
POLYLINE
  8
PLAN_1
 62
     5
  6
CONTINUOUS
 66
     1
 40
0.003000
 41
0.003000
  0
VERTEX
  8
PLAN_1
 62
     5
  6
CONTINUOUS
 10
-1.348768
 20
3.712642
  0
VERTEX
  8
PLAN_1
 62
     5
  6
CONTINUOUS
 10
-1.348768
 20
3.721335
  0
SEQEND
  8
0
  0
POLYLINE
  8
PLAN_1
 62
     5
  6
CONTINUOUS
 66
     1
 40
0.003000
 41
0.003000
  0
VERTEX
  8
PLAN_1
 62
     5
  6
CONTINUOUS
 10
-1.348768
 20
3.729480
  0
VERTEX
  8
PLAN_1
 62
     5
  6
CONTINUOUS
 10
-1.348768
 20
3.737630
  0
SEQEND
  8
0
  0
POLYLINE
  8
PLAN_1
 62
     5
  6
CONTINUOUS
 66
     1
 40
0.003000
 41
0.003000
  0
VERTEX
  8
PLAN_1
 62
     5
  6
CONTINUOUS
 10
-1.348768
 20
3.746323
  0
VERTEX
  8
PLAN_1
 62
     5
  6
CONTINUOUS
 10
-1.348768
 20
3.754469
  0
SEQEND
  8
0
  0
POLYLINE
  8
PLAN_1
 62
     5
  6
CONTINUOUS
 66
     1
 40
0.003000
 41
0.003000
  0
VERTEX
  8
PLAN_1
 62
     5
  6
CONTINUOUS
 10
-1.348768
 20
3.762618
  0
VERTEX
  8
PLAN_1
 62
     5
  6
CONTINUOUS
 10
-1.348768
 20
3.771307
  0
SEQEND
  8
0
  0
POLYLINE
  8
PLAN_1
 62
     5
  6
CONTINUOUS
 66
     1
 40
0.003000
 41
0.003000
  0
VERTEX
  8
PLAN_1
 62
     5
  6
CONTINUOUS
 10
-1.348768
 20
3.779457
  0
VERTEX
  8
PLAN_1
 62
     5
  6
CONTINUOUS
 10
-1.348768
 20
3.787602
  0
SEQEND
  8
0
  0
POLYLINE
  8
PLAN_1
 62
     5
  6
CONTINUOUS
 66
     1
 40
0.003000
 41
0.003000
  0
VERTEX
  8
PLAN_1
 62
     5
  6
CONTINUOUS
 10
-1.348768
 20
3.796295
  0
VERTEX
  8
PLAN_1
 62
     5
  6
CONTINUOUS
 10
-1.348768
 20
3.804441
  0
SEQEND
  8
0
  0
POLYLINE
  8
PLAN_1
 62
     5
  6
CONTINUOUS
 66
     1
 40
0.003000
 41
0.003000
  0
VERTEX
  8
PLAN_1
 62
     5
  6
CONTINUOUS
 10
-1.348768
 20
3.812591
  0
VERTEX
  8
PLAN_1
 62
     5
  6
CONTINUOUS
 10
-1.348768
 20
3.821280
  0
SEQEND
  8
0
  0
POLYLINE
  8
PLAN_1
 62
     5
  6
CONTINUOUS
 66
     1
 40
0.003000
 41
0.003000
  0
VERTEX
  8
PLAN_1
 62
     5
  6
CONTINUOUS
 10
-1.348768
 20
3.829429
  0
VERTEX
  8
PLAN_1
 62
     5
  6
CONTINUOUS
 10
-1.348768
 20
3.838118
  0
SEQEND
  8
0
  0
POLYLINE
  8
PLAN_1
 62
     5
  6
CONTINUOUS
 66
     1
 40
0.003000
 41
0.003000
  0
VERTEX
  8
PLAN_1
 62
     5
  6
CONTINUOUS
 10
-1.348768
 20
3.846268
  0
VERTEX
  8
PLAN_1
 62
     5
  6
CONTINUOUS
 10
-1.348768
 20
3.854413
  0
SEQEND
  8
0
  0
POLYLINE
  8
PLAN_1
 62
     5
  6
CONTINUOUS
 66
     1
 40
0.003000
 41
0.003000
  0
VERTEX
  8
PLAN_1
 62
     5
  6
CONTINUOUS
 10
-1.348768
 20
3.863106
  0
VERTEX
  8
PLAN_1
 62
     5
  6
CONTINUOUS
 10
-1.348768
 20
3.871256
  0
SEQEND
  8
0
  0
POLYLINE
  8
PLAN_1
 62
     5
  6
CONTINUOUS
 66
     1
 40
0.003000
 41
0.003000
  0
VERTEX
  8
PLAN_1
 62
     5
  6
CONTINUOUS
 10
-1.348768
 20
3.879402
  0
VERTEX
  8
PLAN_1
 62
     5
  6
CONTINUOUS
 10
-1.348768
 20
3.888094
  0
SEQEND
  8
0
  0
POLYLINE
  8
PLAN_1
 62
     5
  6
CONTINUOUS
 66
     1
 40
0.003000
 41
0.003000
  0
VERTEX
  8
PLAN_1
 62
     5
  6
CONTINUOUS
 10
-1.348768
 20
3.896240
  0
VERTEX
  8
PLAN_1
 62
     5
  6
CONTINUOUS
 10
-1.348768
 20
3.904390
  0
SEQEND
  8
0
  0
POLYLINE
  8
PLAN_1
 62
     5
  6
CONTINUOUS
 66
     1
 40
0.003000
 41
0.003000
  0
VERTEX
  8
PLAN_1
 62
     5
  6
CONTINUOUS
 10
-1.348768
 20
3.913079
  0
VERTEX
  8
PLAN_1
 62
     5
  6
CONTINUOUS
 10
-1.348768
 20
3.921228
  0
SEQEND
  8
0
  0
POLYLINE
  8
PLAN_1
 62
     5
  6
CONTINUOUS
 66
     1
 40
0.003000
 41
0.003000
  0
VERTEX
  8
PLAN_1
 62
     5
  6
CONTINUOUS
 10
-1.348768
 20
3.929374
  0
VERTEX
  8
PLAN_1
 62
     5
  6
CONTINUOUS
 10
-1.348768
 20
3.938067
  0
SEQEND
  8
0
  0
POLYLINE
  8
PLAN_1
 62
     5
  6
CONTINUOUS
 66
     1
 40
0.003000
 41
0.003000
  0
VERTEX
  8
PLAN_1
 62
     5
  6
CONTINUOUS
 10
-1.356917
 20
3.938067
  0
VERTEX
  8
PLAN_1
 62
     5
  6
CONTINUOUS
 10
-1.365063
 20
3.938067
  0
SEQEND
  8
0
  0
POLYLINE
  8
PLAN_1
 62
     5
  6
CONTINUOUS
 66
     1
 40
0.003000
 41
0.003000
  0
VERTEX
  8
PLAN_1
 62
     5
  6
CONTINUOUS
 10
-1.373213
 20
3.938067
  0
VERTEX
  8
PLAN_1
 62
     5
  6
CONTINUOUS
 10
-1.381906
 20
3.938067
  0
SEQEND
  8
0
  0
POLYLINE
  8
PLAN_1
 62
     5
  6
CONTINUOUS
 66
     1
 40
0.003000
 41
0.003000
  0
VERTEX
  8
PLAN_1
 62
     5
  6
CONTINUOUS
 10
-1.390051
 20
3.938067
  0
VERTEX
  8
PLAN_1
 62
     5
  6
CONTINUOUS
 10
-1.398201
 20
3.938067
  0
SEQEND
  8
0
  0
POLYLINE
  8
PLAN_1
 62
     5
  6
CONTINUOUS
 66
     1
 40
0.003000
 41
0.003000
  0
VERTEX
  8
PLAN_1
 62
     5
  6
CONTINUOUS
 10
-1.406890
 20
3.938067
  0
VERTEX
  8
PLAN_1
 62
     5
  6
CONTINUOUS
 10
-1.415039
 20
3.938067
  0
SEQEND
  8
0
  0
POLYLINE
  8
PLAN_1
 62
     5
  6
CONTINUOUS
 66
     1
 40
0.003000
 41
0.003000
  0
VERTEX
  8
PLAN_1
 62
     5
  6
CONTINUOUS
 10
-1.423185
 20
3.938067
  0
VERTEX
  8
PLAN_1
 62
     5
  6
CONTINUOUS
 10
-1.431878
 20
3.938067
  0
SEQEND
  8
0
  0
POLYLINE
  8
PLAN_1
 62
     5
  6
CONTINUOUS
 66
     1
 40
0.003000
 41
0.003000
  0
VERTEX
  8
PLAN_1
 62
     5
  6
CONTINUOUS
 10
-1.440024
 20
3.938067
  0
VERTEX
  8
PLAN_1
 62
     5
  6
CONTINUOUS
 10
-1.448173
 20
3.938067
  0
SEQEND
  8
0
  0
POLYLINE
  8
PLAN_1
 62
     5
  6
CONTINUOUS
 66
     1
 40
0.003000
 41
0.003000
  0
VERTEX
  8
PLAN_1
 62
     5
  6
CONTINUOUS
 10
-1.456862
 20
3.938067
  0
VERTEX
  8
PLAN_1
 62
     5
  6
CONTINUOUS
 10
-1.465012
 20
3.938067
  0
SEQEND
  8
0
  0
POLYLINE
  8
PLAN_1
 62
     5
  6
CONTINUOUS
 66
     1
 40
0.003000
 41
0.003000
  0
VERTEX
  8
PLAN_1
 62
     5
  6
CONTINUOUS
 10
-1.473157
 20
3.938067
  0
VERTEX
  8
PLAN_1
 62
     5
  6
CONTINUOUS
 10
-1.481850
 20
3.938067
  0
SEQEND
  8
0
  0
POLYLINE
  8
PLAN_1
 62
     5
  6
CONTINUOUS
 66
     1
 40
0.003000
 41
0.003000
  0
VERTEX
  8
PLAN_1
 62
     5
  6
CONTINUOUS
 10
-1.489996
 20
3.938067
  0
VERTEX
  8
PLAN_1
 62
     5
  6
CONTINUOUS
 10
-1.498146
 20
3.938067
  0
SEQEND
  8
0
  0
POLYLINE
  8
PLAN_1
 62
     5
  6
CONTINUOUS
 66
     1
 40
0.003000
 41
0.003000
  0
VERTEX
  8
PLAN_1
 62
     5
  6
CONTINUOUS
 10
-1.506839
 20
3.938067
  0
VERTEX
  8
PLAN_1
 62
     5
  6
CONTINUOUS
 10
-1.514984
 20
3.938067
  0
SEQEND
  8
0
  0
POLYLINE
  8
PLAN_1
 62
     5
  6
CONTINUOUS
 66
     1
 40
0.003000
 41
0.003000
  0
VERTEX
  8
PLAN_1
 62
     5
  6
CONTINUOUS
 10
-1.523134
 20
3.938067
  0
VERTEX
  8
PLAN_1
 62
     5
  6
CONTINUOUS
 10
-1.531823
 20
3.938067
  0
SEQEND
  8
0
  0
POLYLINE
  8
PLAN_1
 62
     5
  6
CONTINUOUS
 66
     1
 40
0.003000
 41
0.003000
  0
VERTEX
  8
PLAN_1
 62
     5
  6
CONTINUOUS
 10
-1.539972
 20
3.938067
  0
VERTEX
  8
PLAN_1
 62
     5
  6
CONTINUOUS
 10
-1.548118
 20
3.938067
  0
SEQEND
  8
0
  0
POLYLINE
  8
PLAN_1
 62
     5
  6
CONTINUOUS
 66
     1
 40
0.003000
 41
0.003000
  0
VERTEX
  8
PLAN_1
 62
     5
  6
CONTINUOUS
 10
-1.548118
 20
3.929917
  0
VERTEX
  8
PLAN_1
 62
     5
  6
CONTINUOUS
 10
-1.548118
 20
3.921772
  0
SEQEND
  8
0
  0
POLYLINE
  8
PLAN_1
 62
     5
  6
CONTINUOUS
 66
     1
 40
0.003000
 41
0.003000
  0
VERTEX
  8
PLAN_1
 62
     5
  6
CONTINUOUS
 10
-1.548118
 20
3.913079
  0
VERTEX
  8
PLAN_1
 62
     5
  6
CONTINUOUS
 10
-1.548118
 20
3.904933
  0
SEQEND
  8
0
  0
POLYLINE
  8
PLAN_1
 62
     5
  6
CONTINUOUS
 66
     1
 40
0.003000
 41
0.003000
  0
VERTEX
  8
PLAN_1
 62
     5
  6
CONTINUOUS
 10
-1.548118
 20
3.896783
  0
VERTEX
  8
PLAN_1
 62
     5
  6
CONTINUOUS
 10
-1.548118
 20
3.888094
  0
SEQEND
  8
0
  0
POLYLINE
  8
PLAN_1
 62
     5
  6
CONTINUOUS
 66
     1
 40
0.003000
 41
0.003000
  0
VERTEX
  8
PLAN_1
 62
     5
  6
CONTINUOUS
 10
-1.548118
 20
3.879945
  0
VERTEX
  8
PLAN_1
 62
     5
  6
CONTINUOUS
 10
-1.548118
 20
3.871799
  0
SEQEND
  8
0
  0
POLYLINE
  8
PLAN_1
 62
     5
  6
CONTINUOUS
 66
     1
 40
0.003000
 41
0.003000
  0
VERTEX
  8
PLAN_1
 62
     5
  6
CONTINUOUS
 10
-1.548118
 20
3.863106
  0
VERTEX
  8
PLAN_1
 62
     5
  6
CONTINUOUS
 10
-1.548118
 20
3.854957
  0
SEQEND
  8
0
  0
POLYLINE
  8
PLAN_1
 62
     5
  6
CONTINUOUS
 66
     1
 40
0.003000
 41
0.003000
  0
VERTEX
  8
PLAN_1
 62
     5
  6
CONTINUOUS
 10
-1.548118
 20
3.846811
  0
VERTEX
  8
PLAN_1
 62
     5
  6
CONTINUOUS
 10
-1.548118
 20
3.838118
  0
SEQEND
  8
0
  0
POLYLINE
  8
PLAN_1
 62
     5
  6
CONTINUOUS
 66
     1
 40
0.003000
 41
0.003000
  0
VERTEX
  8
PLAN_1
 62
     5
  6
CONTINUOUS
 10
-1.548118
 20
3.829972
  0
VERTEX
  8
PLAN_1
 62
     5
  6
CONTINUOUS
 10
-1.548118
 20
3.821823
  0
SEQEND
  8
0
  0
POLYLINE
  8
PLAN_1
 62
     5
  6
CONTINUOUS
 66
     1
 40
0.003000
 41
0.003000
  0
VERTEX
  8
PLAN_1
 62
     5
  6
CONTINUOUS
 10
-1.548118
 20
3.813134
  0
VERTEX
  8
PLAN_1
 62
     5
  6
CONTINUOUS
 10
-1.548118
 20
3.804984
  0
SEQEND
  8
0
  0
POLYLINE
  8
PLAN_1
 62
     5
  6
CONTINUOUS
 66
     1
 40
0.003000
 41
0.003000
  0
VERTEX
  8
PLAN_1
 62
     5
  6
CONTINUOUS
 10
-1.548118
 20
3.796839
  0
VERTEX
  8
PLAN_1
 62
     5
  6
CONTINUOUS
 10
-1.548118
 20
3.788146
  0
SEQEND
  8
0
  0
POLYLINE
  8
PLAN_1
 62
     5
  6
CONTINUOUS
 66
     1
 40
0.003000
 41
0.003000
  0
VERTEX
  8
PLAN_1
 62
     5
  6
CONTINUOUS
 10
-1.548118
 20
3.780000
  0
VERTEX
  8
PLAN_1
 62
     5
  6
CONTINUOUS
 10
-1.548118
 20
3.771850
  0
SEQEND
  8
0
  0
POLYLINE
  8
PLAN_1
 62
     5
  6
CONTINUOUS
 66
     1
 40
0.003000
 41
0.003000
  0
VERTEX
  8
PLAN_1
 62
     5
  6
CONTINUOUS
 10
-1.548118
 20
3.763161
  0
VERTEX
  8
PLAN_1
 62
     5
  6
CONTINUOUS
 10
-1.548118
 20
3.755012
  0
SEQEND
  8
0
  0
POLYLINE
  8
PLAN_1
 62
     5
  6
CONTINUOUS
 66
     1
 40
0.003000
 41
0.003000
  0
VERTEX
  8
PLAN_1
 62
     5
  6
CONTINUOUS
 10
-1.548118
 20
3.746866
  0
VERTEX
  8
PLAN_1
 62
     5
  6
CONTINUOUS
 10
-1.548118
 20
3.738173
  0
SEQEND
  8
0
  0
POLYLINE
  8
PLAN_1
 62
     5
  6
CONTINUOUS
 66
     1
 40
0.003000
 41
0.003000
  0
VERTEX
  8
PLAN_1
 62
     5
  6
CONTINUOUS
 10
-1.548118
 20
3.730024
  0
VERTEX
  8
PLAN_1
 62
     5
  6
CONTINUOUS
 10
-1.548118
 20
3.721878
  0
SEQEND
  8
0
  0
POLYLINE
  8
PLAN_1
 62
     5
  6
CONTINUOUS
 66
     1
 40
0.003000
 41
0.003000
  0
VERTEX
  8
PLAN_1
 62
     5
  6
CONTINUOUS
 10
-1.548118
 20
3.713185
  0
VERTEX
  8
PLAN_1
 62
     5
  6
CONTINUOUS
 10
-1.548118
 20
3.705039
  0
SEQEND
  8
0
  0
POLYLINE
  8
PLAN_1
 62
     5
  6
CONTINUOUS
 66
     1
 40
0.003000
 41
0.003000
  0
VERTEX
  8
PLAN_1
 62
     5
  6
CONTINUOUS
 10
-1.548118
 20
3.696890
  0
VERTEX
  8
PLAN_1
 62
     5
  6
CONTINUOUS
 10
-1.548118
 20
3.688201
  0
SEQEND
  8
0
  0
POLYLINE
  8
PLAN_1
 62
     5
  6
CONTINUOUS
 66
     1
 40
0.003000
 41
0.003000
  0
VERTEX
  8
PLAN_1
 62
     5
  6
CONTINUOUS
 10
-1.548118
 20
3.680051
  0
VERTEX
  8
PLAN_1
 62
     5
  6
CONTINUOUS
 10
-1.548118
 20
3.671906
  0
SEQEND
  8
0
  0
POLYLINE
  8
PLAN_1
 62
     5
  6
CONTINUOUS
 66
     1
 40
0.003000
 41
0.003000
  0
VERTEX
  8
PLAN_1
 62
     5
  6
CONTINUOUS
 10
-1.548118
 20
3.663213
  0
VERTEX
  8
PLAN_1
 62
     5
  6
CONTINUOUS
 10
-1.548118
 20
3.655067
  0
SEQEND
  8
0
  0
POLYLINE
  8
PLAN_1
 62
     5
  6
CONTINUOUS
 66
     1
 40
0.003000
 41
0.003000
  0
VERTEX
  8
PLAN_1
 62
     5
  6
CONTINUOUS
 10
-1.548118
 20
3.646917
  0
VERTEX
  8
PLAN_1
 62
     5
  6
CONTINUOUS
 10
-1.548118
 20
3.638228
  0
SEQEND
  8
0
  0
POLYLINE
  8
PLAN_1
 62
     5
  6
CONTINUOUS
 66
     1
 40
0.003000
 41
0.003000
  0
VERTEX
  8
PLAN_1
 62
     5
  6
CONTINUOUS
 10
-1.548118
 20
3.630079
  0
VERTEX
  8
PLAN_1
 62
     5
  6
CONTINUOUS
 10
-1.548118
 20
3.621929
  0
SEQEND
  8
0
  0
POLYLINE
  8
PLAN_1
 62
     5
  6
CONTINUOUS
 66
     1
 40
0.003000
 41
0.003000
  0
VERTEX
  8
PLAN_1
 62
     5
  6
CONTINUOUS
 10
-1.548118
 20
3.613240
  0
VERTEX
  8
PLAN_1
 62
     5
  6
CONTINUOUS
 10
-1.548118
 20
3.605091
  0
SEQEND
  8
0
  0
POLYLINE
  8
PLAN_1
 62
     5
  6
CONTINUOUS
 66
     1
 40
0.003000
 41
0.003000
  0
VERTEX
  8
PLAN_1
 62
     5
  6
CONTINUOUS
 10
-1.548118
 20
3.596945
  0
VERTEX
  8
PLAN_1
 62
     5
  6
CONTINUOUS
 10
-1.548118
 20
3.588252
  0
SEQEND
  8
0
  0
POLYLINE
  8
PLAN_1
 62
     5
  6
CONTINUOUS
 66
     1
 40
0.003000
 41
0.003000
  0
VERTEX
  8
PLAN_1
 62
     5
  6
CONTINUOUS
 10
-1.548118
 20
3.580106
  0
VERTEX
  8
PLAN_1
 62
     5
  6
CONTINUOUS
 10
-1.548118
 20
3.571957
  0
SEQEND
  8
0
  0
POLYLINE
  8
PLAN_1
 62
     5
  6
CONTINUOUS
 66
     1
 40
0.003000
 41
0.003000
  0
VERTEX
  8
PLAN_1
 62
     5
  6
CONTINUOUS
 10
-1.548118
 20
3.563268
  0
VERTEX
  8
PLAN_1
 62
     5
  6
CONTINUOUS
 10
-1.548118
 20
3.555118
  0
SEQEND
  8
0
  0
POLYLINE
  8
PLAN_1
 62
     5
  6
CONTINUOUS
 66
     1
 40
0.003000
 41
0.003000
  0
VERTEX
  8
PLAN_1
 62
     5
  6
CONTINUOUS
 10
-1.548118
 20
3.546972
  0
VERTEX
  8
PLAN_1
 62
     5
  6
CONTINUOUS
 10
-1.548118
 20
3.538280
  0
SEQEND
  8
0
  0
POLYLINE
  8
PLAN_1
 62
     5
  6
CONTINUOUS
 66
     1
 40
0.003000
 41
0.003000
  0
VERTEX
  8
PLAN_1
 62
     5
  6
CONTINUOUS
 10
-1.548118
 20
3.530134
  0
VERTEX
  8
PLAN_1
 62
     5
  6
CONTINUOUS
 10
-1.548118
 20
3.521984
  0
SEQEND
  8
0
  0
POLYLINE
  8
PLAN_1
 62
     5
  6
CONTINUOUS
 66
     1
 40
0.003000
 41
0.003000
  0
VERTEX
  8
PLAN_1
 62
     5
  6
CONTINUOUS
 10
-1.548118
 20
3.513295
  0
VERTEX
  8
PLAN_1
 62
     5
  6
CONTINUOUS
 10
-1.548118
 20
3.505146
  0
SEQEND
  8
0
  0
POLYLINE
  8
PLAN_1
 62
     5
  6
CONTINUOUS
 66
     1
 40
0.003000
 41
0.003000
  0
VERTEX
  8
PLAN_1
 62
     5
  6
CONTINUOUS
 10
-1.548118
 20
3.496996
  0
VERTEX
  8
PLAN_1
 62
     5
  6
CONTINUOUS
 10
-1.548118
 20
3.488307
  0
SEQEND
  8
0
  0
POLYLINE
  8
PLAN_1
 62
     5
  6
CONTINUOUS
 66
     1
 40
0.003000
 41
0.003000
  0
VERTEX
  8
PLAN_1
 62
     5
  6
CONTINUOUS
 10
-1.548118
 20
3.480157
  0
VERTEX
  8
PLAN_1
 62
     5
  6
CONTINUOUS
 10
-1.548118
 20
3.472012
  0
SEQEND
  8
0
  0
POLYLINE
  8
PLAN_1
 62
     5
  6
CONTINUOUS
 66
     1
 40
0.003000
 41
0.003000
  0
VERTEX
  8
PLAN_1
 62
     5
  6
CONTINUOUS
 10
-1.548118
 20
3.463319
  0
VERTEX
  8
PLAN_1
 62
     5
  6
CONTINUOUS
 10
-1.548118
 20
3.455173
  0
SEQEND
  8
0
  0
POLYLINE
  8
PLAN_1
 62
     5
  6
CONTINUOUS
 66
     1
 40
0.003000
 41
0.003000
  0
VERTEX
  8
PLAN_1
 62
     5
  6
CONTINUOUS
 10
-1.548118
 20
3.447024
  0
VERTEX
  8
PLAN_1
 62
     5
  6
CONTINUOUS
 10
-1.548118
 20
3.438335
  0
SEQEND
  8
0
  0
POLYLINE
  8
PLAN_1
 62
     5
  6
CONTINUOUS
 66
     1
 40
0.003000
 41
0.003000
  0
VERTEX
  8
PLAN_1
 62
     5
  6
CONTINUOUS
 10
-1.548118
 20
3.430185
  0
VERTEX
  8
PLAN_1
 62
     5
  6
CONTINUOUS
 10
-1.548118
 20
3.422039
  0
SEQEND
  8
0
  0
POLYLINE
  8
PLAN_1
 62
     5
  6
CONTINUOUS
 66
     1
 40
0.003000
 41
0.003000
  0
VERTEX
  8
PLAN_1
 62
     5
  6
CONTINUOUS
 10
-1.548118
 20
3.413346
  0
VERTEX
  8
PLAN_1
 62
     5
  6
CONTINUOUS
 10
-1.548118
 20
3.405201
  0
SEQEND
  8
0
  0
POLYLINE
  8
PLAN_1
 62
     5
  6
CONTINUOUS
 66
     1
 40
0.003000
 41
0.003000
  0
VERTEX
  8
PLAN_1
 62
     5
  6
CONTINUOUS
 10
-1.548118
 20
3.397051
  0
VERTEX
  8
PLAN_1
 62
     5
  6
CONTINUOUS
 10
-1.548118
 20
3.388362
  0
SEQEND
  8
0
  0
POLYLINE
  8
PLAN_1
 62
     5
  6
CONTINUOUS
 66
     1
 40
0.003000
 41
0.003000
  0
VERTEX
  8
PLAN_1
 62
     5
  6
CONTINUOUS
 10
-1.548118
 20
3.380213
  0
VERTEX
  8
PLAN_1
 62
     5
  6
CONTINUOUS
 10
-1.548118
 20
3.372063
  0
SEQEND
  8
0
  0
POLYLINE
  8
PLAN_1
 62
     5
  6
CONTINUOUS
 66
     1
 40
0.003000
 41
0.003000
  0
VERTEX
  8
PLAN_1
 62
     5
  6
CONTINUOUS
 10
-1.548118
 20
3.363374
  0
VERTEX
  8
PLAN_1
 62
     5
  6
CONTINUOUS
 10
-1.548118
 20
3.355224
  0
SEQEND
  8
0
  0
POLYLINE
  8
PLAN_1
 62
     5
  6
CONTINUOUS
 66
     1
 40
0.003000
 41
0.003000
  0
VERTEX
  8
PLAN_1
 62
     5
  6
CONTINUOUS
 10
-1.548118
 20
3.347079
  0
VERTEX
  8
PLAN_1
 62
     5
  6
CONTINUOUS
 10
-1.548118
 20
3.338386
  0
SEQEND
  8
0
  0
POLYLINE
  8
PLAN_1
 62
     5
  6
CONTINUOUS
 66
     1
 40
0.003000
 41
0.003000
  0
VERTEX
  8
PLAN_1
 62
     5
  6
CONTINUOUS
 10
-1.548118
 20
3.330240
  0
VERTEX
  8
PLAN_1
 62
     5
  6
CONTINUOUS
 10
-1.548118
 20
3.322091
  0
SEQEND
  8
0
  0
POLYLINE
  8
PLAN_1
 62
     5
  6
CONTINUOUS
 66
     1
 40
0.003000
 41
0.003000
  0
VERTEX
  8
PLAN_1
 62
     5
  6
CONTINUOUS
 10
-1.548118
 20
3.313402
  0
VERTEX
  8
PLAN_1
 62
     5
  6
CONTINUOUS
 10
-1.548118
 20
3.305252
  0
SEQEND
  8
0
  0
POLYLINE
  8
PLAN_1
 62
     5
  6
CONTINUOUS
 66
     1
 40
0.003000
 41
0.003000
  0
VERTEX
  8
PLAN_1
 62
     5
  6
CONTINUOUS
 10
-1.548118
 20
3.297106
  0
VERTEX
  8
PLAN_1
 62
     5
  6
CONTINUOUS
 10
-1.548118
 20
3.288413
  0
SEQEND
  8
0
  0
POLYLINE
  8
PLAN_1
 62
     5
  6
CONTINUOUS
 66
     1
 40
0.003000
 41
0.003000
  0
VERTEX
  8
PLAN_1
 62
     5
  6
CONTINUOUS
 10
-1.548118
 20
3.280268
  0
VERTEX
  8
PLAN_1
 62
     5
  6
CONTINUOUS
 10
-1.548118
 20
3.272118
  0
SEQEND
  8
0
  0
POLYLINE
  8
PLAN_1
 62
     5
  6
CONTINUOUS
 66
     1
 40
0.003000
 41
0.003000
  0
VERTEX
  8
PLAN_1
 62
     5
  6
CONTINUOUS
 10
-1.548118
 20
3.263429
  0
VERTEX
  8
PLAN_1
 62
     5
  6
CONTINUOUS
 10
-1.548118
 20
3.255280
  0
SEQEND
  8
0
  0
POLYLINE
  8
PLAN_1
 62
     5
  6
CONTINUOUS
 66
     1
 40
0.003000
 41
0.003000
  0
VERTEX
  8
PLAN_1
 62
     5
  6
CONTINUOUS
 10
-1.548118
 20
3.247130
  0
VERTEX
  8
PLAN_1
 62
     5
  6
CONTINUOUS
 10
-1.548118
 20
3.238441
  0
SEQEND
  8
0
  0
POLYLINE
  8
PLAN_1
 62
     5
  6
CONTINUOUS
 66
     1
 40
0.003000
 41
0.003000
  0
VERTEX
  8
PLAN_1
 62
     5
  6
CONTINUOUS
 10
-1.548118
 20
3.230291
  0
VERTEX
  8
PLAN_1
 62
     5
  6
CONTINUOUS
 10
-1.548118
 20
3.222146
  0
SEQEND
  8
0
  0
POLYLINE
  8
PLAN_1
 62
     5
  6
CONTINUOUS
 66
     1
 40
0.003000
 41
0.003000
  0
VERTEX
  8
PLAN_1
 62
     5
  6
CONTINUOUS
 10
-1.548118
 20
3.213453
  0
VERTEX
  8
PLAN_1
 62
     5
  6
CONTINUOUS
 10
-1.548118
 20
3.205307
  0
SEQEND
  8
0
  0
POLYLINE
  8
PLAN_1
 62
     5
  6
CONTINUOUS
 66
     1
 40
0.003000
 41
0.003000
  0
VERTEX
  8
PLAN_1
 62
     5
  6
CONTINUOUS
 10
-1.548118
 20
3.196614
  0
VERTEX
  8
PLAN_1
 62
     5
  6
CONTINUOUS
 10
-1.548118
 20
3.188469
  0
SEQEND
  8
0
  0
POLYLINE
  8
PLAN_1
 62
     5
  6
CONTINUOUS
 66
     1
 40
0.003000
 41
0.003000
  0
VERTEX
  8
PLAN_1
 62
     5
  6
CONTINUOUS
 10
-1.548118
 20
3.180319
  0
VERTEX
  8
PLAN_1
 62
     5
  6
CONTINUOUS
 10
-1.548118
 20
3.171630
  0
SEQEND
  8
0
  0
POLYLINE
  8
PLAN_1
 62
     5
  6
CONTINUOUS
 66
     1
 40
0.003000
 41
0.003000
  0
VERTEX
  8
PLAN_1
 62
     5
  6
CONTINUOUS
 10
-1.548118
 20
3.163480
  0
VERTEX
  8
PLAN_1
 62
     5
  6
CONTINUOUS
 10
-1.548118
 20
3.155335
  0
SEQEND
  8
0
  0
POLYLINE
  8
PLAN_1
 62
     5
  6
CONTINUOUS
 66
     1
 40
0.003000
 41
0.003000
  0
VERTEX
  8
PLAN_1
 62
     5
  6
CONTINUOUS
 10
-1.548118
 20
3.146642
  0
VERTEX
  8
PLAN_1
 62
     5
  6
CONTINUOUS
 10
-1.548118
 20
3.138496
  0
SEQEND
  8
0
  0
POLYLINE
  8
PLAN_1
 62
     5
  6
CONTINUOUS
 66
     1
 40
0.003000
 41
0.003000
  0
VERTEX
  8
PLAN_1
 62
     5
  6
CONTINUOUS
 10
-1.548118
 20
3.130346
  0
VERTEX
  8
PLAN_1
 62
     5
  6
CONTINUOUS
 10
-1.548118
 20
3.121654
  0
SEQEND
  8
0
  0
POLYLINE
  8
PLAN_1
 62
     5
  6
CONTINUOUS
 66
     1
 40
0.003000
 41
0.003000
  0
VERTEX
  8
PLAN_1
 62
     5
  6
CONTINUOUS
 10
-1.548118
 20
3.113508
  0
VERTEX
  8
PLAN_1
 62
     5
  6
CONTINUOUS
 10
-1.548118
 20
3.105358
  0
SEQEND
  8
0
  0
POLYLINE
  8
PLAN_1
 62
     5
  6
CONTINUOUS
 66
     1
 40
0.003000
 41
0.003000
  0
VERTEX
  8
PLAN_1
 62
     5
  6
CONTINUOUS
 10
-1.548118
 20
3.096669
  0
VERTEX
  8
PLAN_1
 62
     5
  6
CONTINUOUS
 10
-1.548118
 20
3.088520
  0
SEQEND
  8
0
  0
POLYLINE
  8
PLAN_1
 62
     5
  6
CONTINUOUS
 66
     1
 40
0.003000
 41
0.003000
  0
VERTEX
  8
PLAN_1
 62
     5
  6
CONTINUOUS
 10
-1.548118
 20
3.080374
  0
VERTEX
  8
PLAN_1
 62
     5
  6
CONTINUOUS
 10
-1.548118
 20
3.071681
  0
SEQEND
  8
0
  0
POLYLINE
  8
PLAN_1
 62
     5
  6
CONTINUOUS
 66
     1
 40
0.003000
 41
0.003000
  0
VERTEX
  8
PLAN_1
 62
     5
  6
CONTINUOUS
 10
-1.548118
 20
3.063535
  0
VERTEX
  8
PLAN_1
 62
     5
  6
CONTINUOUS
 10
-1.548118
 20
3.055386
  0
SEQEND
  8
0
  0
POLYLINE
  8
PLAN_1
 62
     5
  6
CONTINUOUS
 66
     1
 40
0.003000
 41
0.003000
  0
VERTEX
  8
PLAN_1
 62
     5
  6
CONTINUOUS
 10
-1.548118
 20
3.046697
  0
VERTEX
  8
PLAN_1
 62
     5
  6
CONTINUOUS
 10
-1.548118
 20
3.045067
  0
VERTEX
  8
PLAN_1
 62
     5
  6
CONTINUOUS
 10
-1.541602
 20
3.045067
  0
SEQEND
  8
0
  0
POLYLINE
  8
PLAN_1
 62
     5
  6
CONTINUOUS
 66
     1
 40
0.003000
 41
0.003000
  0
VERTEX
  8
PLAN_1
 62
     5
  6
CONTINUOUS
 10
-1.533453
 20
3.045067
  0
VERTEX
  8
PLAN_1
 62
     5
  6
CONTINUOUS
 10
-1.525307
 20
3.045067
  0
SEQEND
  8
0
  0
POLYLINE
  8
PLAN_1
 62
     5
  6
CONTINUOUS
 66
     1
 40
0.003000
 41
0.003000
  0
VERTEX
  8
PLAN_1
 62
     5
  6
CONTINUOUS
 10
-1.516614
 20
3.045067
  0
VERTEX
  8
PLAN_1
 62
     5
  6
CONTINUOUS
 10
-1.508465
 20
3.045067
  0
SEQEND
  8
0
  0
POLYLINE
  8
PLAN_1
 62
     5
  6
CONTINUOUS
 66
     1
 40
0.003000
 41
0.003000
  0
VERTEX
  8
PLAN_1
 62
     5
  6
CONTINUOUS
 10
-1.500319
 20
3.045067
  0
VERTEX
  8
PLAN_1
 62
     5
  6
CONTINUOUS
 10
-1.491626
 20
3.045067
  0
SEQEND
  8
0
  0
POLYLINE
  8
PLAN_1
 62
     5
  6
CONTINUOUS
 66
     1
 40
0.003000
 41
0.003000
  0
VERTEX
  8
PLAN_1
 62
     5
  6
CONTINUOUS
 10
-1.483480
 20
3.045067
  0
VERTEX
  8
PLAN_1
 62
     5
  6
CONTINUOUS
 10
-1.475331
 20
3.045067
  0
SEQEND
  8
0
  0
POLYLINE
  8
PLAN_1
 62
     5
  6
CONTINUOUS
 66
     1
 40
0.003000
 41
0.003000
  0
VERTEX
  8
PLAN_1
 62
     5
  6
CONTINUOUS
 10
-1.466642
 20
3.045067
  0
VERTEX
  8
PLAN_1
 62
     5
  6
CONTINUOUS
 10
-1.458492
 20
3.045067
  0
SEQEND
  8
0
  0
POLYLINE
  8
PLAN_1
 62
     5
  6
CONTINUOUS
 66
     1
 40
0.003000
 41
0.003000
  0
VERTEX
  8
PLAN_1
 62
     5
  6
CONTINUOUS
 10
-1.450346
 20
3.045067
  0
VERTEX
  8
PLAN_1
 62
     5
  6
CONTINUOUS
 10
-1.441654
 20
3.045067
  0
SEQEND
  8
0
  0
POLYLINE
  8
PLAN_1
 62
     5
  6
CONTINUOUS
 66
     1
 40
0.003000
 41
0.003000
  0
VERTEX
  8
PLAN_1
 62
     5
  6
CONTINUOUS
 10
-1.433508
 20
3.045067
  0
VERTEX
  8
PLAN_1
 62
     5
  6
CONTINUOUS
 10
-1.425358
 20
3.045067
  0
SEQEND
  8
0
  0
POLYLINE
  8
PLAN_1
 62
     5
  6
CONTINUOUS
 66
     1
 40
0.003000
 41
0.003000
  0
VERTEX
  8
PLAN_1
 62
     5
  6
CONTINUOUS
 10
-1.416669
 20
3.045067
  0
VERTEX
  8
PLAN_1
 62
     5
  6
CONTINUOUS
 10
-1.408520
 20
3.045067
  0
SEQEND
  8
0
  0
POLYLINE
  8
PLAN_1
 62
     5
  6
CONTINUOUS
 66
     1
 40
0.003000
 41
0.003000
  0
VERTEX
  8
PLAN_1
 62
     5
  6
CONTINUOUS
 10
-1.400370
 20
3.045067
  0
VERTEX
  8
PLAN_1
 62
     5
  6
CONTINUOUS
 10
-1.391681
 20
3.045067
  0
SEQEND
  8
0
  0
POLYLINE
  8
PLAN_1
 62
     5
  6
CONTINUOUS
 66
     1
 40
0.003000
 41
0.003000
  0
VERTEX
  8
PLAN_1
 62
     5
  6
CONTINUOUS
 10
-1.383531
 20
3.045067
  0
VERTEX
  8
PLAN_1
 62
     5
  6
CONTINUOUS
 10
-1.375386
 20
3.045067
  0
SEQEND
  8
0
  0
POLYLINE
  8
PLAN_1
 62
     5
  6
CONTINUOUS
 66
     1
 40
0.003000
 41
0.003000
  0
VERTEX
  8
PLAN_1
 62
     5
  6
CONTINUOUS
 10
-1.366693
 20
3.045067
  0
VERTEX
  8
PLAN_1
 62
     5
  6
CONTINUOUS
 10
-1.358547
 20
3.045067
  0
SEQEND
  8
0
  0
POLYLINE
  8
PLAN_1
 62
     5
  6
CONTINUOUS
 66
     1
 40
0.003000
 41
0.003000
  0
VERTEX
  8
PLAN_1
 62
     5
  6
CONTINUOUS
 10
-1.350398
 20
3.045067
  0
VERTEX
  8
PLAN_1
 62
     5
  6
CONTINUOUS
 10
-1.348768
 20
3.045067
  0
VERTEX
  8
PLAN_1
 62
     5
  6
CONTINUOUS
 10
-1.348768
 20
3.052126
  0
SEQEND
  8
0
  0
POLYLINE
  8
PLAN_1
 62
     5
  6
CONTINUOUS
 66
     1
 40
0.003000
 41
0.003000
  0
VERTEX
  8
PLAN_1
 62
     5
  6
CONTINUOUS
 10
-1.348768
 20
3.060276
  0
VERTEX
  8
PLAN_1
 62
     5
  6
CONTINUOUS
 10
-1.348768
 20
3.068421
  0
SEQEND
  8
0
  0
POLYLINE
  8
PLAN_1
 62
     5
  6
CONTINUOUS
 66
     1
 40
0.003000
 41
0.003000
  0
VERTEX
  8
PLAN_1
 62
     5
  6
CONTINUOUS
 10
-1.348768
 20
3.077114
  0
VERTEX
  8
PLAN_1
 62
     5
  6
CONTINUOUS
 10
-1.348768
 20
3.085264
  0
SEQEND
  8
0
  0
POLYLINE
  8
PLAN_1
 62
     5
  6
CONTINUOUS
 66
     1
 40
0.003000
 41
0.003000
  0
VERTEX
  8
PLAN_1
 62
     5
  6
CONTINUOUS
 10
-1.348768
 20
3.093409
  0
VERTEX
  8
PLAN_1
 62
     5
  6
CONTINUOUS
 10
-1.348768
 20
3.102102
  0
SEQEND
  8
0
  0
POLYLINE
  8
PLAN_1
 62
     5
  6
CONTINUOUS
 66
     1
 40
0.003000
 41
0.003000
  0
VERTEX
  8
PLAN_1
 62
     5
  6
CONTINUOUS
 10
-1.348768
 20
3.110248
  0
VERTEX
  8
PLAN_1
 62
     5
  6
CONTINUOUS
 10
-1.348768
 20
3.118398
  0
SEQEND
  8
0
  0
POLYLINE
  8
PLAN_1
 62
     5
  6
CONTINUOUS
 66
     1
 40
0.003000
 41
0.003000
  0
VERTEX
  8
PLAN_1
 62
     5
  6
CONTINUOUS
 10
-1.348768
 20
3.127087
  0
VERTEX
  8
PLAN_1
 62
     5
  6
CONTINUOUS
 10
-1.348768
 20
3.135236
  0
SEQEND
  8
0
  0
POLYLINE
  8
PLAN_1
 62
     5
  6
CONTINUOUS
 66
     1
 40
0.003000
 41
0.003000
  0
VERTEX
  8
PLAN_1
 62
     5
  6
CONTINUOUS
 10
-1.348768
 20
3.143382
  0
VERTEX
  8
PLAN_1
 62
     5
  6
CONTINUOUS
 10
-1.348768
 20
3.152075
  0
SEQEND
  8
0
  0
POLYLINE
  8
PLAN_1
 62
     5
  6
CONTINUOUS
 66
     1
 40
0.003000
 41
0.003000
  0
VERTEX
  8
PLAN_1
 62
     5
  6
CONTINUOUS
 10
-1.348768
 20
3.160220
  0
VERTEX
  8
PLAN_1
 62
     5
  6
CONTINUOUS
 10
-1.348768
 20
3.168370
  0
SEQEND
  8
0
  0
POLYLINE
  8
PLAN_1
 62
     5
  6
CONTINUOUS
 66
     1
 40
0.003000
 41
0.003000
  0
VERTEX
  8
PLAN_1
 62
     5
  6
CONTINUOUS
 10
-1.348768
 20
3.177059
  0
VERTEX
  8
PLAN_1
 62
     5
  6
CONTINUOUS
 10
-1.348768
 20
3.185209
  0
SEQEND
  8
0
  0
POLYLINE
  8
PLAN_1
 62
     5
  6
CONTINUOUS
 66
     1
 40
0.003000
 41
0.003000
  0
VERTEX
  8
PLAN_1
 62
     5
  6
CONTINUOUS
 10
-1.348768
 20
3.193354
  0
VERTEX
  8
PLAN_1
 62
     5
  6
CONTINUOUS
 10
-1.348768
 20
3.202047
  0
SEQEND
  8
0
  0
POLYLINE
  8
PLAN_1
 62
     5
  6
CONTINUOUS
 66
     1
 40
0.003000
 41
0.003000
  0
VERTEX
  8
PLAN_1
 62
     5
  6
CONTINUOUS
 10
-1.348768
 20
3.210197
  0
VERTEX
  8
PLAN_1
 62
     5
  6
CONTINUOUS
 10
-1.348768
 20
3.218343
  0
SEQEND
  8
0
  0
POLYLINE
  8
PLAN_1
 62
     5
  6
CONTINUOUS
 66
     1
 40
0.003000
 41
0.003000
  0
VERTEX
  8
PLAN_1
 62
     5
  6
CONTINUOUS
 10
-1.348768
 20
3.227035
  0
VERTEX
  8
PLAN_1
 62
     5
  6
CONTINUOUS
 10
-1.348768
 20
3.235181
  0
SEQEND
  8
0
  0
POLYLINE
  8
PLAN_1
 62
     5
  6
CONTINUOUS
 66
     1
 40
0.003000
 41
0.003000
  0
VERTEX
  8
PLAN_1
 62
     5
  6
CONTINUOUS
 10
-1.348768
 20
3.243874
  0
VERTEX
  8
PLAN_1
 62
     5
  6
CONTINUOUS
 10
-1.348768
 20
3.252020
  0
SEQEND
  8
0
  0
POLYLINE
  8
PLAN_1
 62
     5
  6
CONTINUOUS
 66
     1
 40
0.003000
 41
0.003000
  0
VERTEX
  8
PLAN_1
 62
     5
  6
CONTINUOUS
 10
-1.348768
 20
3.260169
  0
VERTEX
  8
PLAN_1
 62
     5
  6
CONTINUOUS
 10
-1.348768
 20
3.268858
  0
SEQEND
  8
0
  0
POLYLINE
  8
PLAN_1
 62
     5
  6
CONTINUOUS
 66
     1
 40
0.003000
 41
0.003000
  0
VERTEX
  8
PLAN_1
 62
     5
  6
CONTINUOUS
 10
-1.348768
 20
3.277008
  0
VERTEX
  8
PLAN_1
 62
     5
  6
CONTINUOUS
 10
-1.348768
 20
3.281354
  0
VERTEX
  8
PLAN_1
 62
     5
  6
CONTINUOUS
 10
-1.344969
 20
3.281354
  0
SEQEND
  8
0
  0
POLYLINE
  8
PLAN_1
 62
     5
  6
CONTINUOUS
 66
     1
 40
0.003000
 41
0.003000
  0
VERTEX
  8
PLAN_1
 62
     5
  6
CONTINUOUS
 10
-1.336819
 20
3.281354
  0
VERTEX
  8
PLAN_1
 62
     5
  6
CONTINUOUS
 10
-1.328130
 20
3.281354
  0
SEQEND
  8
0
  0
POLYLINE
  8
PLAN_1
 62
     5
  6
CONTINUOUS
 66
     1
 40
0.003000
 41
0.003000
  0
VERTEX
  8
PLAN_1
 62
     5
  6
CONTINUOUS
 10
-1.319980
 20
3.281354
  0
VERTEX
  8
PLAN_1
 62
     5
  6
CONTINUOUS
 10
-1.314547
 20
3.281354
  0
VERTEX
  8
PLAN_1
 62
     5
  6
CONTINUOUS
 10
-1.314547
 20
3.278638
  0
SEQEND
  8
0
  0
POLYLINE
  8
PLAN_1
 62
     5
  6
CONTINUOUS
 66
     1
 40
0.003000
 41
0.003000
  0
VERTEX
  8
PLAN_1
 62
     5
  6
CONTINUOUS
 10
-1.314547
 20
3.270488
  0
VERTEX
  8
PLAN_1
 62
     5
  6
CONTINUOUS
 10
-1.314547
 20
3.261799
  0
SEQEND
  8
0
  0
POLYLINE
  8
PLAN_1
 62
     5
  6
CONTINUOUS
 66
     1
 40
0.003000
 41
0.003000
  0
VERTEX
  8
PLAN_1
 62
     5
  6
CONTINUOUS
 10
-1.314004
 20
3.253650
  0
VERTEX
  8
PLAN_1
 62
     5
  6
CONTINUOUS
 10
-1.314004
 20
3.245504
  0
SEQEND
  8
0
  0
POLYLINE
  8
PLAN_1
  6
CONTINUOUS
 66
     1
 40
0.008146
 41
0.008146
  0
VERTEX
  8
PLAN_1
  6
CONTINUOUS
 10
-1.546488
 20
3.334043
  0
VERTEX
  8
PLAN_1
  6
CONTINUOUS
 10
-1.546488
 20
3.680594
  0
VERTEX
  8
PLAN_1
  6
CONTINUOUS
 10
-1.628512
 20
3.680594
  0
VERTEX
  8
PLAN_1
  6
CONTINUOUS
 10
-1.628512
 20
3.334043
  0
VERTEX
  8
PLAN_1
  6
CONTINUOUS
 10
-1.546488
 20
3.334043
  0
SEQEND
  8
0
  0
POLYLINE
  8
PLAN_1
  6
CONTINUOUS
 66
     1
 40
0.008146
 41
0.008146
  0
VERTEX
  8
PLAN_1
  6
CONTINUOUS
 10
-1.628512
 20
3.590425
  0
VERTEX
  8
PLAN_1
  6
CONTINUOUS
 10
-1.546488
 20
3.590425
  0
SEQEND
  8
0
  0
POLYLINE
  8
PLAN_1
  6
CONTINUOUS
 66
     1
 40
0.008146
 41
0.008146
  0
VERTEX
  8
PLAN_1
  6
CONTINUOUS
 10
-1.628512
 20
3.425295
  0
VERTEX
  8
PLAN_1
  6
CONTINUOUS
 10
-1.546488
 20
3.425295
  0
SEQEND
  8
0
  0
POLYLINE
  8
PLAN_1
  6
CONTINUOUS
 66
     1
 40
0.008146
 41
0.008146
  0
VERTEX
  8
PLAN_1
  6
CONTINUOUS
 10
-1.556268
 20
3.335130
  0
VERTEX
  8
PLAN_1
  6
CONTINUOUS
 10
-1.555724
 20
3.337299
  0
VERTEX
  8
PLAN_1
  6
CONTINUOUS
 10
-1.553551
 20
3.342732
  0
VERTEX
  8
PLAN_1
  6
CONTINUOUS
 10
-1.550835
 20
3.351969
  0
VERTEX
  8
PLAN_1
  6
CONTINUOUS
 10
-1.548118
 20
3.363374
  0
VERTEX
  8
PLAN_1
  6
CONTINUOUS
 10
-1.547575
 20
3.369894
  0
VERTEX
  8
PLAN_1
  6
CONTINUOUS
 10
-1.547031
 20
3.376953
  0
VERTEX
  8
PLAN_1
  6
CONTINUOUS
 10
-1.547031
 20
3.384016
  0
VERTEX
  8
PLAN_1
  6
CONTINUOUS
 10
-1.547031
 20
3.392161
  0
VERTEX
  8
PLAN_1
  6
CONTINUOUS
 10
-1.548661
 20
3.399768
  0
VERTEX
  8
PLAN_1
  6
CONTINUOUS
 10
-1.550291
 20
3.407913
  0
VERTEX
  8
PLAN_1
  6
CONTINUOUS
 10
-1.553008
 20
3.416606
  0
VERTEX
  8
PLAN_1
  6
CONTINUOUS
 10
-1.556268
 20
3.424756
  0
SEQEND
  8
0
  0
POLYLINE
  8
PLAN_1
 62
     5
  6
CONTINUOUS
 66
     1
 40
0.003000
 41
0.003000
  0
VERTEX
  8
PLAN_1
 62
     5
  6
CONTINUOUS
 10
-1.555724
 20
3.590969
  0
VERTEX
  8
PLAN_1
 62
     5
  6
CONTINUOUS
 10
-1.554638
 20
3.593142
  0
VERTEX
  8
PLAN_1
 62
     5
  6
CONTINUOUS
 10
-1.552465
 20
3.598575
  0
SEQEND
  8
0
  0
POLYLINE
  8
PLAN_1
 62
     5
  6
CONTINUOUS
 66
     1
 40
0.003000
 41
0.003000
  0
VERTEX
  8
PLAN_1
 62
     5
  6
CONTINUOUS
 10
-1.550291
 20
3.606720
  0
VERTEX
  8
PLAN_1
 62
     5
  6
CONTINUOUS
 10
-1.549748
 20
3.607264
  0
VERTEX
  8
PLAN_1
 62
     5
  6
CONTINUOUS
 10
-1.548118
 20
3.614870
  0
SEQEND
  8
0
  0
POLYLINE
  8
PLAN_1
 62
     5
  6
CONTINUOUS
 66
     1
 40
0.003000
 41
0.003000
  0
VERTEX
  8
PLAN_1
 62
     5
  6
CONTINUOUS
 10
-1.547031
 20
3.623016
  0
VERTEX
  8
PLAN_1
 62
     5
  6
CONTINUOUS
 10
-1.546488
 20
3.625732
  0
VERTEX
  8
PLAN_1
 62
     5
  6
CONTINUOUS
 10
-1.545945
 20
3.631165
  0
SEQEND
  8
0
  0
POLYLINE
  8
PLAN_1
 62
     5
  6
CONTINUOUS
 66
     1
 40
0.003000
 41
0.003000
  0
VERTEX
  8
PLAN_1
 62
     5
  6
CONTINUOUS
 10
-1.545945
 20
3.639315
  0
VERTEX
  8
PLAN_1
 62
     5
  6
CONTINUOUS
 10
-1.545945
 20
3.639854
  0
VERTEX
  8
PLAN_1
 62
     5
  6
CONTINUOUS
 10
-1.546488
 20
3.648004
  0
SEQEND
  8
0
  0
POLYLINE
  8
PLAN_1
 62
     5
  6
CONTINUOUS
 66
     1
 40
0.003000
 41
0.003000
  0
VERTEX
  8
PLAN_1
 62
     5
  6
CONTINUOUS
 10
-1.547575
 20
3.656154
  0
VERTEX
  8
PLAN_1
 62
     5
  6
CONTINUOUS
 10
-1.549205
 20
3.663756
  0
VERTEX
  8
PLAN_1
 62
     5
  6
CONTINUOUS
 10
-1.549205
 20
3.664299
  0
SEQEND
  8
0
  0
POLYLINE
  8
PLAN_1
 62
     5
  6
CONTINUOUS
 66
     1
 40
0.003000
 41
0.003000
  0
VERTEX
  8
PLAN_1
 62
     5
  6
CONTINUOUS
 10
-1.551921
 20
3.671906
  0
VERTEX
  8
PLAN_1
 62
     5
  6
CONTINUOUS
 10
-1.551921
 20
3.672449
  0
VERTEX
  8
PLAN_1
 62
     5
  6
CONTINUOUS
 10
-1.555181
 20
3.680051
  0
SEQEND
  8
0
  0
POLYLINE
  8
PLAN_1
 62
     5
  6
CONTINUOUS
 66
     1
 40
0.003000
 41
0.003000
  0
VERTEX
  8
PLAN_1
 62
     5
  6
CONTINUOUS
 10
-1.555724
 20
3.424756
  0
VERTEX
  8
PLAN_1
 62
     5
  6
CONTINUOUS
 10
-1.555181
 20
3.428555
  0
VERTEX
  8
PLAN_1
 62
     5
  6
CONTINUOUS
 10
-1.554094
 20
3.432902
  0
SEQEND
  8
0
  0
POLYLINE
  8
PLAN_1
 62
     5
  6
CONTINUOUS
 66
     1
 40
0.003000
 41
0.003000
  0
VERTEX
  8
PLAN_1
 62
     5
  6
CONTINUOUS
 10
-1.552465
 20
3.441051
  0
VERTEX
  8
PLAN_1
 62
     5
  6
CONTINUOUS
 10
-1.550835
 20
3.449197
  0
SEQEND
  8
0
  0
POLYLINE
  8
PLAN_1
 62
     5
  6
CONTINUOUS
 66
     1
 40
0.003000
 41
0.003000
  0
VERTEX
  8
PLAN_1
 62
     5
  6
CONTINUOUS
 10
-1.549748
 20
3.457346
  0
VERTEX
  8
PLAN_1
 62
     5
  6
CONTINUOUS
 10
-1.549205
 20
3.466035
  0
SEQEND
  8
0
  0
POLYLINE
  8
PLAN_1
 62
     5
  6
CONTINUOUS
 66
     1
 40
0.003000
 41
0.003000
  0
VERTEX
  8
PLAN_1
 62
     5
  6
CONTINUOUS
 10
-1.548118
 20
3.474185
  0
VERTEX
  8
PLAN_1
 62
     5
  6
CONTINUOUS
 10
-1.548118
 20
3.474728
  0
VERTEX
  8
PLAN_1
 62
     5
  6
CONTINUOUS
 10
-1.547575
 20
3.482331
  0
SEQEND
  8
0
  0
POLYLINE
  8
PLAN_1
 62
     5
  6
CONTINUOUS
 66
     1
 40
0.003000
 41
0.003000
  0
VERTEX
  8
PLAN_1
 62
     5
  6
CONTINUOUS
 10
-1.547031
 20
3.490480
  0
VERTEX
  8
PLAN_1
 62
     5
  6
CONTINUOUS
 10
-1.546488
 20
3.499169
  0
SEQEND
  8
0
  0
POLYLINE
  8
PLAN_1
 62
     5
  6
CONTINUOUS
 66
     1
 40
0.003000
 41
0.003000
  0
VERTEX
  8
PLAN_1
 62
     5
  6
CONTINUOUS
 10
-1.546488
 20
3.507319
  0
VERTEX
  8
PLAN_1
 62
     5
  6
CONTINUOUS
 10
-1.546488
 20
3.513839
  0
VERTEX
  8
PLAN_1
 62
     5
  6
CONTINUOUS
 10
-1.546488
 20
3.515465
  0
SEQEND
  8
0
  0
POLYLINE
  8
PLAN_1
 62
     5
  6
CONTINUOUS
 66
     1
 40
0.003000
 41
0.003000
  0
VERTEX
  8
PLAN_1
 62
     5
  6
CONTINUOUS
 10
-1.547031
 20
3.524157
  0
VERTEX
  8
PLAN_1
 62
     5
  6
CONTINUOUS
 10
-1.547031
 20
3.527961
  0
VERTEX
  8
PLAN_1
 62
     5
  6
CONTINUOUS
 10
-1.547575
 20
3.532307
  0
SEQEND
  8
0
  0
POLYLINE
  8
PLAN_1
 62
     5
  6
CONTINUOUS
 66
     1
 40
0.003000
 41
0.003000
  0
VERTEX
  8
PLAN_1
 62
     5
  6
CONTINUOUS
 10
-1.548118
 20
3.540453
  0
VERTEX
  8
PLAN_1
 62
     5
  6
CONTINUOUS
 10
-1.548118
 20
3.543169
  0
VERTEX
  8
PLAN_1
 62
     5
  6
CONTINUOUS
 10
-1.548661
 20
3.549146
  0
SEQEND
  8
0
  0
POLYLINE
  8
PLAN_1
 62
     5
  6
CONTINUOUS
 66
     1
 40
0.003000
 41
0.003000
  0
VERTEX
  8
PLAN_1
 62
     5
  6
CONTINUOUS
 10
-1.549748
 20
3.557291
  0
VERTEX
  8
PLAN_1
 62
     5
  6
CONTINUOUS
 10
-1.550291
 20
3.558921
  0
VERTEX
  8
PLAN_1
 62
     5
  6
CONTINUOUS
 10
-1.550835
 20
3.565441
  0
SEQEND
  8
0
  0
POLYLINE
  8
PLAN_1
 62
     5
  6
CONTINUOUS
 66
     1
 40
0.003000
 41
0.003000
  0
VERTEX
  8
PLAN_1
 62
     5
  6
CONTINUOUS
 10
-1.552465
 20
3.573587
  0
VERTEX
  8
PLAN_1
 62
     5
  6
CONTINUOUS
 10
-1.553008
 20
3.575217
  0
VERTEX
  8
PLAN_1
 62
     5
  6
CONTINUOUS
 10
-1.554094
 20
3.581736
  0
SEQEND
  8
0
  0
POLYLINE
  8
PLAN_1
 62
     5
  6
CONTINUOUS
 66
     1
 40
0.003000
 41
0.003000
  0
VERTEX
  8
PLAN_1
 62
     5
  6
CONTINUOUS
 10
-1.555724
 20
3.589882
  0
VERTEX
  8
PLAN_1
 62
     5
  6
CONTINUOUS
 10
-1.556268
 20
3.591512
  0
SEQEND
  8
0
  0
POLYLINE
  8
PLAN_1
 62
     5
  6
CONTINUOUS
 66
     1
 40
0.003000
 41
0.003000
  0
VERTEX
  8
PLAN_1
 62
     5
  6
CONTINUOUS
 10
-1.555724
 20
3.589882
  0
VERTEX
  8
PLAN_1
 62
     5
  6
CONTINUOUS
 10
-1.556268
 20
3.591512
  0
SEQEND
  8
0
  0
POLYLINE
  8
PLAN_1
  6
CONTINUOUS
 66
     1
 40
0.008146
 41
0.008146
  0
VERTEX
  8
PLAN_1
  6
CONTINUOUS
 10
-1.985386
 20
2.092315
  0
VERTEX
  8
PLAN_1
  6
CONTINUOUS
 10
-1.985386
 20
2.538272
  0
VERTEX
  8
PLAN_1
  6
CONTINUOUS
 10
-2.090764
 20
2.538272
  0
VERTEX
  8
PLAN_1
  6
CONTINUOUS
 10
-2.090764
 20
2.092315
  0
VERTEX
  8
PLAN_1
  6
CONTINUOUS
 10
-1.985386
 20
2.092315
  0
SEQEND
  8
0
  0
POLYLINE
  8
PLAN_1
  6
CONTINUOUS
 66
     1
 40
0.008146
 41
0.008146
  0
VERTEX
  8
PLAN_1
  6
CONTINUOUS
 10
-2.090220
 20
2.424201
  0
VERTEX
  8
PLAN_1
  6
CONTINUOUS
 10
-1.988102
 20
2.424201
  0
SEQEND
  8
0
  0
POLYLINE
  8
PLAN_1
  6
CONTINUOUS
 66
     1
 40
0.008146
 41
0.008146
  0
VERTEX
  8
PLAN_1
  6
CONTINUOUS
 10
-2.090220
 20
2.205843
  0
VERTEX
  8
PLAN_1
  6
CONTINUOUS
 10
-1.988102
 20
2.205843
  0
SEQEND
  8
0
  0
POLYLINE
  8
PLAN_1
  6
CONTINUOUS
 66
     1
 40
0.008146
 41
0.008146
  0
VERTEX
  8
PLAN_1
  6
CONTINUOUS
 10
-2.078272
 20
2.537728
  0
VERTEX
  8
PLAN_1
  6
CONTINUOUS
 10
-2.079358
 20
2.535555
  0
VERTEX
  8
PLAN_1
  6
CONTINUOUS
 10
-2.082071
 20
2.527953
  0
VERTEX
  8
PLAN_1
  6
CONTINUOUS
 10
-2.084244
 20
2.523063
  0
VERTEX
  8
PLAN_1
  6
CONTINUOUS
 10
-2.085874
 20
2.516543
  0
VERTEX
  8
PLAN_1
  6
CONTINUOUS
 10
-2.087504
 20
2.509484
  0
VERTEX
  8
PLAN_1
  6
CONTINUOUS
 10
-2.089134
 20
2.501878
  0
VERTEX
  8
PLAN_1
  6
CONTINUOUS
 10
-2.090220
 20
2.493732
  0
VERTEX
  8
PLAN_1
  6
CONTINUOUS
 10
-2.090764
 20
2.484496
  0
VERTEX
  8
PLAN_1
  6
CONTINUOUS
 10
-2.090764
 20
2.475264
  0
VERTEX
  8
PLAN_1
  6
CONTINUOUS
 10
-2.089677
 20
2.465484
  0
VERTEX
  8
PLAN_1
  6
CONTINUOUS
 10
-2.088047
 20
2.455165
  0
VERTEX
  8
PLAN_1
  6
CONTINUOUS
 10
-2.085331
 20
2.444843
  0
VERTEX
  8
PLAN_1
  6
CONTINUOUS
 10
-2.083157
 20
2.439957
  0
VERTEX
  8
PLAN_1
  6
CONTINUOUS
 10
-2.080984
 20
2.434524
  0
VERTEX
  8
PLAN_1
  6
CONTINUOUS
 10
-2.078815
 20
2.429091
  0
VERTEX
  8
PLAN_1
  6
CONTINUOUS
 10
-2.075555
 20
2.424201
  0
VERTEX
  8
PLAN_1
  6
CONTINUOUS
 10
-2.077185
 20
2.419858
  0
VERTEX
  8
PLAN_1
  6
CONTINUOUS
 10
-2.080441
 20
2.408449
  0
VERTEX
  8
PLAN_1
  6
CONTINUOUS
 10
-2.082071
 20
2.399760
  0
VERTEX
  8
PLAN_1
  6
CONTINUOUS
 10
-2.084244
 20
2.389437
  0
VERTEX
  8
PLAN_1
  6
CONTINUOUS
 10
-2.086417
 20
2.377488
  0
VERTEX
  8
PLAN_1
  6
CONTINUOUS
 10
-2.088047
 20
2.363909
  0
VERTEX
  8
PLAN_1
  6
CONTINUOUS
 10
-2.089677
 20
2.348701
  0
VERTEX
  8
PLAN_1
  6
CONTINUOUS
 10
-2.090220
 20
2.331862
  0
VERTEX
  8
PLAN_1
  6
CONTINUOUS
 10
-2.090764
 20
2.313937
  0
VERTEX
  8
PLAN_1
  6
CONTINUOUS
 10
-2.090220
 20
2.294925
  0
VERTEX
  8
PLAN_1
  6
CONTINUOUS
 10
-2.089134
 20
2.274283
  0
VERTEX
  8
PLAN_1
  6
CONTINUOUS
 10
-2.086961
 20
2.252555
  0
VERTEX
  8
PLAN_1
  6
CONTINUOUS
 10
-2.085331
 20
2.241150
  0
VERTEX
  8
PLAN_1
  6
CONTINUOUS
 10
-2.083157
 20
2.229740
  0
VERTEX
  8
PLAN_1
  6
CONTINUOUS
 10
-2.080984
 20
2.217791
  0
VERTEX
  8
PLAN_1
  6
CONTINUOUS
 10
-2.078272
 20
2.205843
  0
VERTEX
  8
PLAN_1
  6
CONTINUOUS
 10
-2.079898
 20
2.203126
  0
VERTEX
  8
PLAN_1
  6
CONTINUOUS
 10
-2.082614
 20
2.196063
  0
VERTEX
  8
PLAN_1
  6
CONTINUOUS
 10
-2.084244
 20
2.191177
  0
VERTEX
  8
PLAN_1
  6
CONTINUOUS
 10
-2.086417
 20
2.185201
  0
VERTEX
  8
PLAN_1
  6
CONTINUOUS
 10
-2.088047
 20
2.178138
  0
VERTEX
  8
PLAN_1
  6
CONTINUOUS
 10
-2.089677
 20
2.170535
  0
VERTEX
  8
PLAN_1
  6
CONTINUOUS
 10
-2.090764
 20
2.162386
  0
VERTEX
  8
PLAN_1
  6
CONTINUOUS
 10
-2.091307
 20
2.153697
  0
VERTEX
  8
PLAN_1
  6
CONTINUOUS
 10
-2.090764
 20
2.144461
  0
VERTEX
  8
PLAN_1
  6
CONTINUOUS
 10
-2.090220
 20
2.134685
  0
VERTEX
  8
PLAN_1
  6
CONTINUOUS
 10
-2.088591
 20
2.124362
  0
VERTEX
  8
PLAN_1
  6
CONTINUOUS
 10
-2.085331
 20
2.114587
  0
VERTEX
  8
PLAN_1
  6
CONTINUOUS
 10
-2.083701
 20
2.109154
  0
VERTEX
  8
PLAN_1
  6
CONTINUOUS
 10
-2.081528
 20
2.103720
  0
VERTEX
  8
PLAN_1
  6
CONTINUOUS
 10
-2.078815
 20
2.098835
  0
VERTEX
  8
PLAN_1
  6
CONTINUOUS
 10
-2.076098
 20
2.093402
  0
SEQEND
  8
0
  0
POLYLINE
  8
PLAN_1
  6
CONTINUOUS
 66
     1
 40
0.007059
 41
0.007059
  0
VERTEX
  8
PLAN_1
  6
CONTINUOUS
 10
-1.184728
 20
2.737079
  0
VERTEX
  8
PLAN_1
  6
CONTINUOUS
 10
-1.184728
 20
1.907087
  0
SEQEND
  8
0
  0
POLYLINE
  8
PLAN_1
  6
CONTINUOUS
 66
     1
 40
0.007059
 41
0.007059
  0
VERTEX
  8
PLAN_1
  6
CONTINUOUS
 10
-1.290650
 20
2.737079
  0
VERTEX
  8
PLAN_1
  6
CONTINUOUS
 10
-1.290650
 20
1.914150
  0
SEQEND
  8
0
  0
POLYLINE
  8
PLAN_1
  6
CONTINUOUS
 66
     1
 40
0.007059
 41
0.007059
  0
VERTEX
  8
PLAN_1
  6
CONTINUOUS
 10
-1.547031
 20
1.938594
  0
VERTEX
  8
PLAN_1
  6
CONTINUOUS
 10
-1.547031
 20
2.696339
  0
SEQEND
  8
0
  0
POLYLINE
  8
PLAN_1
  6
CONTINUOUS
 66
     1
 40
0.007059
 41
0.007059
  0
VERTEX
  8
PLAN_1
  6
CONTINUOUS
 10
-2.140193
 20
2.440500
  0
VERTEX
  8
PLAN_1
  6
CONTINUOUS
 10
-2.140193
 20
2.187374
  0
SEQEND
  8
0
  0
POLYLINE
  8
PLAN_1
  6
CONTINUOUS
 66
     1
 40
0.008146
 41
0.008146
  0
VERTEX
  8
PLAN_1
  6
CONTINUOUS
 10
-2.140193
 20
2.187374
  0
VERTEX
  8
PLAN_1
  6
CONTINUOUS
 10
-2.148886
 20
2.196063
  0
VERTEX
  8
PLAN_1
  6
CONTINUOUS
 10
-2.148886
 20
2.430720
  0
VERTEX
  8
PLAN_1
  6
CONTINUOUS
 10
-2.140193
 20
2.439413
  0
VERTEX
  8
PLAN_1
  6
CONTINUOUS
 10
-2.090764
 20
2.440500
  0
VERTEX
  8
PLAN_1
  6
CONTINUOUS
 10
-2.090764
 20
2.187374
  0
VERTEX
  8
PLAN_1
  6
CONTINUOUS
 10
-2.140193
 20
2.187374
  0
SEQEND
  8
0
  0
POLYLINE
  8
PLAN_1
  6
CONTINUOUS
 66
     1
 40
0.008146
 41
0.008146
  0
VERTEX
  8
PLAN_1
  6
CONTINUOUS
 10
-1.646980
 20
3.255823
  0
VERTEX
  8
PLAN_1
  6
CONTINUOUS
 10
-1.626882
 20
3.255823
  0
VERTEX
  8
PLAN_1
  6
CONTINUOUS
 10
-1.626882
 20
3.734370
  0
VERTEX
  8
PLAN_1
  6
CONTINUOUS
 10
-1.906079
 20
3.734370
  0
VERTEX
  8
PLAN_1
  6
CONTINUOUS
 10
-1.906079
 20
3.255823
  0
VERTEX
  8
PLAN_1
  6
CONTINUOUS
 10
-1.885980
 20
3.255823
  0
SEQEND
  8
0
  0
POLYLINE
  8
PLAN_1
  6
CONTINUOUS
 66
     1
 40
0.008146
 41
0.008146
  0
VERTEX
  8
PLAN_1
  6
CONTINUOUS
 10
-1.885980
 20
2.696339
  0
VERTEX
  8
PLAN_1
  6
CONTINUOUS
 10
-1.985929
 20
2.696339
  0
VERTEX
  8
PLAN_1
  6
CONTINUOUS
 10
-1.985929
 20
1.938594
  0
VERTEX
  8
PLAN_1
  6
CONTINUOUS
 10
-1.547031
 20
1.938594
  0
VERTEX
  8
PLAN_1
  6
CONTINUOUS
 10
-1.291736
 20
1.906000
  0
VERTEX
  8
PLAN_1
  6
CONTINUOUS
 10
-1.186354
 20
1.906000
  0
VERTEX
  8
PLAN_1
  6
CONTINUOUS
 10
-1.184728
 20
1.759886
  0
VERTEX
  8
PLAN_1
  6
CONTINUOUS
 10
0.131417
 20
1.759886
  0
VERTEX
  8
PLAN_1
  6
CONTINUOUS
 10
0.131417
 20
2.737079
  0
VERTEX
  8
PLAN_1
  6
CONTINUOUS
 10
-1.290650
 20
2.737079
  0
VERTEX
  8
PLAN_1
  6
CONTINUOUS
 10
-1.547031
 20
2.696339
  0
VERTEX
  8
PLAN_1
  6
CONTINUOUS
 10
-1.646980
 20
2.696339
  0
SEQEND
  8
0
  0
POLYLINE
  8
PLAN_1
  6
CONTINUOUS
 66
     1
 40
0.008146
 41
0.008146
  0
VERTEX
  8
PLAN_1
  6
CONTINUOUS
 10
-1.885980
 20
2.696339
  0
VERTEX
  8
PLAN_1
  6
CONTINUOUS
 10
-1.885980
 20
2.544791
  0
SEQEND
  8
0
  0
POLYLINE
  8
PLAN_1
  6
CONTINUOUS
 66
     1
 40
0.008146
 41
0.008146
  0
VERTEX
  8
PLAN_1
  6
CONTINUOUS
 10
-1.885980
 20
3.373693
  0
VERTEX
  8
PLAN_1
  6
CONTINUOUS
 10
-1.885980
 20
3.255823
  0
SEQEND
  8
0
  0
POLYLINE
  8
PLAN_1
  6
CONTINUOUS
 66
     1
 40
0.008146
 41
0.008146
  0
VERTEX
  8
PLAN_1
  6
CONTINUOUS
 10
-1.885980
 20
2.696339
  0
VERTEX
  8
PLAN_1
  6
CONTINUOUS
 10
-1.885980
 20
3.255823
  0
SEQEND
  8
0
  0
POLYLINE
  8
PLAN_1
  6
CONTINUOUS
 66
     1
 40
0.008146
 41
0.008146
  0
VERTEX
  8
PLAN_1
  6
CONTINUOUS
 10
-1.646980
 20
3.255823
  0
VERTEX
  8
PLAN_1
  6
CONTINUOUS
 10
-1.646980
 20
3.373693
  0
SEQEND
  8
0
  0
POLYLINE
  8
PLAN_1
  6
CONTINUOUS
 66
     1
 40
0.008146
 41
0.008146
  0
VERTEX
  8
PLAN_1
  6
CONTINUOUS
 10
-1.646980
 20
2.696339
  0
VERTEX
  8
PLAN_1
  6
CONTINUOUS
 10
-1.646980
 20
3.255823
  0
SEQEND
  8
0
  0
POLYLINE
  8
PLAN_1
  6
CONTINUOUS
 66
     1
 40
0.008146
 41
0.008146
  0
VERTEX
  8
PLAN_1
  6
CONTINUOUS
 10
-1.646980
 20
2.544791
  0
VERTEX
  8
PLAN_1
  6
CONTINUOUS
 10
-1.646980
 20
2.696339
  0
SEQEND
  8
0
  0
POLYLINE
  8
PLAN_1
  6
CONTINUOUS
 66
     1
 40
0.008146
 41
0.008146
  0
VERTEX
  8
PLAN_1
  6
CONTINUOUS
 10
0.131417
 20
-1.292287
  0
VERTEX
  8
PLAN_1
  6
CONTINUOUS
 10
0.131417
 20
1.761516
  0
VERTEX
  8
PLAN_1
  6
CONTINUOUS
 10
-1.469902
 20
1.761516
  0
VERTEX
  8
PLAN_1
  6
CONTINUOUS
 10
-1.469902
 20
-1.292287
  0
VERTEX
  8
PLAN_1
  6
CONTINUOUS
 10
0.131417
 20
-1.292287
  0
SEQEND
  8
0
  0
POLYLINE
  8
PLAN_1
  6
CONTINUOUS
 66
     1
 40
0.008146
 41
0.008146
  0
VERTEX
  8
PLAN_1
  6
CONTINUOUS
 10
-0.845236
 20
1.761516
  0
VERTEX
  8
PLAN_1
  6
CONTINUOUS
 10
-0.845236
 20
1.959232
  0
VERTEX
  8
PLAN_1
  6
CONTINUOUS
 10
-1.155394
 20
1.959232
  0
VERTEX
  8
PLAN_1
  6
CONTINUOUS
 10
-1.155394
 20
1.761516
  0
VERTEX
  8
PLAN_1
  6
CONTINUOUS
 10
-0.845236
 20
1.761516
  0
SEQEND
  8
0
  0
POLYLINE
  8
PLAN_1
  6
CONTINUOUS
 66
     1
 40
0.008146
 41
0.008146
  0
VERTEX
  8
PLAN_1
  6
CONTINUOUS
 10
0.131417
 20
1.761516
  0
VERTEX
  8
PLAN_1
  6
CONTINUOUS
 10
0.131417
 20
1.959232
  0
VERTEX
  8
PLAN_1
  6
CONTINUOUS
 10
-0.184177
 20
1.959232
  0
VERTEX
  8
PLAN_1
  6
CONTINUOUS
 10
-0.184177
 20
1.761516
  0
VERTEX
  8
PLAN_1
  6
CONTINUOUS
 10
0.131417
 20
1.761516
  0
SEQEND
  8
0
  0
POLYLINE
  8
PLAN_1
  6
CONTINUOUS
 66
     1
 40
0.008146
 41
0.008146
  0
VERTEX
  8
PLAN_1
  6
CONTINUOUS
 10
0.151516
 20
1.431256
  0
VERTEX
  8
PLAN_1
  6
CONTINUOUS
 10
0.151516
 20
1.728921
  0
VERTEX
  8
PLAN_1
  6
CONTINUOUS
 10
0.131417
 20
1.728921
  0
VERTEX
  8
PLAN_1
  6
CONTINUOUS
 10
0.131417
 20
1.431256
  0
VERTEX
  8
PLAN_1
  6
CONTINUOUS
 10
0.151516
 20
1.431256
  0
SEQEND
  8
0
  0
POLYLINE
  8
PLAN_1
  6
CONTINUOUS
 66
     1
 40
0.008146
 41
0.008146
  0
VERTEX
  8
PLAN_1
  6
CONTINUOUS
 10
0.151516
 20
-1.263496
  0
VERTEX
  8
PLAN_1
  6
CONTINUOUS
 10
0.151516
 20
-0.965831
  0
VERTEX
  8
PLAN_1
  6
CONTINUOUS
 10
0.131417
 20
-0.965831
  0
VERTEX
  8
PLAN_1
  6
CONTINUOUS
 10
0.131417
 20
-1.263496
  0
VERTEX
  8
PLAN_1
  6
CONTINUOUS
 10
0.151516
 20
-1.263496
  0
SEQEND
  8
0
  0
POLYLINE
  8
PLAN_1
  6
CONTINUOUS
 66
     1
 40
0.008146
 41
0.008146
  0
VERTEX
  8
PLAN_1
  6
CONTINUOUS
 10
-1.395484
 20
1.761516
  0
VERTEX
  8
PLAN_1
  6
CONTINUOUS
 10
-1.395484
 20
-1.292287
  0
SEQEND
  8
0
  0
POLYLINE
  8
PLAN_1
  6
CONTINUOUS
 66
     1
 40
0.008146
 41
0.008146
  0
VERTEX
  8
PLAN_1
  6
CONTINUOUS
 10
-1.314004
 20
1.761516
  0
VERTEX
  8
PLAN_1
  6
CONTINUOUS
 10
-1.314004
 20
-1.292287
  0
SEQEND
  8
0
  0
POLYLINE
  8
PLAN_1
  6
CONTINUOUS
 66
     1
 40
0.008146
 41
0.008146
  0
VERTEX
  8
PLAN_1
  6
CONTINUOUS
 10
-1.314004
 20
1.185736
  0
VERTEX
  8
PLAN_1
  6
CONTINUOUS
 10
-1.155394
 20
1.185736
  0
VERTEX
  8
PLAN_1
  6
CONTINUOUS
 10
-1.155394
 20
1.761516
  0
SEQEND
  8
0
  0
POLYLINE
  8
PLAN_1
  6
CONTINUOUS
 66
     1
 40
0.008146
 41
0.008146
  0
VERTEX
  8
PLAN_1
  6
CONTINUOUS
 10
-1.310205
 20
-0.750185
  0
VERTEX
  8
PLAN_1
  6
CONTINUOUS
 10
-1.153764
 20
-0.750185
  0
VERTEX
  8
PLAN_1
  6
CONTINUOUS
 10
-1.153764
 20
-1.293374
  0
SEQEND
  8
0
  0
POLYLINE
  8
PLAN_1
  6
CONTINUOUS
 66
     1
 40
0.008146
 41
0.008146
  0
VERTEX
  8
PLAN_1
  6
CONTINUOUS
 10
-1.469902
 20
-1.206461
  0
VERTEX
  8
PLAN_1
  6
CONTINUOUS
 10
-1.469902
 20
-0.953339
  0
VERTEX
  8
PLAN_1
  6
CONTINUOUS
 10
-1.566587
 20
-0.953339
  0
VERTEX
  8
PLAN_1
  6
CONTINUOUS
 10
-1.566587
 20
-1.206461
  0
VERTEX
  8
PLAN_1
  6
CONTINUOUS
 10
-1.469902
 20
-1.206461
  0
SEQEND
  8
0
  0
POLYLINE
  8
PLAN_1
  6
CONTINUOUS
 66
     1
 40
0.008146
 41
0.008146
  0
VERTEX
  8
PLAN_1
  6
CONTINUOUS
 10
-1.514984
 20
-1.184193
  0
VERTEX
  8
PLAN_1
  6
CONTINUOUS
 10
-1.514984
 20
-1.161921
  0
VERTEX
  8
PLAN_1
  6
CONTINUOUS
 10
-1.566587
 20
-1.161921
  0
VERTEX
  8
PLAN_1
  6
CONTINUOUS
 10
-1.566587
 20
-1.184193
  0
VERTEX
  8
PLAN_1
  6
CONTINUOUS
 10
-1.514984
 20
-1.184193
  0
SEQEND
  8
0
  0
POLYLINE
  8
PLAN_1
  6
CONTINUOUS
 66
     1
 40
0.008146
 41
0.008146
  0
VERTEX
  8
PLAN_1
  6
CONTINUOUS
 10
-1.469902
 20
1.678406
  0
VERTEX
  8
PLAN_1
  6
CONTINUOUS
 10
-1.469902
 20
1.425823
  0
VERTEX
  8
PLAN_1
  6
CONTINUOUS
 10
-1.566587
 20
1.425823
  0
VERTEX
  8
PLAN_1
  6
CONTINUOUS
 10
-1.566587
 20
1.678406
  0
VERTEX
  8
PLAN_1
  6
CONTINUOUS
 10
-1.469902
 20
1.678406
  0
SEQEND
  8
0
  0
POLYLINE
  8
PLAN_1
  6
CONTINUOUS
 66
     1
 40
0.008146
 41
0.008146
  0
VERTEX
  8
PLAN_1
  6
CONTINUOUS
 10
-1.514984
 20
1.656134
  0
VERTEX
  8
PLAN_1
  6
CONTINUOUS
 10
-1.514984
 20
1.633866
  0
VERTEX
  8
PLAN_1
  6
CONTINUOUS
 10
-1.566587
 20
1.633866
  0
VERTEX
  8
PLAN_1
  6
CONTINUOUS
 10
-1.566587
 20
1.656134
  0
VERTEX
  8
PLAN_1
  6
CONTINUOUS
 10
-1.514984
 20
1.656134
  0
SEQEND
  8
0
  0
POLYLINE
  8
PLAN_1
  6
CONTINUOUS
 66
     1
 40
0.008146
 41
0.008146
  0
VERTEX
  8
PLAN_1
  6
CONTINUOUS
 10
-0.026106
 20
-1.370504
  0
VERTEX
  8
PLAN_1
  6
CONTINUOUS
 10
-0.026106
 20
-1.292287
  0
VERTEX
  8
PLAN_1
  6
CONTINUOUS
 10
-0.891406
 20
-1.292287
  0
VERTEX
  8
PLAN_1
  6
CONTINUOUS
 10
-0.891406
 20
-1.370504
  0
VERTEX
  8
PLAN_1
  6
CONTINUOUS
 10
-0.026106
 20
-1.370504
  0
SEQEND
  8
0
  0
POLYLINE
  8
PLAN_1
  6
CONTINUOUS
 66
     1
 40
0.008146
 41
0.008146
  0
VERTEX
  8
PLAN_1
  6
CONTINUOUS
 10
-0.876197
 20
-1.292287
  0
VERTEX
  8
PLAN_1
  6
CONTINUOUS
 10
-0.876197
 20
-1.370504
  0
SEQEND
  8
0
  0
POLYLINE
  8
PLAN_1
  6
CONTINUOUS
 66
     1
 40
0.008146
 41
0.008146
  0
VERTEX
  8
PLAN_1
  6
CONTINUOUS
 10
-0.616551
 20
-1.763772
  0
VERTEX
  8
PLAN_1
  6
CONTINUOUS
 10
-0.300961
 20
-1.763772
  0
VERTEX
  8
PLAN_1
  6
CONTINUOUS
 10
-0.262394
 20
-1.724661
  0
VERTEX
  8
PLAN_1
  6
CONTINUOUS
 10
-0.262394
 20
-1.370504
  0
VERTEX
  8
PLAN_1
  6
CONTINUOUS
 10
-0.655661
 20
-1.370504
  0
VERTEX
  8
PLAN_1
  6
CONTINUOUS
 10
-0.655661
 20
-1.724661
  0
VERTEX
  8
PLAN_1
  6
CONTINUOUS
 10
-0.616551
 20
-1.763772
  0
SEQEND
  8
0
  0
POLYLINE
  8
PLAN_1
  6
CONTINUOUS
 66
     1
 40
0.004343
 41
0.004343
  0
VERTEX
  8
PLAN_1
  6
CONTINUOUS
 10
-0.616008
 20
-1.370504
  0
VERTEX
  8
PLAN_1
  6
CONTINUOUS
 10
-0.616008
 20
-1.763772
  0
SEQEND
  8
0
  0
POLYLINE
  8
PLAN_1
  6
CONTINUOUS
 66
     1
 40
0.004343
 41
0.004343
  0
VERTEX
  8
PLAN_1
  6
CONTINUOUS
 10
-0.301504
 20
-1.370504
  0
VERTEX
  8
PLAN_1
  6
CONTINUOUS
 10
-0.301504
 20
-1.763772
  0
SEQEND
  8
0
  0
POLYLINE
  8
PLAN_1
  6
CONTINUOUS
 66
     1
 40
0.008146
 41
0.008146
  0
VERTEX
  8
PLAN_1
  6
CONTINUOUS
 10
-0.262394
 20
-1.724661
  0
VERTEX
  8
PLAN_1
  6
CONTINUOUS
 10
-0.655661
 20
-1.724661
  0
SEQEND
  8
0
  0
POLYLINE
  8
PLAN_1
  6
CONTINUOUS
 66
     1
 40
0.008146
 41
0.008146
  0
VERTEX
  8
PLAN_1
  6
CONTINUOUS
 10
-0.042945
 20
-1.292287
  0
VERTEX
  8
PLAN_1
  6
CONTINUOUS
 10
-0.042945
 20
-1.370504
  0
SEQEND
  8
0
  0
POLYLINE
  8
PLAN_1
  6
CONTINUOUS
 66
     1
 40
0.008146
 41
0.008146
  0
VERTEX
  8
PLAN_1
  6
CONTINUOUS
 10
-0.526382
 20
-1.292287
  0
VERTEX
  8
PLAN_1
  6
CONTINUOUS
 10
-0.526382
 20
-1.370504
  0
SEQEND
  8
0
  0
POLYLINE
  8
PLAN_1
  6
CONTINUOUS
 66
     1
 40
0.008146
 41
0.008146
  0
VERTEX
  8
PLAN_1
  6
CONTINUOUS
 10
-0.391130
 20
-1.292287
  0
VERTEX
  8
PLAN_1
  6
CONTINUOUS
 10
-0.391130
 20
-1.370504
  0
SEQEND
  8
0
  0
POLYLINE
  8
PLAN_1
 62
     2
  6
CONTINUOUS
 66
     1
 40
0.004343
 41
0.004343
  0
VERTEX
  8
PLAN_1
 62
     2
  6
CONTINUOUS
 10
0.151516
 20
-1.315642
  0
VERTEX
  8
PLAN_1
 62
     2
  6
CONTINUOUS
 10
0.151516
 20
-1.738244
  0
SEQEND
  8
0
  0
POLYLINE
  8
PLAN_1
 62
     2
  6
CONTINUOUS
 66
     1
 40
0.004343
 41
0.004343
  0
VERTEX
  8
PLAN_1
 62
     2
  6
CONTINUOUS
 10
0.151516
 20
-1.793650
  0
VERTEX
  8
PLAN_1
 62
     2
  6
CONTINUOUS
 10
0.151516
 20
-2.102177
  0
SEQEND
  8
0
  0
POLYLINE
  8
PLAN_1
 62
     2
  6
CONTINUOUS
 66
     1
 40
0.004343
 41
0.004343
  0
VERTEX
  8
PLAN_1
 62
     2
  6
CONTINUOUS
 10
-1.153764
 20
-1.315642
  0
VERTEX
  8
PLAN_1
 62
     2
  6
CONTINUOUS
 10
-1.153764
 20
-1.944654
  0
SEQEND
  8
0
  0
POLYLINE
  8
PLAN_1
 62
     2
  6
CONTINUOUS
 66
     1
 40
0.004343
 41
0.004343
  0
VERTEX
  8
PLAN_1
 62
     2
  6
CONTINUOUS
 10
-1.124433
 20
-1.921295
  0
VERTEX
  8
PLAN_1
 62
     2
  6
CONTINUOUS
 10
0.122181
 20
-1.921295
  0
SEQEND
  8
0
  0
SOLID
  8
PLAN_1
 62
     2
 10
0.151516
 20
-1.921295
 11
0.092850
 21
-1.905543
 12
0.151516
 22
-1.921295
 13
0.092850
 23
-1.937051
  0
POLYLINE
  8
PLAN_1
 62
     2
  6
CONTINUOUS
 66
     1
 40
0.003000
 41
0.003000
  0
VERTEX
  8
PLAN_1
 62
     2
  6
CONTINUOUS
 10
0.151516
 20
-1.921295
  0
VERTEX
  8
PLAN_1
 62
     2
  6
CONTINUOUS
 10
0.092850
 20
-1.905543
  0
VERTEX
  8
PLAN_1
 62
     2
  6
CONTINUOUS
 10
0.092850
 20
-1.937051
  0
VERTEX
  8
PLAN_1
 62
     2
  6
CONTINUOUS
 10
0.151516
 20
-1.921295
  0
SEQEND
  8
0
  0
SOLID
  8
PLAN_1
 62
     2
 10
-1.153764
 20
-1.921295
 11
-1.094559
 21
-1.905543
 12
-1.153764
 22
-1.921295
 13
-1.094559
 23
-1.937051
  0
POLYLINE
  8
PLAN_1
 62
     2
  6
CONTINUOUS
 66
     1
 40
0.003000
 41
0.003000
  0
VERTEX
  8
PLAN_1
 62
     2
  6
CONTINUOUS
 10
-1.153764
 20
-1.921295
  0
VERTEX
  8
PLAN_1
 62
     2
  6
CONTINUOUS
 10
-1.094559
 20
-1.905543
  0
VERTEX
  8
PLAN_1
 62
     2
  6
CONTINUOUS
 10
-1.094559
 20
-1.937051
  0
VERTEX
  8
PLAN_1
 62
     2
  6
CONTINUOUS
 10
-1.153764
 20
-1.921295
  0
SEQEND
  8
0
  0
POLYLINE
  8
PLAN_1
 62
     2
  6
CONTINUOUS
 66
     1
 40
0.003000
 41
0.003000
  0
VERTEX
  8
PLAN_1
 62
     2
  6
CONTINUOUS
 10
-0.596453
 20
-1.856114
  0
VERTEX
  8
PLAN_1
 62
     2
  6
CONTINUOUS
 10
-0.595909
 20
-1.856114
  0
VERTEX
  8
PLAN_1
 62
     2
  6
CONTINUOUS
 10
-0.595370
 20
-1.856114
  0
VERTEX
  8
PLAN_1
 62
     2
  6
CONTINUOUS
 10
-0.594827
 20
-1.856114
  0
VERTEX
  8
PLAN_1
 62
     2
  6
CONTINUOUS
 10
-0.594283
 20
-1.856114
  0
VERTEX
  8
PLAN_1
 62
     2
  6
CONTINUOUS
 10
-0.593740
 20
-1.856114
  0
VERTEX
  8
PLAN_1
 62
     2
  6
CONTINUOUS
 10
-0.593197
 20
-1.856114
  0
VERTEX
  8
PLAN_1
 62
     2
  6
CONTINUOUS
 10
-0.592110
 20
-1.856114
  0
VERTEX
  8
PLAN_1
 62
     2
  6
CONTINUOUS
 10
-0.591567
 20
-1.856114
  0
VERTEX
  8
PLAN_1
 62
     2
  6
CONTINUOUS
 10
-0.588850
 20
-1.856114
  0
VERTEX
  8
PLAN_1
 62
     2
  6
CONTINUOUS
 10
-0.586677
 20
-1.855571
  0
VERTEX
  8
PLAN_1
 62
     2
  6
CONTINUOUS
 10
-0.583961
 20
-1.854484
  0
VERTEX
  8
PLAN_1
 62
     2
  6
CONTINUOUS
 10
-0.582331
 20
-1.853398
  0
VERTEX
  8
PLAN_1
 62
     2
  6
CONTINUOUS
 10
-0.580157
 20
-1.851768
  0
VERTEX
  8
PLAN_1
 62
     2
  6
CONTINUOUS
 10
-0.579071
 20
-1.850138
  0
VERTEX
  8
PLAN_1
 62
     2
  6
CONTINUOUS
 10
-0.577984
 20
-1.847425
  0
VERTEX
  8
PLAN_1
 62
     2
  6
CONTINUOUS
 10
-0.577984
 20
-1.844165
  0
VERTEX
  8
PLAN_1
 62
     2
  6
CONTINUOUS
 10
-0.577984
 20
-1.842535
  0
VERTEX
  8
PLAN_1
 62
     2
  6
CONTINUOUS
 10
-0.578528
 20
-1.840362
  0
VERTEX
  8
PLAN_1
 62
     2
  6
CONTINUOUS
 10
-0.579071
 20
-1.838732
  0
VERTEX
  8
PLAN_1
 62
     2
  6
CONTINUOUS
 10
-0.580701
 20
-1.836559
  0
VERTEX
  8
PLAN_1
 62
     2
  6
CONTINUOUS
 10
-0.582331
 20
-1.834929
  0
VERTEX
  8
PLAN_1
 62
     2
  6
CONTINUOUS
 10
-0.584504
 20
-1.833843
  0
VERTEX
  8
PLAN_1
 62
     2
  6
CONTINUOUS
 10
-0.587764
 20
-1.832756
  0
VERTEX
  8
PLAN_1
 62
     2
  6
CONTINUOUS
 10
-0.591567
 20
-1.832756
  0
VERTEX
  8
PLAN_1
 62
     2
  6
CONTINUOUS
 10
-0.595909
 20
-1.833299
  0
VERTEX
  8
PLAN_1
 62
     2
  6
CONTINUOUS
 10
-0.599169
 20
-1.834386
  0
VERTEX
  8
PLAN_1
 62
     2
  6
CONTINUOUS
 10
-0.601343
 20
-1.836016
  0
VERTEX
  8
PLAN_1
 62
     2
  6
CONTINUOUS
 10
-0.602972
 20
-1.838732
  0
VERTEX
  8
PLAN_1
 62
     2
  6
CONTINUOUS
 10
-0.604059
 20
-1.840906
  0
VERTEX
  8
PLAN_1
 62
     2
  6
CONTINUOUS
 10
-0.605146
 20
-1.843622
  0
VERTEX
  8
PLAN_1
 62
     2
  6
CONTINUOUS
 10
-0.605146
 20
-1.846339
  0
VERTEX
  8
PLAN_1
 62
     2
  6
CONTINUOUS
 10
-0.605689
 20
-1.848512
  0
VERTEX
  8
PLAN_1
 62
     2
  6
CONTINUOUS
 10
-0.614378
 20
-1.848512
  0
VERTEX
  8
PLAN_1
 62
     2
  6
CONTINUOUS
 10
-0.614378
 20
-1.844165
  0
VERTEX
  8
PLAN_1
 62
     2
  6
CONTINUOUS
 10
-0.613295
 20
-1.839819
  0
VERTEX
  8
PLAN_1
 62
     2
  6
CONTINUOUS
 10
-0.612209
 20
-1.836016
  0
VERTEX
  8
PLAN_1
 62
     2
  6
CONTINUOUS
 10
-0.610035
 20
-1.832213
  0
VERTEX
  8
PLAN_1
 62
     2
  6
CONTINUOUS
 10
-0.608406
 20
-1.830587
  0
VERTEX
  8
PLAN_1
 62
     2
  6
CONTINUOUS
 10
-0.606776
 20
-1.828957
  0
VERTEX
  8
PLAN_1
 62
     2
  6
CONTINUOUS
 10
-0.605146
 20
-1.827870
  0
VERTEX
  8
PLAN_1
 62
     2
  6
CONTINUOUS
 10
-0.602972
 20
-1.826783
  0
VERTEX
  8
PLAN_1
 62
     2
  6
CONTINUOUS
 10
-0.600256
 20
-1.825697
  0
VERTEX
  8
PLAN_1
 62
     2
  6
CONTINUOUS
 10
-0.597539
 20
-1.825154
  0
VERTEX
  8
PLAN_1
 62
     2
  6
CONTINUOUS
 10
-0.594283
 20
-1.824610
  0
VERTEX
  8
PLAN_1
 62
     2
  6
CONTINUOUS
 10
-0.591024
 20
-1.824610
  0
VERTEX
  8
PLAN_1
 62
     2
  6
CONTINUOUS
 10
-0.586134
 20
-1.824610
  0
VERTEX
  8
PLAN_1
 62
     2
  6
CONTINUOUS
 10
-0.581244
 20
-1.825697
  0
VERTEX
  8
PLAN_1
 62
     2
  6
CONTINUOUS
 10
-0.577445
 20
-1.827327
  0
VERTEX
  8
PLAN_1
 62
     2
  6
CONTINUOUS
 10
-0.574185
 20
-1.830043
  0
VERTEX
  8
PLAN_1
 62
     2
  6
CONTINUOUS
 10
-0.572012
 20
-1.832756
  0
VERTEX
  8
PLAN_1
 62
     2
  6
CONTINUOUS
 10
-0.569839
 20
-1.836016
  0
VERTEX
  8
PLAN_1
 62
     2
  6
CONTINUOUS
 10
-0.568752
 20
-1.839819
  0
VERTEX
  8
PLAN_1
 62
     2
  6
CONTINUOUS
 10
-0.568209
 20
-1.843622
  0
VERTEX
  8
PLAN_1
 62
     2
  6
CONTINUOUS
 10
-0.568752
 20
-1.846882
  0
VERTEX
  8
PLAN_1
 62
     2
  6
CONTINUOUS
 10
-0.569295
 20
-1.849594
  0
VERTEX
  8
PLAN_1
 62
     2
  6
CONTINUOUS
 10
-0.570382
 20
-1.852311
  0
VERTEX
  8
PLAN_1
 62
     2
  6
CONTINUOUS
 10
-0.571469
 20
-1.853941
  0
VERTEX
  8
PLAN_1
 62
     2
  6
CONTINUOUS
 10
-0.573098
 20
-1.856114
  0
VERTEX
  8
PLAN_1
 62
     2
  6
CONTINUOUS
 10
-0.574728
 20
-1.857201
  0
VERTEX
  8
PLAN_1
 62
     2
  6
CONTINUOUS
 10
-0.576358
 20
-1.858287
  0
VERTEX
  8
PLAN_1
 62
     2
  6
CONTINUOUS
 10
-0.577445
 20
-1.858831
  0
VERTEX
  8
PLAN_1
 62
     2
  6
CONTINUOUS
 10
-0.575272
 20
-1.859917
  0
VERTEX
  8
PLAN_1
 62
     2
  6
CONTINUOUS
 10
-0.572555
 20
-1.861004
  0
VERTEX
  8
PLAN_1
 62
     2
  6
CONTINUOUS
 10
-0.570925
 20
-1.862634
  0
VERTEX
  8
PLAN_1
 62
     2
  6
CONTINUOUS
 10
-0.568752
 20
-1.864807
  0
VERTEX
  8
PLAN_1
 62
     2
  6
CONTINUOUS
 10
-0.567665
 20
-1.866980
  0
VERTEX
  8
PLAN_1
 62
     2
  6
CONTINUOUS
 10
-0.566579
 20
-1.869693
  0
VERTEX
  8
PLAN_1
 62
     2
  6
CONTINUOUS
 10
-0.565492
 20
-1.872409
  0
VERTEX
  8
PLAN_1
 62
     2
  6
CONTINUOUS
 10
-0.565492
 20
-1.876213
  0
VERTEX
  8
PLAN_1
 62
     2
  6
CONTINUOUS
 10
-0.566035
 20
-1.880559
  0
VERTEX
  8
PLAN_1
 62
     2
  6
CONTINUOUS
 10
-0.567122
 20
-1.884906
  0
VERTEX
  8
PLAN_1
 62
     2
  6
CONTINUOUS
 10
-0.568752
 20
-1.888705
  0
VERTEX
  8
PLAN_1
 62
     2
  6
CONTINUOUS
 10
-0.571469
 20
-1.891965
  0
VERTEX
  8
PLAN_1
 62
     2
  6
CONTINUOUS
 10
-0.575272
 20
-1.895224
  0
VERTEX
  8
PLAN_1
 62
     2
  6
CONTINUOUS
 10
-0.579614
 20
-1.897398
  0
VERTEX
  8
PLAN_1
 62
     2
  6
CONTINUOUS
 10
-0.582331
 20
-1.898484
  0
VERTEX
  8
PLAN_1
 62
     2
  6
CONTINUOUS
 10
-0.585591
 20
-1.899028
  0
VERTEX
  8
PLAN_1
 62
     2
  6
CONTINUOUS
 10
-0.588307
 20
-1.899571
  0
VERTEX
  8
PLAN_1
 62
     2
  6
CONTINUOUS
 10
-0.592110
 20
-1.899571
  0
VERTEX
  8
PLAN_1
 62
     2
  6
CONTINUOUS
 10
-0.593740
 20
-1.899571
  0
VERTEX
  8
PLAN_1
 62
     2
  6
CONTINUOUS
 10
-0.595909
 20
-1.899028
  0
VERTEX
  8
PLAN_1
 62
     2
  6
CONTINUOUS
 10
-0.597539
 20
-1.899028
  0
VERTEX
  8
PLAN_1
 62
     2
  6
CONTINUOUS
 10
-0.599169
 20
-1.898484
  0
VERTEX
  8
PLAN_1
 62
     2
  6
CONTINUOUS
 10
-0.600799
 20
-1.897941
  0
VERTEX
  8
PLAN_1
 62
     2
  6
CONTINUOUS
 10
-0.602429
 20
-1.897398
  0
VERTEX
  8
PLAN_1
 62
     2
  6
CONTINUOUS
 10
-0.604059
 20
-1.896854
  0
VERTEX
  8
PLAN_1
 62
     2
  6
CONTINUOUS
 10
-0.605146
 20
-1.896311
  0
VERTEX
  8
PLAN_1
 62
     2
  6
CONTINUOUS
 10
-0.608406
 20
-1.894681
  0
VERTEX
  8
PLAN_1
 62
     2
  6
CONTINUOUS
 10
-0.610579
 20
-1.892508
  0
VERTEX
  8
PLAN_1
 62
     2
  6
CONTINUOUS
 10
-0.612209
 20
-1.889791
  0
VERTEX
  8
PLAN_1
 62
     2
  6
CONTINUOUS
 10
-0.613835
 20
-1.887075
  0
VERTEX
  8
PLAN_1
 62
     2
  6
CONTINUOUS
 10
-0.614921
 20
-1.884362
  0
VERTEX
  8
PLAN_1
 62
     2
  6
CONTINUOUS
 10
-0.615465
 20
-1.881646
  0
VERTEX
  8
PLAN_1
 62
     2
  6
CONTINUOUS
 10
-0.616008
 20
-1.878386
  0
VERTEX
  8
PLAN_1
 62
     2
  6
CONTINUOUS
 10
-0.616551
 20
-1.875126
  0
VERTEX
  8
PLAN_1
 62
     2
  6
CONTINUOUS
 10
-0.606776
 20
-1.875126
  0
VERTEX
  8
PLAN_1
 62
     2
  6
CONTINUOUS
 10
-0.606776
 20
-1.877843
  0
VERTEX
  8
PLAN_1
 62
     2
  6
CONTINUOUS
 10
-0.606232
 20
-1.880559
  0
VERTEX
  8
PLAN_1
 62
     2
  6
CONTINUOUS
 10
-0.605146
 20
-1.883276
  0
VERTEX
  8
PLAN_1
 62
     2
  6
CONTINUOUS
 10
-0.604059
 20
-1.885988
  0
VERTEX
  8
PLAN_1
 62
     2
  6
CONTINUOUS
 10
-0.601886
 20
-1.888161
  0
VERTEX
  8
PLAN_1
 62
     2
  6
CONTINUOUS
 10
-0.599169
 20
-1.889791
  0
VERTEX
  8
PLAN_1
 62
     2
  6
CONTINUOUS
 10
-0.595909
 20
-1.890878
  0
VERTEX
  8
PLAN_1
 62
     2
  6
CONTINUOUS
 10
-0.591024
 20
-1.891421
  0
VERTEX
  8
PLAN_1
 62
     2
  6
CONTINUOUS
 10
-0.587764
 20
-1.890878
  0
VERTEX
  8
PLAN_1
 62
     2
  6
CONTINUOUS
 10
-0.585047
 20
-1.890335
  0
VERTEX
  8
PLAN_1
 62
     2
  6
CONTINUOUS
 10
-0.582331
 20
-1.889248
  0
VERTEX
  8
PLAN_1
 62
     2
  6
CONTINUOUS
 10
-0.579614
 20
-1.887618
  0
VERTEX
  8
PLAN_1
 62
     2
  6
CONTINUOUS
 10
-0.577984
 20
-1.885445
  0
VERTEX
  8
PLAN_1
 62
     2
  6
CONTINUOUS
 10
-0.576358
 20
-1.882732
  0
VERTEX
  8
PLAN_1
 62
     2
  6
CONTINUOUS
 10
-0.575815
 20
-1.880016
  0
VERTEX
  8
PLAN_1
 62
     2
  6
CONTINUOUS
 10
-0.575272
 20
-1.877299
  0
VERTEX
  8
PLAN_1
 62
     2
  6
CONTINUOUS
 10
-0.575815
 20
-1.872953
  0
VERTEX
  8
PLAN_1
 62
     2
  6
CONTINUOUS
 10
-0.576902
 20
-1.869693
  0
VERTEX
  8
PLAN_1
 62
     2
  6
CONTINUOUS
 10
-0.579071
 20
-1.867520
  0
VERTEX
  8
PLAN_1
 62
     2
  6
CONTINUOUS
 10
-0.581244
 20
-1.865894
  0
VERTEX
  8
PLAN_1
 62
     2
  6
CONTINUOUS
 10
-0.583961
 20
-1.864807
  0
VERTEX
  8
PLAN_1
 62
     2
  6
CONTINUOUS
 10
-0.587220
 20
-1.864264
  0
VERTEX
  8
PLAN_1
 62
     2
  6
CONTINUOUS
 10
-0.589937
 20
-1.863720
  0
VERTEX
  8
PLAN_1
 62
     2
  6
CONTINUOUS
 10
-0.592110
 20
-1.863720
  0
VERTEX
  8
PLAN_1
 62
     2
  6
CONTINUOUS
 10
-0.592654
 20
-1.863720
  0
VERTEX
  8
PLAN_1
 62
     2
  6
CONTINUOUS
 10
-0.593197
 20
-1.863720
  0
VERTEX
  8
PLAN_1
 62
     2
  6
CONTINUOUS
 10
-0.593740
 20
-1.863720
  0
VERTEX
  8
PLAN_1
 62
     2
  6
CONTINUOUS
 10
-0.594283
 20
-1.863720
  0
VERTEX
  8
PLAN_1
 62
     2
  6
CONTINUOUS
 10
-0.594827
 20
-1.863720
  0
VERTEX
  8
PLAN_1
 62
     2
  6
CONTINUOUS
 10
-0.595370
 20
-1.863720
  0
VERTEX
  8
PLAN_1
 62
     2
  6
CONTINUOUS
 10
-0.595909
 20
-1.863720
  0
VERTEX
  8
PLAN_1
 62
     2
  6
CONTINUOUS
 10
-0.596453
 20
-1.863720
  0
VERTEX
  8
PLAN_1
 62
     2
  6
CONTINUOUS
 10
-0.596453
 20
-1.856114
  0
SEQEND
  8
0
  0
POLYLINE
  8
PLAN_1
 62
     2
  6
CONTINUOUS
 66
     1
 40
0.003000
 41
0.003000
  0
VERTEX
  8
PLAN_1
 62
     2
  6
CONTINUOUS
 10
-0.538878
 20
-1.856114
  0
VERTEX
  8
PLAN_1
 62
     2
  6
CONTINUOUS
 10
-0.537791
 20
-1.856114
  0
VERTEX
  8
PLAN_1
 62
     2
  6
CONTINUOUS
 10
-0.537248
 20
-1.856114
  0
VERTEX
  8
PLAN_1
 62
     2
  6
CONTINUOUS
 10
-0.536705
 20
-1.856114
  0
VERTEX
  8
PLAN_1
 62
     2
  6
CONTINUOUS
 10
-0.536161
 20
-1.856114
  0
VERTEX
  8
PLAN_1
 62
     2
  6
CONTINUOUS
 10
-0.535618
 20
-1.856114
  0
VERTEX
  8
PLAN_1
 62
     2
  6
CONTINUOUS
 10
-0.535075
 20
-1.856114
  0
VERTEX
  8
PLAN_1
 62
     2
  6
CONTINUOUS
 10
-0.534531
 20
-1.856114
  0
VERTEX
  8
PLAN_1
 62
     2
  6
CONTINUOUS
 10
-0.533988
 20
-1.856114
  0
VERTEX
  8
PLAN_1
 62
     2
  6
CONTINUOUS
 10
-0.531272
 20
-1.856114
  0
VERTEX
  8
PLAN_1
 62
     2
  6
CONTINUOUS
 10
-0.528555
 20
-1.855571
  0
VERTEX
  8
PLAN_1
 62
     2
  6
CONTINUOUS
 10
-0.526382
 20
-1.854484
  0
VERTEX
  8
PLAN_1
 62
     2
  6
CONTINUOUS
 10
-0.524213
 20
-1.853398
  0
VERTEX
  8
PLAN_1
 62
     2
  6
CONTINUOUS
 10
-0.522583
 20
-1.851768
  0
VERTEX
  8
PLAN_1
 62
     2
  6
CONTINUOUS
 10
-0.520953
 20
-1.850138
  0
VERTEX
  8
PLAN_1
 62
     2
  6
CONTINUOUS
 10
-0.520409
 20
-1.847425
  0
VERTEX
  8
PLAN_1
 62
     2
  6
CONTINUOUS
 10
-0.519866
 20
-1.844165
  0
VERTEX
  8
PLAN_1
 62
     2
  6
CONTINUOUS
 10
-0.519866
 20
-1.842535
  0
VERTEX
  8
PLAN_1
 62
     2
  6
CONTINUOUS
 10
-0.520409
 20
-1.840362
  0
VERTEX
  8
PLAN_1
 62
     2
  6
CONTINUOUS
 10
-0.521496
 20
-1.838732
  0
VERTEX
  8
PLAN_1
 62
     2
  6
CONTINUOUS
 10
-0.522583
 20
-1.836559
  0
VERTEX
  8
PLAN_1
 62
     2
  6
CONTINUOUS
 10
-0.524213
 20
-1.834929
  0
VERTEX
  8
PLAN_1
 62
     2
  6
CONTINUOUS
 10
-0.526925
 20
-1.833843
  0
VERTEX
  8
PLAN_1
 62
     2
  6
CONTINUOUS
 10
-0.529642
 20
-1.832756
  0
VERTEX
  8
PLAN_1
 62
     2
  6
CONTINUOUS
 10
-0.533445
 20
-1.832756
  0
VERTEX
  8
PLAN_1
 62
     2
  6
CONTINUOUS
 10
-0.537791
 20
-1.833299
  0
VERTEX
  8
PLAN_1
 62
     2
  6
CONTINUOUS
 10
-0.541051
 20
-1.834386
  0
VERTEX
  8
PLAN_1
 62
     2
  6
CONTINUOUS
 10
-0.543764
 20
-1.836016
  0
VERTEX
  8
PLAN_1
 62
     2
  6
CONTINUOUS
 10
-0.545394
 20
-1.838732
  0
VERTEX
  8
PLAN_1
 62
     2
  6
CONTINUOUS
 10
-0.546480
 20
-1.840906
  0
VERTEX
  8
PLAN_1
 62
     2
  6
CONTINUOUS
 10
-0.547024
 20
-1.843622
  0
VERTEX
  8
PLAN_1
 62
     2
  6
CONTINUOUS
 10
-0.547567
 20
-1.846339
  0
VERTEX
  8
PLAN_1
 62
     2
  6
CONTINUOUS
 10
-0.547567
 20
-1.848512
  0
VERTEX
  8
PLAN_1
 62
     2
  6
CONTINUOUS
 10
-0.556803
 20
-1.848512
  0
VERTEX
  8
PLAN_1
 62
     2
  6
CONTINUOUS
 10
-0.556260
 20
-1.844165
  0
VERTEX
  8
PLAN_1
 62
     2
  6
CONTINUOUS
 10
-0.555717
 20
-1.839819
  0
VERTEX
  8
PLAN_1
 62
     2
  6
CONTINUOUS
 10
-0.554087
 20
-1.836016
  0
VERTEX
  8
PLAN_1
 62
     2
  6
CONTINUOUS
 10
-0.551913
 20
-1.832213
  0
VERTEX
  8
PLAN_1
 62
     2
  6
CONTINUOUS
 10
-0.550827
 20
-1.830587
  0
VERTEX
  8
PLAN_1
 62
     2
  6
CONTINUOUS
 10
-0.549197
 20
-1.828957
  0
VERTEX
  8
PLAN_1
 62
     2
  6
CONTINUOUS
 10
-0.547024
 20
-1.827870
  0
VERTEX
  8
PLAN_1
 62
     2
  6
CONTINUOUS
 10
-0.544850
 20
-1.826783
  0
VERTEX
  8
PLAN_1
 62
     2
  6
CONTINUOUS
 10
-0.542134
 20
-1.825697
  0
VERTEX
  8
PLAN_1
 62
     2
  6
CONTINUOUS
 10
-0.539421
 20
-1.825154
  0
VERTEX
  8
PLAN_1
 62
     2
  6
CONTINUOUS
 10
-0.536705
 20
-1.824610
  0
VERTEX
  8
PLAN_1
 62
     2
  6
CONTINUOUS
 10
-0.532902
 20
-1.824610
  0
VERTEX
  8
PLAN_1
 62
     2
  6
CONTINUOUS
 10
-0.528012
 20
-1.824610
  0
VERTEX
  8
PLAN_1
 62
     2
  6
CONTINUOUS
 10
-0.523669
 20
-1.825697
  0
VERTEX
  8
PLAN_1
 62
     2
  6
CONTINUOUS
 10
-0.519866
 20
-1.827327
  0
VERTEX
  8
PLAN_1
 62
     2
  6
CONTINUOUS
 10
-0.516606
 20
-1.830043
  0
VERTEX
  8
PLAN_1
 62
     2
  6
CONTINUOUS
 10
-0.513890
 20
-1.832756
  0
VERTEX
  8
PLAN_1
 62
     2
  6
CONTINUOUS
 10
-0.511717
 20
-1.836016
  0
VERTEX
  8
PLAN_1
 62
     2
  6
CONTINUOUS
 10
-0.510630
 20
-1.839819
  0
VERTEX
  8
PLAN_1
 62
     2
  6
CONTINUOUS
 10
-0.510630
 20
-1.843622
  0
VERTEX
  8
PLAN_1
 62
     2
  6
CONTINUOUS
 10
-0.510630
 20
-1.846882
  0
VERTEX
  8
PLAN_1
 62
     2
  6
CONTINUOUS
 10
-0.511173
 20
-1.849594
  0
VERTEX
  8
PLAN_1
 62
     2
  6
CONTINUOUS
 10
-0.512260
 20
-1.852311
  0
VERTEX
  8
PLAN_1
 62
     2
  6
CONTINUOUS
 10
-0.513890
 20
-1.853941
  0
VERTEX
  8
PLAN_1
 62
     2
  6
CONTINUOUS
 10
-0.514976
 20
-1.856114
  0
VERTEX
  8
PLAN_1
 62
     2
  6
CONTINUOUS
 10
-0.516606
 20
-1.857201
  0
VERTEX
  8
PLAN_1
 62
     2
  6
CONTINUOUS
 10
-0.518236
 20
-1.858287
  0
VERTEX
  8
PLAN_1
 62
     2
  6
CONTINUOUS
 10
-0.519866
 20
-1.858831
  0
VERTEX
  8
PLAN_1
 62
     2
  6
CONTINUOUS
 10
-0.517150
 20
-1.859917
  0
VERTEX
  8
PLAN_1
 62
     2
  6
CONTINUOUS
 10
-0.514976
 20
-1.861004
  0
VERTEX
  8
PLAN_1
 62
     2
  6
CONTINUOUS
 10
-0.512803
 20
-1.862634
  0
VERTEX
  8
PLAN_1
 62
     2
  6
CONTINUOUS
 10
-0.511173
 20
-1.864807
  0
VERTEX
  8
PLAN_1
 62
     2
  6
CONTINUOUS
 10
-0.509543
 20
-1.866980
  0
VERTEX
  8
PLAN_1
 62
     2
  6
CONTINUOUS
 10
-0.508457
 20
-1.869693
  0
VERTEX
  8
PLAN_1
 62
     2
  6
CONTINUOUS
 10
-0.507913
 20
-1.872409
  0
VERTEX
  8
PLAN_1
 62
     2
  6
CONTINUOUS
 10
-0.507370
 20
-1.876213
  0
VERTEX
  8
PLAN_1
 62
     2
  6
CONTINUOUS
 10
-0.507913
 20
-1.880559
  0
VERTEX
  8
PLAN_1
 62
     2
  6
CONTINUOUS
 10
-0.509000
 20
-1.884906
  0
VERTEX
  8
PLAN_1
 62
     2
  6
CONTINUOUS
 10
-0.511173
 20
-1.888705
  0
VERTEX
  8
PLAN_1
 62
     2
  6
CONTINUOUS
 10
-0.513890
 20
-1.891965
  0
VERTEX
  8
PLAN_1
 62
     2
  6
CONTINUOUS
 10
-0.517693
 20
-1.895224
  0
VERTEX
  8
PLAN_1
 62
     2
  6
CONTINUOUS
 10
-0.522039
 20
-1.897398
  0
VERTEX
  8
PLAN_1
 62
     2
  6
CONTINUOUS
 10
-0.524752
 20
-1.898484
  0
VERTEX
  8
PLAN_1
 62
     2
  6
CONTINUOUS
 10
-0.527469
 20
-1.899028
  0
VERTEX
  8
PLAN_1
 62
     2
  6
CONTINUOUS
 10
-0.530728
 20
-1.899571
  0
VERTEX
  8
PLAN_1
 62
     2
  6
CONTINUOUS
 10
-0.533988
 20
-1.899571
  0
VERTEX
  8
PLAN_1
 62
     2
  6
CONTINUOUS
 10
-0.536161
 20
-1.899571
  0
VERTEX
  8
PLAN_1
 62
     2
  6
CONTINUOUS
 10
-0.537791
 20
-1.899028
  0
VERTEX
  8
PLAN_1
 62
     2
  6
CONTINUOUS
 10
-0.539421
 20
-1.899028
  0
VERTEX
  8
PLAN_1
 62
     2
  6
CONTINUOUS
 10
-0.541594
 20
-1.898484
  0
VERTEX
  8
PLAN_1
 62
     2
  6
CONTINUOUS
 10
-0.543220
 20
-1.897941
  0
VERTEX
  8
PLAN_1
 62
     2
  6
CONTINUOUS
 10
-0.544850
 20
-1.897398
  0
VERTEX
  8
PLAN_1
 62
     2
  6
CONTINUOUS
 10
-0.545937
 20
-1.896854
  0
VERTEX
  8
PLAN_1
 62
     2
  6
CONTINUOUS
 10
-0.547567
 20
-1.896311
  0
VERTEX
  8
PLAN_1
 62
     2
  6
CONTINUOUS
 10
-0.550283
 20
-1.894681
  0
VERTEX
  8
PLAN_1
 62
     2
  6
CONTINUOUS
 10
-0.552457
 20
-1.892508
  0
VERTEX
  8
PLAN_1
 62
     2
  6
CONTINUOUS
 10
-0.554087
 20
-1.889791
  0
VERTEX
  8
PLAN_1
 62
     2
  6
CONTINUOUS
 10
-0.555717
 20
-1.887075
  0
VERTEX
  8
PLAN_1
 62
     2
  6
CONTINUOUS
 10
-0.556803
 20
-1.884362
  0
VERTEX
  8
PLAN_1
 62
     2
  6
CONTINUOUS
 10
-0.557346
 20
-1.881646
  0
VERTEX
  8
PLAN_1
 62
     2
  6
CONTINUOUS
 10
-0.557890
 20
-1.878386
  0
VERTEX
  8
PLAN_1
 62
     2
  6
CONTINUOUS
 10
-0.558433
 20
-1.875126
  0
VERTEX
  8
PLAN_1
 62
     2
  6
CONTINUOUS
 10
-0.548654
 20
-1.875126
  0
VERTEX
  8
PLAN_1
 62
     2
  6
CONTINUOUS
 10
-0.548654
 20
-1.877843
  0
VERTEX
  8
PLAN_1
 62
     2
  6
CONTINUOUS
 10
-0.548110
 20
-1.880559
  0
VERTEX
  8
PLAN_1
 62
     2
  6
CONTINUOUS
 10
-0.547567
 20
-1.883276
  0
VERTEX
  8
PLAN_1
 62
     2
  6
CONTINUOUS
 10
-0.545937
 20
-1.885988
  0
VERTEX
  8
PLAN_1
 62
     2
  6
CONTINUOUS
 10
-0.544307
 20
-1.888161
  0
VERTEX
  8
PLAN_1
 62
     2
  6
CONTINUOUS
 10
-0.541594
 20
-1.889791
  0
VERTEX
  8
PLAN_1
 62
     2
  6
CONTINUOUS
 10
-0.537791
 20
-1.890878
  0
VERTEX
  8
PLAN_1
 62
     2
  6
CONTINUOUS
 10
-0.533445
 20
-1.891421
  0
VERTEX
  8
PLAN_1
 62
     2
  6
CONTINUOUS
 10
-0.530185
 20
-1.890878
  0
VERTEX
  8
PLAN_1
 62
     2
  6
CONTINUOUS
 10
-0.526925
 20
-1.890335
  0
VERTEX
  8
PLAN_1
 62
     2
  6
CONTINUOUS
 10
-0.524213
 20
-1.889248
  0
VERTEX
  8
PLAN_1
 62
     2
  6
CONTINUOUS
 10
-0.522039
 20
-1.887618
  0
VERTEX
  8
PLAN_1
 62
     2
  6
CONTINUOUS
 10
-0.519866
 20
-1.885445
  0
VERTEX
  8
PLAN_1
 62
     2
  6
CONTINUOUS
 10
-0.518780
 20
-1.882732
  0
VERTEX
  8
PLAN_1
 62
     2
  6
CONTINUOUS
 10
-0.517693
 20
-1.880016
  0
VERTEX
  8
PLAN_1
 62
     2
  6
CONTINUOUS
 10
-0.517150
 20
-1.877299
  0
VERTEX
  8
PLAN_1
 62
     2
  6
CONTINUOUS
 10
-0.517693
 20
-1.872953
  0
VERTEX
  8
PLAN_1
 62
     2
  6
CONTINUOUS
 10
-0.519323
 20
-1.869693
  0
VERTEX
  8
PLAN_1
 62
     2
  6
CONTINUOUS
 10
-0.520953
 20
-1.867520
  0
VERTEX
  8
PLAN_1
 62
     2
  6
CONTINUOUS
 10
-0.523669
 20
-1.865894
  0
VERTEX
  8
PLAN_1
 62
     2
  6
CONTINUOUS
 10
-0.526382
 20
-1.864807
  0
VERTEX
  8
PLAN_1
 62
     2
  6
CONTINUOUS
 10
-0.529098
 20
-1.864264
  0
VERTEX
  8
PLAN_1
 62
     2
  6
CONTINUOUS
 10
-0.531815
 20
-1.863720
  0
VERTEX
  8
PLAN_1
 62
     2
  6
CONTINUOUS
 10
-0.534531
 20
-1.863720
  0
VERTEX
  8
PLAN_1
 62
     2
  6
CONTINUOUS
 10
-0.535075
 20
-1.863720
  0
VERTEX
  8
PLAN_1
 62
     2
  6
CONTINUOUS
 10
-0.535618
 20
-1.863720
  0
VERTEX
  8
PLAN_1
 62
     2
  6
CONTINUOUS
 10
-0.536161
 20
-1.863720
  0
VERTEX
  8
PLAN_1
 62
     2
  6
CONTINUOUS
 10
-0.536705
 20
-1.863720
  0
VERTEX
  8
PLAN_1
 62
     2
  6
CONTINUOUS
 10
-0.537248
 20
-1.863720
  0
VERTEX
  8
PLAN_1
 62
     2
  6
CONTINUOUS
 10
-0.537791
 20
-1.863720
  0
VERTEX
  8
PLAN_1
 62
     2
  6
CONTINUOUS
 10
-0.538335
 20
-1.863720
  0
VERTEX
  8
PLAN_1
 62
     2
  6
CONTINUOUS
 10
-0.538878
 20
-1.863720
  0
VERTEX
  8
PLAN_1
 62
     2
  6
CONTINUOUS
 10
-0.538878
 20
-1.856114
  0
SEQEND
  8
0
  0
POLYLINE
  8
PLAN_1
 62
     2
  6
CONTINUOUS
 66
     1
 40
0.003000
 41
0.003000
  0
VERTEX
  8
PLAN_1
 62
     2
  6
CONTINUOUS
 10
-0.495421
 20
-1.886531
  0
VERTEX
  8
PLAN_1
 62
     2
  6
CONTINUOUS
 10
-0.484559
 20
-1.886531
  0
VERTEX
  8
PLAN_1
 62
     2
  6
CONTINUOUS
 10
-0.484559
 20
-1.896854
  0
VERTEX
  8
PLAN_1
 62
     2
  6
CONTINUOUS
 10
-0.485102
 20
-1.901201
  0
VERTEX
  8
PLAN_1
 62
     2
  6
CONTINUOUS
 10
-0.486189
 20
-1.905000
  0
VERTEX
  8
PLAN_1
 62
     2
  6
CONTINUOUS
 10
-0.487819
 20
-1.907717
  0
VERTEX
  8
PLAN_1
 62
     2
  6
CONTINUOUS
 10
-0.489445
 20
-1.909890
  0
VERTEX
  8
PLAN_1
 62
     2
  6
CONTINUOUS
 10
-0.491075
 20
-1.911520
  0
VERTEX
  8
PLAN_1
 62
     2
  6
CONTINUOUS
 10
-0.493248
 20
-1.912063
  0
VERTEX
  8
PLAN_1
 62
     2
  6
CONTINUOUS
 10
-0.494335
 20
-1.912606
  0
VERTEX
  8
PLAN_1
 62
     2
  6
CONTINUOUS
 10
-0.495421
 20
-1.912606
  0
VERTEX
  8
PLAN_1
 62
     2
  6
CONTINUOUS
 10
-0.495421
 20
-1.908260
  0
VERTEX
  8
PLAN_1
 62
     2
  6
CONTINUOUS
 10
-0.494335
 20
-1.907717
  0
VERTEX
  8
PLAN_1
 62
     2
  6
CONTINUOUS
 10
-0.492705
 20
-1.906630
  0
VERTEX
  8
PLAN_1
 62
     2
  6
CONTINUOUS
 10
-0.492161
 20
-1.905543
  0
VERTEX
  8
PLAN_1
 62
     2
  6
CONTINUOUS
 10
-0.491075
 20
-1.904457
  0
VERTEX
  8
PLAN_1
 62
     2
  6
CONTINUOUS
 10
-0.490531
 20
-1.902831
  0
VERTEX
  8
PLAN_1
 62
     2
  6
CONTINUOUS
 10
-0.490531
 20
-1.901201
  0
VERTEX
  8
PLAN_1
 62
     2
  6
CONTINUOUS
 10
-0.489988
 20
-1.899571
  0
VERTEX
  8
PLAN_1
 62
     2
  6
CONTINUOUS
 10
-0.489988
 20
-1.897398
  0
VERTEX
  8
PLAN_1
 62
     2
  6
CONTINUOUS
 10
-0.495421
 20
-1.897398
  0
VERTEX
  8
PLAN_1
 62
     2
  6
CONTINUOUS
 10
-0.495421
 20
-1.886531
  0
SEQEND
  8
0
  0
POLYLINE
  8
PLAN_1
 62
     2
  6
CONTINUOUS
 66
     1
 40
0.003000
 41
0.003000
  0
VERTEX
  8
PLAN_1
 62
     2
  6
CONTINUOUS
 10
-0.459571
 20
-1.855028
  0
VERTEX
  8
PLAN_1
 62
     2
  6
CONTINUOUS
 10
-0.458484
 20
-1.853941
  0
VERTEX
  8
PLAN_1
 62
     2
  6
CONTINUOUS
 10
-0.457398
 20
-1.853398
  0
VERTEX
  8
PLAN_1
 62
     2
  6
CONTINUOUS
 10
-0.455768
 20
-1.852311
  0
VERTEX
  8
PLAN_1
 62
     2
  6
CONTINUOUS
 10
-0.454138
 20
-1.851768
  0
VERTEX
  8
PLAN_1
 62
     2
  6
CONTINUOUS
 10
-0.451969
 20
-1.851224
  0
VERTEX
  8
PLAN_1
 62
     2
  6
CONTINUOUS
 10
-0.450339
 20
-1.850681
  0
VERTEX
  8
PLAN_1
 62
     2
  6
CONTINUOUS
 10
-0.448165
 20
-1.850681
  0
VERTEX
  8
PLAN_1
 62
     2
  6
CONTINUOUS
 10
-0.445449
 20
-1.850138
  0
VERTEX
  8
PLAN_1
 62
     2
  6
CONTINUOUS
 10
-0.441102
 20
-1.850681
  0
VERTEX
  8
PLAN_1
 62
     2
  6
CONTINUOUS
 10
-0.436756
 20
-1.851768
  0
VERTEX
  8
PLAN_1
 62
     2
  6
CONTINUOUS
 10
-0.432957
 20
-1.853941
  0
VERTEX
  8
PLAN_1
 62
     2
  6
CONTINUOUS
 10
-0.429154
 20
-1.856657
  0
VERTEX
  8
PLAN_1
 62
     2
  6
CONTINUOUS
 10
-0.425894
 20
-1.859917
  0
VERTEX
  8
PLAN_1
 62
     2
  6
CONTINUOUS
 10
-0.423720
 20
-1.863720
  0
VERTEX
  8
PLAN_1
 62
     2
  6
CONTINUOUS
 10
-0.422634
 20
-1.865894
  0
VERTEX
  8
PLAN_1
 62
     2
  6
CONTINUOUS
 10
-0.422091
 20
-1.868606
  0
VERTEX
  8
PLAN_1
 62
     2
  6
CONTINUOUS
 10
-0.421547
 20
-1.870780
  0
VERTEX
  8
PLAN_1
 62
     2
  6
CONTINUOUS
 10
-0.421547
 20
-1.874039
  0
VERTEX
  8
PLAN_1
 62
     2
  6
CONTINUOUS
 10
-0.421547
 20
-1.877299
  0
VERTEX
  8
PLAN_1
 62
     2
  6
CONTINUOUS
 10
-0.422634
 20
-1.881102
  0
VERTEX
  8
PLAN_1
 62
     2
  6
CONTINUOUS
 10
-0.423720
 20
-1.885445
  0
VERTEX
  8
PLAN_1
 62
     2
  6
CONTINUOUS
 10
-0.426437
 20
-1.889791
  0
VERTEX
  8
PLAN_1
 62
     2
  6
CONTINUOUS
 10
-0.428067
 20
-1.891421
  0
VERTEX
  8
PLAN_1
 62
     2
  6
CONTINUOUS
 10
-0.429697
 20
-1.893594
  0
VERTEX
  8
PLAN_1
 62
     2
  6
CONTINUOUS
 10
-0.431870
 20
-1.895224
  0
VERTEX
  8
PLAN_1
 62
     2
  6
CONTINUOUS
 10
-0.434587
 20
-1.896854
  0
VERTEX
  8
PLAN_1
 62
     2
  6
CONTINUOUS
 10
-0.437299
 20
-1.897941
  0
VERTEX
  8
PLAN_1
 62
     2
  6
CONTINUOUS
 10
-0.440559
 20
-1.898484
  0
VERTEX
  8
PLAN_1
 62
     2
  6
CONTINUOUS
 10
-0.443819
 20
-1.899028
  0
VERTEX
  8
PLAN_1
 62
     2
  6
CONTINUOUS
 10
-0.448165
 20
-1.899571
  0
VERTEX
  8
PLAN_1
 62
     2
  6
CONTINUOUS
 10
-0.451969
 20
-1.899028
  0
VERTEX
  8
PLAN_1
 62
     2
  6
CONTINUOUS
 10
-0.455768
 20
-1.898484
  0
VERTEX
  8
PLAN_1
 62
     2
  6
CONTINUOUS
 10
-0.459571
 20
-1.897398
  0
VERTEX
  8
PLAN_1
 62
     2
  6
CONTINUOUS
 10
-0.462831
 20
-1.895768
  0
VERTEX
  8
PLAN_1
 62
     2
  6
CONTINUOUS
 10
-0.466091
 20
-1.893051
  0
VERTEX
  8
PLAN_1
 62
     2
  6
CONTINUOUS
 10
-0.468807
 20
-1.889248
  0
VERTEX
  8
PLAN_1
 62
     2
  6
CONTINUOUS
 10
-0.469894
 20
-1.887075
  0
VERTEX
  8
PLAN_1
 62
     2
  6
CONTINUOUS
 10
-0.470437
 20
-1.884906
  0
VERTEX
  8
PLAN_1
 62
     2
  6
CONTINUOUS
 10
-0.471520
 20
-1.882189
  0
VERTEX
  8
PLAN_1
 62
     2
  6
CONTINUOUS
 10
-0.471520
 20
-1.879472
  0
VERTEX
  8
PLAN_1
 62
     2
  6
CONTINUOUS
 10
-0.462287
 20
-1.879472
  0
VERTEX
  8
PLAN_1
 62
     2
  6
CONTINUOUS
 10
-0.461744
 20
-1.882189
  0
VERTEX
  8
PLAN_1
 62
     2
  6
CONTINUOUS
 10
-0.460657
 20
-1.884906
  0
VERTEX
  8
PLAN_1
 62
     2
  6
CONTINUOUS
 10
-0.459028
 20
-1.887075
  0
VERTEX
  8
PLAN_1
 62
     2
  6
CONTINUOUS
 10
-0.457398
 20
-1.888705
  0
VERTEX
  8
PLAN_1
 62
     2
  6
CONTINUOUS
 10
-0.455224
 20
-1.889791
  0
VERTEX
  8
PLAN_1
 62
     2
  6
CONTINUOUS
 10
-0.452512
 20
-1.890878
  0
VERTEX
  8
PLAN_1
 62
     2
  6
CONTINUOUS
 10
-0.449795
 20
-1.891421
  0
VERTEX
  8
PLAN_1
 62
     2
  6
CONTINUOUS
 10
-0.446535
 20
-1.891421
  0
VERTEX
  8
PLAN_1
 62
     2
  6
CONTINUOUS
 10
-0.443276
 20
-1.891421
  0
VERTEX
  8
PLAN_1
 62
     2
  6
CONTINUOUS
 10
-0.440559
 20
-1.890335
  0
VERTEX
  8
PLAN_1
 62
     2
  6
CONTINUOUS
 10
-0.437843
 20
-1.888705
  0
VERTEX
  8
PLAN_1
 62
     2
  6
CONTINUOUS
 10
-0.435669
 20
-1.886531
  0
VERTEX
  8
PLAN_1
 62
     2
  6
CONTINUOUS
 10
-0.434043
 20
-1.884362
  0
VERTEX
  8
PLAN_1
 62
     2
  6
CONTINUOUS
 10
-0.432413
 20
-1.881102
  0
VERTEX
  8
PLAN_1
 62
     2
  6
CONTINUOUS
 10
-0.431870
 20
-1.878386
  0
VERTEX
  8
PLAN_1
 62
     2
  6
CONTINUOUS
 10
-0.431327
 20
-1.874583
  0
VERTEX
  8
PLAN_1
 62
     2
  6
CONTINUOUS
 10
-0.431870
 20
-1.871323
  0
VERTEX
  8
PLAN_1
 62
     2
  6
CONTINUOUS
 10
-0.432413
 20
-1.868063
  0
VERTEX
  8
PLAN_1
 62
     2
  6
CONTINUOUS
 10
-0.434043
 20
-1.865350
  0
VERTEX
  8
PLAN_1
 62
     2
  6
CONTINUOUS
 10
-0.436213
 20
-1.862634
  0
VERTEX
  8
PLAN_1
 62
     2
  6
CONTINUOUS
 10
-0.438386
 20
-1.861004
  0
VERTEX
  8
PLAN_1
 62
     2
  6
CONTINUOUS
 10
-0.441102
 20
-1.859917
  0
VERTEX
  8
PLAN_1
 62
     2
  6
CONTINUOUS
 10
-0.444362
 20
-1.858831
  0
VERTEX
  8
PLAN_1
 62
     2
  6
CONTINUOUS
 10
-0.447622
 20
-1.858831
  0
VERTEX
  8
PLAN_1
 62
     2
  6
CONTINUOUS
 10
-0.449795
 20
-1.858831
  0
VERTEX
  8
PLAN_1
 62
     2
  6
CONTINUOUS
 10
-0.451425
 20
-1.858831
  0
VERTEX
  8
PLAN_1
 62
     2
  6
CONTINUOUS
 10
-0.453594
 20
-1.859374
  0
VERTEX
  8
PLAN_1
 62
     2
  6
CONTINUOUS
 10
-0.455224
 20
-1.860461
  0
VERTEX
  8
PLAN_1
 62
     2
  6
CONTINUOUS
 10
-0.456854
 20
-1.861547
  0
VERTEX
  8
PLAN_1
 62
     2
  6
CONTINUOUS
 10
-0.458484
 20
-1.862634
  0
VERTEX
  8
PLAN_1
 62
     2
  6
CONTINUOUS
 10
-0.459571
 20
-1.863720
  0
VERTEX
  8
PLAN_1
 62
     2
  6
CONTINUOUS
 10
-0.461201
 20
-1.865350
  0
VERTEX
  8
PLAN_1
 62
     2
  6
CONTINUOUS
 10
-0.468807
 20
-1.865350
  0
VERTEX
  8
PLAN_1
 62
     2
  6
CONTINUOUS
 10
-0.463374
 20
-1.825697
  0
VERTEX
  8
PLAN_1
 62
     2
  6
CONTINUOUS
 10
-0.425894
 20
-1.825697
  0
VERTEX
  8
PLAN_1
 62
     2
  6
CONTINUOUS
 10
-0.425894
 20
-1.834929
  0
VERTEX
  8
PLAN_1
 62
     2
  6
CONTINUOUS
 10
-0.456854
 20
-1.834929
  0
VERTEX
  8
PLAN_1
 62
     2
  6
CONTINUOUS
 10
-0.459571
 20
-1.855028
  0
SEQEND
  8
0
  0
POLYLINE
  8
PLAN_1
 62
     2
  6
CONTINUOUS
 66
     1
 40
0.004343
 41
0.004343
  0
VERTEX
  8
PLAN_1
 62
     2
  6
CONTINUOUS
 10
-2.148886
 20
2.172709
  0
VERTEX
  8
PLAN_1
 62
     2
  6
CONTINUOUS
 10
-2.148886
 20
-2.110870
  0
SEQEND
  8
0
  0
POLYLINE
  8
PLAN_1
 62
     2
  6
CONTINUOUS
 66
     1
 40
0.004343
 41
0.004343
  0
VERTEX
  8
PLAN_1
 62
     2
  6
CONTINUOUS
 10
-2.119551
 20
-2.078823
  0
VERTEX
  8
PLAN_1
 62
     2
  6
CONTINUOUS
 10
0.122181
 20
-2.078823
  0
SEQEND
  8
0
  0
SOLID
  8
PLAN_1
 62
     2
 10
0.151516
 20
-2.078823
 11
0.092850
 21
-2.063071
 12
0.151516
 22
-2.078823
 13
0.092850
 23
-2.094575
  0
POLYLINE
  8
PLAN_1
 62
     2
  6
CONTINUOUS
 66
     1
 40
0.003000
 41
0.003000
  0
VERTEX
  8
PLAN_1
 62
     2
  6
CONTINUOUS
 10
0.151516
 20
-2.078823
  0
VERTEX
  8
PLAN_1
 62
     2
  6
CONTINUOUS
 10
0.092850
 20
-2.063071
  0
VERTEX
  8
PLAN_1
 62
     2
  6
CONTINUOUS
 10
0.092850
 20
-2.094575
  0
VERTEX
  8
PLAN_1
 62
     2
  6
CONTINUOUS
 10
0.151516
 20
-2.078823
  0
SEQEND
  8
0
  0
SOLID
  8
PLAN_1
 62
     2
 10
-2.148886
 20
-2.078823
 11
-2.089677
 21
-2.063071
 12
-2.148886
 22
-2.078823
 13
-2.089677
 23
-2.094575
  0
POLYLINE
  8
PLAN_1
 62
     2
  6
CONTINUOUS
 66
     1
 40
0.003000
 41
0.003000
  0
VERTEX
  8
PLAN_1
 62
     2
  6
CONTINUOUS
 10
-2.148886
 20
-2.078823
  0
VERTEX
  8
PLAN_1
 62
     2
  6
CONTINUOUS
 10
-2.089677
 20
-2.063071
  0
VERTEX
  8
PLAN_1
 62
     2
  6
CONTINUOUS
 10
-2.089677
 20
-2.094575
  0
VERTEX
  8
PLAN_1
 62
     2
  6
CONTINUOUS
 10
-2.148886
 20
-2.078823
  0
SEQEND
  8
0
  0
POLYLINE
  8
PLAN_1
 62
     2
  6
CONTINUOUS
 66
     1
 40
0.003000
 41
0.003000
  0
VERTEX
  8
PLAN_1
 62
     2
  6
CONTINUOUS
 10
-1.013079
 20
-2.001146
  0
VERTEX
  8
PLAN_1
 62
     2
  6
CONTINUOUS
 10
-1.013622
 20
-1.998972
  0
VERTEX
  8
PLAN_1
 62
     2
  6
CONTINUOUS
 10
-1.014165
 20
-1.996799
  0
VERTEX
  8
PLAN_1
 62
     2
  6
CONTINUOUS
 10
-1.015252
 20
-1.995169
  0
VERTEX
  8
PLAN_1
 62
     2
  6
CONTINUOUS
 10
-1.016882
 20
-1.992996
  0
VERTEX
  8
PLAN_1
 62
     2
  6
CONTINUOUS
 10
-1.018512
 20
-1.991913
  0
VERTEX
  8
PLAN_1
 62
     2
  6
CONTINUOUS
 10
-1.020685
 20
-1.990827
  0
VERTEX
  8
PLAN_1
 62
     2
  6
CONTINUOUS
 10
-1.022858
 20
-1.990283
  0
VERTEX
  8
PLAN_1
 62
     2
  6
CONTINUOUS
 10
-1.025571
 20
-1.990283
  0
VERTEX
  8
PLAN_1
 62
     2
  6
CONTINUOUS
 10
-1.028287
 20
-1.990283
  0
VERTEX
  8
PLAN_1
 62
     2
  6
CONTINUOUS
 10
-1.030461
 20
-1.990827
  0
VERTEX
  8
PLAN_1
 62
     2
  6
CONTINUOUS
 10
-1.032634
 20
-1.991913
  0
VERTEX
  8
PLAN_1
 62
     2
  6
CONTINUOUS
 10
-1.034264
 20
-1.992996
  0
VERTEX
  8
PLAN_1
 62
     2
  6
CONTINUOUS
 10
-1.037524
 20
-1.996799
  0
VERTEX
  8
PLAN_1
 62
     2
  6
CONTINUOUS
 10
-1.039697
 20
-2.000602
  0
VERTEX
  8
PLAN_1
 62
     2
  6
CONTINUOUS
 10
-1.041327
 20
-2.004949
  0
VERTEX
  8
PLAN_1
 62
     2
  6
CONTINUOUS
 10
-1.042413
 20
-2.009839
  0
VERTEX
  8
PLAN_1
 62
     2
  6
CONTINUOUS
 10
-1.042953
 20
-2.013638
  0
VERTEX
  8
PLAN_1
 62
     2
  6
CONTINUOUS
 10
-1.042953
 20
-2.016898
  0
VERTEX
  8
PLAN_1
 62
     2
  6
CONTINUOUS
 10
-1.042953
 20
-2.017441
  0
VERTEX
  8
PLAN_1
 62
     2
  6
CONTINUOUS
 10
-1.041870
 20
-2.015811
  0
VERTEX
  8
PLAN_1
 62
     2
  6
CONTINUOUS
 10
-1.040783
 20
-2.014181
  0
VERTEX
  8
PLAN_1
 62
     2
  6
CONTINUOUS
 10
-1.039154
 20
-2.012551
  0
VERTEX
  8
PLAN_1
 62
     2
  6
CONTINUOUS
 10
-1.036980
 20
-2.011465
  0
VERTEX
  8
PLAN_1
 62
     2
  6
CONTINUOUS
 10
-1.034807
 20
-2.010378
  0
VERTEX
  8
PLAN_1
 62
     2
  6
CONTINUOUS
 10
-1.032091
 20
-2.009295
  0
VERTEX
  8
PLAN_1
 62
     2
  6
CONTINUOUS
 10
-1.028831
 20
-2.008752
  0
VERTEX
  8
PLAN_1
 62
     2
  6
CONTINUOUS
 10
-1.025571
 20
-2.008209
  0
VERTEX
  8
PLAN_1
 62
     2
  6
CONTINUOUS
 10
-1.021772
 20
-2.008752
  0
VERTEX
  8
PLAN_1
 62
     2
  6
CONTINUOUS
 10
-1.017969
 20
-2.009295
  0
VERTEX
  8
PLAN_1
 62
     2
  6
CONTINUOUS
 10
-1.014165
 20
-2.010921
  0
VERTEX
  8
PLAN_1
 62
     2
  6
CONTINUOUS
 10
-1.010906
 20
-2.013638
  0
VERTEX
  8
PLAN_1
 62
     2
  6
CONTINUOUS
 10
-1.007646
 20
-2.016354
  0
VERTEX
  8
PLAN_1
 62
     2
  6
CONTINUOUS
 10
-1.004933
 20
-2.020701
  0
VERTEX
  8
PLAN_1
 62
     2
  6
CONTINUOUS
 10
-1.003846
 20
-2.022874
  0
VERTEX
  8
PLAN_1
 62
     2
  6
CONTINUOUS
 10
-1.003303
 20
-2.025591
  0
VERTEX
  8
PLAN_1
 62
     2
  6
CONTINUOUS
 10
-1.002760
 20
-2.028303
  0
VERTEX
  8
PLAN_1
 62
     2
  6
CONTINUOUS
 10
-1.002760
 20
-2.031563
  0
VERTEX
  8
PLAN_1
 62
     2
  6
CONTINUOUS
 10
-1.002760
 20
-2.034280
  0
VERTEX
  8
PLAN_1
 62
     2
  6
CONTINUOUS
 10
-1.002760
 20
-2.036996
  0
VERTEX
  8
PLAN_1
 62
     2
  6
CONTINUOUS
 10
-1.003303
 20
-2.039169
  0
VERTEX
  8
PLAN_1
 62
     2
  6
CONTINUOUS
 10
-1.004390
 20
-2.041343
  0
VERTEX
  8
PLAN_1
 62
     2
  6
CONTINUOUS
 10
-1.004933
 20
-2.043516
  0
VERTEX
  8
PLAN_1
 62
     2
  6
CONTINUOUS
 10
-1.006563
 20
-2.045689
  0
VERTEX
  8
PLAN_1
 62
     2
  6
CONTINUOUS
 10
-1.007646
 20
-2.047858
  0
VERTEX
  8
PLAN_1
 62
     2
  6
CONTINUOUS
 10
-1.009276
 20
-2.050031
  0
VERTEX
  8
PLAN_1
 62
     2
  6
CONTINUOUS
 10
-1.010906
 20
-2.051661
  0
VERTEX
  8
PLAN_1
 62
     2
  6
CONTINUOUS
 10
-1.012535
 20
-2.052748
  0
VERTEX
  8
PLAN_1
 62
     2
  6
CONTINUOUS
 10
-1.014165
 20
-2.053835
  0
VERTEX
  8
PLAN_1
 62
     2
  6
CONTINUOUS
 10
-1.016339
 20
-2.054921
  0
VERTEX
  8
PLAN_1
 62
     2
  6
CONTINUOUS
 10
-1.018512
 20
-2.056008
  0
VERTEX
  8
PLAN_1
 62
     2
  6
CONTINUOUS
 10
-1.021228
 20
-2.056551
  0
VERTEX
  8
PLAN_1
 62
     2
  6
CONTINUOUS
 10
-1.024488
 20
-2.057094
  0
VERTEX
  8
PLAN_1
 62
     2
  6
CONTINUOUS
 10
-1.028287
 20
-2.057094
  0
VERTEX
  8
PLAN_1
 62
     2
  6
CONTINUOUS
 10
-1.030461
 20
-2.057094
  0
VERTEX
  8
PLAN_1
 62
     2
  6
CONTINUOUS
 10
-1.032634
 20
-2.056551
  0
VERTEX
  8
PLAN_1
 62
     2
  6
CONTINUOUS
 10
-1.035350
 20
-2.056008
  0
VERTEX
  8
PLAN_1
 62
     2
  6
CONTINUOUS
 10
-1.037524
 20
-2.054921
  0
VERTEX
  8
PLAN_1
 62
     2
  6
CONTINUOUS
 10
-1.040240
 20
-2.053291
  0
VERTEX
  8
PLAN_1
 62
     2
  6
CONTINUOUS
 10
-1.042413
 20
-2.051661
  0
VERTEX
  8
PLAN_1
 62
     2
  6
CONTINUOUS
 10
-1.044583
 20
-2.048945
  0
VERTEX
  8
PLAN_1
 62
     2
  6
CONTINUOUS
 10
-1.046756
 20
-2.046228
  0
VERTEX
  8
PLAN_1
 62
     2
  6
CONTINUOUS
 10
-1.048386
 20
-2.043516
  0
VERTEX
  8
PLAN_1
 62
     2
  6
CONTINUOUS
 10
-1.049472
 20
-2.040799
  0
VERTEX
  8
PLAN_1
 62
     2
  6
CONTINUOUS
 10
-1.050559
 20
-2.038083
  0
VERTEX
  8
PLAN_1
 62
     2
  6
CONTINUOUS
 10
-1.051102
 20
-2.034823
  0
VERTEX
  8
PLAN_1
 62
     2
  6
CONTINUOUS
 10
-1.051646
 20
-2.031563
  0
VERTEX
  8
PLAN_1
 62
     2
  6
CONTINUOUS
 10
-1.052189
 20
-2.027764
  0
VERTEX
  8
PLAN_1
 62
     2
  6
CONTINUOUS
 10
-1.052189
 20
-2.024504
  0
VERTEX
  8
PLAN_1
 62
     2
  6
CONTINUOUS
 10
-1.052732
 20
-2.020701
  0
VERTEX
  8
PLAN_1
 62
     2
  6
CONTINUOUS
 10
-1.052189
 20
-2.014724
  0
VERTEX
  8
PLAN_1
 62
     2
  6
CONTINUOUS
 10
-1.051102
 20
-2.008209
  0
VERTEX
  8
PLAN_1
 62
     2
  6
CONTINUOUS
 10
-1.049472
 20
-2.001689
  0
VERTEX
  8
PLAN_1
 62
     2
  6
CONTINUOUS
 10
-1.047299
 20
-1.995169
  0
VERTEX
  8
PLAN_1
 62
     2
  6
CONTINUOUS
 10
-1.045669
 20
-1.992453
  0
VERTEX
  8
PLAN_1
 62
     2
  6
CONTINUOUS
 10
-1.043496
 20
-1.989740
  0
VERTEX
  8
PLAN_1
 62
     2
  6
CONTINUOUS
 10
-1.041327
 20
-1.987567
  0
VERTEX
  8
PLAN_1
 62
     2
  6
CONTINUOUS
 10
-1.039154
 20
-1.985937
  0
VERTEX
  8
PLAN_1
 62
     2
  6
CONTINUOUS
 10
-1.035894
 20
-1.984307
  0
VERTEX
  8
PLAN_1
 62
     2
  6
CONTINUOUS
 10
-1.032634
 20
-1.982677
  0
VERTEX
  8
PLAN_1
 62
     2
  6
CONTINUOUS
 10
-1.029374
 20
-1.982134
  0
VERTEX
  8
PLAN_1
 62
     2
  6
CONTINUOUS
 10
-1.025571
 20
-1.981591
  0
VERTEX
  8
PLAN_1
 62
     2
  6
CONTINUOUS
 10
-1.022315
 20
-1.982134
  0
VERTEX
  8
PLAN_1
 62
     2
  6
CONTINUOUS
 10
-1.018512
 20
-1.982677
  0
VERTEX
  8
PLAN_1
 62
     2
  6
CONTINUOUS
 10
-1.015252
 20
-1.984307
  0
VERTEX
  8
PLAN_1
 62
     2
  6
CONTINUOUS
 10
-1.011992
 20
-1.985937
  0
VERTEX
  8
PLAN_1
 62
     2
  6
CONTINUOUS
 10
-1.009276
 20
-1.988654
  0
VERTEX
  8
PLAN_1
 62
     2
  6
CONTINUOUS
 10
-1.006563
 20
-1.991913
  0
VERTEX
  8
PLAN_1
 62
     2
  6
CONTINUOUS
 10
-1.004933
 20
-1.996256
  0
VERTEX
  8
PLAN_1
 62
     2
  6
CONTINUOUS
 10
-1.003846
 20
-2.001146
  0
VERTEX
  8
PLAN_1
 62
     2
  6
CONTINUOUS
 10
-1.013079
 20
-2.001146
  0
SEQEND
  8
0
  0
POLYLINE
  8
PLAN_1
 62
     2
  6
CONTINUOUS
 66
     1
 40
0.003000
 41
0.003000
  0
VERTEX
  8
PLAN_1
 62
     2
  6
CONTINUOUS
 10
-1.026114
 20
-2.048945
  0
VERTEX
  8
PLAN_1
 62
     2
  6
CONTINUOUS
 10
-1.023402
 20
-2.048402
  0
VERTEX
  8
PLAN_1
 62
     2
  6
CONTINUOUS
 10
-1.020685
 20
-2.047315
  0
VERTEX
  8
PLAN_1
 62
     2
  6
CONTINUOUS
 10
-1.017969
 20
-2.046228
  0
VERTEX
  8
PLAN_1
 62
     2
  6
CONTINUOUS
 10
-1.015795
 20
-2.044059
  0
VERTEX
  8
PLAN_1
 62
     2
  6
CONTINUOUS
 10
-1.014165
 20
-2.041886
  0
VERTEX
  8
PLAN_1
 62
     2
  6
CONTINUOUS
 10
-1.013079
 20
-2.038626
  0
VERTEX
  8
PLAN_1
 62
     2
  6
CONTINUOUS
 10
-1.012535
 20
-2.035366
  0
VERTEX
  8
PLAN_1
 62
     2
  6
CONTINUOUS
 10
-1.011992
 20
-2.032106
  0
VERTEX
  8
PLAN_1
 62
     2
  6
CONTINUOUS
 10
-1.011992
 20
-2.029390
  0
VERTEX
  8
PLAN_1
 62
     2
  6
CONTINUOUS
 10
-1.012535
 20
-2.026677
  0
VERTEX
  8
PLAN_1
 62
     2
  6
CONTINUOUS
 10
-1.013622
 20
-2.024504
  0
VERTEX
  8
PLAN_1
 62
     2
  6
CONTINUOUS
 10
-1.015252
 20
-2.021787
  0
VERTEX
  8
PLAN_1
 62
     2
  6
CONTINUOUS
 10
-1.016882
 20
-2.019614
  0
VERTEX
  8
PLAN_1
 62
     2
  6
CONTINUOUS
 10
-1.019598
 20
-2.017984
  0
VERTEX
  8
PLAN_1
 62
     2
  6
CONTINUOUS
 10
-1.022858
 20
-2.016898
  0
VERTEX
  8
PLAN_1
 62
     2
  6
CONTINUOUS
 10
-1.026657
 20
-2.016354
  0
VERTEX
  8
PLAN_1
 62
     2
  6
CONTINUOUS
 10
-1.030461
 20
-2.016898
  0
VERTEX
  8
PLAN_1
 62
     2
  6
CONTINUOUS
 10
-1.033177
 20
-2.017984
  0
VERTEX
  8
PLAN_1
 62
     2
  6
CONTINUOUS
 10
-1.035894
 20
-2.019614
  0
VERTEX
  8
PLAN_1
 62
     2
  6
CONTINUOUS
 10
-1.038067
 20
-2.021244
  0
VERTEX
  8
PLAN_1
 62
     2
  6
CONTINUOUS
 10
-1.039697
 20
-2.023417
  0
VERTEX
  8
PLAN_1
 62
     2
  6
CONTINUOUS
 10
-1.040783
 20
-2.026134
  0
VERTEX
  8
PLAN_1
 62
     2
  6
CONTINUOUS
 10
-1.041327
 20
-2.029390
  0
VERTEX
  8
PLAN_1
 62
     2
  6
CONTINUOUS
 10
-1.041870
 20
-2.032650
  0
VERTEX
  8
PLAN_1
 62
     2
  6
CONTINUOUS
 10
-1.041327
 20
-2.035366
  0
VERTEX
  8
PLAN_1
 62
     2
  6
CONTINUOUS
 10
-1.040783
 20
-2.038083
  0
VERTEX
  8
PLAN_1
 62
     2
  6
CONTINUOUS
 10
-1.039697
 20
-2.040799
  0
VERTEX
  8
PLAN_1
 62
     2
  6
CONTINUOUS
 10
-1.038067
 20
-2.043516
  0
VERTEX
  8
PLAN_1
 62
     2
  6
CONTINUOUS
 10
-1.035894
 20
-2.045689
  0
VERTEX
  8
PLAN_1
 62
     2
  6
CONTINUOUS
 10
-1.033177
 20
-2.047315
  0
VERTEX
  8
PLAN_1
 62
     2
  6
CONTINUOUS
 10
-1.029917
 20
-2.048402
  0
VERTEX
  8
PLAN_1
 62
     2
  6
CONTINUOUS
 10
-1.026114
 20
-2.048945
  0
SEQEND
  8
0
  0
POLYLINE
  8
PLAN_1
 62
     2
  6
CONTINUOUS
 66
     1
 40
0.003000
 41
0.003000
  0
VERTEX
  8
PLAN_1
 62
     2
  6
CONTINUOUS
 10
-0.994067
 20
-2.008209
  0
VERTEX
  8
PLAN_1
 62
     2
  6
CONTINUOUS
 10
-0.993524
 20
-2.003862
  0
VERTEX
  8
PLAN_1
 62
     2
  6
CONTINUOUS
 10
-0.992980
 20
-2.000059
  0
VERTEX
  8
PLAN_1
 62
     2
  6
CONTINUOUS
 10
-0.992437
 20
-1.996799
  0
VERTEX
  8
PLAN_1
 62
     2
  6
CONTINUOUS
 10
-0.991350
 20
-1.994083
  0
VERTEX
  8
PLAN_1
 62
     2
  6
CONTINUOUS
 10
-0.989720
 20
-1.991370
  0
VERTEX
  8
PLAN_1
 62
     2
  6
CONTINUOUS
 10
-0.988094
 20
-1.989197
  0
VERTEX
  8
PLAN_1
 62
     2
  6
CONTINUOUS
 10
-0.986465
 20
-1.987567
  0
VERTEX
  8
PLAN_1
 62
     2
  6
CONTINUOUS
 10
-0.984291
 20
-1.985937
  0
VERTEX
  8
PLAN_1
 62
     2
  6
CONTINUOUS
 10
-0.979945
 20
-1.983764
  0
VERTEX
  8
PLAN_1
 62
     2
  6
CONTINUOUS
 10
-0.976142
 20
-1.982677
  0
VERTEX
  8
PLAN_1
 62
     2
  6
CONTINUOUS
 10
-0.971795
 20
-1.982134
  0
VERTEX
  8
PLAN_1
 62
     2
  6
CONTINUOUS
 10
-0.968539
 20
-1.981591
  0
VERTEX
  8
PLAN_1
 62
     2
  6
CONTINUOUS
 10
-0.964193
 20
-1.982134
  0
VERTEX
  8
PLAN_1
 62
     2
  6
CONTINUOUS
 10
-0.959846
 20
-1.983220
  0
VERTEX
  8
PLAN_1
 62
     2
  6
CONTINUOUS
 10
-0.956043
 20
-1.985394
  0
VERTEX
  8
PLAN_1
 62
     2
  6
CONTINUOUS
 10
-0.952244
 20
-1.987567
  0
VERTEX
  8
PLAN_1
 62
     2
  6
CONTINUOUS
 10
-0.949528
 20
-1.990827
  0
VERTEX
  8
PLAN_1
 62
     2
  6
CONTINUOUS
 10
-0.947354
 20
-1.994626
  0
VERTEX
  8
PLAN_1
 62
     2
  6
CONTINUOUS
 10
-0.946268
 20
-1.998972
  0
VERTEX
  8
PLAN_1
 62
     2
  6
CONTINUOUS
 10
-0.945724
 20
-2.003862
  0
VERTEX
  8
PLAN_1
 62
     2
  6
CONTINUOUS
 10
-0.946268
 20
-2.008209
  0
VERTEX
  8
PLAN_1
 62
     2
  6
CONTINUOUS
 10
-0.947354
 20
-2.012008
  0
VERTEX
  8
PLAN_1
 62
     2
  6
CONTINUOUS
 10
-0.948984
 20
-2.015811
  0
VERTEX
  8
PLAN_1
 62
     2
  6
CONTINUOUS
 10
-0.951701
 20
-2.018528
  0
VERTEX
  8
PLAN_1
 62
     2
  6
CONTINUOUS
 10
-0.954413
 20
-2.021244
  0
VERTEX
  8
PLAN_1
 62
     2
  6
CONTINUOUS
 10
-0.957673
 20
-2.023961
  0
VERTEX
  8
PLAN_1
 62
     2
  6
CONTINUOUS
 10
-0.961476
 20
-2.026134
  0
VERTEX
  8
PLAN_1
 62
     2
  6
CONTINUOUS
 10
-0.965280
 20
-2.028303
  0
VERTEX
  8
PLAN_1
 62
     2
  6
CONTINUOUS
 10
-0.972882
 20
-2.032106
  0
VERTEX
  8
PLAN_1
 62
     2
  6
CONTINUOUS
 10
-0.976142
 20
-2.034280
  0
VERTEX
  8
PLAN_1
 62
     2
  6
CONTINUOUS
 10
-0.978858
 20
-2.036453
  0
VERTEX
  8
PLAN_1
 62
     2
  6
CONTINUOUS
 10
-0.981031
 20
-2.038626
  0
VERTEX
  8
PLAN_1
 62
     2
  6
CONTINUOUS
 10
-0.982661
 20
-2.040256
  0
VERTEX
  8
PLAN_1
 62
     2
  6
CONTINUOUS
 10
-0.983748
 20
-2.041886
  0
VERTEX
  8
PLAN_1
 62
     2
  6
CONTINUOUS
 10
-0.984835
 20
-2.043516
  0
VERTEX
  8
PLAN_1
 62
     2
  6
CONTINUOUS
 10
-0.985378
 20
-2.045146
  0
VERTEX
  8
PLAN_1
 62
     2
  6
CONTINUOUS
 10
-0.985378
 20
-2.046228
  0
VERTEX
  8
PLAN_1
 62
     2
  6
CONTINUOUS
 10
-0.945724
 20
-2.046228
  0
VERTEX
  8
PLAN_1
 62
     2
  6
CONTINUOUS
 10
-0.945724
 20
-2.054921
  0
VERTEX
  8
PLAN_1
 62
     2
  6
CONTINUOUS
 10
-0.995697
 20
-2.054921
  0
VERTEX
  8
PLAN_1
 62
     2
  6
CONTINUOUS
 10
-0.995154
 20
-2.049488
  0
VERTEX
  8
PLAN_1
 62
     2
  6
CONTINUOUS
 10
-0.994067
 20
-2.044602
  0
VERTEX
  8
PLAN_1
 62
     2
  6
CONTINUOUS
 10
-0.992980
 20
-2.040799
  0
VERTEX
  8
PLAN_1
 62
     2
  6
CONTINUOUS
 10
-0.990807
 20
-2.036996
  0
VERTEX
  8
PLAN_1
 62
     2
  6
CONTINUOUS
 10
-0.988094
 20
-2.033736
  0
VERTEX
  8
PLAN_1
 62
     2
  6
CONTINUOUS
 10
-0.985378
 20
-2.031020
  0
VERTEX
  8
PLAN_1
 62
     2
  6
CONTINUOUS
 10
-0.982118
 20
-2.028303
  0
VERTEX
  8
PLAN_1
 62
     2
  6
CONTINUOUS
 10
-0.978858
 20
-2.026134
  0
VERTEX
  8
PLAN_1
 62
     2
  6
CONTINUOUS
 10
-0.969083
 20
-2.020157
  0
VERTEX
  8
PLAN_1
 62
     2
  6
CONTINUOUS
 10
-0.966366
 20
-2.018528
  0
VERTEX
  8
PLAN_1
 62
     2
  6
CONTINUOUS
 10
-0.963650
 20
-2.016898
  0
VERTEX
  8
PLAN_1
 62
     2
  6
CONTINUOUS
 10
-0.961476
 20
-2.015268
  0
VERTEX
  8
PLAN_1
 62
     2
  6
CONTINUOUS
 10
-0.959303
 20
-2.013638
  0
VERTEX
  8
PLAN_1
 62
     2
  6
CONTINUOUS
 10
-0.957673
 20
-2.011465
  0
VERTEX
  8
PLAN_1
 62
     2
  6
CONTINUOUS
 10
-0.956587
 20
-2.009295
  0
VERTEX
  8
PLAN_1
 62
     2
  6
CONTINUOUS
 10
-0.956043
 20
-2.006579
  0
VERTEX
  8
PLAN_1
 62
     2
  6
CONTINUOUS
 10
-0.955500
 20
-2.003319
  0
VERTEX
  8
PLAN_1
 62
     2
  6
CONTINUOUS
 10
-0.955500
 20
-2.001146
  0
VERTEX
  8
PLAN_1
 62
     2
  6
CONTINUOUS
 10
-0.956587
 20
-1.998972
  0
VERTEX
  8
PLAN_1
 62
     2
  6
CONTINUOUS
 10
-0.957130
 20
-1.996256
  0
VERTEX
  8
PLAN_1
 62
     2
  6
CONTINUOUS
 10
-0.958760
 20
-1.994626
  0
VERTEX
  8
PLAN_1
 62
     2
  6
CONTINUOUS
 10
-0.960933
 20
-1.992453
  0
VERTEX
  8
PLAN_1
 62
     2
  6
CONTINUOUS
 10
-0.963106
 20
-1.991370
  0
VERTEX
  8
PLAN_1
 62
     2
  6
CONTINUOUS
 10
-0.966366
 20
-1.990283
  0
VERTEX
  8
PLAN_1
 62
     2
  6
CONTINUOUS
 10
-0.970169
 20
-1.990283
  0
VERTEX
  8
PLAN_1
 62
     2
  6
CONTINUOUS
 10
-0.972339
 20
-1.990283
  0
VERTEX
  8
PLAN_1
 62
     2
  6
CONTINUOUS
 10
-0.974512
 20
-1.990827
  0
VERTEX
  8
PLAN_1
 62
     2
  6
CONTINUOUS
 10
-0.976685
 20
-1.991370
  0
VERTEX
  8
PLAN_1
 62
     2
  6
CONTINUOUS
 10
-0.978315
 20
-1.991913
  0
VERTEX
  8
PLAN_1
 62
     2
  6
CONTINUOUS
 10
-0.980488
 20
-1.994626
  0
VERTEX
  8
PLAN_1
 62
     2
  6
CONTINUOUS
 10
-0.982661
 20
-1.997343
  0
VERTEX
  8
PLAN_1
 62
     2
  6
CONTINUOUS
 10
-0.983748
 20
-2.000059
  0
VERTEX
  8
PLAN_1
 62
     2
  6
CONTINUOUS
 10
-0.984291
 20
-2.003319
  0
VERTEX
  8
PLAN_1
 62
     2
  6
CONTINUOUS
 10
-0.984835
 20
-2.006035
  0
VERTEX
  8
PLAN_1
 62
     2
  6
CONTINUOUS
 10
-0.984835
 20
-2.008209
  0
VERTEX
  8
PLAN_1
 62
     2
  6
CONTINUOUS
 10
-0.994067
 20
-2.008209
  0
SEQEND
  8
0
  0
POLYLINE
  8
PLAN_1
 62
     2
  6
CONTINUOUS
 66
     1
 40
0.004343
 41
0.004343
  0
VERTEX
  8
PLAN_1
 62
     2
  6
CONTINUOUS
 10
0.306866
 20
-1.262953
  0
VERTEX
  8
PLAN_1
 62
     2
  6
CONTINUOUS
 10
0.306866
 20
3.908732
  0
SEQEND
  8
0
  0
SOLID
  8
PLAN_1
 62
     2
 10
0.306866
 20
3.938610
 11
0.291114
 21
3.879402
 12
0.306866
 22
3.938610
 13
0.322618
 23
3.879402
  0
POLYLINE
  8
PLAN_1
 62
     2
  6
CONTINUOUS
 66
     1
 40
0.003000
 41
0.003000
  0
VERTEX
  8
PLAN_1
 62
     2
  6
CONTINUOUS
 10
0.306866
 20
3.938610
  0
VERTEX
  8
PLAN_1
 62
     2
  6
CONTINUOUS
 10
0.291114
 20
3.879402
  0
VERTEX
  8
PLAN_1
 62
     2
  6
CONTINUOUS
 10
0.322618
 20
3.879402
  0
VERTEX
  8
PLAN_1
 62
     2
  6
CONTINUOUS
 10
0.306866
 20
3.938610
  0
SEQEND
  8
0
  0
SOLID
  8
PLAN_1
 62
     2
 10
0.306866
 20
-1.292831
 11
0.291114
 21
-1.233622
 12
0.306866
 22
-1.292831
 13
0.322618
 23
-1.233622
  0
POLYLINE
  8
PLAN_1
 62
     2
  6
CONTINUOUS
 66
     1
 40
0.003000
 41
0.003000
  0
VERTEX
  8
PLAN_1
 62
     2
  6
CONTINUOUS
 10
0.306866
 20
-1.292831
  0
VERTEX
  8
PLAN_1
 62
     2
  6
CONTINUOUS
 10
0.291114
 20
-1.233622
  0
VERTEX
  8
PLAN_1
 62
     2
  6
CONTINUOUS
 10
0.322618
 20
-1.233622
  0
VERTEX
  8
PLAN_1
 62
     2
  6
CONTINUOUS
 10
0.306866
 20
-1.292831
  0
SEQEND
  8
0
  0
POLYLINE
  8
PLAN_1
 62
     2
  6
CONTINUOUS
 66
     1
 40
0.003000
 41
0.003000
  0
VERTEX
  8
PLAN_1
 62
     2
  6
CONTINUOUS
 10
0.283508
 20
1.273189
  0
VERTEX
  8
PLAN_1
 62
     2
  6
CONTINUOUS
 10
0.283508
 20
1.263409
  0
VERTEX
  8
PLAN_1
 62
     2
  6
CONTINUOUS
 10
0.231362
 20
1.263409
  0
VERTEX
  8
PLAN_1
 62
     2
  6
CONTINUOUS
 10
0.231362
 20
1.246571
  0
VERTEX
  8
PLAN_1
 62
     2
  6
CONTINUOUS
 10
0.224303
 20
1.246571
  0
VERTEX
  8
PLAN_1
 62
     2
  6
CONTINUOUS
 10
0.223760
 20
1.250917
  0
VERTEX
  8
PLAN_1
 62
     2
  6
CONTINUOUS
 10
0.223217
 20
1.254177
  0
VERTEX
  8
PLAN_1
 62
     2
  6
CONTINUOUS
 10
0.222673
 20
1.257437
  0
VERTEX
  8
PLAN_1
 62
     2
  6
CONTINUOUS
 10
0.221587
 20
1.259610
  0
VERTEX
  8
PLAN_1
 62
     2
  6
CONTINUOUS
 10
0.219957
 20
1.261780
  0
VERTEX
  8
PLAN_1
 62
     2
  6
CONTINUOUS
 10
0.217240
 20
1.263409
  0
VERTEX
  8
PLAN_1
 62
     2
  6
CONTINUOUS
 10
0.214524
 20
1.265039
  0
VERTEX
  8
PLAN_1
 62
     2
  6
CONTINUOUS
 10
0.210177
 20
1.266126
  0
VERTEX
  8
PLAN_1
 62
     2
  6
CONTINUOUS
 10
0.210177
 20
1.273189
  0
VERTEX
  8
PLAN_1
 62
     2
  6
CONTINUOUS
 10
0.283508
 20
1.273189
  0
SEQEND
  8
0
  0
POLYLINE
  8
PLAN_1
 62
     2
  6
CONTINUOUS
 66
     1
 40
0.003000
 41
0.003000
  0
VERTEX
  8
PLAN_1
 62
     2
  6
CONTINUOUS
 10
0.241685
 20
1.317185
  0
VERTEX
  8
PLAN_1
 62
     2
  6
CONTINUOUS
 10
0.241685
 20
1.317728
  0
VERTEX
  8
PLAN_1
 62
     2
  6
CONTINUOUS
 10
0.241685
 20
1.318272
  0
VERTEX
  8
PLAN_1
 62
     2
  6
CONTINUOUS
 10
0.241685
 20
1.318815
  0
VERTEX
  8
PLAN_1
 62
     2
  6
CONTINUOUS
 10
0.241685
 20
1.319902
  0
VERTEX
  8
PLAN_1
 62
     2
  6
CONTINUOUS
 10
0.242228
 20
1.320445
  0
VERTEX
  8
PLAN_1
 62
     2
  6
CONTINUOUS
 10
0.242228
 20
1.320988
  0
VERTEX
  8
PLAN_1
 62
     2
  6
CONTINUOUS
 10
0.242228
 20
1.321531
  0
VERTEX
  8
PLAN_1
 62
     2
  6
CONTINUOUS
 10
0.242228
 20
1.322075
  0
VERTEX
  8
PLAN_1
 62
     2
  6
CONTINUOUS
 10
0.241685
 20
1.324791
  0
VERTEX
  8
PLAN_1
 62
     2
  6
CONTINUOUS
 10
0.241685
 20
1.326965
  0
VERTEX
  8
PLAN_1
 62
     2
  6
CONTINUOUS
 10
0.240598
 20
1.329681
  0
VERTEX
  8
PLAN_1
 62
     2
  6
CONTINUOUS
 10
0.239512
 20
1.331854
  0
VERTEX
  8
PLAN_1
 62
     2
  6
CONTINUOUS
 10
0.237882
 20
1.333480
  0
VERTEX
  8
PLAN_1
 62
     2
  6
CONTINUOUS
 10
0.235709
 20
1.334567
  0
VERTEX
  8
PLAN_1
 62
     2
  6
CONTINUOUS
 10
0.232992
 20
1.335654
  0
VERTEX
  8
PLAN_1
 62
     2
  6
CONTINUOUS
 10
0.230276
 20
1.336197
  0
VERTEX
  8
PLAN_1
 62
     2
  6
CONTINUOUS
 10
0.228102
 20
1.335654
  0
VERTEX
  8
PLAN_1
 62
     2
  6
CONTINUOUS
 10
0.226476
 20
1.335654
  0
VERTEX
  8
PLAN_1
 62
     2
  6
CONTINUOUS
 10
0.224303
 20
1.334567
  0
VERTEX
  8
PLAN_1
 62
     2
  6
CONTINUOUS
 10
0.222673
 20
1.333480
  0
VERTEX
  8
PLAN_1
 62
     2
  6
CONTINUOUS
 10
0.221043
 20
1.331311
  0
VERTEX
  8
PLAN_1
 62
     2
  6
CONTINUOUS
 10
0.219413
 20
1.329138
  0
VERTEX
  8
PLAN_1
 62
     2
  6
CONTINUOUS
 10
0.218870
 20
1.326421
  0
VERTEX
  8
PLAN_1
 62
     2
  6
CONTINUOUS
 10
0.218327
 20
1.322618
  0
VERTEX
  8
PLAN_1
 62
     2
  6
CONTINUOUS
 10
0.218870
 20
1.318272
  0
VERTEX
  8
PLAN_1
 62
     2
  6
CONTINUOUS
 10
0.219957
 20
1.315016
  0
VERTEX
  8
PLAN_1
 62
     2
  6
CONTINUOUS
 10
0.222130
 20
1.312299
  0
VERTEX
  8
PLAN_1
 62
     2
  6
CONTINUOUS
 10
0.224303
 20
1.310669
  0
VERTEX
  8
PLAN_1
 62
     2
  6
CONTINUOUS
 10
0.227016
 20
1.309583
  0
VERTEX
  8
PLAN_1
 62
     2
  6
CONTINUOUS
 10
0.229732
 20
1.308496
  0
VERTEX
  8
PLAN_1
 62
     2
  6
CONTINUOUS
 10
0.231906
 20
1.308496
  0
VERTEX
  8
PLAN_1
 62
     2
  6
CONTINUOUS
 10
0.234079
 20
1.307953
  0
VERTEX
  8
PLAN_1
 62
     2
  6
CONTINUOUS
 10
0.234079
 20
1.299260
  0
VERTEX
  8
PLAN_1
 62
     2
  6
CONTINUOUS
 10
0.230276
 20
1.299260
  0
VERTEX
  8
PLAN_1
 62
     2
  6
CONTINUOUS
 10
0.225933
 20
1.300346
  0
VERTEX
  8
PLAN_1
 62
     2
  6
CONTINUOUS
 10
0.222130
 20
1.301433
  0
VERTEX
  8
PLAN_1
 62
     2
  6
CONTINUOUS
 10
0.218327
 20
1.303606
  0
VERTEX
  8
PLAN_1
 62
     2
  6
CONTINUOUS
 10
0.216697
 20
1.305236
  0
VERTEX
  8
PLAN_1
 62
     2
  6
CONTINUOUS
 10
0.215067
 20
1.306866
  0
VERTEX
  8
PLAN_1
 62
     2
  6
CONTINUOUS
 10
0.213437
 20
1.309039
  0
VERTEX
  8
PLAN_1
 62
     2
  6
CONTINUOUS
 10
0.212350
 20
1.311213
  0
VERTEX
  8
PLAN_1
 62
     2
  6
CONTINUOUS
 10
0.211807
 20
1.313386
  0
VERTEX
  8
PLAN_1
 62
     2
  6
CONTINUOUS
 10
0.210720
 20
1.316098
  0
VERTEX
  8
PLAN_1
 62
     2
  6
CONTINUOUS
 10
0.210177
 20
1.319358
  0
VERTEX
  8
PLAN_1
 62
     2
  6
CONTINUOUS
 10
0.210177
 20
1.322618
  0
VERTEX
  8
PLAN_1
 62
     2
  6
CONTINUOUS
 10
0.210720
 20
1.328051
  0
VERTEX
  8
PLAN_1
 62
     2
  6
CONTINUOUS
 10
0.211807
 20
1.332398
  0
VERTEX
  8
PLAN_1
 62
     2
  6
CONTINUOUS
 10
0.213437
 20
1.336197
  0
VERTEX
  8
PLAN_1
 62
     2
  6
CONTINUOUS
 10
0.215610
 20
1.339457
  0
VERTEX
  8
PLAN_1
 62
     2
  6
CONTINUOUS
 10
0.218327
 20
1.342173
  0
VERTEX
  8
PLAN_1
 62
     2
  6
CONTINUOUS
 10
0.221587
 20
1.343803
  0
VERTEX
  8
PLAN_1
 62
     2
  6
CONTINUOUS
 10
0.225390
 20
1.344890
  0
VERTEX
  8
PLAN_1
 62
     2
  6
CONTINUOUS
 10
0.229732
 20
1.345433
  0
VERTEX
  8
PLAN_1
 62
     2
  6
CONTINUOUS
 10
0.232992
 20
1.345433
  0
VERTEX
  8
PLAN_1
 62
     2
  6
CONTINUOUS
 10
0.235709
 20
1.344346
  0
VERTEX
  8
PLAN_1
 62
     2
  6
CONTINUOUS
 10
0.237882
 20
1.343260
  0
VERTEX
  8
PLAN_1
 62
     2
  6
CONTINUOUS
 10
0.240055
 20
1.342173
  0
VERTEX
  8
PLAN_1
 62
     2
  6
CONTINUOUS
 10
0.241685
 20
1.340543
  0
VERTEX
  8
PLAN_1
 62
     2
  6
CONTINUOUS
 10
0.242772
 20
1.339457
  0
VERTEX
  8
PLAN_1
 62
     2
  6
CONTINUOUS
 10
0.243858
 20
1.337827
  0
VERTEX
  8
PLAN_1
 62
     2
  6
CONTINUOUS
 10
0.244402
 20
1.336197
  0
VERTEX
  8
PLAN_1
 62
     2
  6
CONTINUOUS
 10
0.244941
 20
1.336197
  0
VERTEX
  8
PLAN_1
 62
     2
  6
CONTINUOUS
 10
0.246028
 20
1.338370
  0
VERTEX
  8
PLAN_1
 62
     2
  6
CONTINUOUS
 10
0.247114
 20
1.341087
  0
VERTEX
  8
PLAN_1
 62
     2
  6
CONTINUOUS
 10
0.248744
 20
1.343260
  0
VERTEX
  8
PLAN_1
 62
     2
  6
CONTINUOUS
 10
0.250374
 20
1.344890
  0
VERTEX
  8
PLAN_1
 62
     2
  6
CONTINUOUS
 10
0.252547
 20
1.346520
  0
VERTEX
  8
PLAN_1
 62
     2
  6
CONTINUOUS
 10
0.255264
 20
1.347606
  0
VERTEX
  8
PLAN_1
 62
     2
  6
CONTINUOUS
 10
0.258524
 20
1.348150
  0
VERTEX
  8
PLAN_1
 62
     2
  6
CONTINUOUS
 10
0.261783
 20
1.348150
  0
VERTEX
  8
PLAN_1
 62
     2
  6
CONTINUOUS
 10
0.266126
 20
1.348150
  0
VERTEX
  8
PLAN_1
 62
     2
  6
CONTINUOUS
 10
0.270472
 20
1.346520
  0
VERTEX
  8
PLAN_1
 62
     2
  6
CONTINUOUS
 10
0.274819
 20
1.344890
  0
VERTEX
  8
PLAN_1
 62
     2
  6
CONTINUOUS
 10
0.278079
 20
1.342173
  0
VERTEX
  8
PLAN_1
 62
     2
  6
CONTINUOUS
 10
0.281335
 20
1.338370
  0
VERTEX
  8
PLAN_1
 62
     2
  6
CONTINUOUS
 10
0.283508
 20
1.334024
  0
VERTEX
  8
PLAN_1
 62
     2
  6
CONTINUOUS
 10
0.284051
 20
1.331311
  0
VERTEX
  8
PLAN_1
 62
     2
  6
CONTINUOUS
 10
0.284594
 20
1.328594
  0
VERTEX
  8
PLAN_1
 62
     2
  6
CONTINUOUS
 10
0.285138
 20
1.325335
  0
VERTEX
  8
PLAN_1
 62
     2
  6
CONTINUOUS
 10
0.285138
 20
1.322075
  0
VERTEX
  8
PLAN_1
 62
     2
  6
CONTINUOUS
 10
0.285138
 20
1.319902
  0
VERTEX
  8
PLAN_1
 62
     2
  6
CONTINUOUS
 10
0.285138
 20
1.318272
  0
VERTEX
  8
PLAN_1
 62
     2
  6
CONTINUOUS
 10
0.284594
 20
1.316098
  0
VERTEX
  8
PLAN_1
 62
     2
  6
CONTINUOUS
 10
0.284594
 20
1.314472
  0
VERTEX
  8
PLAN_1
 62
     2
  6
CONTINUOUS
 10
0.284051
 20
1.312843
  0
VERTEX
  8
PLAN_1
 62
     2
  6
CONTINUOUS
 10
0.283508
 20
1.311213
  0
VERTEX
  8
PLAN_1
 62
     2
  6
CONTINUOUS
 10
0.282965
 20
1.309583
  0
VERTEX
  8
PLAN_1
 62
     2
  6
CONTINUOUS
 10
0.282421
 20
1.308496
  0
VERTEX
  8
PLAN_1
 62
     2
  6
CONTINUOUS
 10
0.280252
 20
1.305780
  0
VERTEX
  8
PLAN_1
 62
     2
  6
CONTINUOUS
 10
0.278079
 20
1.303606
  0
VERTEX
  8
PLAN_1
 62
     2
  6
CONTINUOUS
 10
0.275906
 20
1.301433
  0
VERTEX
  8
PLAN_1
 62
     2
  6
CONTINUOUS
 10
0.273189
 20
1.300346
  0
VERTEX
  8
PLAN_1
 62
     2
  6
CONTINUOUS
 10
0.270472
 20
1.299260
  0
VERTEX
  8
PLAN_1
 62
     2
  6
CONTINUOUS
 10
0.267213
 20
1.298173
  0
VERTEX
  8
PLAN_1
 62
     2
  6
CONTINUOUS
 10
0.263953
 20
1.297630
  0
VERTEX
  8
PLAN_1
 62
     2
  6
CONTINUOUS
 10
0.261240
 20
1.297630
  0
VERTEX
  8
PLAN_1
 62
     2
  6
CONTINUOUS
 10
0.261240
 20
1.306866
  0
VERTEX
  8
PLAN_1
 62
     2
  6
CONTINUOUS
 10
0.263953
 20
1.306866
  0
VERTEX
  8
PLAN_1
 62
     2
  6
CONTINUOUS
 10
0.266669
 20
1.307409
  0
VERTEX
  8
PLAN_1
 62
     2
  6
CONTINUOUS
 10
0.269386
 20
1.308496
  0
VERTEX
  8
PLAN_1
 62
     2
  6
CONTINUOUS
 10
0.271559
 20
1.309583
  0
VERTEX
  8
PLAN_1
 62
     2
  6
CONTINUOUS
 10
0.273732
 20
1.311756
  0
VERTEX
  8
PLAN_1
 62
     2
  6
CONTINUOUS
 10
0.275362
 20
1.314472
  0
VERTEX
  8
PLAN_1
 62
     2
  6
CONTINUOUS
 10
0.276992
 20
1.317728
  0
VERTEX
  8
PLAN_1
 62
     2
  6
CONTINUOUS
 10
0.276992
 20
1.322618
  0
VERTEX
  8
PLAN_1
 62
     2
  6
CONTINUOUS
 10
0.276992
 20
1.325878
  0
VERTEX
  8
PLAN_1
 62
     2
  6
CONTINUOUS
 10
0.275906
 20
1.329138
  0
VERTEX
  8
PLAN_1
 62
     2
  6
CONTINUOUS
 10
0.274819
 20
1.331854
  0
VERTEX
  8
PLAN_1
 62
     2
  6
CONTINUOUS
 10
0.273189
 20
1.334024
  0
VERTEX
  8
PLAN_1
 62
     2
  6
CONTINUOUS
 10
0.271016
 20
1.335654
  0
VERTEX
  8
PLAN_1
 62
     2
  6
CONTINUOUS
 10
0.268843
 20
1.337283
  0
VERTEX
  8
PLAN_1
 62
     2
  6
CONTINUOUS
 10
0.266126
 20
1.338370
  0
VERTEX
  8
PLAN_1
 62
     2
  6
CONTINUOUS
 10
0.262866
 20
1.338370
  0
VERTEX
  8
PLAN_1
 62
     2
  6
CONTINUOUS
 10
0.259067
 20
1.337827
  0
VERTEX
  8
PLAN_1
 62
     2
  6
CONTINUOUS
 10
0.255807
 20
1.336740
  0
VERTEX
  8
PLAN_1
 62
     2
  6
CONTINUOUS
 10
0.253634
 20
1.334567
  0
VERTEX
  8
PLAN_1
 62
     2
  6
CONTINUOUS
 10
0.251461
 20
1.332398
  0
VERTEX
  8
PLAN_1
 62
     2
  6
CONTINUOUS
 10
0.250374
 20
1.329681
  0
VERTEX
  8
PLAN_1
 62
     2
  6
CONTINUOUS
 10
0.249831
 20
1.326965
  0
VERTEX
  8
PLAN_1
 62
     2
  6
CONTINUOUS
 10
0.249831
 20
1.323705
  0
VERTEX
  8
PLAN_1
 62
     2
  6
CONTINUOUS
 10
0.249831
 20
1.321531
  0
VERTEX
  8
PLAN_1
 62
     2
  6
CONTINUOUS
 10
0.249831
 20
1.320988
  0
VERTEX
  8
PLAN_1
 62
     2
  6
CONTINUOUS
 10
0.249831
 20
1.320445
  0
VERTEX
  8
PLAN_1
 62
     2
  6
CONTINUOUS
 10
0.249831
 20
1.319902
  0
VERTEX
  8
PLAN_1
 62
     2
  6
CONTINUOUS
 10
0.249831
 20
1.319358
  0
VERTEX
  8
PLAN_1
 62
     2
  6
CONTINUOUS
 10
0.249831
 20
1.318815
  0
VERTEX
  8
PLAN_1
 62
     2
  6
CONTINUOUS
 10
0.249831
 20
1.318272
  0
VERTEX
  8
PLAN_1
 62
     2
  6
CONTINUOUS
 10
0.249831
 20
1.317728
  0
VERTEX
  8
PLAN_1
 62
     2
  6
CONTINUOUS
 10
0.249831
 20
1.317185
  0
VERTEX
  8
PLAN_1
 62
     2
  6
CONTINUOUS
 10
0.241685
 20
1.317185
  0
SEQEND
  8
0
  0
POLYLINE
  8
PLAN_1
 62
     2
  6
CONTINUOUS
 66
     1
 40
0.003000
 41
0.003000
  0
VERTEX
  8
PLAN_1
 62
     2
  6
CONTINUOUS
 10
0.241685
 20
1.375307
  0
VERTEX
  8
PLAN_1
 62
     2
  6
CONTINUOUS
 10
0.241685
 20
1.375850
  0
VERTEX
  8
PLAN_1
 62
     2
  6
CONTINUOUS
 10
0.241685
 20
1.376394
  0
VERTEX
  8
PLAN_1
 62
     2
  6
CONTINUOUS
 10
0.241685
 20
1.376937
  0
VERTEX
  8
PLAN_1
 62
     2
  6
CONTINUOUS
 10
0.241685
 20
1.377480
  0
VERTEX
  8
PLAN_1
 62
     2
  6
CONTINUOUS
 10
0.242228
 20
1.378024
  0
VERTEX
  8
PLAN_1
 62
     2
  6
CONTINUOUS
 10
0.242228
 20
1.378567
  0
VERTEX
  8
PLAN_1
 62
     2
  6
CONTINUOUS
 10
0.242228
 20
1.379110
  0
VERTEX
  8
PLAN_1
 62
     2
  6
CONTINUOUS
 10
0.242228
 20
1.380197
  0
VERTEX
  8
PLAN_1
 62
     2
  6
CONTINUOUS
 10
0.241685
 20
1.382370
  0
VERTEX
  8
PLAN_1
 62
     2
  6
CONTINUOUS
 10
0.241685
 20
1.385087
  0
VERTEX
  8
PLAN_1
 62
     2
  6
CONTINUOUS
 10
0.240598
 20
1.387256
  0
VERTEX
  8
PLAN_1
 62
     2
  6
CONTINUOUS
 10
0.239512
 20
1.389429
  0
VERTEX
  8
PLAN_1
 62
     2
  6
CONTINUOUS
 10
0.237882
 20
1.391059
  0
VERTEX
  8
PLAN_1
 62
     2
  6
CONTINUOUS
 10
0.235709
 20
1.392689
  0
VERTEX
  8
PLAN_1
 62
     2
  6
CONTINUOUS
 10
0.232992
 20
1.393776
  0
VERTEX
  8
PLAN_1
 62
     2
  6
CONTINUOUS
 10
0.230276
 20
1.393776
  0
VERTEX
  8
PLAN_1
 62
     2
  6
CONTINUOUS
 10
0.228102
 20
1.393776
  0
VERTEX
  8
PLAN_1
 62
     2
  6
CONTINUOUS
 10
0.226476
 20
1.393232
  0
VERTEX
  8
PLAN_1
 62
     2
  6
CONTINUOUS
 10
0.224303
 20
1.392689
  0
VERTEX
  8
PLAN_1
 62
     2
  6
CONTINUOUS
 10
0.222673
 20
1.391059
  0
VERTEX
  8
PLAN_1
 62
     2
  6
CONTINUOUS
 10
0.221043
 20
1.389429
  0
VERTEX
  8
PLAN_1
 62
     2
  6
CONTINUOUS
 10
0.219413
 20
1.387256
  0
VERTEX
  8
PLAN_1
 62
     2
  6
CONTINUOUS
 10
0.218870
 20
1.384000
  0
VERTEX
  8
PLAN_1
 62
     2
  6
CONTINUOUS
 10
0.218327
 20
1.380197
  0
VERTEX
  8
PLAN_1
 62
     2
  6
CONTINUOUS
 10
0.218870
 20
1.375850
  0
VERTEX
  8
PLAN_1
 62
     2
  6
CONTINUOUS
 10
0.219957
 20
1.372591
  0
VERTEX
  8
PLAN_1
 62
     2
  6
CONTINUOUS
 10
0.222130
 20
1.370417
  0
VERTEX
  8
PLAN_1
 62
     2
  6
CONTINUOUS
 10
0.224303
 20
1.368248
  0
VERTEX
  8
PLAN_1
 62
     2
  6
CONTINUOUS
 10
0.227016
 20
1.367161
  0
VERTEX
  8
PLAN_1
 62
     2
  6
CONTINUOUS
 10
0.229732
 20
1.366618
  0
VERTEX
  8
PLAN_1
 62
     2
  6
CONTINUOUS
 10
0.231906
 20
1.366075
  0
VERTEX
  8
PLAN_1
 62
     2
  6
CONTINUOUS
 10
0.234079
 20
1.366075
  0
VERTEX
  8
PLAN_1
 62
     2
  6
CONTINUOUS
 10
0.234079
 20
1.357382
  0
VERTEX
  8
PLAN_1
 62
     2
  6
CONTINUOUS
 10
0.230276
 20
1.357382
  0
VERTEX
  8
PLAN_1
 62
     2
  6
CONTINUOUS
 10
0.225933
 20
1.357925
  0
VERTEX
  8
PLAN_1
 62
     2
  6
CONTINUOUS
 10
0.222130
 20
1.359555
  0
VERTEX
  8
PLAN_1
 62
     2
  6
CONTINUOUS
 10
0.218327
 20
1.361728
  0
VERTEX
  8
PLAN_1
 62
     2
  6
CONTINUOUS
 10
0.216697
 20
1.363358
  0
VERTEX
  8
PLAN_1
 62
     2
  6
CONTINUOUS
 10
0.215067
 20
1.364988
  0
VERTEX
  8
PLAN_1
 62
     2
  6
CONTINUOUS
 10
0.213437
 20
1.366618
  0
VERTEX
  8
PLAN_1
 62
     2
  6
CONTINUOUS
 10
0.212350
 20
1.368791
  0
VERTEX
  8
PLAN_1
 62
     2
  6
CONTINUOUS
 10
0.211807
 20
1.371504
  0
VERTEX
  8
PLAN_1
 62
     2
  6
CONTINUOUS
 10
0.210720
 20
1.374220
  0
VERTEX
  8
PLAN_1
 62
     2
  6
CONTINUOUS
 10
0.210177
 20
1.377480
  0
VERTEX
  8
PLAN_1
 62
     2
  6
CONTINUOUS
 10
0.210177
 20
1.380740
  0
VERTEX
  8
PLAN_1
 62
     2
  6
CONTINUOUS
 10
0.210720
 20
1.385630
  0
VERTEX
  8
PLAN_1
 62
     2
  6
CONTINUOUS
 10
0.211807
 20
1.390516
  0
VERTEX
  8
PLAN_1
 62
     2
  6
CONTINUOUS
 10
0.213437
 20
1.394319
  0
VERTEX
  8
PLAN_1
 62
     2
  6
CONTINUOUS
 10
0.215610
 20
1.397579
  0
VERTEX
  8
PLAN_1
 62
     2
  6
CONTINUOUS
 10
0.218327
 20
1.399752
  0
VERTEX
  8
PLAN_1
 62
     2
  6
CONTINUOUS
 10
0.221587
 20
1.401925
  0
VERTEX
  8
PLAN_1
 62
     2
  6
CONTINUOUS
 10
0.225390
 20
1.403012
  0
VERTEX
  8
PLAN_1
 62
     2
  6
CONTINUOUS
 10
0.229732
 20
1.403555
  0
VERTEX
  8
PLAN_1
 62
     2
  6
CONTINUOUS
 10
0.232992
 20
1.403012
  0
VERTEX
  8
PLAN_1
 62
     2
  6
CONTINUOUS
 10
0.235709
 20
1.402469
  0
VERTEX
  8
PLAN_1
 62
     2
  6
CONTINUOUS
 10
0.237882
 20
1.401382
  0
VERTEX
  8
PLAN_1
 62
     2
  6
CONTINUOUS
 10
0.240055
 20
1.400295
  0
VERTEX
  8
PLAN_1
 62
     2
  6
CONTINUOUS
 10
0.241685
 20
1.398665
  0
VERTEX
  8
PLAN_1
 62
     2
  6
CONTINUOUS
 10
0.242772
 20
1.397035
  0
VERTEX
  8
PLAN_1
 62
     2
  6
CONTINUOUS
 10
0.243858
 20
1.395406
  0
VERTEX
  8
PLAN_1
 62
     2
  6
CONTINUOUS
 10
0.244402
 20
1.393776
  0
VERTEX
  8
PLAN_1
 62
     2
  6
CONTINUOUS
 10
0.244941
 20
1.393776
  0
VERTEX
  8
PLAN_1
 62
     2
  6
CONTINUOUS
 10
0.246028
 20
1.396492
  0
VERTEX
  8
PLAN_1
 62
     2
  6
CONTINUOUS
 10
0.247114
 20
1.398665
  0
VERTEX
  8
PLAN_1
 62
     2
  6
CONTINUOUS
 10
0.248744
 20
1.400839
  0
VERTEX
  8
PLAN_1
 62
     2
  6
CONTINUOUS
 10
0.250374
 20
1.402469
  0
VERTEX
  8
PLAN_1
 62
     2
  6
CONTINUOUS
 10
0.252547
 20
1.404098
  0
VERTEX
  8
PLAN_1
 62
     2
  6
CONTINUOUS
 10
0.255264
 20
1.405181
  0
VERTEX
  8
PLAN_1
 62
     2
  6
CONTINUOUS
 10
0.258524
 20
1.405724
  0
VERTEX
  8
PLAN_1
 62
     2
  6
CONTINUOUS
 10
0.261783
 20
1.406268
  0
VERTEX
  8
PLAN_1
 62
     2
  6
CONTINUOUS
 10
0.266126
 20
1.405724
  0
VERTEX
  8
PLAN_1
 62
     2
  6
CONTINUOUS
 10
0.270472
 20
1.404642
  0
VERTEX
  8
PLAN_1
 62
     2
  6
CONTINUOUS
 10
0.274819
 20
1.402469
  0
VERTEX
  8
PLAN_1
 62
     2
  6
CONTINUOUS
 10
0.278079
 20
1.399752
  0
VERTEX
  8
PLAN_1
 62
     2
  6
CONTINUOUS
 10
0.281335
 20
1.396492
  0
VERTEX
  8
PLAN_1
 62
     2
  6
CONTINUOUS
 10
0.283508
 20
1.391602
  0
VERTEX
  8
PLAN_1
 62
     2
  6
CONTINUOUS
 10
0.284051
 20
1.388886
  0
VERTEX
  8
PLAN_1
 62
     2
  6
CONTINUOUS
 10
0.284594
 20
1.386173
  0
VERTEX
  8
PLAN_1
 62
     2
  6
CONTINUOUS
 10
0.285138
 20
1.382913
  0
VERTEX
  8
PLAN_1
 62
     2
  6
CONTINUOUS
 10
0.285138
 20
1.379654
  0
VERTEX
  8
PLAN_1
 62
     2
  6
CONTINUOUS
 10
0.285138
 20
1.378024
  0
VERTEX
  8
PLAN_1
 62
     2
  6
CONTINUOUS
 10
0.285138
 20
1.375850
  0
VERTEX
  8
PLAN_1
 62
     2
  6
CONTINUOUS
 10
0.284594
 20
1.374220
  0
VERTEX
  8
PLAN_1
 62
     2
  6
CONTINUOUS
 10
0.284594
 20
1.372591
  0
VERTEX
  8
PLAN_1
 62
     2
  6
CONTINUOUS
 10
0.284051
 20
1.370961
  0
VERTEX
  8
PLAN_1
 62
     2
  6
CONTINUOUS
 10
0.283508
 20
1.369331
  0
VERTEX
  8
PLAN_1
 62
     2
  6
CONTINUOUS
 10
0.282965
 20
1.367705
  0
VERTEX
  8
PLAN_1
 62
     2
  6
CONTINUOUS
 10
0.282421
 20
1.366075
  0
VERTEX
  8
PLAN_1
 62
     2
  6
CONTINUOUS
 10
0.280252
 20
1.363358
  0
VERTEX
  8
PLAN_1
 62
     2
  6
CONTINUOUS
 10
0.278079
 20
1.361185
  0
VERTEX
  8
PLAN_1
 62
     2
  6
CONTINUOUS
 10
0.275906
 20
1.359555
  0
VERTEX
  8
PLAN_1
 62
     2
  6
CONTINUOUS
 10
0.273189
 20
1.357925
  0
VERTEX
  8
PLAN_1
 62
     2
  6
CONTINUOUS
 10
0.270472
 20
1.356839
  0
VERTEX
  8
PLAN_1
 62
     2
  6
CONTINUOUS
 10
0.267213
 20
1.356295
  0
VERTEX
  8
PLAN_1
 62
     2
  6
CONTINUOUS
 10
0.263953
 20
1.355752
  0
VERTEX
  8
PLAN_1
 62
     2
  6
CONTINUOUS
 10
0.261240
 20
1.355209
  0
VERTEX
  8
PLAN_1
 62
     2
  6
CONTINUOUS
 10
0.261240
 20
1.364988
  0
VERTEX
  8
PLAN_1
 62
     2
  6
CONTINUOUS
 10
0.263953
 20
1.364988
  0
VERTEX
  8
PLAN_1
 62
     2
  6
CONTINUOUS
 10
0.266669
 20
1.365531
  0
VERTEX
  8
PLAN_1
 62
     2
  6
CONTINUOUS
 10
0.269386
 20
1.366075
  0
VERTEX
  8
PLAN_1
 62
     2
  6
CONTINUOUS
 10
0.271559
 20
1.367705
  0
VERTEX
  8
PLAN_1
 62
     2
  6
CONTINUOUS
 10
0.273732
 20
1.369331
  0
VERTEX
  8
PLAN_1
 62
     2
  6
CONTINUOUS
 10
0.275362
 20
1.372047
  0
VERTEX
  8
PLAN_1
 62
     2
  6
CONTINUOUS
 10
0.276992
 20
1.375850
  0
VERTEX
  8
PLAN_1
 62
     2
  6
CONTINUOUS
 10
0.276992
 20
1.380197
  0
VERTEX
  8
PLAN_1
 62
     2
  6
CONTINUOUS
 10
0.276992
 20
1.384000
  0
VERTEX
  8
PLAN_1
 62
     2
  6
CONTINUOUS
 10
0.275906
 20
1.386717
  0
VERTEX
  8
PLAN_1
 62
     2
  6
CONTINUOUS
 10
0.274819
 20
1.389429
  0
VERTEX
  8
PLAN_1
 62
     2
  6
CONTINUOUS
 10
0.273189
 20
1.392146
  0
VERTEX
  8
PLAN_1
 62
     2
  6
CONTINUOUS
 10
0.271016
 20
1.393776
  0
VERTEX
  8
PLAN_1
 62
     2
  6
CONTINUOUS
 10
0.268843
 20
1.395406
  0
VERTEX
  8
PLAN_1
 62
     2
  6
CONTINUOUS
 10
0.266126
 20
1.395949
  0
VERTEX
  8
PLAN_1
 62
     2
  6
CONTINUOUS
 10
0.262866
 20
1.396492
  0
VERTEX
  8
PLAN_1
 62
     2
  6
CONTINUOUS
 10
0.259067
 20
1.395949
  0
VERTEX
  8
PLAN_1
 62
     2
  6
CONTINUOUS
 10
0.255807
 20
1.394319
  0
VERTEX
  8
PLAN_1
 62
     2
  6
CONTINUOUS
 10
0.253634
 20
1.392689
  0
VERTEX
  8
PLAN_1
 62
     2
  6
CONTINUOUS
 10
0.251461
 20
1.389972
  0
VERTEX
  8
PLAN_1
 62
     2
  6
CONTINUOUS
 10
0.250374
 20
1.387256
  0
VERTEX
  8
PLAN_1
 62
     2
  6
CONTINUOUS
 10
0.249831
 20
1.384543
  0
VERTEX
  8
PLAN_1
 62
     2
  6
CONTINUOUS
 10
0.249831
 20
1.381827
  0
VERTEX
  8
PLAN_1
 62
     2
  6
CONTINUOUS
 10
0.249831
 20
1.379110
  0
VERTEX
  8
PLAN_1
 62
     2
  6
CONTINUOUS
 10
0.249831
 20
1.378567
  0
VERTEX
  8
PLAN_1
 62
     2
  6
CONTINUOUS
 10
0.249831
 20
1.378024
  0
VERTEX
  8
PLAN_1
 62
     2
  6
CONTINUOUS
 10
0.249831
 20
1.377480
  0
VERTEX
  8
PLAN_1
 62
     2
  6
CONTINUOUS
 10
0.249831
 20
1.376937
  0
VERTEX
  8
PLAN_1
 62
     2
  6
CONTINUOUS
 10
0.249831
 20
1.376394
  0
VERTEX
  8
PLAN_1
 62
     2
  6
CONTINUOUS
 10
0.249831
 20
1.375850
  0
VERTEX
  8
PLAN_1
 62
     2
  6
CONTINUOUS
 10
0.249831
 20
1.375307
  0
VERTEX
  8
PLAN_1
 62
     2
  6
CONTINUOUS
 10
0.241685
 20
1.375307
  0
SEQEND
  8
0
  0
POLYLINE
  8
PLAN_1
 62
     2
  6
CONTINUOUS
 66
     1
 40
0.004343
 41
0.004343
  0
VERTEX
  8
PLAN_1
 62
     2
  6
CONTINUOUS
 10
-1.518787
 20
4.091787
  0
VERTEX
  8
PLAN_1
 62
     2
  6
CONTINUOUS
 10
0.122181
 20
4.091787
  0
SEQEND
  8
0
  0
SOLID
  8
PLAN_1
 62
     2
 10
0.151516
 20
4.091787
 11
0.092850
 21
4.107539
 12
0.151516
 22
4.091787
 13
0.092850
 23
4.076035
  0
POLYLINE
  8
PLAN_1
 62
     2
  6
CONTINUOUS
 66
     1
 40
0.003000
 41
0.003000
  0
VERTEX
  8
PLAN_1
 62
     2
  6
CONTINUOUS
 10
0.151516
 20
4.091787
  0
VERTEX
  8
PLAN_1
 62
     2
  6
CONTINUOUS
 10
0.092850
 20
4.107539
  0
VERTEX
  8
PLAN_1
 62
     2
  6
CONTINUOUS
 10
0.092850
 20
4.076035
  0
VERTEX
  8
PLAN_1
 62
     2
  6
CONTINUOUS
 10
0.151516
 20
4.091787
  0
SEQEND
  8
0
  0
SOLID
  8
PLAN_1
 62
     2
 10
-1.548118
 20
4.091787
 11
-1.489457
 21
4.107539
 12
-1.548118
 22
4.091787
 13
-1.489457
 23
4.076035
  0
POLYLINE
  8
PLAN_1
 62
     2
  6
CONTINUOUS
 66
     1
 40
0.003000
 41
0.003000
  0
VERTEX
  8
PLAN_1
 62
     2
  6
CONTINUOUS
 10
-1.548118
 20
4.091787
  0
VERTEX
  8
PLAN_1
 62
     2
  6
CONTINUOUS
 10
-1.489457
 20
4.107539
  0
VERTEX
  8
PLAN_1
 62
     2
  6
CONTINUOUS
 10
-1.489457
 20
4.076035
  0
VERTEX
  8
PLAN_1
 62
     2
  6
CONTINUOUS
 10
-1.548118
 20
4.091787
  0
SEQEND
  8
0
  0
POLYLINE
  8
PLAN_1
 62
     2
  6
CONTINUOUS
 66
     1
 40
0.004343
 41
0.004343
  0
VERTEX
  8
PLAN_1
 62
     2
  6
CONTINUOUS
 10
-2.058173
 20
4.250941
  0
VERTEX
  8
PLAN_1
 62
     2
  6
CONTINUOUS
 10
0.122181
 20
4.250941
  0
SEQEND
  8
0
  0
SOLID
  8
PLAN_1
 62
     2
 10
0.151516
 20
4.250941
 11
0.092850
 21
4.266693
 12
0.151516
 22
4.250941
 13
0.092850
 23
4.235189
  0
POLYLINE
  8
PLAN_1
 62
     2
  6
CONTINUOUS
 66
     1
 40
0.003000
 41
0.003000
  0
VERTEX
  8
PLAN_1
 62
     2
  6
CONTINUOUS
 10
0.151516
 20
4.250941
  0
VERTEX
  8
PLAN_1
 62
     2
  6
CONTINUOUS
 10
0.092850
 20
4.266693
  0
VERTEX
  8
PLAN_1
 62
     2
  6
CONTINUOUS
 10
0.092850
 20
4.235189
  0
VERTEX
  8
PLAN_1
 62
     2
  6
CONTINUOUS
 10
0.151516
 20
4.250941
  0
SEQEND
  8
0
  0
SOLID
  8
PLAN_1
 62
     2
 10
-2.087504
 20
4.250941
 11
-2.028295
 21
4.266693
 12
-2.087504
 22
4.250941
 13
-2.028295
 23
4.235189
  0
POLYLINE
  8
PLAN_1
 62
     2
  6
CONTINUOUS
 66
     1
 40
0.003000
 41
0.003000
  0
VERTEX
  8
PLAN_1
 62
     2
  6
CONTINUOUS
 10
-2.087504
 20
4.250941
  0
VERTEX
  8
PLAN_1
 62
     2
  6
CONTINUOUS
 10
-2.028295
 20
4.266693
  0
VERTEX
  8
PLAN_1
 62
     2
  6
CONTINUOUS
 10
-2.028295
 20
4.235189
  0
VERTEX
  8
PLAN_1
 62
     2
  6
CONTINUOUS
 10
-2.087504
 20
4.250941
  0
SEQEND
  8
0
  0
POLYLINE
  8
PLAN_1
 62
     2
  6
CONTINUOUS
 66
     1
 40
0.004343
 41
0.004343
  0
VERTEX
  8
PLAN_1
 62
     2
  6
CONTINUOUS
 10
-2.339000
 20
4.111343
  0
VERTEX
  8
PLAN_1
 62
     2
  6
CONTINUOUS
 10
-2.011457
 20
4.111343
  0
SEQEND
  8
0
  0
SOLID
  8
PLAN_1
 62
     2
 10
-1.981583
 20
4.111343
 11
-2.040791
 21
4.127094
 12
-1.981583
 22
4.111343
 13
-2.040791
 23
4.095591
  0
POLYLINE
  8
PLAN_1
 62
     2
  6
CONTINUOUS
 66
     1
 40
0.003000
 41
0.003000
  0
VERTEX
  8
PLAN_1
 62
     2
  6
CONTINUOUS
 10
-1.981583
 20
4.111343
  0
VERTEX
  8
PLAN_1
 62
     2
  6
CONTINUOUS
 10
-2.040791
 20
4.127094
  0
VERTEX
  8
PLAN_1
 62
     2
  6
CONTINUOUS
 10
-2.040791
 20
4.095591
  0
VERTEX
  8
PLAN_1
 62
     2
  6
CONTINUOUS
 10
-1.981583
 20
4.111343
  0
SEQEND
  8
0
  0
SOLID
  8
PLAN_1
 62
     2
 10
-2.179303
 20
4.111343
 11
-2.120638
 21
4.127094
 12
-2.179303
 22
4.111343
 13
-2.120638
 23
4.095591
  0
POLYLINE
  8
PLAN_1
 62
     2
  6
CONTINUOUS
 66
     1
 40
0.003000
 41
0.003000
  0
VERTEX
  8
PLAN_1
 62
     2
  6
CONTINUOUS
 10
-2.179303
 20
4.111343
  0
VERTEX
  8
PLAN_1
 62
     2
  6
CONTINUOUS
 10
-2.120638
 20
4.127094
  0
VERTEX
  8
PLAN_1
 62
     2
  6
CONTINUOUS
 10
-2.120638
 20
4.095591
  0
VERTEX
  8
PLAN_1
 62
     2
  6
CONTINUOUS
 10
-2.179303
 20
4.111343
  0
SEQEND
  8
0
  0
POLYLINE
  8
PLAN_1
 62
     2
  6
CONTINUOUS
 66
     1
 40
0.004343
 41
0.004343
  0
VERTEX
  8
PLAN_1
 62
     2
  6
CONTINUOUS
 10
-2.087504
 20
3.811504
  0
VERTEX
  8
PLAN_1
 62
     2
  6
CONTINUOUS
 10
-2.087504
 20
4.090157
  0
SEQEND
  8
0
  0
POLYLINE
  8
PLAN_1
 62
     2
  6
CONTINUOUS
 66
     1
 40
0.004343
 41
0.004343
  0
VERTEX
  8
PLAN_1
 62
     2
  6
CONTINUOUS
 10
-2.179303
 20
4.134701
  0
VERTEX
  8
PLAN_1
 62
     2
  6
CONTINUOUS
 10
-2.179303
 20
3.974461
  0
SEQEND
  8
0
  0
POLYLINE
  8
PLAN_1
 62
     2
  6
CONTINUOUS
 66
     1
 40
0.004343
 41
0.004343
  0
VERTEX
  8
PLAN_1
 62
     2
  6
CONTINUOUS
 10
-1.981583
 20
4.134701
  0
VERTEX
  8
PLAN_1
 62
     2
  6
CONTINUOUS
 10
-1.981583
 20
3.974461
  0
SEQEND
  8
0
  0
POLYLINE
  8
PLAN_1
 62
     2
  6
CONTINUOUS
 66
     1
 40
0.004343
 41
0.004343
  0
VERTEX
  8
PLAN_1
 62
     2
  6
CONTINUOUS
 10
-1.548118
 20
4.115146
  0
VERTEX
  8
PLAN_1
 62
     2
  6
CONTINUOUS
 10
-1.548118
 20
3.961965
  0
SEQEND
  8
0
  0
POLYLINE
  8
PLAN_1
 62
     2
  6
CONTINUOUS
 66
     1
 40
0.004343
 41
0.004343
  0
VERTEX
  8
PLAN_1
 62
     2
  6
CONTINUOUS
 10
0.151516
 20
1.752280
  0
VERTEX
  8
PLAN_1
 62
     2
  6
CONTINUOUS
 10
0.151516
 20
4.274299
  0
SEQEND
  8
0
  0
POLYLINE
  8
PLAN_1
 62
     2
  6
CONTINUOUS
 66
     1
 40
0.004343
 41
0.004343
  0
VERTEX
  8
PLAN_1
 62
     2
  6
CONTINUOUS
 10
-2.087504
 20
4.131441
  0
VERTEX
  8
PLAN_1
 62
     2
  6
CONTINUOUS
 10
-2.087504
 20
4.274299
  0
SEQEND
  8
0
  0
POLYLINE
  8
PLAN_1
 62
     2
  6
CONTINUOUS
 66
     1
 40
0.003000
 41
0.003000
  0
VERTEX
  8
PLAN_1
 62
     2
  6
CONTINUOUS
 10
-1.006563
 20
4.317213
  0
VERTEX
  8
PLAN_1
 62
     2
  6
CONTINUOUS
 10
-1.005476
 20
4.317756
  0
VERTEX
  8
PLAN_1
 62
     2
  6
CONTINUOUS
 10
-1.003846
 20
4.318843
  0
VERTEX
  8
PLAN_1
 62
     2
  6
CONTINUOUS
 10
-1.002760
 20
4.319382
  0
VERTEX
  8
PLAN_1
 62
     2
  6
CONTINUOUS
 10
-1.001130
 20
4.319925
  0
VERTEX
  8
PLAN_1
 62
     2
  6
CONTINUOUS
 10
-0.998957
 20
4.320469
  0
VERTEX
  8
PLAN_1
 62
     2
  6
CONTINUOUS
 10
-0.997327
 20
4.321012
  0
VERTEX
  8
PLAN_1
 62
     2
  6
CONTINUOUS
 10
-0.995154
 20
4.321555
  0
VERTEX
  8
PLAN_1
 62
     2
  6
CONTINUOUS
 10
-0.992437
 20
4.321555
  0
VERTEX
  8
PLAN_1
 62
     2
  6
CONTINUOUS
 10
-0.988094
 20
4.321012
  0
VERTEX
  8
PLAN_1
 62
     2
  6
CONTINUOUS
 10
-0.983748
 20
4.319925
  0
VERTEX
  8
PLAN_1
 62
     2
  6
CONTINUOUS
 10
-0.979945
 20
4.318299
  0
VERTEX
  8
PLAN_1
 62
     2
  6
CONTINUOUS
 10
-0.976142
 20
4.315583
  0
VERTEX
  8
PLAN_1
 62
     2
  6
CONTINUOUS
 10
-0.972882
 20
4.312323
  0
VERTEX
  8
PLAN_1
 62
     2
  6
CONTINUOUS
 10
-0.970713
 20
4.307976
  0
VERTEX
  8
PLAN_1
 62
     2
  6
CONTINUOUS
 10
-0.969626
 20
4.305803
  0
VERTEX
  8
PLAN_1
 62
     2
  6
CONTINUOUS
 10
-0.969083
 20
4.303630
  0
VERTEX
  8
PLAN_1
 62
     2
  6
CONTINUOUS
 10
-0.968539
 20
4.300917
  0
VERTEX
  8
PLAN_1
 62
     2
  6
CONTINUOUS
 10
-0.968539
 20
4.298201
  0
VERTEX
  8
PLAN_1
 62
     2
  6
CONTINUOUS
 10
-0.968539
 20
4.294941
  0
VERTEX
  8
PLAN_1
 62
     2
  6
CONTINUOUS
 10
-0.969626
 20
4.290594
  0
VERTEX
  8
PLAN_1
 62
     2
  6
CONTINUOUS
 10
-0.970713
 20
4.286248
  0
VERTEX
  8
PLAN_1
 62
     2
  6
CONTINUOUS
 10
-0.973425
 20
4.282449
  0
VERTEX
  8
PLAN_1
 62
     2
  6
CONTINUOUS
 10
-0.974512
 20
4.280276
  0
VERTEX
  8
PLAN_1
 62
     2
  6
CONTINUOUS
 10
-0.976685
 20
4.278646
  0
VERTEX
  8
PLAN_1
 62
     2
  6
CONTINUOUS
 10
-0.978858
 20
4.277016
  0
VERTEX
  8
PLAN_1
 62
     2
  6
CONTINUOUS
 10
-0.981031
 20
4.275386
  0
VERTEX
  8
PLAN_1
 62
     2
  6
CONTINUOUS
 10
-0.984291
 20
4.274299
  0
VERTEX
  8
PLAN_1
 62
     2
  6
CONTINUOUS
 10
-0.987551
 20
4.273213
  0
VERTEX
  8
PLAN_1
 62
     2
  6
CONTINUOUS
 10
-0.990807
 20
4.272669
  0
VERTEX
  8
PLAN_1
 62
     2
  6
CONTINUOUS
 10
-0.995154
 20
4.272669
  0
VERTEX
  8
PLAN_1
 62
     2
  6
CONTINUOUS
 10
-0.998957
 20
4.272669
  0
VERTEX
  8
PLAN_1
 62
     2
  6
CONTINUOUS
 10
-1.002760
 20
4.273213
  0
VERTEX
  8
PLAN_1
 62
     2
  6
CONTINUOUS
 10
-1.006020
 20
4.274299
  0
VERTEX
  8
PLAN_1
 62
     2
  6
CONTINUOUS
 10
-1.009819
 20
4.276472
  0
VERTEX
  8
PLAN_1
 62
     2
  6
CONTINUOUS
 10
-1.013079
 20
4.279189
  0
VERTEX
  8
PLAN_1
 62
     2
  6
CONTINUOUS
 10
-1.015795
 20
4.282449
  0
VERTEX
  8
PLAN_1
 62
     2
  6
CONTINUOUS
 10
-1.016882
 20
4.284618
  0
VERTEX
  8
PLAN_1
 62
     2
  6
CONTINUOUS
 10
-1.017425
 20
4.287335
  0
VERTEX
  8
PLAN_1
 62
     2
  6
CONTINUOUS
 10
-1.017969
 20
4.289508
  0
VERTEX
  8
PLAN_1
 62
     2
  6
CONTINUOUS
 10
-1.018512
 20
4.292768
  0
VERTEX
  8
PLAN_1
 62
     2
  6
CONTINUOUS
 10
-1.009276
 20
4.292768
  0
VERTEX
  8
PLAN_1
 62
     2
  6
CONTINUOUS
 10
-1.008732
 20
4.289508
  0
VERTEX
  8
PLAN_1
 62
     2
  6
CONTINUOUS
 10
-1.007646
 20
4.287335
  0
VERTEX
  8
PLAN_1
 62
     2
  6
CONTINUOUS
 10
-1.006020
 20
4.285161
  0
VERTEX
  8
PLAN_1
 62
     2
  6
CONTINUOUS
 10
-1.004390
 20
4.283531
  0
VERTEX
  8
PLAN_1
 62
     2
  6
CONTINUOUS
 10
-1.002217
 20
4.281906
  0
VERTEX
  8
PLAN_1
 62
     2
  6
CONTINUOUS
 10
-0.999500
 20
4.280819
  0
VERTEX
  8
PLAN_1
 62
     2
  6
CONTINUOUS
 10
-0.996783
 20
4.280276
  0
VERTEX
  8
PLAN_1
 62
     2
  6
CONTINUOUS
 10
-0.993524
 20
4.280276
  0
VERTEX
  8
PLAN_1
 62
     2
  6
CONTINUOUS
 10
-0.990264
 20
4.280819
  0
VERTEX
  8
PLAN_1
 62
     2
  6
CONTINUOUS
 10
-0.987551
 20
4.281906
  0
VERTEX
  8
PLAN_1
 62
     2
  6
CONTINUOUS
 10
-0.984835
 20
4.282992
  0
VERTEX
  8
PLAN_1
 62
     2
  6
CONTINUOUS
 10
-0.982661
 20
4.285161
  0
VERTEX
  8
PLAN_1
 62
     2
  6
CONTINUOUS
 10
-0.980488
 20
4.287878
  0
VERTEX
  8
PLAN_1
 62
     2
  6
CONTINUOUS
 10
-0.979402
 20
4.290594
  0
VERTEX
  8
PLAN_1
 62
     2
  6
CONTINUOUS
 10
-0.978858
 20
4.293854
  0
VERTEX
  8
PLAN_1
 62
     2
  6
CONTINUOUS
 10
-0.978315
 20
4.297114
  0
VERTEX
  8
PLAN_1
 62
     2
  6
CONTINUOUS
 10
-0.978858
 20
4.300917
  0
VERTEX
  8
PLAN_1
 62
     2
  6
CONTINUOUS
 10
-0.979402
 20
4.304173
  0
VERTEX
  8
PLAN_1
 62
     2
  6
CONTINUOUS
 10
-0.981031
 20
4.306890
  0
VERTEX
  8
PLAN_1
 62
     2
  6
CONTINUOUS
 10
-0.983205
 20
4.309063
  0
VERTEX
  8
PLAN_1
 62
     2
  6
CONTINUOUS
 10
-0.985378
 20
4.310693
  0
VERTEX
  8
PLAN_1
 62
     2
  6
CONTINUOUS
 10
-0.988094
 20
4.312323
  0
VERTEX
  8
PLAN_1
 62
     2
  6
CONTINUOUS
 10
-0.991350
 20
4.312866
  0
VERTEX
  8
PLAN_1
 62
     2
  6
CONTINUOUS
 10
-0.994610
 20
4.313409
  0
VERTEX
  8
PLAN_1
 62
     2
  6
CONTINUOUS
 10
-0.996783
 20
4.313409
  0
VERTEX
  8
PLAN_1
 62
     2
  6
CONTINUOUS
 10
-0.998413
 20
4.312866
  0
VERTEX
  8
PLAN_1
 62
     2
  6
CONTINUOUS
 10
-1.000043
 20
4.312323
  0
VERTEX
  8
PLAN_1
 62
     2
  6
CONTINUOUS
 10
-1.002217
 20
4.311780
  0
VERTEX
  8
PLAN_1
 62
     2
  6
CONTINUOUS
 10
-1.003846
 20
4.310693
  0
VERTEX
  8
PLAN_1
 62
     2
  6
CONTINUOUS
 10
-1.005476
 20
4.309606
  0
VERTEX
  8
PLAN_1
 62
     2
  6
CONTINUOUS
 10
-1.006563
 20
4.307976
  0
VERTEX
  8
PLAN_1
 62
     2
  6
CONTINUOUS
 10
-1.008189
 20
4.306346
  0
VERTEX
  8
PLAN_1
 62
     2
  6
CONTINUOUS
 10
-1.015795
 20
4.306890
  0
VERTEX
  8
PLAN_1
 62
     2
  6
CONTINUOUS
 10
-1.010362
 20
4.346000
  0
VERTEX
  8
PLAN_1
 62
     2
  6
CONTINUOUS
 10
-0.972339
 20
4.346000
  0
VERTEX
  8
PLAN_1
 62
     2
  6
CONTINUOUS
 10
-0.972339
 20
4.337307
  0
VERTEX
  8
PLAN_1
 62
     2
  6
CONTINUOUS
 10
-1.003846
 20
4.337307
  0
VERTEX
  8
PLAN_1
 62
     2
  6
CONTINUOUS
 10
-1.006563
 20
4.317213
  0
SEQEND
  8
0
  0
POLYLINE
  8
PLAN_1
 62
     2
  6
CONTINUOUS
 66
     1
 40
0.003000
 41
0.003000
  0
VERTEX
  8
PLAN_1
 62
     2
  6
CONTINUOUS
 10
-0.960390
 20
4.346000
  0
VERTEX
  8
PLAN_1
 62
     2
  6
CONTINUOUS
 10
-0.909874
 20
4.346000
  0
VERTEX
  8
PLAN_1
 62
     2
  6
CONTINUOUS
 10
-0.909874
 20
4.337850
  0
VERTEX
  8
PLAN_1
 62
     2
  6
CONTINUOUS
 10
-0.913134
 20
4.334594
  0
VERTEX
  8
PLAN_1
 62
     2
  6
CONTINUOUS
 10
-0.916937
 20
4.329705
  0
VERTEX
  8
PLAN_1
 62
     2
  6
CONTINUOUS
 10
-0.921280
 20
4.323185
  0
VERTEX
  8
PLAN_1
 62
     2
  6
CONTINUOUS
 10
-0.925626
 20
4.315583
  0
VERTEX
  8
PLAN_1
 62
     2
  6
CONTINUOUS
 10
-0.929972
 20
4.306890
  0
VERTEX
  8
PLAN_1
 62
     2
  6
CONTINUOUS
 10
-0.933776
 20
4.297114
  0
VERTEX
  8
PLAN_1
 62
     2
  6
CONTINUOUS
 10
-0.935406
 20
4.291681
  0
VERTEX
  8
PLAN_1
 62
     2
  6
CONTINUOUS
 10
-0.937031
 20
4.286248
  0
VERTEX
  8
PLAN_1
 62
     2
  6
CONTINUOUS
 10
-0.938661
 20
4.280276
  0
VERTEX
  8
PLAN_1
 62
     2
  6
CONTINUOUS
 10
-0.939748
 20
4.274299
  0
VERTEX
  8
PLAN_1
 62
     2
  6
CONTINUOUS
 10
-0.950071
 20
4.274299
  0
VERTEX
  8
PLAN_1
 62
     2
  6
CONTINUOUS
 10
-0.948441
 20
4.282449
  0
VERTEX
  8
PLAN_1
 62
     2
  6
CONTINUOUS
 10
-0.946268
 20
4.290594
  0
VERTEX
  8
PLAN_1
 62
     2
  6
CONTINUOUS
 10
-0.943008
 20
4.298744
  0
VERTEX
  8
PLAN_1
 62
     2
  6
CONTINUOUS
 10
-0.939205
 20
4.306890
  0
VERTEX
  8
PLAN_1
 62
     2
  6
CONTINUOUS
 10
-0.934862
 20
4.315583
  0
VERTEX
  8
PLAN_1
 62
     2
  6
CONTINUOUS
 10
-0.929972
 20
4.323185
  0
VERTEX
  8
PLAN_1
 62
     2
  6
CONTINUOUS
 10
-0.925083
 20
4.330248
  0
VERTEX
  8
PLAN_1
 62
     2
  6
CONTINUOUS
 10
-0.920193
 20
4.337307
  0
VERTEX
  8
PLAN_1
 62
     2
  6
CONTINUOUS
 10
-0.960390
 20
4.337307
  0
VERTEX
  8
PLAN_1
 62
     2
  6
CONTINUOUS
 10
-0.960390
 20
4.346000
  0
SEQEND
  8
0
  0
POLYLINE
  8
PLAN_1
 62
     2
  6
CONTINUOUS
 66
     1
 40
0.003000
 41
0.003000
  0
VERTEX
  8
PLAN_1
 62
     2
  6
CONTINUOUS
 10
-2.305323
 20
4.177067
  0
VERTEX
  8
PLAN_1
 62
     2
  6
CONTINUOUS
 10
-2.304236
 20
4.178154
  0
VERTEX
  8
PLAN_1
 62
     2
  6
CONTINUOUS
 10
-2.302606
 20
4.179240
  0
VERTEX
  8
PLAN_1
 62
     2
  6
CONTINUOUS
 10
-2.301520
 20
4.179783
  0
VERTEX
  8
PLAN_1
 62
     2
  6
CONTINUOUS
 10
-2.299890
 20
4.180327
  0
VERTEX
  8
PLAN_1
 62
     2
  6
CONTINUOUS
 10
-2.297717
 20
4.180870
  0
VERTEX
  8
PLAN_1
 62
     2
  6
CONTINUOUS
 10
-2.295543
 20
4.181413
  0
VERTEX
  8
PLAN_1
 62
     2
  6
CONTINUOUS
 10
-2.293374
 20
4.181957
  0
VERTEX
  8
PLAN_1
 62
     2
  6
CONTINUOUS
 10
-2.291201
 20
4.181957
  0
VERTEX
  8
PLAN_1
 62
     2
  6
CONTINUOUS
 10
-2.286854
 20
4.181413
  0
VERTEX
  8
PLAN_1
 62
     2
  6
CONTINUOUS
 10
-2.282508
 20
4.180327
  0
VERTEX
  8
PLAN_1
 62
     2
  6
CONTINUOUS
 10
-2.278705
 20
4.178697
  0
VERTEX
  8
PLAN_1
 62
     2
  6
CONTINUOUS
 10
-2.274906
 20
4.175984
  0
VERTEX
  8
PLAN_1
 62
     2
  6
CONTINUOUS
 10
-2.271646
 20
4.172724
  0
VERTEX
  8
PLAN_1
 62
     2
  6
CONTINUOUS
 10
-2.269472
 20
4.168378
  0
VERTEX
  8
PLAN_1
 62
     2
  6
CONTINUOUS
 10
-2.268386
 20
4.166205
  0
VERTEX
  8
PLAN_1
 62
     2
  6
CONTINUOUS
 10
-2.267843
 20
4.164031
  0
VERTEX
  8
PLAN_1
 62
     2
  6
CONTINUOUS
 10
-2.267299
 20
4.161315
  0
VERTEX
  8
PLAN_1
 62
     2
  6
CONTINUOUS
 10
-2.267299
 20
4.158598
  0
VERTEX
  8
PLAN_1
 62
     2
  6
CONTINUOUS
 10
-2.267299
 20
4.154799
  0
VERTEX
  8
PLAN_1
 62
     2
  6
CONTINUOUS
 10
-2.268386
 20
4.150996
  0
VERTEX
  8
PLAN_1
 62
     2
  6
CONTINUOUS
 10
-2.269472
 20
4.146650
  0
VERTEX
  8
PLAN_1
 62
     2
  6
CONTINUOUS
 10
-2.272189
 20
4.142846
  0
VERTEX
  8
PLAN_1
 62
     2
  6
CONTINUOUS
 10
-2.273276
 20
4.140673
  0
VERTEX
  8
PLAN_1
 62
     2
  6
CONTINUOUS
 10
-2.275449
 20
4.138504
  0
VERTEX
  8
PLAN_1
 62
     2
  6
CONTINUOUS
 10
-2.277618
 20
4.136874
  0
VERTEX
  8
PLAN_1
 62
     2
  6
CONTINUOUS
 10
-2.279791
 20
4.135787
  0
VERTEX
  8
PLAN_1
 62
     2
  6
CONTINUOUS
 10
-2.283051
 20
4.134701
  0
VERTEX
  8
PLAN_1
 62
     2
  6
CONTINUOUS
 10
-2.286311
 20
4.133614
  0
VERTEX
  8
PLAN_1
 62
     2
  6
CONTINUOUS
 10
-2.289571
 20
4.133071
  0
VERTEX
  8
PLAN_1
 62
     2
  6
CONTINUOUS
 10
-2.293917
 20
4.132528
  0
VERTEX
  8
PLAN_1
 62
     2
  6
CONTINUOUS
 10
-2.297717
 20
4.133071
  0
VERTEX
  8
PLAN_1
 62
     2
  6
CONTINUOUS
 10
-2.301520
 20
4.133614
  0
VERTEX
  8
PLAN_1
 62
     2
  6
CONTINUOUS
 10
-2.304780
 20
4.134701
  0
VERTEX
  8
PLAN_1
 62
     2
  6
CONTINUOUS
 10
-2.308583
 20
4.136874
  0
VERTEX
  8
PLAN_1
 62
     2
  6
CONTINUOUS
 10
-2.311843
 20
4.139591
  0
VERTEX
  8
PLAN_1
 62
     2
  6
CONTINUOUS
 10
-2.314555
 20
4.142846
  0
VERTEX
  8
PLAN_1
 62
     2
  6
CONTINUOUS
 10
-2.315642
 20
4.145020
  0
VERTEX
  8
PLAN_1
 62
     2
  6
CONTINUOUS
 10
-2.316185
 20
4.147193
  0
VERTEX
  8
PLAN_1
 62
     2
  6
CONTINUOUS
 10
-2.316728
 20
4.149909
  0
VERTEX
  8
PLAN_1
 62
     2
  6
CONTINUOUS
 10
-2.317272
 20
4.153169
  0
VERTEX
  8
PLAN_1
 62
     2
  6
CONTINUOUS
 10
-2.308039
 20
4.153169
  0
VERTEX
  8
PLAN_1
 62
     2
  6
CONTINUOUS
 10
-2.307496
 20
4.149909
  0
VERTEX
  8
PLAN_1
 62
     2
  6
CONTINUOUS
 10
-2.306409
 20
4.147193
  0
VERTEX
  8
PLAN_1
 62
     2
  6
CONTINUOUS
 10
-2.304780
 20
4.145563
  0
VERTEX
  8
PLAN_1
 62
     2
  6
CONTINUOUS
 10
-2.303150
 20
4.143390
  0
VERTEX
  8
PLAN_1
 62
     2
  6
CONTINUOUS
 10
-2.300433
 20
4.142303
  0
VERTEX
  8
PLAN_1
 62
     2
  6
CONTINUOUS
 10
-2.298260
 20
4.141217
  0
VERTEX
  8
PLAN_1
 62
     2
  6
CONTINUOUS
 10
-2.295543
 20
4.140673
  0
VERTEX
  8
PLAN_1
 62
     2
  6
CONTINUOUS
 10
-2.292287
 20
4.140673
  0
VERTEX
  8
PLAN_1
 62
     2
  6
CONTINUOUS
 10
-2.289028
 20
4.141217
  0
VERTEX
  8
PLAN_1
 62
     2
  6
CONTINUOUS
 10
-2.285768
 20
4.141760
  0
VERTEX
  8
PLAN_1
 62
     2
  6
CONTINUOUS
 10
-2.283594
 20
4.143390
  0
VERTEX
  8
PLAN_1
 62
     2
  6
CONTINUOUS
 10
-2.281421
 20
4.145563
  0
VERTEX
  8
PLAN_1
 62
     2
  6
CONTINUOUS
 10
-2.279248
 20
4.148280
  0
VERTEX
  8
PLAN_1
 62
     2
  6
CONTINUOUS
 10
-2.278161
 20
4.150996
  0
VERTEX
  8
PLAN_1
 62
     2
  6
CONTINUOUS
 10
-2.277075
 20
4.154256
  0
VERTEX
  8
PLAN_1
 62
     2
  6
CONTINUOUS
 10
-2.277075
 20
4.157516
  0
VERTEX
  8
PLAN_1
 62
     2
  6
CONTINUOUS
 10
-2.277618
 20
4.161315
  0
VERTEX
  8
PLAN_1
 62
     2
  6
CONTINUOUS
 10
-2.278161
 20
4.164575
  0
VERTEX
  8
PLAN_1
 62
     2
  6
CONTINUOUS
 10
-2.279791
 20
4.167291
  0
VERTEX
  8
PLAN_1
 62
     2
  6
CONTINUOUS
 10
-2.281965
 20
4.169465
  0
VERTEX
  8
PLAN_1
 62
     2
  6
CONTINUOUS
 10
-2.284138
 20
4.171094
  0
VERTEX
  8
PLAN_1
 62
     2
  6
CONTINUOUS
 10
-2.286854
 20
4.172724
  0
VERTEX
  8
PLAN_1
 62
     2
  6
CONTINUOUS
 10
-2.290114
 20
4.173268
  0
VERTEX
  8
PLAN_1
 62
     2
  6
CONTINUOUS
 10
-2.293374
 20
4.173811
  0
VERTEX
  8
PLAN_1
 62
     2
  6
CONTINUOUS
 10
-2.295000
 20
4.173811
  0
VERTEX
  8
PLAN_1
 62
     2
  6
CONTINUOUS
 10
-2.297173
 20
4.173268
  0
VERTEX
  8
PLAN_1
 62
     2
  6
CONTINUOUS
 10
-2.298803
 20
4.172724
  0
VERTEX
  8
PLAN_1
 62
     2
  6
CONTINUOUS
 10
-2.300976
 20
4.171638
  0
VERTEX
  8
PLAN_1
 62
     2
  6
CONTINUOUS
 10
-2.302606
 20
4.171094
  0
VERTEX
  8
PLAN_1
 62
     2
  6
CONTINUOUS
 10
-2.303693
 20
4.169465
  0
VERTEX
  8
PLAN_1
 62
     2
  6
CONTINUOUS
 10
-2.305323
 20
4.168378
  0
VERTEX
  8
PLAN_1
 62
     2
  6
CONTINUOUS
 10
-2.306953
 20
4.166748
  0
VERTEX
  8
PLAN_1
 62
     2
  6
CONTINUOUS
 10
-2.314555
 20
4.167291
  0
VERTEX
  8
PLAN_1
 62
     2
  6
CONTINUOUS
 10
-2.309126
 20
4.206402
  0
VERTEX
  8
PLAN_1
 62
     2
  6
CONTINUOUS
 10
-2.271102
 20
4.206402
  0
VERTEX
  8
PLAN_1
 62
     2
  6
CONTINUOUS
 10
-2.271102
 20
4.197165
  0
VERTEX
  8
PLAN_1
 62
     2
  6
CONTINUOUS
 10
-2.302063
 20
4.197165
  0
VERTEX
  8
PLAN_1
 62
     2
  6
CONTINUOUS
 10
-2.305323
 20
4.177067
  0
SEQEND
  8
0
  0
POLYLINE
  8
PLAN_1
 62
     2
  6
CONTINUOUS
 66
     1
 40
0.003000
 41
0.003000
  0
VERTEX
  8
PLAN_1
 62
     2
  6
CONTINUOUS
 10
-0.722472
 20
4.133071
  0
VERTEX
  8
PLAN_1
 62
     2
  6
CONTINUOUS
 10
-0.722472
 20
4.115146
  0
VERTEX
  8
PLAN_1
 62
     2
  6
CONTINUOUS
 10
-0.731709
 20
4.115146
  0
VERTEX
  8
PLAN_1
 62
     2
  6
CONTINUOUS
 10
-0.731709
 20
4.133071
  0
VERTEX
  8
PLAN_1
 62
     2
  6
CONTINUOUS
 10
-0.763213
 20
4.133071
  0
VERTEX
  8
PLAN_1
 62
     2
  6
CONTINUOUS
 10
-0.763213
 20
4.142303
  0
VERTEX
  8
PLAN_1
 62
     2
  6
CONTINUOUS
 10
-0.730079
 20
4.188476
  0
VERTEX
  8
PLAN_1
 62
     2
  6
CONTINUOUS
 10
-0.722472
 20
4.188476
  0
VERTEX
  8
PLAN_1
 62
     2
  6
CONTINUOUS
 10
-0.722472
 20
4.141217
  0
VERTEX
  8
PLAN_1
 62
     2
  6
CONTINUOUS
 10
-0.711610
 20
4.141217
  0
VERTEX
  8
PLAN_1
 62
     2
  6
CONTINUOUS
 10
-0.711610
 20
4.133071
  0
VERTEX
  8
PLAN_1
 62
     2
  6
CONTINUOUS
 10
-0.722472
 20
4.133071
  0
SEQEND
  8
0
  0
SOLID
  8
PLAN_1
 62
     2
 10
-0.755067
 20
4.141217
 11
-0.731709
 21
4.141217
 12
-0.755067
 22
4.141217
 13
-0.731709
 23
4.174354
  0
POLYLINE
  8
PLAN_1
 62
     2
  6
CONTINUOUS
 66
     1
 40
0.003000
 41
0.003000
  0
VERTEX
  8
PLAN_1
 62
     2
  6
CONTINUOUS
 10
-0.755067
 20
4.141217
  0
VERTEX
  8
PLAN_1
 62
     2
  6
CONTINUOUS
 10
-0.731709
 20
4.141217
  0
VERTEX
  8
PLAN_1
 62
     2
  6
CONTINUOUS
 10
-0.731709
 20
4.174354
  0
VERTEX
  8
PLAN_1
 62
     2
  6
CONTINUOUS
 10
-0.755067
 20
4.141217
  0
SEQEND
  8
0
  0
POLYLINE
  8
PLAN_1
 62
     2
  6
CONTINUOUS
 66
     1
 40
0.003000
 41
0.003000
  0
VERTEX
  8
PLAN_1
 62
     2
  6
CONTINUOUS
 10
-0.670870
 20
4.115146
  0
VERTEX
  8
PLAN_1
 62
     2
  6
CONTINUOUS
 10
-0.680650
 20
4.115146
  0
VERTEX
  8
PLAN_1
 62
     2
  6
CONTINUOUS
 10
-0.680650
 20
4.167291
  0
VERTEX
  8
PLAN_1
 62
     2
  6
CONTINUOUS
 10
-0.697488
 20
4.167291
  0
VERTEX
  8
PLAN_1
 62
     2
  6
CONTINUOUS
 10
-0.697488
 20
4.174354
  0
VERTEX
  8
PLAN_1
 62
     2
  6
CONTINUOUS
 10
-0.693685
 20
4.174898
  0
VERTEX
  8
PLAN_1
 62
     2
  6
CONTINUOUS
 10
-0.689882
 20
4.175441
  0
VERTEX
  8
PLAN_1
 62
     2
  6
CONTINUOUS
 10
-0.687165
 20
4.175984
  0
VERTEX
  8
PLAN_1
 62
     2
  6
CONTINUOUS
 10
-0.684453
 20
4.177610
  0
VERTEX
  8
PLAN_1
 62
     2
  6
CONTINUOUS
 10
-0.682280
 20
4.179240
  0
VERTEX
  8
PLAN_1
 62
     2
  6
CONTINUOUS
 10
-0.680650
 20
4.181413
  0
VERTEX
  8
PLAN_1
 62
     2
  6
CONTINUOUS
 10
-0.679020
 20
4.184673
  0
VERTEX
  8
PLAN_1
 62
     2
  6
CONTINUOUS
 10
-0.677933
 20
4.188476
  0
VERTEX
  8
PLAN_1
 62
     2
  6
CONTINUOUS
 10
-0.670870
 20
4.188476
  0
VERTEX
  8
PLAN_1
 62
     2
  6
CONTINUOUS
 10
-0.670870
 20
4.115146
  0
SEQEND
  8
0
  0
POLYLINE
  8
PLAN_1
 62
     2
  6
CONTINUOUS
 66
     1
 40
0.004343
 41
0.004343
  0
VERTEX
  8
PLAN_1
 62
     2
  6
CONTINUOUS
 10
-1.324870
 20
3.938610
  0
VERTEX
  8
PLAN_1
 62
     2
  6
CONTINUOUS
 10
0.338913
 20
3.938610
  0
SEQEND
  8
0
  0
POLYLINE
  8
PLAN_1
 62
     2
  6
CONTINUOUS
 66
     1
 40
0.004343
 41
0.004343
  0
VERTEX
  8
PLAN_1
 62
     2
  6
CONTINUOUS
 10
0.154776
 20
-1.292831
  0
VERTEX
  8
PLAN_1
 62
     2
  6
CONTINUOUS
 10
0.330768
 20
-1.292831
  0
SEQEND
  8
0
  0
POLYLINE
  8
PLAN_1
 62
     2
  6
CONTINUOUS
 66
     1
 40
0.004343
 41
0.004343
  0
VERTEX
  8
PLAN_1
 62
     2
  6
CONTINUOUS
 10
0.306866
 20
-1.734441
  0
VERTEX
  8
PLAN_1
 62
     2
  6
CONTINUOUS
 10
0.306866
 20
-1.317815
  0
SEQEND
  8
0
  0
SOLID
  8
PLAN_1
 62
     2
 10
0.306866
 20
-1.288484
 11
0.291114
 21
-1.347150
 12
0.306866
 22
-1.288484
 13
0.322618
 23
-1.347150
  0
POLYLINE
  8
PLAN_1
 62
     2
  6
CONTINUOUS
 66
     1
 40
0.003000
 41
0.003000
  0
VERTEX
  8
PLAN_1
 62
     2
  6
CONTINUOUS
 10
0.306866
 20
-1.288484
  0
VERTEX
  8
PLAN_1
 62
     2
  6
CONTINUOUS
 10
0.291114
 20
-1.347150
  0
VERTEX
  8
PLAN_1
 62
     2
  6
CONTINUOUS
 10
0.322618
 20
-1.347150
  0
VERTEX
  8
PLAN_1
 62
     2
  6
CONTINUOUS
 10
0.306866
 20
-1.288484
  0
SEQEND
  8
0
  0
SOLID
  8
PLAN_1
 62
     2
 10
0.306866
 20
-1.763772
 11
0.291114
 21
-1.705110
 12
0.306866
 22
-1.763772
 13
0.322618
 23
-1.705110
  0
POLYLINE
  8
PLAN_1
 62
     2
  6
CONTINUOUS
 66
     1
 40
0.003000
 41
0.003000
  0
VERTEX
  8
PLAN_1
 62
     2
  6
CONTINUOUS
 10
0.306866
 20
-1.763772
  0
VERTEX
  8
PLAN_1
 62
     2
  6
CONTINUOUS
 10
0.291114
 20
-1.705110
  0
VERTEX
  8
PLAN_1
 62
     2
  6
CONTINUOUS
 10
0.322618
 20
-1.705110
  0
VERTEX
  8
PLAN_1
 62
     2
  6
CONTINUOUS
 10
0.306866
 20
-1.763772
  0
SEQEND
  8
0
  0
POLYLINE
  8
PLAN_1
 62
     2
  6
CONTINUOUS
 66
     1
 40
0.004343
 41
0.004343
  0
VERTEX
  8
PLAN_1
 62
     2
  6
CONTINUOUS
 10
-0.260764
 20
-1.763772
  0
VERTEX
  8
PLAN_1
 62
     2
  6
CONTINUOUS
 10
0.330768
 20
-1.763772
  0
SEQEND
  8
0
  0
POLYLINE
  8
PLAN_1
 62
     2
  6
CONTINUOUS
 66
     1
 40
0.003000
 41
0.003000
  0
VERTEX
  8
PLAN_1
 62
     2
  6
CONTINUOUS
 10
0.283508
 20
-1.546496
  0
VERTEX
  8
PLAN_1
 62
     2
  6
CONTINUOUS
 10
0.283508
 20
-1.556276
  0
VERTEX
  8
PLAN_1
 62
     2
  6
CONTINUOUS
 10
0.231362
 20
-1.556276
  0
VERTEX
  8
PLAN_1
 62
     2
  6
CONTINUOUS
 10
0.231362
 20
-1.573657
  0
VERTEX
  8
PLAN_1
 62
     2
  6
CONTINUOUS
 10
0.224303
 20
-1.573657
  0
VERTEX
  8
PLAN_1
 62
     2
  6
CONTINUOUS
 10
0.223760
 20
-1.569311
  0
VERTEX
  8
PLAN_1
 62
     2
  6
CONTINUOUS
 10
0.223217
 20
-1.566051
  0
VERTEX
  8
PLAN_1
 62
     2
  6
CONTINUOUS
 10
0.222673
 20
-1.562795
  0
VERTEX
  8
PLAN_1
 62
     2
  6
CONTINUOUS
 10
0.221587
 20
-1.560079
  0
VERTEX
  8
PLAN_1
 62
     2
  6
CONTINUOUS
 10
0.219957
 20
-1.558449
  0
VERTEX
  8
PLAN_1
 62
     2
  6
CONTINUOUS
 10
0.217240
 20
-1.556276
  0
VERTEX
  8
PLAN_1
 62
     2
  6
CONTINUOUS
 10
0.214524
 20
-1.555189
  0
VERTEX
  8
PLAN_1
 62
     2
  6
CONTINUOUS
 10
0.210177
 20
-1.554102
  0
VERTEX
  8
PLAN_1
 62
     2
  6
CONTINUOUS
 10
0.210177
 20
-1.546496
  0
VERTEX
  8
PLAN_1
 62
     2
  6
CONTINUOUS
 10
0.283508
 20
-1.546496
  0
SEQEND
  8
0
  0
POLYLINE
  8
PLAN_1
 62
     2
  6
CONTINUOUS
 66
     1
 40
0.003000
 41
0.003000
  0
VERTEX
  8
PLAN_1
 62
     2
  6
CONTINUOUS
 10
0.236252
 20
-1.521512
  0
VERTEX
  8
PLAN_1
 62
     2
  6
CONTINUOUS
 10
0.232449
 20
-1.521512
  0
VERTEX
  8
PLAN_1
 62
     2
  6
CONTINUOUS
 10
0.228646
 20
-1.520969
  0
VERTEX
  8
PLAN_1
 62
     2
  6
CONTINUOUS
 10
0.225390
 20
-1.519882
  0
VERTEX
  8
PLAN_1
 62
     2
  6
CONTINUOUS
 10
0.222130
 20
-1.518795
  0
VERTEX
  8
PLAN_1
 62
     2
  6
CONTINUOUS
 10
0.219957
 20
-1.517165
  0
VERTEX
  8
PLAN_1
 62
     2
  6
CONTINUOUS
 10
0.217783
 20
-1.515535
  0
VERTEX
  8
PLAN_1
 62
     2
  6
CONTINUOUS
 10
0.216154
 20
-1.513906
  0
VERTEX
  8
PLAN_1
 62
     2
  6
CONTINUOUS
 10
0.214524
 20
-1.511732
  0
VERTEX
  8
PLAN_1
 62
     2
  6
CONTINUOUS
 10
0.212350
 20
-1.507933
  0
VERTEX
  8
PLAN_1
 62
     2
  6
CONTINUOUS
 10
0.211264
 20
-1.503587
  0
VERTEX
  8
PLAN_1
 62
     2
  6
CONTINUOUS
 10
0.210177
 20
-1.499783
  0
VERTEX
  8
PLAN_1
 62
     2
  6
CONTINUOUS
 10
0.210177
 20
-1.496524
  0
VERTEX
  8
PLAN_1
 62
     2
  6
CONTINUOUS
 10
0.210720
 20
-1.491638
  0
VERTEX
  8
PLAN_1
 62
     2
  6
CONTINUOUS
 10
0.211807
 20
-1.487291
  0
VERTEX
  8
PLAN_1
 62
     2
  6
CONTINUOUS
 10
0.213437
 20
-1.483488
  0
VERTEX
  8
PLAN_1
 62
     2
  6
CONTINUOUS
 10
0.216154
 20
-1.480228
  0
VERTEX
  8
PLAN_1
 62
     2
  6
CONTINUOUS
 10
0.219413
 20
-1.477512
  0
VERTEX
  8
PLAN_1
 62
     2
  6
CONTINUOUS
 10
0.223217
 20
-1.475339
  0
VERTEX
  8
PLAN_1
 62
     2
  6
CONTINUOUS
 10
0.227016
 20
-1.473713
  0
VERTEX
  8
PLAN_1
 62
     2
  6
CONTINUOUS
 10
0.231906
 20
-1.473169
  0
VERTEX
  8
PLAN_1
 62
     2
  6
CONTINUOUS
 10
0.236795
 20
-1.473713
  0
VERTEX
  8
PLAN_1
 62
     2
  6
CONTINUOUS
 10
0.240598
 20
-1.474795
  0
VERTEX
  8
PLAN_1
 62
     2
  6
CONTINUOUS
 10
0.243858
 20
-1.476969
  0
VERTEX
  8
PLAN_1
 62
     2
  6
CONTINUOUS
 10
0.247114
 20
-1.479142
  0
VERTEX
  8
PLAN_1
 62
     2
  6
CONTINUOUS
 10
0.249831
 20
-1.481858
  0
VERTEX
  8
PLAN_1
 62
     2
  6
CONTINUOUS
 10
0.252004
 20
-1.485118
  0
VERTEX
  8
PLAN_1
 62
     2
  6
CONTINUOUS
 10
0.254177
 20
-1.488921
  0
VERTEX
  8
PLAN_1
 62
     2
  6
CONTINUOUS
 10
0.256350
 20
-1.492720
  0
VERTEX
  8
PLAN_1
 62
     2
  6
CONTINUOUS
 10
0.260697
 20
-1.500327
  0
VERTEX
  8
PLAN_1
 62
     2
  6
CONTINUOUS
 10
0.262866
 20
-1.504130
  0
VERTEX
  8
PLAN_1
 62
     2
  6
CONTINUOUS
 10
0.265039
 20
-1.506846
  0
VERTEX
  8
PLAN_1
 62
     2
  6
CONTINUOUS
 10
0.266669
 20
-1.509020
  0
VERTEX
  8
PLAN_1
 62
     2
  6
CONTINUOUS
 10
0.268843
 20
-1.510646
  0
VERTEX
  8
PLAN_1
 62
     2
  6
CONTINUOUS
 10
0.270472
 20
-1.511732
  0
VERTEX
  8
PLAN_1
 62
     2
  6
CONTINUOUS
 10
0.272102
 20
-1.512276
  0
VERTEX
  8
PLAN_1
 62
     2
  6
CONTINUOUS
 10
0.273732
 20
-1.512819
  0
VERTEX
  8
PLAN_1
 62
     2
  6
CONTINUOUS
 10
0.274819
 20
-1.513362
  0
VERTEX
  8
PLAN_1
 62
     2
  6
CONTINUOUS
 10
0.274819
 20
-1.473169
  0
VERTEX
  8
PLAN_1
 62
     2
  6
CONTINUOUS
 10
0.283508
 20
-1.473169
  0
VERTEX
  8
PLAN_1
 62
     2
  6
CONTINUOUS
 10
0.283508
 20
-1.523685
  0
VERTEX
  8
PLAN_1
 62
     2
  6
CONTINUOUS
 10
0.278079
 20
-1.523142
  0
VERTEX
  8
PLAN_1
 62
     2
  6
CONTINUOUS
 10
0.273189
 20
-1.522055
  0
VERTEX
  8
PLAN_1
 62
     2
  6
CONTINUOUS
 10
0.268843
 20
-1.520425
  0
VERTEX
  8
PLAN_1
 62
     2
  6
CONTINUOUS
 10
0.265583
 20
-1.518252
  0
VERTEX
  8
PLAN_1
 62
     2
  6
CONTINUOUS
 10
0.262327
 20
-1.516079
  0
VERTEX
  8
PLAN_1
 62
     2
  6
CONTINUOUS
 10
0.259067
 20
-1.512819
  0
VERTEX
  8
PLAN_1
 62
     2
  6
CONTINUOUS
 10
0.256894
 20
-1.509563
  0
VERTEX
  8
PLAN_1
 62
     2
  6
CONTINUOUS
 10
0.254177
 20
-1.506303
  0
VERTEX
  8
PLAN_1
 62
     2
  6
CONTINUOUS
 10
0.248744
 20
-1.496524
  0
VERTEX
  8
PLAN_1
 62
     2
  6
CONTINUOUS
 10
0.247114
 20
-1.493807
  0
VERTEX
  8
PLAN_1
 62
     2
  6
CONTINUOUS
 10
0.245484
 20
-1.491094
  0
VERTEX
  8
PLAN_1
 62
     2
  6
CONTINUOUS
 10
0.243858
 20
-1.488921
  0
VERTEX
  8
PLAN_1
 62
     2
  6
CONTINUOUS
 10
0.242228
 20
-1.486748
  0
VERTEX
  8
PLAN_1
 62
     2
  6
CONTINUOUS
 10
0.240055
 20
-1.485118
  0
VERTEX
  8
PLAN_1
 62
     2
  6
CONTINUOUS
 10
0.237882
 20
-1.484031
  0
VERTEX
  8
PLAN_1
 62
     2
  6
CONTINUOUS
 10
0.235165
 20
-1.483488
  0
VERTEX
  8
PLAN_1
 62
     2
  6
CONTINUOUS
 10
0.231906
 20
-1.482945
  0
VERTEX
  8
PLAN_1
 62
     2
  6
CONTINUOUS
 10
0.229189
 20
-1.483488
  0
VERTEX
  8
PLAN_1
 62
     2
  6
CONTINUOUS
 10
0.227016
 20
-1.484031
  0
VERTEX
  8
PLAN_1
 62
     2
  6
CONTINUOUS
 10
0.224846
 20
-1.485118
  0
VERTEX
  8
PLAN_1
 62
     2
  6
CONTINUOUS
 10
0.222673
 20
-1.486205
  0
VERTEX
  8
PLAN_1
 62
     2
  6
CONTINUOUS
 10
0.221043
 20
-1.488378
  0
VERTEX
  8
PLAN_1
 62
     2
  6
CONTINUOUS
 10
0.219957
 20
-1.491094
  0
VERTEX
  8
PLAN_1
 62
     2
  6
CONTINUOUS
 10
0.218870
 20
-1.493807
  0
VERTEX
  8
PLAN_1
 62
     2
  6
CONTINUOUS
 10
0.218327
 20
-1.497610
  0
VERTEX
  8
PLAN_1
 62
     2
  6
CONTINUOUS
 10
0.218870
 20
-1.500327
  0
VERTEX
  8
PLAN_1
 62
     2
  6
CONTINUOUS
 10
0.218870
 20
-1.502500
  0
VERTEX
  8
PLAN_1
 62
     2
  6
CONTINUOUS
 10
0.219957
 20
-1.504130
  0
VERTEX
  8
PLAN_1
 62
     2
  6
CONTINUOUS
 10
0.220500
 20
-1.505760
  0
VERTEX
  8
PLAN_1
 62
     2
  6
CONTINUOUS
 10
0.222673
 20
-1.508476
  0
VERTEX
  8
PLAN_1
 62
     2
  6
CONTINUOUS
 10
0.225390
 20
-1.510102
  0
VERTEX
  8
PLAN_1
 62
     2
  6
CONTINUOUS
 10
0.228646
 20
-1.511189
  0
VERTEX
  8
PLAN_1
 62
     2
  6
CONTINUOUS
 10
0.231362
 20
-1.511732
  0
VERTEX
  8
PLAN_1
 62
     2
  6
CONTINUOUS
 10
0.234079
 20
-1.512276
  0
VERTEX
  8
PLAN_1
 62
     2
  6
CONTINUOUS
 10
0.236252
 20
-1.512276
  0
VERTEX
  8
PLAN_1
 62
     2
  6
CONTINUOUS
 10
0.236252
 20
-1.521512
  0
SEQEND
  8
0
  0
ENDSEC
  0
EOF
