999
DXF file: C:\Users\sesa63760\Dev\_Creo\CAD\MCADID0003833_3D-CAD\drw0001_1.dxf
999
Pro/ENGINEER 2019471 by Parametric Technology Corporation
  0
SECTION
  2
HEADER
  9
$ACADVER
  1
AC1024
  9
$DWGCODEPAGE
  3
ANSI_1252
  9
$EXTMAX
 10
46.7637802969
 20
66.1373464199
 30
0.0
  9
$EXTMIN
 10
-0.0
 20
0.0
 30
0.0
  9
$LIMMIN
 10
-0.0
 20
0.0
  9
$LIMMAX
 10
46.7637802969
 20
66.1373464199
  9
$VIEWCTR
 10
23.3818901484
 20
33.0686732099
  9
$VIEWSIZE
 40
66.1373464199
  9
$CLAYER
  8
0
  9
$LTSCALE
 40
4.311175174
  9
$CELTYPE
  6
BYLAYER
  9
$DIMSCALE
 40
1.0
  9
$DIMASZ
 40
0.5567116702
  9
$DIMEXO
 40
1.0
  9
$DIMDLI
 40
2.9786301202
  9
$DIMEXE
 40
1.0
  9
$DIMCEN
 40
0.7054650285
  9
$DIMLFAC
 40
1.0
  9
$DIMBLK
  1
_FILLED
  9
$DIMALT
 70
0
  9
$DIMALTF
 40
0.0393700787
  9
$DIMTXT
 40
0.7793963383
  9
$DIMTOL
 70
1
  9
$DIMLIM
 70
0
  9
$DIMTFAC
 40
1.0
  9
$DIMTP
 40
0.01
  9
$DIMTM
 40
0.01
  9
$DIMGAP
 40
0.625
  9
$DIMDSEP
 70
46
  9
$AUNITS
 70
0
  9
$PDMODE
 70
3
  9
$PDSIZE
 40
0.3125
  9
$HANDSEED
  5
289
  9
$TILEMODE
 70
1
  9
$MEASUREMENT
 70
1
  9
$INSUNITS
 70
4
  0
ENDSEC
  0
SECTION
  2
CLASSES
  0
CLASS
  1
ACDBDICTIONARYWDFLT
  2
AcDbDictionaryWithDefault
  3
AutoCAD 2000
 90
0
 91
1
280
0
281
0
  0
CLASS
  1
ACDBPLACEHOLDER
  2
AcDbPlaceHolder
  3
AutoCAD 2000
 90
0
 91
1
280
0
281
0
  0
CLASS
  1
LAYOUT
  2
AcDbLayout
  3
AutoCAD 2000
 90
0
 91
0
280
0
281
0
  0
ENDSEC
  0
SECTION
  2
TABLES
  0
TABLE
  2
VPORT
  5
8
100
AcDbSymbolTable
 70
2
  0
VPORT
  5
1F4
100
AcDbSymbolTableRecord
100
AcDbViewportTableRecord
  2
*ACTIVE
 70
0
 10
0.0
 20
0.0
 11
1.0
 21
1.0
 12
23.3818901484
 22
33.0686732099
 13
0.0
 23
0.0
 14
1.0
 24
1.0
 15
0.0
 25
0.0
 16
0.0
 26
0.0
 36
1.0
 17
0.0
 27
0.0
 37
0.0
 40
66.1373464199
 41
0.7070707071
 42
50.0
 43
0.0
 44
0.0
 50
0.0
 51
0.0
 71
0
 72
100
 73
1
 74
1
 75
0
 76
0
 77
0
 78
0
  0
ENDTAB
  0
TABLE
  2
LTYPE
  5
5
100
AcDbSymbolTable
 70
6
  0
LTYPE
  5
14
100
AcDbSymbolTableRecord
100
AcDbLinetypeTableRecord
  2
BYBLOCK
 70
0
  3

 72
65
 73
0
 40
0.0
  0
LTYPE
  5
15
100
AcDbSymbolTableRecord
100
AcDbLinetypeTableRecord
  2
BYLAYER
 70
0
  3

 72
65
 73
0
 40
0.0
  0
LTYPE
  5
16
100
AcDbSymbolTableRecord
100
AcDbLinetypeTableRecord
  2
CONTINUOUS
 70
64
  3
Solid line
 72
65
 73
0
 40
0.0
  0
LTYPE
  5
1F5
100
AcDbSymbolTableRecord
100
AcDbLinetypeTableRecord
  2
CENTER
 70
64
  3
____ _ ____ _ ____ _ ____ _ ____ _ ____ _ ____
 72
65
 73
4
 40
0.6
 49
0.375
 74
0
 49
-0.075
 74
0
 49
0.075
 74
0
 49
-0.075
 74
0
  0
LTYPE
  5
1F6
100
AcDbSymbolTableRecord
100
AcDbLinetypeTableRecord
  2
HIDDEN
 70
64
  3
- - - - - - - - - - - - - - - - - - - -
 72
65
 73
2
 40
0.2
 49
0.1
 74
0
 49
-0.1
 74
0
  0
LTYPE
  5
1F7
100
AcDbSymbolTableRecord
100
AcDbLinetypeTableRecord
  2
PHANTOM
 70
64
  3
_____ _ _ _____ _ _ _____ _ _ _____
 72
65
 73
6
 40
0.8
 49
0.45
 74
0
 49
-0.05
 74
0
 49
0.1
 74
0
 49
-0.05
 74
0
 49
0.1
 74
0
 49
-0.05
 74
0
  0
LTYPE
  5
1F8
100
AcDbSymbolTableRecord
100
AcDbLinetypeTableRecord
  2
DOT
 70
64
  3
. . . . . . . . . . . . . . . . . . . .
 72
65
 73
2
 40
0.2
 49
0.1
 74
0
 49
-0.1
 74
0
  0
LTYPE
  5
1F9
100
AcDbSymbolTableRecord
100
AcDbLinetypeTableRecord
  2
DASHED
 70
64
  3
- - - - - - - - - - - - - - - - - - - -
 72
65
 73
2
 40
0.2
 49
0.1
 74
0
 49
-0.1
 74
0
  0
ENDTAB
  0
TABLE
  2
LAYER
  5
2
100
AcDbSymbolTable
 70
36
  0
LAYER
  5
10
100
AcDbSymbolTableRecord
100
AcDbLayerTableRecord
  2
0
 70
0
 62
7
  6
CONTINUOUS
370
-3
390
F
  0
LAYER
  5
1FA
100
AcDbSymbolTableRecord
100
AcDbLayerTableRecord
  2
DEFAULT_1
 70
0
 62
7
  6
CENTER
370
-3
390
F
  0
LAYER
  5
1FB
100
AcDbSymbolTableRecord
100
AcDbLayerTableRecord
  2
DEFAULT_2
 70
0
 62
7
  6
HIDDEN
370
-3
390
F
  0
LAYER
  5
1FC
100
AcDbSymbolTableRecord
100
AcDbLayerTableRecord
  2
DEFAULT_3
 70
0
 62
7
  6
PHANTOM
370
-3
390
F
  0
LAYER
  5
1FD
100
AcDbSymbolTableRecord
100
AcDbLayerTableRecord
  2
00_COMPONENTS
 70
0
 62
7
  6
CONTINUOUS
370
-3
390
F
  0
LAYER
  5
1FE
100
AcDbSymbolTableRecord
100
AcDbLayerTableRecord
  2
01_1_DEFAULT_DATUMS
 70
0
 62
7
  6
CONTINUOUS
370
-3
390
F
  0
LAYER
  5
1FF
100
AcDbSymbolTableRecord
100
AcDbLayerTableRecord
  2
01_PLANES
 70
0
 62
7
  6
CONTINUOUS
370
-3
390
F
  0
LAYER
  5
200
100
AcDbSymbolTableRecord
100
AcDbLayerTableRecord
  2
02_COORD_SYS
 70
0
 62
7
  6
CONTINUOUS
370
-3
390
F
  0
LAYER
  5
201
100
AcDbSymbolTableRecord
100
AcDbLayerTableRecord
  2
03_AXES
 70
0
 62
7
  6
CONTINUOUS
370
-3
390
F
  0
LAYER
  5
202
100
AcDbSymbolTableRecord
100
AcDbLayerTableRecord
  2
04_POINTS
 70
0
 62
7
  6
CONTINUOUS
370
-3
390
F
  0
LAYER
  5
203
100
AcDbSymbolTableRecord
100
AcDbLayerTableRecord
  2
05_CURVES
 70
0
 62
7
  6
CONTINUOUS
370
-3
390
F
  0
LAYER
  5
204
100
AcDbSymbolTableRecord
100
AcDbLayerTableRecord
  2
06_SURFS
 70
0
 62
7
  6
CONTINUOUS
370
-3
390
F
  0
LAYER
  5
205
100
AcDbSymbolTableRecord
100
AcDbLayerTableRecord
  2
07_COSMETICS
 70
0
 62
7
  6
CONTINUOUS
370
-3
390
F
  0
LAYER
  5
206
100
AcDbSymbolTableRecord
100
AcDbLayerTableRecord
  2
10_NOTES
 70
0
 62
7
  6
CONTINUOUS
370
-3
390
F
  0
LAYER
  5
207
100
AcDbSymbolTableRecord
100
AcDbLayerTableRecord
  2
11_NOTES_PUB
 70
0
 62
7
  6
CONTINUOUS
370
-3
390
F
  0
LAYER
  5
208
100
AcDbSymbolTableRecord
100
AcDbLayerTableRecord
  2
13_REF_GTOL
 70
0
 62
7
  6
CONTINUOUS
370
-3
390
F
  0
LAYER
  5
209
100
AcDbSymbolTableRecord
100
AcDbLayerTableRecord
  2
16_MISC
 70
0
 62
7
  6
CONTINUOUS
370
-3
390
F
  0
LAYER
  5
20A
100
AcDbSymbolTableRecord
100
AcDbLayerTableRecord
  2
17_NO_PRINT
 70
0
 62
7
  6
CONTINUOUS
370
-3
390
F
  0
LAYER
  5
20B
100
AcDbSymbolTableRecord
100
AcDbLayerTableRecord
  2
18_DATUM_CAMS_JOINTS
 70
0
 62
7
  6
CONTINUOUS
370
-3
390
F
  0
LAYER
  5
20C
100
AcDbSymbolTableRecord
100
AcDbLayerTableRecord
  2
19_DATUM_FUNCTIONAL
 70
0
 62
7
  6
CONTINUOUS
370
-3
390
F
  0
LAYER
  5
20D
100
AcDbSymbolTableRecord
100
AcDbLayerTableRecord
  2
20_DATUM_KINEMATIC_SCHEME
 70
0
 62
7
  6
CONTINUOUS
370
-3
390
F
  0
ENDTAB
  0
TABLE
  2
STYLE
  5
3
100
AcDbSymbolTable
 70
1
  0
STYLE
  5
11
100
AcDbSymbolTableRecord
100
AcDbTextStyleTableRecord
  2
STANDARD
 70
0
 40
0.0
 41
1.0
 50
0.0
 71
0
 42
0.2
  3
ARIAL.TTF
  4

  0
STYLE
  5
20E
100
AcDbSymbolTableRecord
100
AcDbTextStyleTableRecord
  2
TEXTSTYLE_1
 70
0
 40
0.0
 41
0.8
 50
0.0
 71
0
 42
0.2
  3
gdt
  4

  0
ENDTAB
  0
TABLE
  2
VIEW
  5
6
100
AcDbSymbolTable
 70
0
  0
ENDTAB
  0
TABLE
  2
UCS
  5
7
100
AcDbSymbolTable
 70
0
  0
ENDTAB
  0
TABLE
  2
APPID
  5
9
100
AcDbSymbolTable
 70
1
  0
APPID
  5
20F
100
AcDbSymbolTableRecord
100
AcDbRegAppTableRecord
  2
ACAD
 70
0
  0
ENDTAB
  0
TABLE
  2
BLOCK_RECORD
  5
1
100
AcDbSymbolTable
 70
0
  0
BLOCK_RECORD
  5
210
100
AcDbSymbolTableRecord
100
AcDbBlockTableRecord
  2
*Model_Space
  0
BLOCK_RECORD
  5
211
100
AcDbSymbolTableRecord
100
AcDbBlockTableRecord
  2
*Paper_Space
  0
BLOCK_RECORD
  5
212
100
AcDbSymbolTableRecord
100
AcDbBlockTableRecord
  2
_FILLED
  0
ENDTAB
  0
TABLE
  2
DIMSTYLE
  5
A
100
AcDbSymbolTable
 70
1
100
AcDbDimStyleTable
 71
0
  0
DIMSTYLE
105
213
100
AcDbSymbolTableRecord
100
AcDbDimStyleTableRecord
  2
STANDARD
 70
0
  3

  4

 40
1.0
 41
0.5567116702
 42
1.0
 43
0.38
 44
1.0
 45
0.0
 46
0.0
 47
0.01
 48
0.01
140
0.7793963383
141
0.09
142
0.0
143
25.4
144
1.0
145
0.0
146
1.0
147
0.625
 71
1
 72
0
 73
0
 74
0
 75
0
 76
0
 77
1
 78
8
 79
2
170
0
171
1
172
0
173
0
174
0
175
0
176
0
177
0
178
0
270
2
179
2
271
2
272
2
273
2
274
2
275
0
280
0
281
0
282
0
283
1
284
8
285
0
286
0
287
3
288
0
340
11
278
46
341
212
342
212
343
212
344
212
  0
ENDTAB
  0
ENDSEC
  0
SECTION
  2
BLOCKS
  0
BLOCK
  5
20
100
AcDbEntity
  8
0
100
AcDbBlockBegin
  2
*Model_Space
 70
0
 10
0.0
 20
0.0
 30
0.0
  3
*Model_Space
  1

  0
ENDBLK
  5
21
100
AcDbEntity
  8
0
100
AcDbBlockEnd
  0
BLOCK
  5
1C
100
AcDbEntity
  8
0
100
AcDbBlockBegin
  2
*Paper_Space
 70
0
 10
0.0
 20
0.0
 30
0.0
  3
*Paper_Space
  1

  0
ENDBLK
  5
1D
100
AcDbEntity
  8
0
100
AcDbBlockEnd
  0
BLOCK
  5
214
100
AcDbEntity
  8
0
100
AcDbBlockBegin
  2
_FILLED
 70
64
 10
0.0
 20
0.0
  3
_FILLED
  1

  0
SOLID
  5
215
100
AcDbEntity
  8
0
  6
BYBLOCK
 62
0
100
AcDbTrace
 10
0.0
 20
0.0
 11
-1.0
 21
0.25
 12
-1.0
 22
-0.25
 13
-1.0
 23
-0.25
  0
ENDBLK
  5
216
100
AcDbEntity
  8
0
  6
BYBLOCK
 62
0
100
AcDbBlockEnd
  0
ENDSEC
  0
SECTION
  2
ENTITIES
  0
LINE
  5
217
100
AcDbEntity
  8
0
100
AcDbLine
 62
7
  6
BYLAYER
 10
19.9663531664
 20
39.8867447195
 11
21.4174157009
 21
41.019957789
  0
LINE
  5
218
100
AcDbEntity
  8
0
100
AcDbLine
 62
7
  6
BYLAYER
 10
21.4174157009
 20
41.019957789
 11
20.7810169482
 21
40.6525222927
  0
LINE
  5
219
100
AcDbEntity
  8
0
100
AcDbLine
 62
7
  6
BYLAYER
 10
21.0104782591
 20
25.9308447769
 11
21.6372028311
 21
25.5690133623
  0
LINE
  5
21A
100
AcDbEntity
  8
0
100
AcDbLine
 62
7
  6
BYLAYER
 10
23.8862935113
 20
24.2705296283
 11
24.5130180833
 21
23.9086982136
  0
LINE
  5
21B
100
AcDbEntity
  8
0
100
AcDbLine
 62
7
  6
BYLAYER
 10
24.1954573033
 20
24.3604842503
 11
23.5687327312
 21
24.7223156649
  0
LINE
  5
21C
100
AcDbEntity
  8
0
100
AcDbLine
 62
7
  6
BYLAYER
 10
21.3196420511
 20
26.0207993989
 11
20.6929174791
 21
26.3826308136
  0
LINE
  5
21D
100
AcDbEntity
  8
0
100
AcDbLine
 62
7
  6
BYLAYER
 10
17.1747873786
 20
34.4062801059
 11
17.1747926777
 21
33.6714375693
  0
LWPOLYLINE
  5
21E
100
AcDbEntity
  8
0
100
AcDbPolyline
 62
7
  6
BYLAYER
 90
5
 70
0
 10
17.2278581682
 20
34.4024898732
 10
17.2392476544
 20
34.5593961799
 10
17.743196384
 20
36.4491516884
 10
18.6903101889
 20
38.2993204198
 10
19.9663531664
 20
39.8867447195
  0
LINE
  5
21F
100
AcDbEntity
  8
0
100
AcDbLine
 62
7
  6
BYLAYER
 10
20.2893180236
 20
29.8440720024
 11
18.417466602
 21
30.9247614761
  0
LINE
  5
220
100
AcDbEntity
  8
0
100
AcDbLine
 62
7
  6
BYLAYER
 10
17.2879630798
 20
32.731559894
 11
11.2099621143
 21
36.2406160021
  0
LINE
  5
221
100
AcDbEntity
  8
0
100
AcDbLine
 62
7
  6
BYLAYER
 10
10.1895181432
 20
38.6608334647
 11
6.1790231747
 21
40.9762414328
  0
LINE
  5
222
100
AcDbEntity
  8
0
100
AcDbLine
 62
7
  6
BYLAYER
 10
20.6929174791
 20
33.2810241261
 11
21.3196420511
 21
32.9191927115
  0
LINE
  5
223
100
AcDbEntity
  8
0
100
AcDbLine
 62
7
  6
BYLAYER
 10
23.5687327312
 20
31.6207089775
 11
24.1954573033
 21
31.2588775629
  0
LINE
  5
224
100
AcDbEntity
  8
0
100
AcDbLine
 62
7
  6
BYLAYER
 10
24.5130180833
 20
32.0773490144
 11
23.8862935113
 21
32.439180429
  0
LINE
  5
225
100
AcDbEntity
  8
0
100
AcDbLine
 62
7
  6
BYLAYER
 10
21.6372028311
 20
33.737664163
 11
21.0104782591
 21
34.0994955777
  0
LINE
  5
226
100
AcDbEntity
  8
0
100
AcDbLine
 62
7
  6
BYLAYER
 10
11.5472692204
 20
42.4957292801
 11
8.1789892407
 21
44.4403626396
  0
LINE
  5
227
100
AcDbEntity
  8
0
100
AcDbLine
 62
7
  6
BYLAYER
 10
22.336852989
 20
41.3635879687
 11
16.2098772792
 21
44.9009190189
  0
LINE
  5
228
100
AcDbEntity
  8
0
100
AcDbLine
 62
7
  6
BYLAYER
 10
26.0202175594
 20
40.3917385591
 11
24.4173647998
 21
41.3171250964
  0
LINE
  5
229
100
AcDbEntity
  8
0
100
AcDbLine
 62
7
  6
BYLAYER
 10
26.1842147218
 20
40.5357325432
 11
26.8109392938
 21
40.1739011285
  0
LINE
  5
22A
100
AcDbEntity
  8
0
100
AcDbLine
 62
7
  6
BYLAYER
 10
29.0600299739
 20
38.8754173945
 11
29.6867545459
 21
38.5135859799
  0
LINE
  5
22B
100
AcDbEntity
  8
0
100
AcDbLine
 62
7
  6
BYLAYER
 10
30.321876106
 20
38.8802713947
 11
29.695151534
 21
39.2421028094
  0
LINE
  5
22C
100
AcDbEntity
  8
0
100
AcDbLine
 62
7
  6
BYLAYER
 10
27.4460608538
 20
40.5405865434
 11
26.8193362818
 21
40.902417958
  0
LWPOLYLINE
  5
22D
100
AcDbEntity
  8
0
100
AcDbPolyline
 62
7
  6
BYLAYER
 90
9
 70
0
 10
38.4587600769
 20
30.4465034296
 10
37.1561169227
 20
29.4132633214
 10
36.0320639779
 20
27.9615944324
 10
35.2299527107
 20
26.2728223652
 10
34.8676281384
 20
24.5895842408
 10
34.8681276867
 20
23.8224949027
 10
35.2301277479
 20
22.5632712492
 10
36.027572455
 20
21.8031305969
 10
37.1503466785
 20
21.6465216775
  0
LINE
  5
22E
100
AcDbEntity
  8
0
100
AcDbLine
 62
7
  6
BYLAYER
 10
31.9930727445
 20
40.4402616109
 11
32.6197973165
 21
40.0784301963
  0
LINE
  5
22F
100
AcDbEntity
  8
0
100
AcDbLine
 62
7
  6
BYLAYER
 10
34.8688879967
 20
38.7799464623
 11
35.4956125687
 21
38.4181150477
  0
LINE
  5
230
100
AcDbEntity
  8
0
100
AcDbLine
 62
7
  6
BYLAYER
 10
37.1503466785
 20
21.6465216775
 11
38.4587600769
 21
22.1181787749
  0
LINE
  5
231
100
AcDbEntity
  8
0
100
AcDbLine
 62
7
  6
BYLAYER
 10
37.8223613243
 20
21.7507432786
 11
38.4587600769
 21
22.1181787749
  0
LINE
  5
232
100
AcDbEntity
  8
0
100
AcDbLine
 62
7
  6
BYLAYER
 10
42.0649896466
 20
28.3644209617
 11
42.0649843474
 21
29.0992634983
  0
ARC
  5
233
100
AcDbEntity
  8
0
100
AcDbCircle
 62
7
  6
BYLAYER
 10
12.768806792
 20
45.2604343827
 40
27.714489618
100
AcDbArc
 50
309.2979741749
 51
309.7483869424
  0
ARC
  5
234
100
AcDbEntity
  8
0
100
AcDbCircle
 62
7
  6
BYLAYER
 10
6.2287893616
 20
34.2226244221
 40
27.249790333
100
AcDbArc
 50
10.3244344874
 51
11.4383939674
  0
ARC
  5
235
100
AcDbEntity
  8
0
100
AcDbCircle
 62
7
  6
BYLAYER
 10
35.4533564838
 20
27.9062589198
 40
14.9963791919
100
AcDbArc
 50
157.1167759801
 51
160.4714653129
  0
ARC
  5
236
100
AcDbEntity
  8
0
100
AcDbCircle
 62
7
  6
BYLAYER
 10
38.3291717361
 20
26.2459437711
 40
14.9963791919
100
AcDbArc
 50
157.1167759801
 51
160.4714653128
  0
ARC
  5
237
100
AcDbEntity
  8
0
100
AcDbCircle
 62
7
  6
BYLAYER
 10
34.7084662237
 20
28.3139377345
 40
14.8696857343
100
AcDbArc
 50
157.1024804457
 51
160.4857608473
  0
ARC
  5
238
100
AcDbEntity
  8
0
100
AcDbCircle
 62
7
  6
BYLAYER
 10
37.5842814759
 20
26.6536225859
 40
14.8696857343
100
AcDbArc
 50
157.1024804457
 51
160.4857608473
  0
ARC
  5
239
100
AcDbEntity
  8
0
100
AcDbCircle
 62
7
  6
BYLAYER
 10
31.0453076437
 20
32.8650028717
 40
9.0813169798
100
AcDbArc
 50
120.0209374201
 51
122.3632426874
  0
ARC
  5
23A
100
AcDbEntity
  8
0
100
AcDbCircle
 62
7
  6
BYLAYER
 10
33.9211228959
 20
31.2046877231
 40
9.0813169798
100
AcDbArc
 50
120.0209374201
 51
122.3632426874
  0
ARC
  5
23B
100
AcDbEntity
  8
0
100
AcDbCircle
 62
7
  6
BYLAYER
 10
31.616592769
 20
32.5947413917
 40
8.9742948269
100
AcDbArc
 50
120.0069689633
 51
122.3772111441
  0
ARC
  5
23C
100
AcDbEntity
  8
0
100
AcDbCircle
 62
7
  6
BYLAYER
 10
25.5162226308
 20
31.3923870183
 40
8.9742948269
100
AcDbArc
 50
300.0069689633
 51
302.3772111441
  0
ARC
  5
23D
100
AcDbEntity
  8
0
100
AcDbCircle
 62
7
  6
BYLAYER
 10
34.4924080211
 20
30.9344262431
 40
8.9742948269
100
AcDbArc
 50
120.0069689633
 51
122.3772111441
  0
ARC
  5
23E
100
AcDbEntity
  8
0
100
AcDbCircle
 62
7
  6
BYLAYER
 10
30.7252560054
 20
33.4148961606
 40
8.4450690674
100
AcDbArc
 50
117.5491220126
 51
120.0074110942
  0
ARC
  5
23F
100
AcDbEntity
  8
0
100
AcDbCircle
 62
7
  6
BYLAYER
 10
33.6010712575
 20
31.7545810121
 40
8.4450690673
100
AcDbArc
 50
117.5491220126
 51
120.0074110942
  0
ARC
  5
240
100
AcDbEntity
  8
0
100
AcDbCircle
 62
7
  6
BYLAYER
 10
31.3016849279
 20
33.1446344523
 40
8.3406201408
100
AcDbArc
 50
117.5337271264
 51
120.0228059804
  0
ARC
  5
241
100
AcDbEntity
  8
0
100
AcDbCircle
 62
7
  6
BYLAYER
 10
25.8311304719
 20
30.8424939576
 40
8.3406201408
100
AcDbArc
 50
297.5337271264
 51
300.0228059804
  0
ARC
  5
242
100
AcDbEntity
  8
0
100
AcDbCircle
 62
7
  6
BYLAYER
 10
34.1775001801
 20
31.4843193037
 40
8.3406201409
100
AcDbArc
 50
117.5337271264
 51
120.0228059804
  0
SPLINE
  5
243
100
AcDbEntity
  8
0
100
AcDbSpline
 62
7
  6
BYLAYER
 70
0
 71
3
 72
9
 73
5
 74
0
 42
0.0000001
 43
0.0000001
 44
0.0000000001
 40
0.0
 40
0.0
 40
0.0
 40
0.0
 40
0.4883050017
 40
1.0
 40
1.0
 40
1.0
 40
1.0
 10
23.3097462732
 20
30.406580037
 30
0.0
 10
23.3190140065
 20
30.6061741025
 30
0.0
 10
23.3579368487
 20
31.0141536997
 30
0.0
 10
23.4315866604
 20
31.4171670118
 30
0.0
 10
23.4771419286
 20
31.6215312001
 30
0.0
  0
SPLINE
  5
244
100
AcDbEntity
  8
0
100
AcDbSpline
 62
7
  6
BYLAYER
 70
0
 71
3
 72
15
 73
11
 74
0
 42
0.0000001
 43
0.0000001
 44
0.0000000001
 40
0.0
 40
0.0
 40
0.0
 40
0.0
 40
0.123366225
 40
0.251178438
 40
0.3814992944
 40
0.5122672612
 40
0.6413977501
 40
0.7668903194
 40
0.8869190691
 40
1.0
 40
1.0
 40
1.0
 40
1.0
 10
23.4771419286
 20
31.6215312001
 30
0.0
 10
23.540670208
 20
31.9065236018
 30
0.0
 10
23.7012757322
 20
32.4801585781
 30
0.0
 10
24.0274590966
 20
33.3234382314
 30
0.0
 10
24.4366977069
 20
34.1493274107
 30
0.0
 10
24.9193139786
 20
34.9382126819
 30
0.0
 10
25.4639119582
 20
35.6715225751
 30
0.0
 10
26.0577267835
 20
36.3319721146
 30
0.0
 10
26.6866904943
 20
36.9040287959
 30
0.0
 10
27.1349405271
 20
37.228418251
 30
0.0
 10
27.3616346441
 20
37.3706957231
 30
0.0
  0
SPLINE
  5
245
100
AcDbEntity
  8
0
100
AcDbSpline
 62
7
  6
BYLAYER
 70
0
 71
3
 72
11
 73
7
 74
0
 42
0.0000001
 43
0.0000001
 44
0.0000000001
 40
0.0
 40
0.0
 40
0.0
 40
0.0
 40
0.2458901112
 40
0.4944463609
 40
0.7458381524
 40
1.0
 40
1.0
 40
1.0
 40
1.0
 10
21.0104782591
 20
34.0994955777
 30
0.0
 10
21.1579098014
 20
34.4006748959
 30
0.0
 10
21.4675046362
 20
35.0000089909
 30
0.0
 10
21.9795965618
 20
35.8793791044
 30
0.0
 10
22.5473228692
 20
36.7375819188
 30
0.0
 10
22.9627533796
 20
37.2884666811
 30
0.0
 10
23.1799108755
 20
37.5586151729
 30
0.0
  0
SPLINE
  5
246
100
AcDbEntity
  8
0
100
AcDbSpline
 62
7
  6
BYLAYER
 70
0
 71
3
 72
11
 73
7
 74
0
 42
0.0000001
 43
0.0000001
 44
0.0000000001
 40
0.0
 40
0.0
 40
0.0
 40
0.0
 40
0.2640471168
 40
0.5180924809
 40
0.7629848124
 40
1.0
 40
1.0
 40
1.0
 40
1.0
 10
20.2754818641
 20
30.0728285823
 30
0.0
 10
20.2754818641
 20
30.358344132
 30
0.0
 10
20.2933979382
 20
30.9187715364
 30
0.0
 10
20.3762385827
 20
31.7402450156
 30
0.0
 10
20.5088872655
 20
32.5254574887
 30
0.0
 10
20.6276321863
 20
33.0331930706
 30
0.0
 10
20.6929174791
 20
33.2810241261
 30
0.0
  0
SPLINE
  5
247
100
AcDbEntity
  8
0
100
AcDbSpline
 62
7
  6
BYLAYER
 70
0
 71
3
 72
9
 73
5
 74
0
 42
0.0000001
 43
0.0000001
 44
0.0000000001
 40
0.0
 40
0.0
 40
0.0
 40
0.0
 40
0.2461689079
 40
1.0
 40
1.0
 40
1.0
 40
1.0
 10
21.0104782591
 20
25.9308447769
 30
0.0
 10
20.9816717384
 20
25.9658543454
 30
0.0
 10
20.8674186015
 20
26.1103338483
 30
0.0
 10
20.7642991766
 20
26.2635521419
 30
0.0
 10
20.6929174791
 20
26.3826308136
 30
0.0
  0
SPLINE
  5
248
100
AcDbEntity
  8
0
100
AcDbSpline
 62
7
  6
BYLAYER
 70
0
 71
3
 72
11
 73
7
 74
0
 42
0.0000001
 43
0.0000001
 44
0.0000000001
 40
0.0
 40
0.0
 40
0.0
 40
0.0
 40
0.2597138449
 40
0.5138055923
 40
0.7609569878
 40
1.0
 40
1.0
 40
1.0
 40
1.0
 10
20.6929174791
 20
26.3826308136
 30
0.0
 10
20.629164271
 20
26.6982600841
 30
0.0
 10
20.5132283024
 20
27.3248248554
 30
0.0
 10
20.379792589
 20
28.2591319086
 30
0.0
 10
20.2954864617
 20
29.173515083
 30
0.0
 10
20.2754818641
 20
29.7764535215
 30
0.0
 10
20.2754818641
 20
30.0728285823
 30
0.0
  0
SPLINE
  5
249
100
AcDbEntity
  8
0
100
AcDbSpline
 62
7
  6
BYLAYER
 70
0
 71
3
 72
9
 73
5
 74
0
 42
0.0000001
 43
0.0000001
 44
0.0000000001
 40
0.0
 40
0.0
 40
0.0
 40
0.0
 40
0.5147755583
 40
1.0
 40
1.0
 40
1.0
 40
1.0
 10
21.6372028311
 20
25.5690133623
 30
0.0
 10
21.9549798475
 20
25.5043944202
 30
0.0
 10
22.5734725121
 20
25.3845620916
 30
0.0
 10
23.1949113091
 20
25.2806798925
 30
0.0
 10
23.4972499625
 20
25.2357090889
 30
0.0
  0
SPLINE
  5
24A
100
AcDbEntity
  8
0
100
AcDbSpline
 62
7
  6
BYLAYER
 70
0
 71
3
 72
11
 73
7
 74
0
 42
0.0000001
 43
0.0000001
 44
0.0000000001
 40
0.0
 40
0.0
 40
0.0
 40
0.0
 40
0.2138697203
 40
0.4498869344
 40
0.7112845036
 40
1.0
 40
1.0
 40
1.0
 40
1.0
 10
26.8193362818
 20
40.902417958
 30
0.0
 10
26.9730831095
 20
40.9215911873
 30
0.0
 10
27.2978083152
 20
40.9519592164
 30
0.0
 10
27.8130512117
 20
40.9699236751
 30
0.0
 10
28.3827045964
 20
40.9585210666
 30
0.0
 10
28.7804387352
 20
40.9309504855
 30
0.0
 10
28.9887688982
 20
40.9123408969
 30
0.0
  0
SPLINE
  5
24B
100
AcDbEntity
  8
0
100
AcDbSpline
 62
7
  6
BYLAYER
 70
0
 71
3
 72
11
 73
7
 74
0
 42
0.0000001
 43
0.0000001
 44
0.0000000001
 40
0.0
 40
0.0
 40
0.0
 40
0.0
 40
0.247773413
 40
0.4973923449
 40
0.7482965168
 40
1.0
 40
1.0
 40
1.0
 40
1.0
 10
23.1799108755
 20
37.5586151729
 30
0.0
 10
23.3991454461
 20
37.8313475893
 30
0.0
 10
23.8564665061
 20
38.3652314813
 30
0.0
 10
24.5907580557
 20
39.1259995067
 30
0.0
 10
25.3681957829
 20
39.8506243128
 30
0.0
 10
25.9091324547
 20
40.3105843442
 30
0.0
 10
26.1842147218
 20
40.5357325432
 30
0.0
  0
SPLINE
  5
24C
100
AcDbEntity
  8
0
100
AcDbSpline
 62
7
  6
BYLAYER
 70
0
 71
3
 72
9
 73
5
 74
0
 42
0.0000001
 43
0.0000001
 44
0.0000000001
 40
0.0
 40
0.0
 40
0.0
 40
0.0
 40
0.2541982703
 40
1.0
 40
1.0
 40
1.0
 40
1.0
 10
32.9373580965
 20
39.6266441596
 30
0.0
 10
32.9132878462
 20
39.666798058
 30
0.0
 10
32.8158248598
 20
39.8230757184
 30
0.0
 10
32.7070695686
 20
39.9723651867
 30
0.0
 10
32.6197973165
 20
40.0784301963
 30
0.0
  0
SPLINE
  5
24D
100
AcDbEntity
  8
0
100
AcDbSpline
 62
7
  6
BYLAYER
 70
0
 71
3
 72
11
 73
7
 74
0
 42
0.0000001
 43
0.0000001
 44
0.0000000001
 40
0.0
 40
0.0
 40
0.0
 40
0.0
 40
0.2256534176
 40
0.4692630009
 40
0.7283075039
 40
1.0
 40
1.0
 40
1.0
 40
1.0
 10
28.9887688982
 20
40.9123408969
 30
0.0
 10
29.2167186606
 20
40.8919787408
 30
0.0
 10
29.689862417
 20
40.8393145018
 30
0.0
 10
30.4208605931
 20
40.7325737248
 30
0.0
 10
31.1947128172
 20
40.5982968245
 30
0.0
 10
31.7230487538
 20
40.4951701276
 30
0.0
 10
31.9930727445
 20
40.4402616109
 30
0.0
  0
SPLINE
  5
24E
100
AcDbEntity
  8
0
100
AcDbSpline
 62
7
  6
BYLAYER
 70
0
 71
3
 72
9
 73
5
 74
0
 42
0.0000001
 43
0.0000001
 44
0.0000000001
 40
0.0
 40
0.0
 40
0.0
 40
0.0
 40
0.2541982703
 40
1.0
 40
1.0
 40
1.0
 40
1.0
 10
21.3196420511
 20
26.0207993989
 30
0.0
 10
21.3437123014
 20
25.9806455005
 30
0.0
 10
21.4411752878
 20
25.8243678402
 30
0.0
 10
21.5499305789
 20
25.6750783718
 30
0.0
 10
21.6372028311
 20
25.5690133623
 30
0.0
  0
SPLINE
  5
24F
100
AcDbEntity
  8
0
100
AcDbSpline
 62
7
  6
BYLAYER
 70
0
 71
3
 72
11
 73
7
 74
0
 42
0.0000001
 43
0.0000001
 44
0.0000000001
 40
0.0
 40
0.0
 40
0.0
 40
0.0
 40
0.2138697203
 40
0.4498869344
 40
0.7112845036
 40
1.0
 40
1.0
 40
1.0
 40
1.0
 10
32.6197973165
 20
40.0784301963
 30
0.0
 10
32.4660504888
 20
40.059256967
 30
0.0
 10
32.1413252831
 20
40.0288889379
 30
0.0
 10
31.6260823866
 20
40.0109244792
 30
0.0
 10
31.0564290019
 20
40.0223270876
 30
0.0
 10
30.6586948631
 20
40.0498976687
 30
0.0
 10
30.4503647001
 20
40.0685072573
 30
0.0
  0
SPLINE
  5
250
100
AcDbEntity
  8
0
100
AcDbSpline
 62
7
  6
BYLAYER
 70
0
 71
3
 72
11
 73
7
 74
0
 42
0.0000001
 43
0.0000001
 44
0.0000000001
 40
0.0
 40
0.0
 40
0.0
 40
0.0
 40
0.2256534176
 40
0.4692630009
 40
0.7283075039
 40
1.0
 40
1.0
 40
1.0
 40
1.0
 10
30.4503647001
 20
40.0685072573
 30
0.0
 10
30.2224149377
 20
40.0888694134
 30
0.0
 10
29.7492711813
 20
40.1415336525
 30
0.0
 10
29.0182730052
 20
40.2482744294
 30
0.0
 10
28.2444207811
 20
40.3825513297
 30
0.0
 10
27.7160848445
 20
40.4856780267
 30
0.0
 10
27.4460608538
 20
40.5405865434
 30
0.0
  0
SPLINE
  5
251
100
AcDbEntity
  8
0
100
AcDbSpline
 62
7
  6
BYLAYER
 70
0
 71
3
 72
11
 73
7
 74
0
 42
0.0000001
 43
0.0000001
 44
0.0000000001
 40
0.0
 40
0.0
 40
0.0
 40
0.0
 40
0.2640471168
 40
0.5180924809
 40
0.7629848124
 40
1.0
 40
1.0
 40
1.0
 40
1.0
 10
21.737077666
 20
29.2289949427
 30
0.0
 10
21.737077666
 20
28.943479393
 30
0.0
 10
21.7191615919
 20
28.3830519886
 30
0.0
 10
21.6363209475
 20
27.5615785095
 30
0.0
 10
21.5036722647
 20
26.7763660364
 30
0.0
 10
21.3849273439
 20
26.2686304545
 30
0.0
 10
21.3196420511
 20
26.0207993989
 30
0.0
  0
SPLINE
  5
252
100
AcDbEntity
  8
0
100
AcDbSpline
 62
7
  6
BYLAYER
 70
0
 71
3
 72
11
 73
7
 74
0
 42
0.0000001
 43
0.0000001
 44
0.0000000001
 40
0.0
 40
0.0
 40
0.0
 40
0.0
 40
0.2458901112
 40
0.4944463609
 40
0.7458381524
 40
1.0
 40
1.0
 40
1.0
 40
1.0
 10
26.8109392938
 20
40.1739011285
 30
0.0
 10
26.6635077514
 20
39.8727218103
 30
0.0
 10
26.3539129167
 20
39.2733877152
 30
0.0
 10
25.841820991
 20
38.3940176018
 30
0.0
 10
25.2740946837
 20
37.5358147873
 30
0.0
 10
24.8586641732
 20
36.984930025
 30
0.0
 10
24.6415066774
 20
36.7147815333
 30
0.0
  0
SPLINE
  5
253
100
AcDbEntity
  8
0
100
AcDbSpline
 62
7
  6
BYLAYER
 70
0
 71
3
 72
9
 73
5
 74
0
 42
0.0000001
 43
0.0000001
 44
0.0000000001
 40
0.0
 40
0.0
 40
0.0
 40
0.0
 40
0.5124566831
 40
1.0
 40
1.0
 40
1.0
 40
1.0
 10
27.5459356887
 20
27.683706164
 30
0.0
 10
27.4175536837
 20
27.6095852213
 30
0.0
 10
27.1612203385
 20
27.4747173533
 30
0.0
 10
26.8938836349
 20
27.3629380714
 30
0.0
 10
26.7611850319
 20
27.3151663557
 30
0.0
  0
SPLINE
  5
254
100
AcDbEntity
  8
0
100
AcDbSpline
 62
7
  6
BYLAYER
 70
0
 71
3
 72
23
 73
19
 74
0
 42
0.0000001
 43
0.0000001
 44
0.0000000001
 40
0.0
 40
0.0
 40
0.0
 40
0.0
 40
0.0517884759
 40
0.1067048911
 40
0.1646070096
 40
0.2252407666
 40
0.2882623136
 40
0.3532562226
 40
0.419752536
 40
0.4872429439
 40
0.5551943825
 40
0.6230622248
 40
0.6903035147
 40
0.7563921842
 40
0.8208300779
 40
0.8831575726
 40
0.9429969086
 40
1.0
 40
1.0
 40
1.0
 40
1.0
 10
31.7154084133
 20
35.8957193718
 30
0.0
 10
31.7449978872
 20
35.7311621646
 30
0.0
 10
31.7857676574
 20
35.3882656374
 30
0.0
 10
31.7942051514
 20
34.8561416056
 30
0.0
 10
31.7518384944
 20
34.2970416616
 30
0.0
 10
31.6592052718
 20
33.7176420958
 30
0.0
 10
31.5174314637
 20
33.124764581
 30
0.0
 10
31.3282072432
 20
32.5254574243
 30
0.0
 10
31.0938050901
 20
31.9268496429
 30
0.0
 10
30.81702305
 20
31.3360799565
 30
0.0
 10
30.5011568877
 20
30.7602055509
 30
0.0
 10
30.1499791128
 20
30.2061089601
 30
0.0
 10
29.7676968464
 20
29.6803997787
 30
0.0
 10
29.3588647832
 20
29.1893539676
 30
0.0
 10
28.9283563302
 20
28.7388534211
 30
0.0
 10
28.4812670478
 20
28.3341970382
 30
0.0
 10
28.0229503674
 20
27.9803217685
 30
0.0
 10
27.7053118228
 20
27.7757214687
 30
0.0
 10
27.5459356887
 20
27.683706164
 30
0.0
  0
SPLINE
  5
255
100
AcDbEntity
  8
0
100
AcDbSpline
 62
7
  6
BYLAYER
 70
0
 71
3
 72
15
 73
11
 74
0
 42
0.0000001
 43
0.0000001
 44
0.0000000001
 40
0.0
 40
0.0
 40
0.0
 40
0.0
 40
0.1098775931
 40
0.2234861512
 40
0.3412133349
 40
0.4633930863
 40
0.5902737579
 40
0.722003028
 40
0.8586240371
 40
1.0
 40
1.0
 40
1.0
 40
1.0
 10
30.4503647001
 20
40.0685072573
 30
0.0
 10
30.3389984277
 20
40.0784553152
 30
0.0
 10
30.1113239931
 20
40.0871679561
 30
0.0
 10
29.7641992446
 20
40.0678491853
 30
0.0
 10
29.4077268202
 20
40.0163850135
 30
0.0
 10
29.0435061162
 20
39.9331214066
 30
0.0
 10
28.6730320372
 20
39.8184124666
 30
0.0
 10
28.2978117082
 20
39.6727883587
 30
0.0
 10
27.9195245587
 20
39.4968654127
 30
0.0
 10
27.670523979
 20
39.3622186771
 30
0.0
 10
27.5459356887
 20
39.2902880235
 30
0.0
  0
SPLINE
  5
256
100
AcDbEntity
  8
0
100
AcDbSpline
 62
7
  6
BYLAYER
 70
0
 71
3
 72
12
 73
8
 74
0
 42
0.0000001
 43
0.0000001
 44
0.0000000001
 40
0.0
 40
0.0
 40
0.0
 40
0.0
 40
0.1142724278
 40
0.2321289362
 40
0.4775239503
 40
0.7342972555
 40
1.0
 40
1.0
 40
1.0
 40
1.0
 10
27.5459356887
 20
39.2902880235
 30
0.0
 10
27.417201917
 20
39.2159639894
 30
0.0
 10
27.1599941553
 20
39.0574205038
 30
0.0
 10
26.6490449296
 20
38.7037661819
 30
0.0
 10
26.0215682137
 20
38.1948402797
 30
0.0
 10
25.3047221055
 20
37.4976057412
 30
0.0
 10
24.8580531804
 20
36.9841699371
 30
0.0
 10
24.6415066774
 20
36.7147815333
 30
0.0
  0
SPLINE
  5
257
100
AcDbEntity
  8
0
100
AcDbSpline
 62
7
  6
BYLAYER
 70
0
 71
3
 72
16
 73
12
 74
0
 42
0.0000001
 43
0.0000001
 44
0.0000000001
 40
0.0
 40
0.0
 40
0.0
 40
0.0
 40
0.1298423221
 40
0.2611764233
 40
0.392510665
 40
0.5223534161
 40
0.6492650599
 40
0.7719118863
 40
0.8891241034
 40
0.9454177928
 40
1.0
 40
1.0
 40
1.0
 40
1.0
 10
24.6415066774
 20
36.7147815333
 30
0.0
 10
24.4199583136
 20
36.4391707094
 30
0.0
 10
23.9962244564
 20
35.8668114128
 30
0.0
 10
23.4268030905
 20
34.9609844731
 30
0.0
 10
22.9270190054
 20
34.0148684174
 30
0.0
 10
22.5053824634
 20
33.0445412117
 30
0.0
 10
22.1689968831
 20
32.0663505688
 30
0.0
 10
21.9235772903
 20
31.0968692416
 30
0.0
 10
21.796576367
 20
30.2989996654
 30
0.0
 10
21.7457778262
 20
29.679669392
 30
0.0
 10
21.737077666
 20
29.3776459963
 30
0.0
 10
21.737077666
 20
29.2289949427
 30
0.0
  0
SPLINE
  5
258
100
AcDbEntity
  8
0
100
AcDbSpline
 62
7
  6
BYLAYER
 70
0
 71
3
 72
18
 73
14
 74
0
 42
0.0000001
 43
0.0000001
 44
0.0000000001
 40
0.0
 40
0.0
 40
0.0
 40
0.0
 40
0.1485996929
 40
0.2894956301
 40
0.4226741182
 40
0.5485423016
 40
0.6678383683
 40
0.7254069205
 40
0.7817994015
 40
0.837222023
 40
0.8918998691
 40
0.9460750924
 40
1.0
 40
1.0
 40
1.0
 40
1.0
 10
21.737077666
 20
29.2289949427
 30
0.0
 10
21.737077666
 20
29.0144587997
 30
0.0
 10
21.7544144586
 20
28.5962173634
 30
0.0
 10
21.836980274
 20
27.9906344261
 30
0.0
 10
21.9749209731
 20
27.4286997082
 30
0.0
 10
22.1670542225
 20
26.9159343059
 30
0.0
 10
22.3737368352
 20
26.5290469243
 30
0.0
 10
22.5644795566
 20
26.2511804757
 30
0.0
 10
22.718030706
 20
26.0605298826
 30
0.0
 10
22.8833432999
 20
25.885677783
 30
0.0
 10
23.0600593971
 20
25.7270856661
 30
0.0
 10
23.2477023017
 20
25.585160799
 30
0.0
 10
23.3799049857
 20
25.5018002693
 30
0.0
 10
23.4474732887
 20
25.4631283218
 30
0.0
  0
SPLINE
  5
259
100
AcDbEntity
  8
0
100
AcDbSpline
 62
7
  6
BYLAYER
 70
0
 71
3
 72
11
 73
7
 74
0
 42
0.0000001
 43
0.0000001
 44
0.0000000001
 40
0.0
 40
0.0
 40
0.0
 40
0.0
 40
0.247773413
 40
0.4973923449
 40
0.7482965168
 40
1.0
 40
1.0
 40
1.0
 40
1.0
 10
24.6415066774
 20
36.7147815333
 30
0.0
 10
24.4222721067
 20
36.4420491168
 30
0.0
 10
23.9649510467
 20
35.9081652249
 30
0.0
 10
23.2306594971
 20
35.1473971995
 30
0.0
 10
22.45322177
 20
34.4227723934
 30
0.0
 10
21.9122850981
 20
33.9628123619
 30
0.0
 10
21.6372028311
 20
33.737664163
 30
0.0
  0
SPLINE
  5
25A
100
AcDbEntity
  8
0
100
AcDbSpline
 62
7
  6
BYLAYER
 70
0
 71
3
 72
11
 73
7
 74
0
 42
0.0000001
 43
0.0000001
 44
0.0000000001
 40
0.0
 40
0.0
 40
0.0
 40
0.0
 40
0.2597138449
 40
0.5138055923
 40
0.7609569878
 40
1.0
 40
1.0
 40
1.0
 40
1.0
 10
21.3196420511
 20
32.9191927115
 30
0.0
 10
21.3833952592
 20
32.603563441
 30
0.0
 10
21.4993312278
 20
31.9769986697
 30
0.0
 10
21.6327669411
 20
31.0426916164
 30
0.0
 10
21.7170730685
 20
30.1283084421
 30
0.0
 10
21.737077666
 20
29.5253700036
 30
0.0
 10
21.737077666
 20
29.2289949427
 30
0.0
  0
SPLINE
  5
25B
100
AcDbEntity
  8
0
100
AcDbSpline
 62
7
  6
BYLAYER
 70
0
 71
3
 72
14
 73
10
 74
0
 42
0.0000001
 43
0.0000001
 44
0.0000000001
 40
0.0
 40
0.0
 40
0.0
 40
0.0
 40
0.1248028208
 40
0.2484124622
 40
0.371451231
 40
0.4945606855
 40
0.6183933108
 40
0.7435850308
 40
1.0
 40
1.0
 40
1.0
 40
1.0
 10
32.212512927
 20
39.2713056136
 30
0.0
 10
32.1539115636
 20
39.328761759
 30
0.0
 10
32.0323597475
 20
39.4382493889
 30
0.0
 10
31.8370867127
 20
39.585487288
 30
0.0
 10
31.6305066008
 20
39.714343631
 30
0.0
 10
31.4131834643
 20
39.8244142959
 30
0.0
 10
31.1856755623
 20
39.9154481509
 30
0.0
 10
30.867262177
 20
40.0118053216
 30
0.0
 10
30.6183118115
 20
40.0535049811
 30
0.0
 10
30.4503647001
 20
40.0685072573
 30
0.0
  0
SPLINE
  5
25C
100
AcDbEntity
  8
0
100
AcDbSpline
 62
7
  6
BYLAYER
 70
0
 71
3
 72
23
 73
19
 74
0
 42
0.0000001
 43
0.0000001
 44
0.0000000001
 40
0.0
 40
0.0
 40
0.0
 40
0.0
 40
0.0558381098
 40
0.1141790923
 40
0.1747829304
 40
0.2373529721
 40
0.3015484011
 40
0.3669921915
 40
0.4332821682
 40
0.4999996389
 40
0.5667170727
 40
0.633007148
 40
0.698450518
 40
0.7626465993
 40
0.8252164622
 40
0.8858171019
 40
0.9441705099
 40
1.0
 40
1.0
 40
1.0
 40
1.0
 10
26.1791362991
 20
28.4729046404
 30
0.0
 10
26.17913506
 20
28.6370389381
 30
0.0
 10
26.1936999478
 20
28.972787875
 30
0.0
 10
26.2555368056
 20
29.4832619499
 30
0.0
 10
26.3572496154
 20
30.0074687333
 30
0.0
 10
26.4978391766
 20
30.5403791962
 30
0.0
 10
26.6759833964
 20
31.076924175
 30
0.0
 10
26.8899707445
 20
31.6119797129
 30
0.0
 10
27.1377410807
 20
32.1404396759
 30
0.0
 10
27.4169465827
 20
32.6572392365
 30
0.0
 10
27.7249060633
 20
33.1574374488
 30
0.0
 10
28.0586607724
 20
33.6362553963
 30
0.0
 10
28.4150404908
 20
34.0891021965
 30
0.0
 10
28.7906329605
 20
34.5116490519
 30
0.0
 10
29.1818292862
 20
34.8998696691
 30
0.0
 10
29.5849666608
 20
35.2500811659
 30
0.0
 10
29.9961481366
 20
35.5588504463
 30
0.0
 10
30.2796282
 20
35.739365908
 30
0.0
 10
30.4217509409
 20
35.8214200209
 30
0.0
  0
SPLINE
  5
25D
100
AcDbEntity
  8
0
100
AcDbSpline
 62
7
  6
BYLAYER
 70
0
 71
3
 72
11
 73
7
 74
0
 42
0.0000001
 43
0.0000001
 44
0.0000000001
 40
0.0
 40
0.0
 40
0.0
 40
0.0
 40
0.2458901112
 40
0.4944463609
 40
0.7458381524
 40
1.0
 40
1.0
 40
1.0
 40
1.0
 10
23.8862935113
 20
32.439180429
 30
0.0
 10
24.0337250536
 20
32.7403597472
 30
0.0
 10
24.3433198883
 20
33.3396938423
 30
0.0
 10
24.855411814
 20
34.2190639557
 30
0.0
 10
25.4231381213
 20
35.0772667702
 30
0.0
 10
25.8385686318
 20
35.6281515325
 30
0.0
 10
26.0557261277
 20
35.8983000242
 30
0.0
  0
SPLINE
  5
25E
100
AcDbEntity
  8
0
100
AcDbSpline
 62
7
  6
BYLAYER
 70
0
 71
3
 72
11
 73
7
 74
0
 42
0.0000001
 43
0.0000001
 44
0.0000000001
 40
0.0
 40
0.0
 40
0.0
 40
0.0
 40
0.2640471168
 40
0.5180924809
 40
0.7629848124
 40
1.0
 40
1.0
 40
1.0
 40
1.0
 10
23.1512971163
 20
28.4125134337
 30
0.0
 10
23.1512971163
 20
28.6980289834
 30
0.0
 10
23.1692131904
 20
29.2584563878
 30
0.0
 10
23.2520538349
 20
30.0799298669
 30
0.0
 10
23.3847025176
 20
30.86514234
 30
0.0
 10
23.5034474384
 20
31.3728779219
 30
0.0
 10
23.5687327312
 20
31.6207089775
 30
0.0
  0
SPLINE
  5
25F
100
AcDbEntity
  8
0
100
AcDbSpline
 62
7
  6
BYLAYER
 70
0
 71
3
 72
9
 73
5
 74
0
 42
0.0000001
 43
0.0000001
 44
0.0000000001
 40
0.0
 40
0.0
 40
0.0
 40
0.0
 40
0.2461689079
 40
1.0
 40
1.0
 40
1.0
 40
1.0
 10
23.8862935113
 20
24.2705296283
 30
0.0
 10
23.8574869906
 20
24.3055391968
 30
0.0
 10
23.7432338537
 20
24.4500186996
 30
0.0
 10
23.6401144288
 20
24.6032369933
 30
0.0
 10
23.5687327312
 20
24.7223156649
 30
0.0
  0
SPLINE
  5
260
100
AcDbEntity
  8
0
100
AcDbSpline
 62
7
  6
BYLAYER
 70
0
 71
3
 72
11
 73
7
 74
0
 42
0.0000001
 43
0.0000001
 44
0.0000000001
 40
0.0
 40
0.0
 40
0.0
 40
0.0
 40
0.2597138449
 40
0.5138055923
 40
0.7609569878
 40
1.0
 40
1.0
 40
1.0
 40
1.0
 10
23.5687327312
 20
24.7223156649
 30
0.0
 10
23.5049795232
 20
25.0379449355
 30
0.0
 10
23.3890435545
 20
25.6645097068
 30
0.0
 10
23.2556078412
 20
26.59881676
 30
0.0
 10
23.1713017139
 20
27.5131999343
 30
0.0
 10
23.1512971163
 20
28.1161383728
 30
0.0
 10
23.1512971163
 20
28.4125134337
 30
0.0
  0
SPLINE
  5
261
100
AcDbEntity
  8
0
100
AcDbSpline
 62
7
  6
BYLAYER
 70
0
 71
3
 72
11
 73
7
 74
0
 42
0.0000001
 43
0.0000001
 44
0.0000000001
 40
0.0
 40
0.0
 40
0.0
 40
0.0
 40
0.2716820939
 40
0.5307340513
 40
0.7743437201
 40
1.0
 40
1.0
 40
1.0
 40
1.0
 10
24.5130180833
 20
23.9086982136
 30
0.0
 10
24.7830317356
 20
23.8537917992
 30
0.0
 10
25.3113675899
 20
23.7506811106
 30
0.0
 10
26.0852120792
 20
23.6163764636
 30
0.0
 10
26.8162230114
 20
23.5096488352
 30
0.0
 10
27.2893692758
 20
23.456981342
 30
0.0
 10
27.5173219295
 20
23.4366189276
 30
0.0
  0
SPLINE
  5
262
100
AcDbEntity
  8
0
100
AcDbSpline
 62
7
  6
BYLAYER
 70
0
 71
3
 72
11
 73
7
 74
0
 42
0.0000001
 43
0.0000001
 44
0.0000000001
 40
0.0
 40
0.0
 40
0.0
 40
0.0
 40
0.2138697203
 40
0.4498869344
 40
0.7112845036
 40
1.0
 40
1.0
 40
1.0
 40
1.0
 10
29.695151534
 20
39.2421028094
 30
0.0
 10
29.8488983616
 20
39.2612760387
 30
0.0
 10
30.1736235674
 20
39.2916440678
 30
0.0
 10
30.6888664639
 20
39.3096085265
 30
0.0
 10
31.2585198486
 20
39.298205918
 30
0.0
 10
31.6562539873
 20
39.2706353369
 30
0.0
 10
31.8645841504
 20
39.2520257483
 30
0.0
  0
SPLINE
  5
263
100
AcDbEntity
  8
0
100
AcDbSpline
 62
7
  6
BYLAYER
 70
0
 71
3
 72
11
 73
7
 74
0
 42
0.0000001
 43
0.0000001
 44
0.0000000001
 40
0.0
 40
0.0
 40
0.0
 40
0.0
 40
0.247773413
 40
0.4973923449
 40
0.7482965168
 40
1.0
 40
1.0
 40
1.0
 40
1.0
 10
26.0557261277
 20
35.8983000242
 30
0.0
 10
26.2749606983
 20
36.1710324407
 30
0.0
 10
26.7322817583
 20
36.7049163326
 30
0.0
 10
27.4665733079
 20
37.465684358
 30
0.0
 10
28.244011035
 20
38.1903091642
 30
0.0
 10
28.7849477069
 20
38.6502691956
 30
0.0
 10
29.0600299739
 20
38.8754173945
 30
0.0
  0
SPLINE
  5
264
100
AcDbEntity
  8
0
100
AcDbSpline
 62
7
  6
BYLAYER
 70
0
 71
3
 72
9
 73
5
 74
0
 42
0.0000001
 43
0.0000001
 44
0.0000000001
 40
0.0
 40
0.0
 40
0.0
 40
0.0
 40
0.2541982703
 40
1.0
 40
1.0
 40
1.0
 40
1.0
 10
35.8131733487
 20
37.966329011
 30
0.0
 10
35.7891030984
 20
38.0064829094
 30
0.0
 10
35.691640112
 20
38.1627605697
 30
0.0
 10
35.5828848208
 20
38.3120500381
 30
0.0
 10
35.4956125687
 20
38.4181150477
 30
0.0
  0
SPLINE
  5
265
100
AcDbEntity
  8
0
100
AcDbSpline
 62
7
  6
BYLAYER
 70
0
 71
3
 72
11
 73
7
 74
0
 42
0.0000001
 43
0.0000001
 44
0.0000000001
 40
0.0
 40
0.0
 40
0.0
 40
0.0
 40
0.2400046534
 40
0.4873962049
 40
0.7411093834
 40
1.0
 40
1.0
 40
1.0
 40
1.0
 10
36.2287916862
 20
34.4981521189
 30
0.0
 10
36.2242368015
 20
34.7779261166
 30
0.0
 10
36.1977096521
 20
35.3459098393
 30
0.0
 10
36.1111690218
 20
36.205925849
 30
0.0
 10
35.9823265204
 20
37.0828131078
 30
0.0
 10
35.8729322884
 20
37.6704745572
 30
0.0
 10
35.8131733487
 20
37.966329011
 30
0.0
  0
SPLINE
  5
266
100
AcDbEntity
  8
0
100
AcDbSpline
 62
7
  6
BYLAYER
 70
0
 71
3
 72
11
 73
7
 74
0
 42
0.0000001
 43
0.0000001
 44
0.0000000001
 40
0.0
 40
0.0
 40
0.0
 40
0.0
 40
0.2256534176
 40
0.4692630009
 40
0.7283075039
 40
1.0
 40
1.0
 40
1.0
 40
1.0
 10
31.8645841504
 20
39.2520257483
 30
0.0
 10
32.0925339128
 20
39.2316635922
 30
0.0
 10
32.5656776692
 20
39.1789993532
 30
0.0
 10
33.2966758453
 20
39.0722585762
 30
0.0
 10
34.0705280694
 20
38.9379816759
 30
0.0
 10
34.598864006
 20
38.834854979
 30
0.0
 10
34.8688879967
 20
38.7799464623
 30
0.0
  0
SPLINE
  5
267
100
AcDbEntity
  8
0
100
AcDbSpline
 62
7
  6
BYLAYER
 70
0
 71
3
 72
11
 73
7
 74
0
 42
0.0000001
 43
0.0000001
 44
0.0000000001
 40
0.0
 40
0.0
 40
0.0
 40
0.0
 40
0.2887117468
 40
0.5500998029
 40
0.7861348884
 40
1.0
 40
1.0
 40
1.0
 40
1.0
 10
27.5173219295
 20
23.4366189276
 30
0.0
 10
27.7256494117
 20
23.4180095785
 30
0.0
 10
28.1233741198
 20
23.3904334084
 30
0.0
 10
28.6930304613
 20
23.3790556792
 30
0.0
 10
29.2082781197
 20
23.3969751256
 30
0.0
 10
29.5330110132
 20
23.4273690481
 30
0.0
 10
29.6867545459
 20
23.4465418666
 30
0.0
  0
SPLINE
  5
268
100
AcDbEntity
  8
0
100
AcDbSpline
 62
7
  6
BYLAYER
 70
0
 71
3
 72
9
 73
5
 74
0
 42
0.0000001
 43
0.0000001
 44
0.0000000001
 40
0.0
 40
0.0
 40
0.0
 40
0.0
 40
0.2541982703
 40
1.0
 40
1.0
 40
1.0
 40
1.0
 10
24.1954573033
 20
24.3604842503
 30
0.0
 10
24.2195275535
 20
24.3203303519
 30
0.0
 10
24.3169905399
 20
24.1640526916
 30
0.0
 10
24.4257458311
 20
24.0147632232
 30
0.0
 10
24.5130180833
 20
23.9086982136
 30
0.0
  0
SPLINE
  5
269
100
AcDbEntity
  8
0
100
AcDbSpline
 62
7
  6
BYLAYER
 70
0
 71
3
 72
11
 73
7
 74
0
 42
0.0000001
 43
0.0000001
 44
0.0000000001
 40
0.0
 40
0.0
 40
0.0
 40
0.0
 40
0.2138697203
 40
0.4498869344
 40
0.7112845036
 40
1.0
 40
1.0
 40
1.0
 40
1.0
 10
35.4956125687
 20
38.4181150477
 30
0.0
 10
35.341865741
 20
38.3989418183
 30
0.0
 10
35.0171405352
 20
38.3685737893
 30
0.0
 10
34.5018976387
 20
38.3506093305
 30
0.0
 10
33.9322442541
 20
38.362011939
 30
0.0
 10
33.5345101153
 20
38.3895825201
 30
0.0
 10
33.3261799523
 20
38.4081921087
 30
0.0
  0
SPLINE
  5
26A
100
AcDbEntity
  8
0
100
AcDbSpline
 62
7
  6
BYLAYER
 70
0
 71
3
 72
11
 73
7
 74
0
 42
0.0000001
 43
0.0000001
 44
0.0000000001
 40
0.0
 40
0.0
 40
0.0
 40
0.0
 40
0.2256534176
 40
0.4692630009
 40
0.7283075039
 40
1.0
 40
1.0
 40
1.0
 40
1.0
 10
33.3261799523
 20
38.4081921087
 30
0.0
 10
33.0982301899
 20
38.4285542648
 30
0.0
 10
32.6250864335
 20
38.4812185038
 30
0.0
 10
31.8940882574
 20
38.5879592808
 30
0.0
 10
31.1202360332
 20
38.7222361811
 30
0.0
 10
30.5919000967
 20
38.825362878
 30
0.0
 10
30.321876106
 20
38.8802713947
 30
0.0
  0
SPLINE
  5
26B
100
AcDbEntity
  8
0
100
AcDbSpline
 62
7
  6
BYLAYER
 70
0
 71
3
 72
11
 73
7
 74
0
 42
0.0000001
 43
0.0000001
 44
0.0000000001
 40
0.0
 40
0.0
 40
0.0
 40
0.0
 40
0.2640471168
 40
0.5180924809
 40
0.7629848124
 40
1.0
 40
1.0
 40
1.0
 40
1.0
 10
24.6128929182
 20
27.5686797941
 30
0.0
 10
24.6128929182
 20
27.2831642444
 30
0.0
 10
24.5949768441
 20
26.72273684
 30
0.0
 10
24.5121361996
 20
25.9012633609
 30
0.0
 10
24.3794875169
 20
25.1160508878
 30
0.0
 10
24.2607425961
 20
24.6083153059
 30
0.0
 10
24.1954573033
 20
24.3604842503
 30
0.0
  0
SPLINE
  5
26C
100
AcDbEntity
  8
0
100
AcDbSpline
 62
7
  6
BYLAYER
 70
0
 71
3
 72
11
 73
7
 74
0
 42
0.0000001
 43
0.0000001
 44
0.0000000001
 40
0.0
 40
0.0
 40
0.0
 40
0.0
 40
0.2458901112
 40
0.4944463609
 40
0.7458381524
 40
1.0
 40
1.0
 40
1.0
 40
1.0
 10
29.6867545459
 20
38.5135859799
 30
0.0
 10
29.5393230036
 20
38.2124066617
 30
0.0
 10
29.2297281689
 20
37.6130725666
 30
0.0
 10
28.7176362432
 20
36.7337024532
 30
0.0
 10
28.1499099359
 20
35.8754996387
 30
0.0
 10
27.7344794254
 20
35.3246148764
 30
0.0
 10
27.5173219295
 20
35.0544663847
 30
0.0
  0
SPLINE
  5
26D
100
AcDbEntity
  8
0
100
AcDbSpline
 62
7
  6
BYLAYER
 70
0
 71
3
 72
26
 73
22
 74
0
 42
0.0000001
 43
0.0000001
 44
0.0000000001
 40
0.0
 40
0.0
 40
0.0
 40
0.0
 40
0.0742812157
 40
0.1447376485
 40
0.2113375929
 40
0.2432646179
 40
0.274319303
 40
0.3339926231
 40
0.3909548698
 40
0.4459730938
 40
0.4730623047
 40
0.5000221694
 40
0.554022895
 40
0.6090418069
 40
0.6660044683
 40
0.7256771553
 40
0.7567318994
 40
0.7886612756
 40
0.8552652551
 40
0.9257049186
 40
1.0
 40
1.0
 40
1.0
 40
1.0
 10
30.4217509409
 20
26.0233910154
 30
0.0
 10
30.2864350908
 20
25.9452668393
 30
0.0
 10
30.0162800765
 20
25.8038509449
 30
0.0
 10
29.6042485009
 20
25.6351929042
 30
0.0
 10
29.2622141345
 20
25.5354823946
 30
0.0
 10
28.9946101842
 20
25.4828432487
 30
0.0
 10
28.7387235515
 20
25.4488498094
 30
0.0
 10
28.4271797617
 20
25.4380140743
 30
0.0
 10
28.0669952603
 20
25.4781568316
 30
0.0
 10
27.7836825138
 20
25.5565731686
 30
0.0
 10
27.5718150353
 20
25.6452160681
 30
0.0
 10
27.3701071481
 20
25.7504696227
 30
0.0
 10
27.1342956519
 20
25.9149879034
 30
0.0
 10
26.8843707053
 20
26.1609789743
 30
0.0
 10
26.6694549718
 20
26.4528493966
 30
0.0
 10
26.5230754721
 20
26.7280650191
 30
0.0
 10
26.4245697737
 20
26.9666712079
 30
0.0
 10
26.3363728428
 20
27.2247628837
 30
0.0
 10
26.2517055727
 20
27.5708037789
 30
0.0
 10
26.191720677
 20
28.0119619868
 30
0.0
 10
26.1791374789
 20
28.3166264224
 30
0.0
 10
26.1791362991
 20
28.4729046404
 30
0.0
  0
SPLINE
  5
26E
100
AcDbEntity
  8
0
100
AcDbSpline
 62
7
  6
BYLAYER
 70
0
 71
3
 72
42
 73
38
 74
0
 42
0.0000001
 43
0.0000001
 44
0.0000000001
 40
0.0
 40
0.0
 40
0.0
 40
0.0
 40
0.0309838209
 40
0.0603722589
 40
0.0881520897
 40
0.1014693258
 40
0.1144226946
 40
0.1393133168
 40
0.1630731104
 40
0.1860220289
 40
0.1973213452
 40
0.2085667128
 40
0.2310912453
 40
0.2540404985
 40
0.2778005399
 40
0.3026909942
 40
0.3156444416
 40
0.3289627154
 40
0.3567443491
 40
0.3861259153
 40
0.417115641
 40
0.4496628939
 40
0.4836690157
 40
0.5189941032
 40
0.5554652423
 40
0.5928837771
 40
0.6310299465
 40
0.6696693305
 40
0.7085578821
 40
0.7474464028
 40
0.786085816
 40
0.8242316936
 40
0.8616505447
 40
0.8981214995
 40
0.9334446285
 40
0.9674578868
 40
1.0
 40
1.0
 40
1.0
 40
1.0
 10
30.4217509409
 20
35.8214200209
 30
0.0
 10
30.5570674181
 20
35.8995445592
 30
0.0
 10
30.8272236794
 20
36.0409610412
 30
0.0
 10
31.2392571766
 20
36.2096195405
 30
0.0
 10
31.5812931042
 20
36.3093300273
 30
0.0
 10
31.8488982151
 20
36.3619688828
 30
0.0
 10
32.1047858874
 20
36.3959618692
 30
0.0
 10
32.4163308743
 20
36.4067967288
 30
0.0
 10
32.7765165851
 20
36.3666523919
 30
0.0
 10
33.0598300522
 20
36.2882343117
 30
0.0
 10
33.2716979001
 20
36.1995898105
 30
0.0
 10
33.4734060927
 20
36.0943344833
 30
0.0
 10
33.7092177298
 20
35.9298136841
 30
0.0
 10
33.9591423485
 20
35.6838192646
 30
0.0
 10
34.1740573065
 20
35.3919452321
 30
0.0
 10
34.3204357861
 20
35.1167263961
 30
0.0
 10
34.418940468
 20
34.8781177793
 30
0.0
 10
34.5071362289
 20
34.620022592
 30
0.0
 10
34.5918017461
 20
34.2739842787
 30
0.0
 10
34.6517840662
 20
33.8327947616
 30
0.0
 10
34.6711484245
 20
33.3639851947
 30
0.0
 10
34.6497989614
 20
32.8720124635
 30
0.0
 10
34.5879595563
 20
32.3615075118
 30
0.0
 10
34.4862447211
 20
31.8373116298
 30
0.0
 10
34.3456535482
 20
31.3044007567
 30
0.0
 10
34.167508169
 20
30.7678589774
 30
0.0
 10
33.9535200936
 20
30.2328059803
 30
0.0
 10
33.7057494566
 20
29.7043489887
 30
0.0
 10
33.4265440605
 20
29.1875524343
 30
0.0
 10
33.1185850629
 20
28.6873572764
 30
0.0
 10
32.7848311846
 20
28.2085423316
 30
0.0
 10
32.428452606
 20
27.755698417
 30
0.0
 10
32.0528615405
 20
27.3331542613
 30
0.0
 10
31.661666838
 20
26.9449360924
 30
0.0
 10
31.2585312536
 20
26.5947267355
 30
0.0
 10
30.8473516822
 20
26.2859592341
 30
0.0
 10
30.56387299
 20
26.1054447289
 30
0.0
 10
30.4217509409
 20
26.0233910154
 30
0.0
  0
SPLINE
  5
26F
100
AcDbEntity
  8
0
100
AcDbSpline
 62
7
  6
BYLAYER
 70
0
 71
3
 72
15
 73
11
 74
0
 42
0.0000001
 43
0.0000001
 44
0.0000000001
 40
0.0
 40
0.0
 40
0.0
 40
0.0
 40
0.1098775931
 40
0.2234861512
 40
0.3412133349
 40
0.4633930863
 40
0.5902737579
 40
0.722003028
 40
0.8586240371
 40
1.0
 40
1.0
 40
1.0
 40
1.0
 10
33.3261799523
 20
38.4081921087
 30
0.0
 10
33.2148136799
 20
38.4181401666
 30
0.0
 10
32.9871392453
 20
38.4268528075
 30
0.0
 10
32.6400144967
 20
38.4075340367
 30
0.0
 10
32.2835420724
 20
38.3560698649
 30
0.0
 10
31.9193213683
 20
38.272806258
 30
0.0
 10
31.5488472893
 20
38.158097318
 30
0.0
 10
31.1736269604
 20
38.01247321
 30
0.0
 10
30.7953398109
 20
37.8365502641
 30
0.0
 10
30.5463392312
 20
37.7019035285
 30
0.0
 10
30.4217509409
 20
37.6299728749
 30
0.0
  0
SPLINE
  5
270
100
AcDbEntity
  8
0
100
AcDbSpline
 62
7
  6
BYLAYER
 70
0
 71
3
 72
12
 73
8
 74
0
 42
0.0000001
 43
0.0000001
 44
0.0000000001
 40
0.0
 40
0.0
 40
0.0
 40
0.0
 40
0.1142724278
 40
0.2321289362
 40
0.4775239503
 40
0.7342972555
 40
1.0
 40
1.0
 40
1.0
 40
1.0
 10
30.4217509409
 20
37.6299728749
 30
0.0
 10
30.2930171692
 20
37.5556488408
 30
0.0
 10
30.0358094074
 20
37.3971053552
 30
0.0
 10
29.5248601817
 20
37.0434510333
 30
0.0
 10
28.8973834659
 20
36.5345251311
 30
0.0
 10
28.1805373577
 20
35.8372905925
 30
0.0
 10
27.7338684326
 20
35.3238547885
 30
0.0
 10
27.5173219295
 20
35.0544663847
 30
0.0
  0
SPLINE
  5
271
100
AcDbEntity
  8
0
100
AcDbSpline
 62
7
  6
BYLAYER
 70
0
 71
3
 72
16
 73
12
 74
0
 42
0.0000001
 43
0.0000001
 44
0.0000000001
 40
0.0
 40
0.0
 40
0.0
 40
0.0
 40
0.1298423221
 40
0.2611764233
 40
0.392510665
 40
0.5223534161
 40
0.6492650599
 40
0.7719118863
 40
0.8891241034
 40
0.9454177928
 40
1.0
 40
1.0
 40
1.0
 40
1.0
 10
27.5173219295
 20
35.0544663847
 30
0.0
 10
27.2957735657
 20
34.7788555608
 30
0.0
 10
26.8720397086
 20
34.2064962642
 30
0.0
 10
26.3026183426
 20
33.3006693245
 30
0.0
 10
25.8028342576
 20
32.3545532687
 30
0.0
 10
25.3811977155
 20
31.3842260631
 30
0.0
 10
25.0448121352
 20
30.4060354202
 30
0.0
 10
24.7993925425
 20
29.4365540929
 30
0.0
 10
24.6723916192
 20
28.6386845168
 30
0.0
 10
24.6215930784
 20
28.0193542434
 30
0.0
 10
24.6128929182
 20
27.7173308477
 30
0.0
 10
24.6128929182
 20
27.5686797941
 30
0.0
  0
SPLINE
  5
272
100
AcDbEntity
  8
0
100
AcDbSpline
 62
7
  6
BYLAYER
 70
0
 71
3
 72
23
 73
19
 74
0
 42
0.0000001
 43
0.0000001
 44
0.0000000001
 40
0.0
 40
0.0
 40
0.0
 40
0.0
 40
0.0772103336
 40
0.1518235751
 40
0.2237646168
 40
0.2930593587
 40
0.3597892382
 40
0.4240805615
 40
0.4861128697
 40
0.5461338393
 40
0.6044503639
 40
0.6614293115
 40
0.7174850172
 40
0.7730676446
 40
0.828647703
 40
0.8847057637
 40
0.9416971716
 40
1.0
 40
1.0
 40
1.0
 40
1.0
 10
24.6128929182
 20
27.5686797941
 30
0.0
 10
24.6128929182
 20
27.4248156206
 30
0.0
 10
24.6207855174
 20
27.141847494
 30
0.0
 10
24.6575731302
 20
26.726275352
 30
0.0
 10
24.7190634839
 20
26.3285063349
 30
0.0
 10
24.8049601698
 20
25.95030017
 30
0.0
 10
24.9149716643
 20
25.5932377636
 30
0.0
 10
25.0486173604
 20
25.2588134662
 30
0.0
 10
25.2054459611
 20
24.9485038416
 30
0.0
 10
25.3847751573
 20
24.6636440358
 30
0.0
 10
25.5859410897
 20
24.4055395478
 30
0.0
 10
25.8080596
 20
24.1753310225
 30
0.0
 10
26.0502288188
 20
23.9741507003
 30
0.0
 10
26.3113123019
 20
23.8028867078
 30
0.0
 10
26.5901651209
 20
23.6623915206
 30
0.0
 10
26.8855074813
 20
23.5532517733
 30
0.0
 10
27.1959115293
 20
23.4760084799
 30
0.0
 10
27.4091185002
 20
23.446284457
 30
0.0
 10
27.5173219295
 20
23.4366189276
 30
0.0
  0
SPLINE
  5
273
100
AcDbEntity
  8
0
100
AcDbSpline
 62
7
  6
BYLAYER
 70
0
 71
3
 72
11
 73
7
 74
0
 42
0.0000001
 43
0.0000001
 44
0.0000000001
 40
0.0
 40
0.0
 40
0.0
 40
0.0
 40
0.2253150322
 40
0.4658818245
 40
0.7238104497
 40
1.0
 40
1.0
 40
1.0
 40
1.0
 10
27.5173219295
 20
23.4366189276
 30
0.0
 10
27.7266551304
 20
23.4179197403
 30
0.0
 10
28.1638692344
 20
23.4206849913
 30
0.0
 10
28.8316209877
 20
23.535869703
 30
0.0
 10
29.5210325534
 20
23.7592729794
 30
0.0
 10
29.9734859476
 20
23.9708956785
 30
0.0
 10
30.2007967167
 20
24.0921322994
 30
0.0
  0
SPLINE
  5
274
100
AcDbEntity
  8
0
100
AcDbSpline
 62
7
  6
BYLAYER
 70
0
 71
3
 72
11
 73
7
 74
0
 42
0.0000001
 43
0.0000001
 44
0.0000000001
 40
0.0
 40
0.0
 40
0.0
 40
0.0
 40
0.247773413
 40
0.4973923449
 40
0.7482965168
 40
1.0
 40
1.0
 40
1.0
 40
1.0
 10
27.5173219295
 20
35.0544663847
 30
0.0
 10
27.2980873589
 20
34.7817339682
 30
0.0
 10
26.8407662989
 20
34.2478500763
 30
0.0
 10
26.1064747493
 20
33.4870820509
 30
0.0
 10
25.3290370222
 20
32.7624572447
 30
0.0
 10
24.7881003503
 20
32.3024972133
 30
0.0
 10
24.5130180833
 20
32.0773490144
 30
0.0
  0
SPLINE
  5
275
100
AcDbEntity
  8
0
100
AcDbSpline
 62
7
  6
BYLAYER
 70
0
 71
3
 72
11
 73
7
 74
0
 42
0.0000001
 43
0.0000001
 44
0.0000000001
 40
0.0
 40
0.0
 40
0.0
 40
0.0
 40
0.2597138449
 40
0.5138055923
 40
0.7609569878
 40
1.0
 40
1.0
 40
1.0
 40
1.0
 10
24.1954573033
 20
31.2588775629
 30
0.0
 10
24.2592105113
 20
30.9432482923
 30
0.0
 10
24.37514648
 20
30.3166835211
 30
0.0
 10
24.5085821933
 20
29.3823764678
 30
0.0
 10
24.5928883206
 20
28.4679932935
 30
0.0
 10
24.6128929182
 20
27.865054855
 30
0.0
 10
24.6128929182
 20
27.5686797941
 30
0.0
  0
SPLINE
  5
276
100
AcDbEntity
  8
0
100
AcDbSpline
 62
7
  6
BYLAYER
 70
0
 71
3
 72
21
 73
17
 74
0
 42
0.0000001
 43
0.0000001
 44
0.0000000001
 40
0.0
 40
0.0
 40
0.0
 40
0.0
 40
0.1503024211
 40
0.2902754306
 40
0.356586987
 40
0.4205887793
 40
0.4824733747
 40
0.5424925778
 40
0.6009520078
 40
0.65820873
 40
0.7146606016
 40
0.7707341473
 40
0.8268730922
 40
0.8835275208
 40
0.9411197932
 40
1.0
 40
1.0
 40
1.0
 40
1.0
 10
36.2263924775
 20
34.5290258929
 30
0.0
 10
36.2173978001
 20
34.7962241819
 30
0.0
 10
36.1718677412
 20
35.3119278393
 30
0.0
 10
36.0343736118
 20
35.9334346221
 30
0.0
 10
35.8774217377
 20
36.3883387609
 30
0.0
 10
35.7400248322
 20
36.7018292251
 30
0.0
 10
35.5813326066
 20
36.9924434581
 30
0.0
 10
35.4019572417
 20
37.2590190464
 30
0.0
 10
35.2025463555
 20
37.5004239361
 30
0.0
 10
34.9839043434
 20
37.715657056
 30
0.0
 10
34.7468780633
 20
37.9037444221
 30
0.0
 10
34.4924954515
 20
38.0639199307
 30
0.0
 10
34.2217891714
 20
38.1954472033
 30
0.0
 10
33.935906839
 20
38.297822978
 30
0.0
 10
33.6361313479
 20
38.3705770671
 30
0.0
 10
33.4304974424
 20
38.3988737001
 30
0.0
 10
33.3261799523
 20
38.4081921087
 30
0.0
  0
SPLINE
  5
277
100
AcDbEntity
  8
0
100
AcDbSpline
 62
7
  6
BYLAYER
 70
0
 71
3
 72
15
 73
11
 74
0
 42
0.0000001
 43
0.0000001
 44
0.0000000001
 40
0.0
 40
0.0
 40
0.0
 40
0.0
 40
0.1485537913
 40
0.2895072603
 40
0.4227299923
 40
0.5486372184
 40
0.6679981872
 40
0.7819376114
 40
0.8919872626
 40
1.0
 40
1.0
 40
1.0
 40
1.0
 10
21.4174157009
 20
41.019957789
 30
0.0
 10
21.5527068948
 20
41.09806773
 30
0.0
 10
21.8228608183
 20
41.2394598951
 30
0.0
 10
22.2349086772
 20
41.4081624454
 30
0.0
 10
22.6396637513
 20
41.5261485762
 30
0.0
 10
23.0332130289
 20
41.592152195
 30
0.0
 10
23.4119339153
 20
41.6053442926
 30
0.0
 10
23.7721885796
 20
41.5651507231
 30
0.0
 10
24.1101399339
 20
41.471730754
 30
0.0
 10
24.3189870671
 20
41.373904311
 30
0.0
 10
24.417357113
 20
41.3171117821
 30
0.0
  0
SPLINE
  5
278
100
AcDbEntity
  8
0
100
AcDbSpline
 62
7
  6
BYLAYER
 70
0
 71
3
 72
15
 73
11
 74
0
 42
0.0000001
 43
0.0000001
 44
0.0000000001
 40
0.0
 40
0.0
 40
0.0
 40
0.0
 40
0.1486038014
 40
0.2894995094
 40
0.4227218091
 40
0.5486417594
 40
0.6680005986
 40
0.7819375654
 40
0.8919874544
 40
1.0
 40
1.0
 40
1.0
 40
1.0
 10
42.0649843474
 20
29.0992634983
 30
0.0
 10
42.0649832176
 20
29.2555408735
 30
0.0
 10
42.0523770266
 20
29.5601990969
 30
0.0
 10
41.992406461
 20
30.0013918204
 30
0.0
 10
41.8922145187
 20
30.4108748736
 30
0.0
 10
41.752613866
 20
30.7847289079
 30
0.0
 10
41.5746585826
 20
31.119318896
 30
0.0
 10
41.3597114466
 20
31.4112091667
 30
0.0
 10
41.1098268519
 20
31.6571784313
 30
0.0
 10
40.9206752531
 20
31.7891323219
 30
0.0
 10
40.8223027364
 20
31.8459262772
 30
0.0
  0
SPLINE
  5
279
100
AcDbEntity
  8
0
100
AcDbSpline
 62
7
  6
BYLAYER
 70
0
 71
3
 72
14
 73
10
 74
0
 42
0.0000001
 43
0.0000001
 44
0.0000000001
 40
0.0
 40
0.0
 40
0.0
 40
0.0
 40
0.095906628
 40
0.2014638124
 40
0.3164950165
 40
0.440248179
 40
0.5716752231
 40
0.7096273236
 40
1.0
 40
1.0
 40
1.0
 40
1.0
 10
6.1790103712
 20
40.976248825
 30
0.0
 10
6.1436294418
 20
40.9966765981
 30
0.0
 10
6.0732010958
 20
41.0464738785
 30
0.0
 10
5.9749559128
 20
41.139285728
 30
0.0
 10
5.8806351759
 20
41.2519981347
 30
0.0
 10
5.7915129748
 20
41.3823537831
 30
0.0
 10
5.7088833535
 20
41.5282328486
 30
0.0
 10
5.6072419181
 20
41.7440929311
 30
0.0
 10
5.5471374175
 20
41.9171751649
 30
0.0
 10
5.5143058403
 20
42.0364324805
 30
0.0
  0
SPLINE
  5
27A
100
AcDbEntity
  8
0
100
AcDbSpline
 62
7
  6
BYLAYER
 70
0
 71
3
 72
15
 73
11
 74
0
 42
0.0000001
 43
0.0000001
 44
0.0000000001
 40
0.0
 40
0.0
 40
0.0
 40
0.0
 40
0.1485414008
 40
0.2895049972
 40
0.4227350517
 40
0.5486406275
 40
0.6679982153
 40
0.7819396804
 40
0.8919877008
 40
1.0
 40
1.0
 40
1.0
 40
1.0
 10
13.7099196968
 20
44.6532795961
 30
0.0
 10
13.8226527991
 20
44.7183656946
 30
0.0
 10
14.0477828384
 20
44.8361830821
 30
0.0
 10
14.3911543516
 20
44.9767840719
 30
0.0
 10
14.7284648805
 20
45.07510079
 30
0.0
 10
15.0564230943
 20
45.1301213436
 30
0.0
 10
15.3720201903
 20
45.1410757889
 30
0.0
 10
15.6722351686
 20
45.1076227125
 30
0.0
 10
15.9538490216
 20
45.0297328178
 30
0.0
 10
16.1278999875
 20
44.948241366
 30
0.0
 10
16.2098700617
 20
44.900906691
 30
0.0
  0
SPLINE
  5
27B
100
AcDbEntity
  8
0
100
AcDbSpline
 62
7
  6
BYLAYER
 70
0
 71
3
 72
20
 73
16
 74
0
 42
0.0000001
 43
0.0000001
 44
0.0000000001
 40
0.0
 40
0.0
 40
0.0
 40
0.0
 40
0.0704184813
 40
0.1408522957
 40
0.2110939464
 40
0.2810778543
 40
0.4195174753
 40
0.5546629273
 40
0.683968117
 40
0.7454016243
 40
0.8039506614
 40
0.8590803426
 40
0.9103131847
 40
0.9573146728
 40
1.0
 40
1.0
 40
1.0
 40
1.0
 10
5.6388266087
 20
43.5975345943
 30
0.0
 10
5.6726751661
 20
43.6561623409
 30
0.0
 10
5.7484230178
 20
43.7689654501
 30
0.0
 10
5.8825062378
 20
43.9219679247
 30
0.0
 10
6.0338291677
 20
44.0572576598
 30
0.0
 10
6.2518798081
 20
44.2136037351
 30
0.0
 10
6.5466340405
 20
44.3666479159
 30
0.0
 10
6.914604237
 20
44.491196035
 30
0.0
 10
7.2232458303
 20
44.5509372051
 30
0.0
 10
7.4622058873
 20
44.5713649719
 30
0.0
 10
7.6307278639
 20
44.5730152181
 30
0.0
 10
7.7890321219
 20
44.5611567298
 30
0.0
 10
7.9345769111
 20
44.5358546059
 30
0.0
 10
8.0647356963
 20
44.4970955358
 30
0.0
 10
8.1434641694
 20
44.4608736357
 30
0.0
 10
8.1790020444
 20
44.4403552474
 30
0.0
  0
SPLINE
  5
27C
100
AcDbEntity
  8
0
100
AcDbSpline
 62
7
  6
BYLAYER
 70
0
 71
3
 72
13
 73
9
 74
0
 42
0.0000001
 43
0.0000001
 44
0.0000000001
 40
0.0
 40
0.0
 40
0.0
 40
0.0
 40
0.243584225
 40
0.4931832183
 40
0.6193571097
 40
0.7460122415
 40
0.8730255857
 40
1.0
 40
1.0
 40
1.0
 40
1.0
 10
5.5143058403
 20
42.0364324805
 30
0.0
 10
5.4796918339
 20
42.1621642862
 30
0.0
 10
5.4272139315
 20
42.4219246327
 30
0.0
 10
5.4116798593
 20
42.7549280464
 30
0.0
 10
5.4377737643
 20
43.0230756738
 30
0.0
 10
5.4792157836
 20
43.2226437872
 30
0.0
 10
5.5448138699
 20
43.4161225397
 30
0.0
 10
5.6048371527
 20
43.5386628028
 30
0.0
 10
5.6388266087
 20
43.5975345943
 30
0.0
  0
SPLINE
  5
27D
100
AcDbEntity
  8
0
100
AcDbSpline
 62
7
  6
BYLAYER
 70
0
 71
3
 72
25
 73
21
 74
0
 42
0.0000001
 43
0.0000001
 44
0.0000000001
 40
0.0
 40
0.0
 40
0.0
 40
0.0
 40
0.0213324217
 40
0.0428930573
 40
0.06489904
 40
0.087543841
 40
0.135319803
 40
0.1872210167
 40
0.243658406
 40
0.3046059725
 40
0.3696937542
 40
0.4382908931
 40
0.5095768063
 40
0.5826008802
 40
0.6563323179
 40
0.729707773
 40
0.801685081
 40
0.8712728001
 40
0.9376232502
 40
1.0
 40
1.0
 40
1.0
 40
1.0
 10
11.2099693319
 20
36.24062833
 30
0.0
 10
11.14854258
 20
36.2760999991
 30
0.0
 10
11.0294633467
 20
36.3554238054
 30
0.0
 10
10.8660057018
 20
36.4971298527
 30
0.0
 10
10.7182357872
 20
36.6610662115
 30
0.0
 10
10.5400035354
 20
36.9121672132
 30
0.0
 10
10.361632492
 20
37.2811885185
 30
0.0
 10
10.2256444567
 20
37.7846294557
 30
0.0
 10
10.1650404962
 20
38.3462335755
 30
0.0
 10
10.1805176483
 20
38.9543059839
 30
0.0
 10
10.2714016816
 20
39.596346528
 30
0.0
 10
10.435657271
 20
40.2589230041
 30
0.0
 10
10.6697542922
 20
40.9280626622
 30
0.0
 10
10.968711185
 20
41.5895574698
 30
0.0
 10
11.3261544529
 20
42.2293094268
 30
0.0
 10
11.7344692329
 20
42.8336780538
 30
0.0
 10
12.1849470731
 20
43.3897359738
 30
0.0
 10
12.6680275141
 20
43.8857808874
 30
0.0
 10
13.1734254995
 20
44.3110590526
 30
0.0
 10
13.5302966913
 20
44.5495748246
 30
0.0
 10
13.7099196968
 20
44.6532795961
 30
0.0
  0
SPLINE
  5
27E
100
AcDbEntity
  8
0
100
AcDbSpline
 62
7
  6
BYLAYER
 70
0
 71
3
 72
18
 73
14
 74
0
 42
0.0000001
 43
0.0000001
 44
0.0000000001
 40
0.0
 40
0.0
 40
0.0
 40
0.0
 40
0.1141297529
 40
0.237274396
 40
0.3668960228
 40
0.4998926498
 40
0.6328864683
 40
0.698351982
 40
0.7625686357
 40
0.8251529513
 40
0.8857809558
 40
0.9441648123
 40
1.0
 40
1.0
 40
1.0
 40
1.0
 10
17.1748038548
 20
34.4062896109
 30
0.0
 10
17.1748020665
 20
34.6913562557
 30
0.0
 10
17.2270097327
 20
35.2845612504
 30
0.0
 10
17.4351492126
 20
36.1794742782
 30
0.0
 10
17.7685929058
 20
37.0859784413
 30
0.0
 10
18.2148369415
 20
37.9698799523
 30
0.0
 10
18.6693562815
 20
38.6641932275
 30
0.0
 10
19.0753094095
 20
39.1800244109
 30
0.0
 10
19.3945462257
 20
39.539204237
 30
0.0
 10
19.7270714157
 20
39.8691856263
 30
0.0
 10
20.0697536324
 20
40.1669023995
 30
0.0
 10
20.4192970495
 20
40.4293328725
 30
0.0
 10
20.6602392393
 20
40.5827916661
 30
0.0
 10
20.7810169482
 20
40.6525222927
 30
0.0
  0
SPLINE
  5
27F
100
AcDbEntity
  8
0
100
AcDbSpline
 62
7
  6
BYLAYER
 70
0
 71
3
 72
18
 73
14
 74
0
 42
0.0000001
 43
0.0000001
 44
0.0000000001
 40
0.0
 40
0.0
 40
0.0
 40
0.0
 40
0.0558345283
 40
0.1142169741
 40
0.1748436839
 40
0.2374273402
 40
0.3016435056
 40
0.3671086844
 40
0.5001028415
 40
0.6331009258
 40
0.7627243117
 40
0.8858700964
 40
1.0
 40
1.0
 40
1.0
 40
1.0
 10
38.4587600769
 20
22.1181787749
 30
0.0
 10
38.5795363592
 20
22.1879085778
 30
0.0
 10
38.8204748365
 20
22.3413635705
 30
0.0
 10
39.1700112993
 20
22.6037893022
 30
0.0
 10
39.5126883977
 20
22.9014991067
 30
0.0
 10
39.8452098577
 20
23.2314755623
 30
0.0
 10
40.1644469422
 20
23.5906501888
 30
0.0
 10
40.5704001166
 20
24.106479837
 30
0.0
 10
41.0249247524
 20
24.8007939234
 30
0.0
 10
41.4711754217
 20
25.6847021444
 30
0.0
 10
41.8046248618
 20
26.5912158853
 30
0.0
 10
42.012766561
 20
27.4861362062
 30
0.0
 10
42.0649754875
 20
28.0793444211
 30
0.0
 10
42.0649731703
 20
28.3644114414
 30
0.0
  0
SPLINE
  5
280
100
AcDbEntity
  8
0
100
AcDbSpline
 62
7
  6
BYLAYER
 70
0
 71
3
 72
15
 73
11
 74
0
 42
0.0000001
 43
0.0000001
 44
0.0000000001
 40
0.0
 40
0.0
 40
0.0
 40
0.0
 40
0.1080127374
 40
0.2180623886
 40
0.3320018128
 40
0.4513627816
 40
0.5772700077
 40
0.7104927397
 40
0.8514462087
 40
1.0
 40
1.0
 40
1.0
 40
1.0
 10
34.8224199122
 20
21.4535892855
 30
0.0
 10
34.920789958
 20
21.3967967566
 30
0.0
 10
35.1296370912
 20
21.2989703136
 30
0.0
 10
35.4675884456
 20
21.2055503445
 30
0.0
 10
35.8278431098
 20
21.165356775
 30
0.0
 10
36.2065639962
 20
21.1785488726
 30
0.0
 10
36.6001132739
 20
21.2445524914
 30
0.0
 10
37.004868348
 20
21.3625386222
 30
0.0
 10
37.4169162069
 20
21.5312411725
 30
0.0
 10
37.6870701303
 20
21.6726333376
 30
0.0
 10
37.8223613243
 20
21.7507432786
 30
0.0
  0
SPLINE
  5
281
100
AcDbEntity
  8
0
100
AcDbSpline
 62
7
  6
BYLAYER
 70
0
 71
3
 72
15
 73
11
 74
0
 42
0.0000001
 43
0.0000001
 44
0.0000000001
 40
0.0
 40
0.0
 40
0.0
 40
0.0
 40
0.1080125456
 40
0.2180624346
 40
0.3319994014
 40
0.4513582406
 40
0.5772781909
 40
0.7105004906
 40
0.8513961986
 40
1.0
 40
1.0
 40
1.0
 40
1.0
 10
18.4174742888
 20
30.9247747904
 30
0.0
 10
18.3191017721
 20
30.9815687457
 30
0.0
 10
18.1299501733
 20
31.1135226363
 30
0.0
 10
17.8800655786
 20
31.3594919009
 30
0.0
 10
17.6651184426
 20
31.6513821716
 30
0.0
 10
17.4871631591
 20
31.9859721597
 30
0.0
 10
17.3475625064
 20
32.359826194
 30
0.0
 10
17.2473705641
 20
32.7693092472
 30
0.0
 10
17.1873999985
 20
33.2105019707
 30
0.0
 10
17.1747938076
 20
33.515160194
 30
0.0
 10
17.1747926777
 20
33.6714375693
 30
0.0
  0
SPLINE
  5
282
100
AcDbEntity
  8
0
100
AcDbSpline
 62
7
  6
BYLAYER
 70
0
 71
3
 72
9
 73
5
 74
0
 42
0.0000001
 43
0.0000001
 44
0.0000000001
 40
0.0
 40
0.0
 40
0.0
 40
0.0
 40
0.2437789726
 40
1.0
 40
1.0
 40
1.0
 40
1.0
 10
17.1747926777
 20
33.6714375693
 30
0.0
 10
17.1747922496
 20
33.7306590421
 30
0.0
 10
17.1786163234
 20
33.9735823558
 30
0.0
 10
17.1972433259
 20
34.2162123122
 30
0.0
 10
17.2185702309
 20
34.3986797293
 30
0.0
  0
SPLINE
  5
283
100
AcDbEntity
  8
0
100
AcDbSpline
 62
7
  6
BYLAYER
 70
0
 71
3
 72
26
 73
22
 74
0
 42
0.0000001
 43
0.0000001
 44
0.0000000001
 40
0.0
 40
0.0
 40
0.0
 40
0.0
 40
0.0623749251
 40
0.1287161553
 40
0.1983007395
 40
0.2702737188
 40
0.3436458573
 40
0.4173730759
 40
0.4903931554
 40
0.5616754023
 40
0.6302684843
 40
0.6953522617
 40
0.7562966081
 40
0.8127311713
 40
0.8646291897
 40
0.8890142236
 40
0.9124626357
 40
0.9351059155
 40
0.9571099652
 40
0.9786692224
 40
1.0
 40
1.0
 40
1.0
 40
1.0
 10
37.8223613243
 20
31.5487722841
 30
0.0
 10
37.6068065327
 20
31.4243224101
 30
0.0
 10
37.1785641069
 20
31.138119806
 30
0.0
 10
36.5721020046
 20
30.6277785547
 30
0.0
 10
35.99240548
 20
30.0325455505
 30
0.0
 10
35.4518329374
 20
29.365260883
 30
0.0
 10
34.9618506605
 20
28.6400134904
 30
0.0
 10
34.532901619
 20
27.8723104718
 30
0.0
 10
34.1741469169
 20
27.0785112409
 30
0.0
 10
33.8932317335
 20
26.2755371214
 30
0.0
 10
33.6961380267
 20
25.4804337533
 30
0.0
 10
33.5870780266
 20
24.7099952272
 30
0.0
 10
33.5685200164
 20
23.9802550766
 30
0.0
 10
33.641154533
 20
23.3064849481
 30
0.0
 10
33.7801178144
 20
22.792410699
 30
0.0
 10
33.9377417524
 20
22.4263608229
 30
0.0
 10
34.0747473156
 20
22.1801543929
 30
0.0
 10
34.2323283276
 20
21.9580779415
 30
0.0
 10
34.4096866861
 20
21.7614066139
 30
0.0
 10
34.6057932454
 20
21.5913126071
 30
0.0
 10
34.7487048149
 20
21.496147635
 30
0.0
 10
34.8224199122
 20
21.4535892855
 30
0.0
  0
SPLINE
  5
284
100
AcDbEntity
  8
0
100
AcDbSpline
 62
7
  6
BYLAYER
 70
0
 71
3
 72
9
 73
5
 74
0
 42
0.0000001
 43
0.0000001
 44
0.0000000001
 40
0.0
 40
0.0
 40
0.0
 40
0.0
 40
0.2596157209
 40
1.0
 40
1.0
 40
1.0
 40
1.0
 10
42.0649731703
 20
28.3644114414
 30
0.0
 10
42.0649726475
 20
28.4287347261
 30
0.0
 10
42.0600142379
 20
28.6764437357
 30
0.0
 10
42.0344850781
 20
28.9239686895
 30
0.0
 10
42.0017031088
 20
29.1044559021
 30
0.0
  0
SPLINE
  5
285
100
AcDbEntity
  8
0
100
AcDbSpline
 62
7
  6
BYLAYER
 70
0
 71
3
 72
23
 73
19
 74
0
 42
0.0000001
 43
0.0000001
 44
0.0000000001
 40
0.0
 40
0.0
 40
0.0
 40
0.0
 40
0.0686681145
 40
0.1339973469
 40
0.1962452779
 40
0.255797566
 40
0.3131885913
 40
0.3690756675
 40
0.4242200423
 40
0.4794325073
 40
0.535522403
 40
0.5932371048
 40
0.6532162025
 40
0.7159574329
 40
0.781834553
 40
0.8510984624
 40
0.9238547917
 40
1.0
 40
1.0
 40
1.0
 40
1.0
 10
42.0017031088
 20
29.1044559021
 30
0.0
 10
41.9828025881
 20
29.2085162248
 30
0.0
 10
41.936850154
 20
29.4101005641
 30
0.0
 10
41.8400388715
 20
29.697011313
 30
0.0
 10
41.7178247162
 20
29.9587672877
 30
0.0
 10
41.5708609717
 20
30.1932661578
 30
0.0
 10
41.4002377117
 20
30.3986917959
 30
0.0
 10
41.2070876961
 20
30.5732324037
 30
0.0
 10
40.9929881856
 20
30.7154181781
 30
0.0
 10
40.7596839586
 20
30.8239734666
 30
0.0
 10
40.5091754922
 20
30.8980562066
 30
0.0
 10
40.2435442987
 20
30.9371840776
 30
0.0
 10
39.9649285991
 20
30.9412003986
 30
0.0
 10
39.6754498117
 20
30.9103237909
 30
0.0
 10
39.3772271277
 20
30.8448193608
 30
0.0
 10
39.0723712977
 20
30.745313752
 30
0.0
 10
38.7632516255
 20
30.6125776878
 30
0.0
 10
38.560326903
 20
30.505142714
 30
0.0
 10
38.4587600769
 20
30.4465034296
 30
0.0
  0
SPLINE
  5
286
100
AcDbEntity
  8
0
100
AcDbSpline
 62
7
  6
BYLAYER
 70
0
 71
3
 72
15
 73
11
 74
0
 42
0.0000001
 43
0.0000001
 44
0.0000000001
 40
0.0
 40
0.0
 40
0.0
 40
0.0
 40
0.1080127374
 40
0.2180623886
 40
0.3320018128
 40
0.4513627816
 40
0.5772700077
 40
0.7104927397
 40
0.8514462087
 40
1.0
 40
1.0
 40
1.0
 40
1.0
 10
40.8223027364
 20
31.8459262772
 30
0.0
 10
40.7239326906
 20
31.9027188061
 30
0.0
 10
40.5150855573
 20
32.0005452492
 30
0.0
 10
40.177134203
 20
32.0939652182
 30
0.0
 10
39.8168795388
 20
32.1341587877
 30
0.0
 10
39.4381586523
 20
32.1209666901
 30
0.0
 10
39.0446093747
 20
32.0549630714
 30
0.0
 10
38.6398543006
 20
31.9369769406
 30
0.0
 10
38.2278064417
 20
31.7682743902
 30
0.0
 10
37.9576525183
 20
31.6268822251
 30
0.0
 10
37.8223613243
 20
31.5487722841
 30
0.0
  0
ENDSEC
  0
SECTION
  2
OBJECTS
  0
DICTIONARY
  5
C
100
AcDbDictionary
280
0
281
1
  3
ACAD_GROUP
350
D
  3
ACAD_MLINESTYLE
350
17
  3
ACAD_LAYOUT
350
1A
  3
ACAD_PLOTSETTINGS
350
19
  3
ACAD_PLOTSTYLENAME
350
E
  0
DICTIONARY
  5
D
102
{ACAD_REACTORS
330
C
102
}
100
AcDbDictionary
280
0
281
1
  0
ACDBDICTIONARYWDFLT
  5
E
102
{ACAD_REACTORS
330
C
102
}
100
AcDbDictionary
281
1
  3
Normal
350
F
100
AcDbDictionaryWithDefault
340
F
  0
DICTIONARY
  5
17
102
{ACAD_REACTORS
330
C
102
}
100
AcDbDictionary
280
0
281
1
  3
Standard
350
18
  0
DICTIONARY
  5
19
102
{ACAD_REACTORS
330
C
102
}
100
AcDbDictionary
281
1
  0
DICTIONARY
  5
1A
102
{ACAD_REACTORS
330
C
102
}
100
AcDbDictionary
281
1
  3
Model
350
287
  3
Layout1
350
288
  0
ACDBPLACEHOLDER
  5
F
102
{ACAD_REACTORS
330
E
102
}
  0
MLINESTYLE
  5
18
102
{ACAD_REACTORS
330
17
102
}
100
AcDbMlineStyle
  2
STANDARD
 70
0
  3

 62
256
 51
90.0
 52
90.0
 71
2
 49
0.5
 62
256
  6
BYLAYER
 49
-0.5
 62
256
  6
BYLAYER
  0
LAYOUT
  5
287
102
{ACAD_REACTORS
330
1A
102
}
100
AcDbPlotSettings
  1

  2
none_device
  4

  6

 40
0.0
 41
0.0
 42
0.0
 43
0.0
 44
210.0
 45
297.0
 46
0.0
 47
0.0
 48
0.0
 49
0.0
140
0.0
141
0.0
142
1.0
143
1.0
 70
1024
 72
1
 73
0
 74
0
  7

 75
0
147
1.0
148
0.0
149
0.0
100
AcDbLayout
  1
Model
 70
0
 71
0
 10
0.0
 20
0.0
 11
210.0
 21
297.0
 12
0.0
 22
0.0
 32
0.0
 14
0.0
 24
0.0
 34
0.0
 15
0.0
 25
0.0
 35
0.0
146
0.0
 13
0.0
 23
0.0
 33
0.0
 16
1.0
 26
0.0
 36
0.0
 17
0.0
 27
1.0
 37
0.0
 76
0
330
210
345
0
346
0
  0
LAYOUT
  5
288
102
{ACAD_REACTORS
330
1A
102
}
100
AcDbPlotSettings
  1

  2
none_device
  4

  6

 40
0.0
 41
0.0
 42
0.0
 43
0.0
 44
210.0
 45
297.0
 46
0.0
 47
0.0
 48
0.0
 49
0.0
140
0.0
141
0.0
142
1.0
143
1.0
 70
0
 72
1
 73
0
 74
0
  7

 75
0
147
1.0
148
0.0
149
0.0
100
AcDbLayout
  1
Layout1
 70
0
 71
1
 10
0.0
 20
0.0
 11
210.0
 21
297.0
 12
0.0
 22
0.0
 32
0.0
 14
0.0
 24
0.0
 34
0.0
 15
0.0
 25
0.0
 35
0.0
146
0.0
 13
0.0
 23
0.0
 33
0.0
 16
1.0
 26
0.0
 36
0.0
 17
0.0
 27
1.0
 37
0.0
 76
0
330
211
345
0
346
0
  0
ENDSEC
  0
EOF
