999
DXF file: C:\Users\sesa63760\Dev\_Creo\CAD\MCADID0004839_3D-CAD\drw0001_5.dxf
999
Pro/ENGINEER 2019471 by Parametric Technology Corporation
  0
SECTION
  2
HEADER
  9
$ACADVER
  1
AC1024
  9
$DWGCODEPAGE
  3
ANSI_1252
  9
$EXTMAX
 10
65.1360107528
 20
92.1209294933
 30
0.0
  9
$EXTMIN
 10
0.0
 20
0.0
 30
0.0
  9
$LIMMIN
 10
0.0
 20
0.0
  9
$LIMMAX
 10
65.1360107528
 20
92.1209294933
  9
$VIEWCTR
 10
32.5680053764
 20
46.0604647467
  9
$VIEWSIZE
 40
92.1209294933
  9
$CLAYER
  8
0
  9
$LTSCALE
 40
6.0049198485
  9
$CELTYPE
  6
BYLAYER
  9
$DIMSCALE
 40
1.0
  9
$DIMASZ
 40
0.7754286994
  9
$DIMEXO
 40
1.0
  9
$DIMDLI
 40
4.1488537135
  9
$DIMEXE
 40
1.0
  9
$DIMCEN
 40
0.9826232479
  9
$DIMLFAC
 40
1.0
  9
$DIMBLK
  1
_FILLED
  9
$DIMALT
 70
0
  9
$DIMALTF
 40
0.0393700787
  9
$DIMTXT
 40
1.0856001792
  9
$DIMTOL
 70
1
  9
$DIMLIM
 70
0
  9
$DIMTFAC
 40
1.0
  9
$DIMTP
 40
0.01
  9
$DIMTM
 40
0.01
  9
$DIMGAP
 40
0.625
  9
$DIMDSEP
 70
46
  9
$AUNITS
 70
0
  9
$PDMODE
 70
3
  9
$PDSIZE
 40
0.3125
  9
$HANDSEED
  5
2B6
  9
$TILEMODE
 70
1
  9
$MEASUREMENT
 70
1
  9
$INSUNITS
 70
4
  0
ENDSEC
  0
SECTION
  2
CLASSES
  0
CLASS
  1
ACDBDICTIONARYWDFLT
  2
AcDbDictionaryWithDefault
  3
AutoCAD 2000
 90
0
 91
1
280
0
281
0
  0
CLASS
  1
ACDBPLACEHOLDER
  2
AcDbPlaceHolder
  3
AutoCAD 2000
 90
0
 91
1
280
0
281
0
  0
CLASS
  1
LAYOUT
  2
AcDbLayout
  3
AutoCAD 2000
 90
0
 91
0
280
0
281
0
  0
ENDSEC
  0
SECTION
  2
TABLES
  0
TABLE
  2
VPORT
  5
8
100
AcDbSymbolTable
 70
2
  0
VPORT
  5
1F4
100
AcDbSymbolTableRecord
100
AcDbViewportTableRecord
  2
*ACTIVE
 70
0
 10
0.0
 20
0.0
 11
1.0
 21
1.0
 12
32.5680053764
 22
46.0604647467
 13
0.0
 23
0.0
 14
1.0
 24
1.0
 15
0.0
 25
0.0
 16
0.0
 26
0.0
 36
1.0
 17
0.0
 27
0.0
 37
0.0
 40
92.1209294933
 41
0.7070707071
 42
50.0
 43
0.0
 44
0.0
 50
0.0
 51
0.0
 71
0
 72
100
 73
1
 74
1
 75
0
 76
0
 77
0
 78
0
  0
ENDTAB
  0
TABLE
  2
LTYPE
  5
5
100
AcDbSymbolTable
 70
6
  0
LTYPE
  5
14
100
AcDbSymbolTableRecord
100
AcDbLinetypeTableRecord
  2
BYBLOCK
 70
0
  3

 72
65
 73
0
 40
0.0
  0
LTYPE
  5
15
100
AcDbSymbolTableRecord
100
AcDbLinetypeTableRecord
  2
BYLAYER
 70
0
  3

 72
65
 73
0
 40
0.0
  0
LTYPE
  5
16
100
AcDbSymbolTableRecord
100
AcDbLinetypeTableRecord
  2
CONTINUOUS
 70
64
  3
Solid line
 72
65
 73
0
 40
0.0
  0
LTYPE
  5
1F5
100
AcDbSymbolTableRecord
100
AcDbLinetypeTableRecord
  2
CENTER
 70
64
  3
____ _ ____ _ ____ _ ____ _ ____ _ ____ _ ____
 72
65
 73
4
 40
0.6
 49
0.375
 74
0
 49
-0.075
 74
0
 49
0.075
 74
0
 49
-0.075
 74
0
  0
LTYPE
  5
1F6
100
AcDbSymbolTableRecord
100
AcDbLinetypeTableRecord
  2
HIDDEN
 70
64
  3
- - - - - - - - - - - - - - - - - - - -
 72
65
 73
2
 40
0.2
 49
0.1
 74
0
 49
-0.1
 74
0
  0
LTYPE
  5
1F7
100
AcDbSymbolTableRecord
100
AcDbLinetypeTableRecord
  2
PHANTOM
 70
64
  3
_____ _ _ _____ _ _ _____ _ _ _____
 72
65
 73
6
 40
0.8
 49
0.45
 74
0
 49
-0.05
 74
0
 49
0.1
 74
0
 49
-0.05
 74
0
 49
0.1
 74
0
 49
-0.05
 74
0
  0
LTYPE
  5
1F8
100
AcDbSymbolTableRecord
100
AcDbLinetypeTableRecord
  2
DOT
 70
64
  3
. . . . . . . . . . . . . . . . . . . .
 72
65
 73
2
 40
0.2
 49
0.1
 74
0
 49
-0.1
 74
0
  0
LTYPE
  5
1F9
100
AcDbSymbolTableRecord
100
AcDbLinetypeTableRecord
  2
DASHED
 70
64
  3
- - - - - - - - - - - - - - - - - - - -
 72
65
 73
2
 40
0.2
 49
0.1
 74
0
 49
-0.1
 74
0
  0
ENDTAB
  0
TABLE
  2
LAYER
  5
2
100
AcDbSymbolTable
 70
36
  0
LAYER
  5
10
100
AcDbSymbolTableRecord
100
AcDbLayerTableRecord
  2
0
 70
0
 62
7
  6
CONTINUOUS
370
-3
390
F
  0
LAYER
  5
1FA
100
AcDbSymbolTableRecord
100
AcDbLayerTableRecord
  2
DEFAULT_1
 70
0
 62
7
  6
CENTER
370
-3
390
F
  0
LAYER
  5
1FB
100
AcDbSymbolTableRecord
100
AcDbLayerTableRecord
  2
DEFAULT_2
 70
0
 62
7
  6
HIDDEN
370
-3
390
F
  0
LAYER
  5
1FC
100
AcDbSymbolTableRecord
100
AcDbLayerTableRecord
  2
DEFAULT_3
 70
0
 62
7
  6
PHANTOM
370
-3
390
F
  0
LAYER
  5
1FD
100
AcDbSymbolTableRecord
100
AcDbLayerTableRecord
  2
00_COMPONENTS
 70
0
 62
7
  6
CONTINUOUS
370
-3
390
F
  0
LAYER
  5
1FE
100
AcDbSymbolTableRecord
100
AcDbLayerTableRecord
  2
01_1_DEFAULT_DATUMS
 70
0
 62
7
  6
CONTINUOUS
370
-3
390
F
  0
LAYER
  5
1FF
100
AcDbSymbolTableRecord
100
AcDbLayerTableRecord
  2
01_PLANES
 70
0
 62
7
  6
CONTINUOUS
370
-3
390
F
  0
LAYER
  5
200
100
AcDbSymbolTableRecord
100
AcDbLayerTableRecord
  2
02_COORD_SYS
 70
0
 62
7
  6
CONTINUOUS
370
-3
390
F
  0
LAYER
  5
201
100
AcDbSymbolTableRecord
100
AcDbLayerTableRecord
  2
03_AXES
 70
0
 62
7
  6
CONTINUOUS
370
-3
390
F
  0
LAYER
  5
202
100
AcDbSymbolTableRecord
100
AcDbLayerTableRecord
  2
04_POINTS
 70
0
 62
7
  6
CONTINUOUS
370
-3
390
F
  0
LAYER
  5
203
100
AcDbSymbolTableRecord
100
AcDbLayerTableRecord
  2
05_CURVES
 70
0
 62
7
  6
CONTINUOUS
370
-3
390
F
  0
LAYER
  5
204
100
AcDbSymbolTableRecord
100
AcDbLayerTableRecord
  2
06_SURFS
 70
0
 62
7
  6
CONTINUOUS
370
-3
390
F
  0
LAYER
  5
205
100
AcDbSymbolTableRecord
100
AcDbLayerTableRecord
  2
07_COSMETICS
 70
0
 62
7
  6
CONTINUOUS
370
-3
390
F
  0
LAYER
  5
206
100
AcDbSymbolTableRecord
100
AcDbLayerTableRecord
  2
10_NOTES
 70
0
 62
7
  6
CONTINUOUS
370
-3
390
F
  0
LAYER
  5
207
100
AcDbSymbolTableRecord
100
AcDbLayerTableRecord
  2
11_NOTES_PUB
 70
0
 62
7
  6
CONTINUOUS
370
-3
390
F
  0
LAYER
  5
208
100
AcDbSymbolTableRecord
100
AcDbLayerTableRecord
  2
13_REF_GTOL
 70
0
 62
7
  6
CONTINUOUS
370
-3
390
F
  0
LAYER
  5
209
100
AcDbSymbolTableRecord
100
AcDbLayerTableRecord
  2
16_MISC
 70
0
 62
7
  6
CONTINUOUS
370
-3
390
F
  0
LAYER
  5
20A
100
AcDbSymbolTableRecord
100
AcDbLayerTableRecord
  2
17_NO_PRINT
 70
0
 62
7
  6
CONTINUOUS
370
-3
390
F
  0
LAYER
  5
20B
100
AcDbSymbolTableRecord
100
AcDbLayerTableRecord
  2
18_DATUM_CAMS_JOINTS
 70
0
 62
7
  6
CONTINUOUS
370
-3
390
F
  0
LAYER
  5
20C
100
AcDbSymbolTableRecord
100
AcDbLayerTableRecord
  2
19_DATUM_FUNCTIONAL
 70
0
 62
7
  6
CONTINUOUS
370
-3
390
F
  0
LAYER
  5
20D
100
AcDbSymbolTableRecord
100
AcDbLayerTableRecord
  2
20_DATUM_KINEMATIC_SCHEME
 70
0
 62
7
  6
CONTINUOUS
370
-3
390
F
  0
ENDTAB
  0
TABLE
  2
STYLE
  5
3
100
AcDbSymbolTable
 70
1
  0
STYLE
  5
11
100
AcDbSymbolTableRecord
100
AcDbTextStyleTableRecord
  2
STANDARD
 70
0
 40
0.0
 41
1.0
 50
0.0
 71
0
 42
0.2
  3
ARIAL.TTF
  4

  0
STYLE
  5
20E
100
AcDbSymbolTableRecord
100
AcDbTextStyleTableRecord
  2
TEXTSTYLE_1
 70
0
 40
0.0
 41
0.8
 50
0.0
 71
0
 42
0.2
  3
gdt
  4

  0
ENDTAB
  0
TABLE
  2
VIEW
  5
6
100
AcDbSymbolTable
 70
0
  0
ENDTAB
  0
TABLE
  2
UCS
  5
7
100
AcDbSymbolTable
 70
0
  0
ENDTAB
  0
TABLE
  2
APPID
  5
9
100
AcDbSymbolTable
 70
1
  0
APPID
  5
20F
100
AcDbSymbolTableRecord
100
AcDbRegAppTableRecord
  2
ACAD
 70
0
  0
ENDTAB
  0
TABLE
  2
BLOCK_RECORD
  5
1
100
AcDbSymbolTable
 70
0
  0
BLOCK_RECORD
  5
210
100
AcDbSymbolTableRecord
100
AcDbBlockTableRecord
  2
*Model_Space
  0
BLOCK_RECORD
  5
211
100
AcDbSymbolTableRecord
100
AcDbBlockTableRecord
  2
*Paper_Space
  0
BLOCK_RECORD
  5
212
100
AcDbSymbolTableRecord
100
AcDbBlockTableRecord
  2
_FILLED
  0
ENDTAB
  0
TABLE
  2
DIMSTYLE
  5
A
100
AcDbSymbolTable
 70
1
100
AcDbDimStyleTable
 71
0
  0
DIMSTYLE
105
213
100
AcDbSymbolTableRecord
100
AcDbDimStyleTableRecord
  2
STANDARD
 70
0
  3

  4

 40
1.0
 41
0.7754286994
 42
1.0
 43
0.38
 44
1.0
 45
0.0
 46
0.0
 47
0.01
 48
0.01
140
1.0856001792
141
0.09
142
0.0
143
25.4
144
1.0
145
0.0
146
1.0
147
0.625
 71
1
 72
0
 73
0
 74
0
 75
0
 76
0
 77
1
 78
8
 79
2
170
0
171
1
172
0
173
0
174
0
175
0
176
0
177
0
178
0
270
2
179
2
271
2
272
2
273
2
274
2
275
0
280
0
281
0
282
0
283
1
284
8
285
0
286
0
287
3
288
0
340
11
278
46
341
212
342
212
343
212
344
212
  0
ENDTAB
  0
ENDSEC
  0
SECTION
  2
BLOCKS
  0
BLOCK
  5
20
100
AcDbEntity
  8
0
100
AcDbBlockBegin
  2
*Model_Space
 70
0
 10
0.0
 20
0.0
 30
0.0
  3
*Model_Space
  1

  0
ENDBLK
  5
21
100
AcDbEntity
  8
0
100
AcDbBlockEnd
  0
BLOCK
  5
1C
100
AcDbEntity
  8
0
100
AcDbBlockBegin
  2
*Paper_Space
 70
0
 10
0.0
 20
0.0
 30
0.0
  3
*Paper_Space
  1

  0
ENDBLK
  5
1D
100
AcDbEntity
  8
0
100
AcDbBlockEnd
  0
BLOCK
  5
214
100
AcDbEntity
  8
0
100
AcDbBlockBegin
  2
_FILLED
 70
64
 10
0.0
 20
0.0
  3
_FILLED
  1

  0
SOLID
  5
215
100
AcDbEntity
  8
0
  6
BYBLOCK
 62
0
100
AcDbTrace
 10
0.0
 20
0.0
 11
-1.0
 21
0.25
 12
-1.0
 22
-0.25
 13
-1.0
 23
-0.25
  0
ENDBLK
  5
216
100
AcDbEntity
  8
0
  6
BYBLOCK
 62
0
100
AcDbBlockEnd
  0
ENDSEC
  0
SECTION
  2
ENTITIES
  0
LINE
  5
217
100
AcDbEntity
  8
0
100
AcDbLine
 62
7
  6
BYLAYER
 10
22.7498722664
 20
83.8440359917
 11
22.2484915051
 21
83.5541861279
  0
LINE
  5
218
100
AcDbEntity
  8
0
100
AcDbLine
 62
7
  6
BYLAYER
 10
32.2428360364
 20
7.4982245333
 11
24.2429218773
 21
7.4982245333
  0
LINE
  5
219
100
AcDbEntity
  8
0
100
AcDbLine
 62
7
  6
BYLAYER
 10
32.3428789569
 20
7.5982245333
 11
24.1428789569
 21
7.5982245333
  0
LINE
  5
21A
100
AcDbEntity
  8
0
100
AcDbLine
 62
7
  6
BYLAYER
 10
38.2427927104
 20
7.8482245333
 11
18.2429652033
 21
7.8482245333
  0
LINE
  5
21B
100
AcDbEntity
  8
0
100
AcDbLine
 62
7
  6
BYLAYER
 10
22.7529369753
 20
81.8452347409
 11
22.2498612123
 21
81.5542825724
  0
LINE
  5
21C
100
AcDbEntity
  8
0
100
AcDbLine
 62
7
  6
BYLAYER
 10
22.7529755355
 20
80.8447655405
 11
22.2489823634
 21
80.5532810452
  0
LINE
  5
21D
100
AcDbEntity
  8
0
100
AcDbLine
 62
7
  6
BYLAYER
 10
22.7505125914
 20
82.8451354864
 11
22.2497134437
 21
82.5556266958
  0
LINE
  5
21E
100
AcDbEntity
  8
0
100
AcDbLine
 62
7
  6
BYLAYER
 10
22.2484904471
 20
83.5551085538
 11
22.2428789994
 21
83.5482243789
  0
LINE
  5
21F
100
AcDbEntity
  8
0
100
AcDbLine
 62
7
  6
BYLAYER
 10
22.2428789994
 20
82.5478664192
 11
22.2497134391
 21
82.555630361
  0
LINE
  5
220
100
AcDbEntity
  8
0
100
AcDbLine
 62
7
  6
BYLAYER
 10
22.752282004
 20
78.8452986199
 11
22.2499937635
 21
78.554836259
  0
LINE
  5
221
100
AcDbEntity
  8
0
100
AcDbLine
 62
7
  6
BYLAYER
 10
22.7533109087
 20
77.8449417038
 11
22.2493012708
 21
77.5534298899
  0
LINE
  5
222
100
AcDbEntity
  8
0
100
AcDbLine
 62
7
  6
BYLAYER
 10
22.7506190467
 20
79.8444463081
 11
22.2484536016
 21
79.5541427999
  0
LINE
  5
223
100
AcDbEntity
  8
0
100
AcDbLine
 62
7
  6
BYLAYER
 10
33.7345553308
 20
84.3288764639
 11
33.7680170008
 21
84.3482245333
  0
LINE
  5
224
100
AcDbEntity
  8
0
100
AcDbLine
 62
7
  6
BYLAYER
 10
33.7344846695
 20
83.3280747043
 11
34.2364176946
 21
83.6182070433
  0
LINE
  5
225
100
AcDbEntity
  8
0
100
AcDbLine
 62
7
  6
BYLAYER
 10
22.7515228775
 20
76.8444900367
 11
22.2485142868
 21
76.5536515749
  0
LINE
  5
226
100
AcDbEntity
  8
0
100
AcDbLine
 62
7
  6
BYLAYER
 10
22.2428789994
 20
79.5479064907
 11
22.248453285
 21
79.5544356172
  0
LINE
  5
227
100
AcDbEntity
  8
0
100
AcDbLine
 62
7
  6
BYLAYER
 10
22.2428789994
 20
80.5467712497
 11
22.2489816616
 21
80.5538704019
  0
LINE
  5
228
100
AcDbEntity
  8
0
100
AcDbLine
 62
7
  6
BYLAYER
 10
25.4931696755
 20
83.0026369802
 11
25.2432106018
 21
82.7138972617
  0
LINE
  5
229
100
AcDbEntity
  8
0
100
AcDbLine
 62
7
  6
BYLAYER
 10
22.2428789994
 20
77.5466115635
 11
22.2493005484
 21
77.5540097996
  0
LINE
  5
22A
100
AcDbEntity
  8
0
100
AcDbLine
 62
7
  6
BYLAYER
 10
22.2428789994
 20
81.5467525608
 11
22.2498606777
 21
81.5546823438
  0
LINE
  5
22B
100
AcDbEntity
  8
0
100
AcDbLine
 62
7
  6
BYLAYER
 10
22.2428789994
 20
78.5470256224
 11
22.249993447
 21
78.555070314
  0
LINE
  5
22C
100
AcDbEntity
  8
0
100
AcDbLine
 62
7
  6
BYLAYER
 10
33.7343203178
 20
82.3285237135
 11
34.2357957364
 21
82.6184718345
  0
LINE
  5
22D
100
AcDbEntity
  8
0
100
AcDbLine
 62
7
  6
BYLAYER
 10
33.7361763836
 20
81.3291713461
 11
34.236956509
 21
81.6186201402
  0
LINE
  5
22E
100
AcDbEntity
  8
0
100
AcDbLine
 62
7
  6
BYLAYER
 10
33.7342345851
 20
80.3293093435
 11
34.2372438332
 21
80.6201482136
  0
LINE
  5
22F
100
AcDbEntity
  8
0
100
AcDbLine
 62
7
  6
BYLAYER
 10
22.2485125967
 20
76.5551221384
 11
22.2428789995
 21
76.5482240623
  0
LINE
  5
230
100
AcDbEntity
  8
0
100
AcDbLine
 62
7
  6
BYLAYER
 10
33.7334704572
 20
79.3284998928
 11
34.2357624134
 21
79.618964695
  0
LINE
  5
231
100
AcDbEntity
  8
0
100
AcDbLine
 62
7
  6
BYLAYER
 10
33.7359415522
 20
78.328905747
 11
34.2364715105
 21
78.6182227129
  0
LINE
  5
232
100
AcDbEntity
  8
0
100
AcDbLine
 62
7
  6
BYLAYER
 10
33.7350984901
 20
77.3293579035
 11
34.2373128994
 21
77.6196918444
  0
LINE
  5
233
100
AcDbEntity
  8
0
100
AcDbLine
 62
7
  6
BYLAYER
 10
18.2429652033
 20
18.3482245333
 11
38.2427927104
 21
18.3482245333
  0
LINE
  5
234
100
AcDbEntity
  8
0
100
AcDbLine
 62
7
  6
BYLAYER
 10
38.342748652
 20
18.5982245333
 11
18.1430093469
 21
18.5982245333
  0
LINE
  5
235
100
AcDbEntity
  8
0
100
AcDbLine
 62
7
  6
BYLAYER
 10
54.4428789994
 20
18.9482245333
 11
13.4428985508
 21
18.9482245333
  0
LINE
  5
236
100
AcDbEntity
  8
0
100
AcDbLine
 62
7
  6
BYLAYER
 10
54.3694132955
 20
19.9482245333
 11
12.4428789994
 21
19.9482245333
  0
LINE
  5
237
100
AcDbEntity
  8
0
100
AcDbLine
 62
7
  6
BYLAYER
 10
34.2364177181
 20
83.6181879733
 11
34.2428789994
 21
83.6255749129
  0
LINE
  5
238
100
AcDbEntity
  8
0
100
AcDbLine
 62
7
  6
BYLAYER
 10
34.2357965495
 20
82.6178407737
 11
34.2428789994
 21
82.6255752864
  0
LINE
  5
239
100
AcDbEntity
  8
0
100
AcDbLine
 62
7
  6
BYLAYER
 10
12.4428789994
 20
73.3482245333
 11
12.4428789994
 21
19.9482245333
  0
LINE
  5
23A
100
AcDbEntity
  8
0
100
AcDbLine
 62
7
  6
BYLAYER
 10
34.2369566473
 20
81.6185027804
 11
34.2428789994
 21
81.6255747216
  0
LINE
  5
23B
100
AcDbEntity
  8
0
100
AcDbLine
 62
7
  6
BYLAYER
 10
34.2428789994
 20
80.6263570965
 11
34.2372443548
 21
80.6196775125
  0
LINE
  5
23C
100
AcDbEntity
  8
0
100
AcDbLine
 62
7
  6
BYLAYER
 10
34.2364715154
 20
78.6182187455
 11
34.2428789994
 21
78.6255748213
  0
LINE
  5
23D
100
AcDbEntity
  8
0
100
AcDbLine
 62
7
  6
BYLAYER
 10
34.2428789994
 20
79.6267760277
 11
34.2357626998
 21
79.618752399
  0
LINE
  5
23E
100
AcDbEntity
  8
0
100
AcDbLine
 62
7
  6
BYLAYER
 10
34.2373140098
 20
77.6187197277
 11
34.2428789994
 21
77.6255753434
  0
LINE
  5
23F
100
AcDbEntity
  8
0
100
AcDbLine
 62
7
  6
BYLAYER
 10
18.1428789994
 20
18.9482245333
 11
18.1428789994
 21
18.5982245333
  0
LINE
  5
240
100
AcDbEntity
  8
0
100
AcDbLine
 62
7
  6
BYLAYER
 10
18.2428789569
 20
18.3482245333
 11
18.2428789569
 21
7.8482245333
  0
LINE
  5
241
100
AcDbEntity
  8
0
100
AcDbLine
 62
7
  6
BYLAYER
 10
22.2428789994
 20
84.3482245333
 11
22.2428789994
 21
84.1258164044
  0
LINE
  5
242
100
AcDbEntity
  8
0
100
AcDbLine
 62
7
  6
BYLAYER
 10
22.2428789994
 20
83.5476901299
 11
22.2428789994
 21
83.126112338
  0
LINE
  5
243
100
AcDbEntity
  8
0
100
AcDbLine
 62
7
  6
BYLAYER
 10
22.2428789994
 20
82.5476529237
 11
22.2428789994
 21
82.1275044308
  0
LINE
  5
244
100
AcDbEntity
  8
0
100
AcDbLine
 62
7
  6
BYLAYER
 10
22.2428789994
 20
81.5462692744
 11
22.2428789994
 21
81.1275300614
  0
LINE
  5
245
100
AcDbEntity
  8
0
100
AcDbLine
 62
7
  6
BYLAYER
 10
22.2428789994
 20
80.546294905
 11
22.2428789994
 21
80.1261464121
  0
LINE
  5
246
100
AcDbEntity
  8
0
100
AcDbLine
 62
7
  6
BYLAYER
 10
22.2428789994
 20
79.5476869978
 11
22.2428789994
 21
79.1271247851
  0
LINE
  5
247
100
AcDbEntity
  8
0
100
AcDbLine
 62
7
  6
BYLAYER
 10
22.2428789994
 20
78.5466377214
 11
22.2428789994
 21
78.1277243055
  0
LINE
  5
248
100
AcDbEntity
  8
0
100
AcDbLine
 62
7
  6
BYLAYER
 10
22.2428789994
 20
77.5460841897
 11
22.2428789994
 21
77.1266785233
  0
LINE
  5
249
100
AcDbEntity
  8
0
100
AcDbLine
 62
7
  6
BYLAYER
 10
22.2428789994
 20
76.5471609071
 11
22.2428789994
 21
74.3482245333
  0
LINE
  5
24A
100
AcDbEntity
  8
0
100
AcDbLine
 62
7
  6
BYLAYER
 10
23.0678789994
 20
84.8482245333
 11
23.0678789994
 21
84.3482245333
  0
LINE
  5
24B
100
AcDbEntity
  8
0
100
AcDbLine
 62
7
  6
BYLAYER
 10
23.1928789569
 20
18.5982245333
 11
23.1928789569
 21
18.3482245333
  0
LINE
  5
24C
100
AcDbEntity
  8
0
100
AcDbLine
 62
7
  6
BYLAYER
 10
24.1428789569
 20
7.8482245333
 11
24.1428789569
 21
7.5982245333
  0
LINE
  5
24D
100
AcDbEntity
  8
0
100
AcDbLine
 62
7
  6
BYLAYER
 10
31.9930479296
 20
19.9482245333
 11
31.9930479296
 21
73.3482245333
  0
LINE
  5
24E
100
AcDbEntity
  8
0
100
AcDbLine
 62
7
  6
BYLAYER
 10
32.3428789569
 20
7.8482245333
 11
32.3428789569
 21
7.5982245333
  0
LINE
  5
24F
100
AcDbEntity
  8
0
100
AcDbLine
 62
7
  6
BYLAYER
 10
33.2928789569
 20
18.5982245333
 11
33.2928789569
 21
18.3482245333
  0
LINE
  5
250
100
AcDbEntity
  8
0
100
AcDbLine
 62
7
  6
BYLAYER
 10
33.4178789994
 20
84.8482245333
 11
33.4178789994
 21
84.3482245333
  0
LINE
  5
251
100
AcDbEntity
  8
0
100
AcDbLine
 62
7
  6
BYLAYER
 10
34.2428789994
 20
84.0477869026
 11
34.2428789994
 21
83.6257382533
  0
LINE
  5
252
100
AcDbEntity
  8
0
100
AcDbLine
 62
7
  6
BYLAYER
 10
34.2428789994
 20
83.0462745415
 11
34.2428789994
 21
82.6266788813
  0
LINE
  5
253
100
AcDbEntity
  8
0
100
AcDbLine
 62
7
  6
BYLAYER
 10
34.2428789994
 20
82.0471605991
 11
34.2428789994
 21
81.6255748025
  0
LINE
  5
254
100
AcDbEntity
  8
0
100
AcDbLine
 62
7
  6
BYLAYER
 10
34.2428789994
 20
81.0482245333
 11
34.2428789994
 21
80.6266387367
  0
LINE
  5
255
100
AcDbEntity
  8
0
100
AcDbLine
 62
7
  6
BYLAYER
 10
34.2428789994
 20
80.0471204545
 11
34.2428789994
 21
79.6271653776
  0
LINE
  5
256
100
AcDbEntity
  8
0
100
AcDbLine
 62
7
  6
BYLAYER
 10
34.2428789994
 20
79.0466712351
 11
34.2428789994
 21
78.6257556378
  0
LINE
  5
257
100
AcDbEntity
  8
0
100
AcDbLine
 62
7
  6
BYLAYER
 10
34.2428789994
 20
78.0480636325
 11
34.2428789994
 21
77.6261367607
  0
LINE
  5
258
100
AcDbEntity
  8
0
100
AcDbLine
 62
7
  6
BYLAYER
 10
34.2428789994
 20
77.047628264
 11
34.2428789994
 21
76.6273313463
  0
LINE
  5
259
100
AcDbEntity
  8
0
100
AcDbLine
 62
7
  6
BYLAYER
 10
34.2428789994
 20
76.0464099077
 11
34.2428789994
 21
74.3482245333
  0
LINE
  5
25A
100
AcDbEntity
  8
0
100
AcDbLine
 62
7
  6
BYLAYER
 10
34.2428789994
 20
76.0482245333
 11
34.2428789994
 21
76.6255748025
  0
LINE
  5
25B
100
AcDbEntity
  8
0
100
AcDbLine
 62
7
  6
BYLAYER
 10
38.2428789569
 20
18.3482245333
 11
38.2428789569
 21
7.8482245333
  0
LINE
  5
25C
100
AcDbEntity
  8
0
100
AcDbLine
 62
7
  6
BYLAYER
 10
38.3428789994
 20
18.9482245333
 11
38.3428789994
 21
18.5982245333
  0
LINE
  5
25D
100
AcDbEntity
  8
0
100
AcDbLine
 62
7
  6
BYLAYER
 10
22.2428789994
 20
77.1264250258
 11
22.2499620311
 21
77.1184386179
  0
LINE
  5
25E
100
AcDbEntity
  8
0
100
AcDbLine
 62
7
  6
BYLAYER
 10
22.2428789994
 20
81.1270451595
 11
22.2498606784
 21
81.1191177279
  0
LINE
  5
25F
100
AcDbEntity
  8
0
100
AcDbLine
 62
7
  6
BYLAYER
 10
22.2428789994
 20
80.1259313003
 11
22.2497134358
 21
80.1181667629
  0
LINE
  5
260
100
AcDbEntity
  8
0
100
AcDbLine
 62
7
  6
BYLAYER
 10
22.2428789994
 20
78.1271913926
 11
22.2496116646
 21
78.119500614
  0
LINE
  5
261
100
AcDbEntity
  8
0
100
AcDbLine
 62
7
  6
BYLAYER
 10
22.2428789994
 20
82.1270288848
 11
22.2489816625
 21
82.1199299722
  0
LINE
  5
262
100
AcDbEntity
  8
0
100
AcDbLine
 62
7
  6
BYLAYER
 10
22.2428789994
 20
79.1267466627
 11
22.2487049477
 21
79.1198952761
  0
LINE
  5
263
100
AcDbEntity
  8
0
100
AcDbLine
 62
7
  6
BYLAYER
 10
22.2428789994
 20
83.1258939426
 11
22.2484532863
 21
83.119365258
  0
LINE
  5
264
100
AcDbEntity
  8
0
100
AcDbLine
 62
7
  6
BYLAYER
 10
22.248816562
 20
84.1184937292
 11
22.2428789994
 21
84.1255749782
  0
LINE
  5
265
100
AcDbEntity
  8
0
100
AcDbLine
 62
7
  6
BYLAYER
 10
54.4428789994
 20
18.9482245333
 11
50.3728789994
 21
74.3482245333
  0
LINE
  5
266
100
AcDbEntity
  8
0
100
AcDbLine
 62
7
  6
BYLAYER
 10
34.2428789994
 20
76.0482245333
 11
34.2359252425
 21
76.0558721702
  0
LINE
  5
267
100
AcDbEntity
  8
0
100
AcDbLine
 62
7
  6
BYLAYER
 10
25.2429999014
 20
83.2926991129
 11
25.4929893378
 21
83.003985731
  0
LINE
  5
268
100
AcDbEntity
  8
0
100
AcDbLine
 62
7
  6
BYLAYER
 10
34.2372279646
 20
78.0551325057
 11
34.2428789994
 21
78.0482243657
  0
LINE
  5
269
100
AcDbEntity
  8
0
100
AcDbLine
 62
7
  6
BYLAYER
 10
22.2499620753
 20
77.1184716882
 11
22.7376741025
 21
76.8364820784
  0
LINE
  5
26A
100
AcDbEntity
  8
0
100
AcDbLine
 62
7
  6
BYLAYER
 10
22.2487055703
 20
79.1204397783
 11
22.7383893499
 21
78.8372641767
  0
LINE
  5
26B
100
AcDbEntity
  8
0
100
AcDbLine
 62
7
  6
BYLAYER
 10
22.2497134433
 20
80.1181726402
 11
22.7369165567
 21
79.83652424
  0
LINE
  5
26C
100
AcDbEntity
  8
0
100
AcDbLine
 62
7
  6
BYLAYER
 10
22.2496123334
 20
78.1200159606
 11
22.7392581955
 21
77.8368131752
  0
LINE
  5
26D
100
AcDbEntity
  8
0
100
AcDbLine
 62
7
  6
BYLAYER
 10
34.2357965491
 20
80.0559585599
 11
34.2428789994
 21
80.0482240379
  0
LINE
  5
26E
100
AcDbEntity
  8
0
100
AcDbLine
 62
7
  6
BYLAYER
 10
34.2360264699
 20
77.0558318678
 11
34.2428789994
 21
77.048224262
  0
LINE
  5
26F
100
AcDbEntity
  8
0
100
AcDbLine
 62
7
  6
BYLAYER
 10
34.2428789994
 20
79.0470575577
 11
34.2370547036
 21
79.0539054198
  0
LINE
  5
270
100
AcDbEntity
  8
0
100
AcDbLine
 62
7
  6
BYLAYER
 10
34.2428789994
 20
82.0474415022
 11
34.2372443538
 21
82.0541212489
  0
LINE
  5
271
100
AcDbEntity
  8
0
100
AcDbLine
 62
7
  6
BYLAYER
 10
34.2369566469
 20
81.0552965488
 11
34.2428789994
 21
81.0482246082
  0
LINE
  5
272
100
AcDbEntity
  8
0
100
AcDbLine
 62
7
  6
BYLAYER
 10
22.2484536012
 20
83.1196565361
 11
22.7369165572
 21
82.8372751132
  0
LINE
  5
273
100
AcDbEntity
  8
0
100
AcDbLine
 62
7
  6
BYLAYER
 10
22.2498612119
 20
81.1195167636
 11
22.7389511582
 21
80.8366538977
  0
LINE
  5
274
100
AcDbEntity
  8
0
100
AcDbLine
 62
7
  6
BYLAYER
 10
22.248982363
 20
82.1205182908
 11
22.7389511584
 21
81.8371454564
  0
LINE
  5
275
100
AcDbEntity
  8
0
100
AcDbLine
 62
7
  6
BYLAYER
 10
34.2361530908
 20
84.0557611274
 11
34.2428789994
 21
84.0482242192
  0
LINE
  5
276
100
AcDbEntity
  8
0
100
AcDbLine
 62
7
  6
BYLAYER
 10
34.2428789994
 20
83.0467529044
 11
34.2365123575
 21
83.0540953153
  0
LINE
  5
277
100
AcDbEntity
  8
0
100
AcDbLine
 62
7
  6
BYLAYER
 10
12.4428789994
 20
73.3482245333
 11
50.4463447034
 21
73.3482245333
  0
LINE
  5
278
100
AcDbEntity
  8
0
100
AcDbLine
 62
7
  6
BYLAYER
 10
13.4428985508
 20
74.3482245333
 11
50.3728789994
 21
74.3482245333
  0
LINE
  5
279
100
AcDbEntity
  8
0
100
AcDbLine
 62
7
  6
BYLAYER
 10
22.2488171021
 20
84.1189515166
 11
22.7371396631
 21
83.8366746616
  0
LINE
  5
27A
100
AcDbEntity
  8
0
100
AcDbLine
 62
7
  6
BYLAYER
 10
34.2372274096
 20
78.0546503085
 11
33.749351798
 21
78.3366577462
  0
LINE
  5
27B
100
AcDbEntity
  8
0
100
AcDbLine
 62
7
  6
BYLAYER
 10
34.2360262039
 20
77.0556219986
 11
33.7488055002
 21
77.3372826609
  0
LINE
  5
27C
100
AcDbEntity
  8
0
100
AcDbLine
 62
7
  6
BYLAYER
 10
34.2370540741
 20
79.0533543584
 11
33.7473631617
 21
79.3365343912
  0
LINE
  5
27D
100
AcDbEntity
  8
0
100
AcDbLine
 62
7
  6
BYLAYER
 10
34.2357957359
 20
80.0553275016
 11
33.7480833925
 21
80.3373173393
  0
LINE
  5
27E
100
AcDbEntity
  8
0
100
AcDbLine
 62
7
  6
BYLAYER
 10
34.2369565086
 20
81.0551791959
 11
33.7495462595
 21
81.3368996763
  0
LINE
  5
27F
100
AcDbEntity
  8
0
100
AcDbLine
 62
7
  6
BYLAYER
 10
34.2372438328
 20
82.0536511224
 11
33.7480833928
 21
82.3364820143
  0
LINE
  5
280
100
AcDbEntity
  8
0
100
AcDbLine
 62
7
  6
BYLAYER
 10
34.2365116973
 20
83.0535605669
 11
33.748176897
 21
83.3359898374
  0
LINE
  5
281
100
AcDbEntity
  8
0
100
AcDbLine
 62
7
  6
BYLAYER
 10
34.2361529446
 20
84.0556446956
 11
33.7490209587
 21
84.3372407199
  0
LINE
  5
282
100
AcDbEntity
  8
0
100
AcDbLine
 62
7
  6
BYLAYER
 10
22.2429468614
 20
84.3482245333
 11
33.7688365012
 21
84.3482245333
  0
LINE
  5
283
100
AcDbEntity
  8
0
100
AcDbLine
 62
7
  6
BYLAYER
 10
23.0680807519
 20
84.8482245333
 11
33.417677247
 21
84.8482245333
  0
ARC
  5
284
100
AcDbEntity
  8
0
100
AcDbCircle
 62
7
  6
BYLAYER
 10
13.4428789994
 20
73.3482245333
 40
1.0
100
AcDbArc
 50
90.0
 51
180.0
  0
ARC
  5
285
100
AcDbEntity
  8
0
100
AcDbCircle
 62
7
  6
BYLAYER
 10
13.4428789994
 20
19.9482245333
 40
1.0
100
AcDbArc
 50
180.0
 51
270.0
  0
ARC
  5
286
100
AcDbEntity
  8
0
100
AcDbCircle
 62
7
  6
BYLAYER
 10
32.2428789569
 20
7.5982245333
 40
0.1
100
AcDbArc
 50
270.0
 51
360.0
  0
ARC
  5
287
100
AcDbEntity
  8
0
100
AcDbCircle
 62
7
  6
BYLAYER
 10
24.2428789569
 20
7.5982245333
 40
0.1
100
AcDbArc
 50
180.0
 51
270.0
  0
SPLINE
  5
288
100
AcDbEntity
  8
0
100
AcDbSpline
 62
7
  6
BYLAYER
 70
0
 71
3
 72
27
 73
23
 74
0
 42
0.0000001
 43
0.0000001
 44
0.0000000001
 40
0.0
 40
0.0
 40
0.0
 40
0.0
 40
0.1947895877
 40
0.3820932142
 40
0.470669671
 40
0.5547267082
 40
0.6334380993
 40
0.7060593306
 40
0.7718886864
 40
0.8303028249
 40
0.8807264858
 40
0.9226893452
 40
0.9403633455
 40
0.9557802103
 40
0.9689087029
 40
0.9797198694
 40
0.9881936375
 40
0.9915548204
 40
0.994335383
 40
0.9965418194
 40
0.9981890446
 40
1.0
 40
1.0
 40
1.0
 40
1.0
 10
28.2428789994
 20
77.3755748025
 30
0.0
 10
27.8526926568
 20
77.3653648618
 30
0.0
 10
27.0872786187
 20
77.3466968192
 30
0.0
 10
26.1445659052
 20
77.3185947062
 30
0.0
 10
25.4236106284
 20
77.2982339854
 30
0.0
 10
24.9201766081
 20
77.2836260883
 30
0.0
 10
24.4487426114
 20
77.2685394436
 30
0.0
 10
24.0138714575
 20
77.2529261864
 30
0.0
 10
23.6197241757
 20
77.2367317332
 30
0.0
 10
23.2700955692
 20
77.2206108116
 30
0.0
 10
22.9683148753
 20
77.2051632224
 30
0.0
 10
22.7481540197
 20
77.1921521421
 30
0.0
 10
22.5981269126
 20
77.1816515433
 30
0.0
 10
22.5058046032
 20
77.1742625335
 30
0.0
 10
22.4272890541
 20
77.1668618138
 30
0.0
 10
22.3627558568
 20
77.1593789219
 30
0.0
 10
22.3178808996
 20
77.1526872526
 30
0.0
 10
22.2891042653
 20
77.1469963843
 30
0.0
 10
22.2729186062
 20
77.1431125335
 30
0.0
 10
22.2599832893
 20
77.1390815089
 30
0.0
 10
22.2500995705
 20
77.134978326
 30
0.0
 10
22.2428770102
 20
77.1300403669
 30
0.0
 10
22.2428793673
 20
77.1264115704
 30
0.0
  0
SPLINE
  5
289
100
AcDbEntity
  8
0
100
AcDbSpline
 62
7
  6
BYLAYER
 70
0
 71
3
 72
23
 73
19
 74
0
 42
0.0000001
 43
0.0000001
 44
0.0000000001
 40
0.0
 40
0.0
 40
0.0
 40
0.0
 40
0.0036711132
 40
0.009497094
 40
0.0175175497
 40
0.0277375303
 40
0.0401400493
 40
0.054699617
 40
0.0901758987
 40
0.1338674456
 40
0.1853791596
 40
0.2442555195
 40
0.3099575535
 40
0.3819004227
 40
0.4594299594
 40
0.6284080889
 40
0.8107997434
 40
1.0
 40
1.0
 40
1.0
 40
1.0
 10
22.2498726988
 20
81.5547199323
 30
0.0
 10
22.2562421627
 20
81.5583744175
 30
0.0
 10
22.2745509904
 20
81.564249018
 30
0.0
 10
22.3086772383
 20
81.5718177037
 30
0.0
 10
22.3562940666
 20
81.579343593
 30
0.0
 10
22.4171146751
 20
81.5868533424
 30
0.0
 10
22.4911329428
 20
81.5942574684
 30
0.0
 10
22.6155899789
 20
81.6047285455
 30
0.0
 10
22.8026773839
 20
81.6171283195
 30
0.0
 10
23.0636931543
 20
81.6313132841
 30
0.0
 10
23.3715513269
 20
81.6460345143
 30
0.0
 10
23.723450078
 20
81.6614545763
 30
0.0
 10
24.1162431756
 20
81.6771282223
 30
0.0
 10
24.5463777753
 20
81.6927401036
 30
0.0
 10
25.1830458182
 20
81.7134077212
 30
0.0
 10
26.0406585309
 20
81.7369794076
 30
0.0
 10
27.1215568221
 20
81.7668208732
 30
0.0
 10
27.8645622862
 20
81.787799477
 30
0.0
 10
28.2428789994
 20
81.7982245333
 30
0.0
  0
SPLINE
  5
28A
100
AcDbEntity
  8
0
100
AcDbSpline
 62
7
  6
BYLAYER
 70
0
 71
3
 72
27
 73
23
 74
0
 42
0.0000001
 43
0.0000001
 44
0.0000000001
 40
0.0
 40
0.0
 40
0.0
 40
0.0
 40
0.1947975921
 40
0.3821272324
 40
0.4707161738
 40
0.5547846606
 40
0.6335045517
 40
0.7061308063
 40
0.7719608492
 40
0.8303759676
 40
0.8808037487
 40
0.9227735346
 40
0.9404515451
 40
0.9558700906
 40
0.9689982419
 40
0.9798068837
 40
0.9882731782
 40
0.9916277558
 40
0.9943997339
 40
0.9965953531
 40
0.998228952
 40
1.0
 40
1.0
 40
1.0
 40
1.0
 10
28.2428789994
 20
78.3755748025
 30
0.0
 10
27.8526951257
 20
78.3658599285
 30
0.0
 10
27.0872716156
 20
78.3473102359
 30
0.0
 10
26.144524392
 20
78.3197601716
 30
0.0
 10
25.423569562
 20
78.2979294647
 30
0.0
 10
24.9201394815
 20
78.2823709234
 30
0.0
 10
24.4486857786
 20
78.2675424886
 30
0.0
 10
24.0137892149
 20
78.2528541053
 30
0.0
 10
23.6196226609
 20
78.2375908195
 30
0.0
 10
23.2699913875
 20
78.2218474219
 30
0.0
 10
22.9682445589
 20
78.2057015453
 30
0.0
 10
22.7481276653
 20
78.191767655
 30
0.0
 10
22.598120097
 20
78.1808153325
 30
0.0
 10
22.5058069504
 20
78.1732762233
 30
0.0
 10
22.4273002798
 20
78.1658871926
 30
0.0
 10
22.3627734963
 20
78.1585800564
 30
0.0
 10
22.3178975754
 20
78.1521867832
 30
0.0
 10
22.2891101039
 20
78.1467935091
 30
0.0
 10
22.2729358483
 20
78.1431249545
 30
0.0
 10
22.2599910128
 20
78.1393105174
 30
0.0
 10
22.2501892386
 20
78.1354458193
 30
0.0
 10
22.2428808475
 20
78.1307427734
 30
0.0
 10
22.2428791207
 20
78.1271942263
 30
0.0
  0
SPLINE
  5
28B
100
AcDbEntity
  8
0
100
AcDbSpline
 62
7
  6
BYLAYER
 70
0
 71
3
 72
23
 73
19
 74
0
 42
0.0000001
 43
0.0000001
 44
0.0000000001
 40
0.0
 40
0.0
 40
0.0
 40
0.0
 40
0.1894187675
 40
0.3719933067
 40
0.5411076412
 40
0.6186821629
 40
0.6906520421
 40
0.7563614124
 40
0.8152252876
 40
0.8667019148
 40
0.9103363138
 40
0.9457319006
 40
0.9602419571
 40
0.9725875484
 40
0.9827415798
 40
0.9906860169
 40
0.9964256141
 40
1.0
 40
1.0
 40
1.0
 40
1.0
 10
28.2428789994
 20
83.3755748025
 30
0.0
 10
28.6216582111
 20
83.3859295916
 30
0.0
 10
29.3655582042
 20
83.4052299399
 30
0.0
 10
30.4475988184
 20
83.4351154482
 30
0.0
 10
31.3059408792
 20
83.4604767131
 30
0.0
 10
31.9430635598
 20
83.481148314
 30
0.0
 10
32.373403153
 20
83.4961967287
 30
0.0
 10
32.766289573
 20
83.5112204745
 30
0.0
 10
33.1181488161
 20
83.5262063568
 30
0.0
 10
33.425807433
 20
83.5411390045
 30
0.0
 10
33.6864563229
 20
83.5560023459
 30
0.0
 10
33.8731413105
 20
83.5689603585
 30
0.0
 10
33.9972085711
 20
83.5796774465
 30
0.0
 10
34.0708798892
 20
83.5871323763
 30
0.0
 10
34.1313105954
 20
83.5945565479
 30
0.0
 10
34.1785106565
 20
83.6018240159
 30
0.0
 10
34.2121683579
 20
83.6090627427
 30
0.0
 10
34.2301962857
 20
83.6146424572
 30
0.0
 10
34.2364057147
 20
83.6181879298
 30
0.0
  0
SPLINE
  5
28C
100
AcDbEntity
  8
0
100
AcDbSpline
 62
7
  6
BYLAYER
 70
0
 71
3
 72
28
 73
24
 74
0
 42
0.0000001
 43
0.0000001
 44
0.0000000001
 40
0.0
 40
0.0
 40
0.0
 40
0.0
 40
0.1947913071
 40
0.2898572522
 40
0.3821136994
 40
0.4706996574
 40
0.5547657761
 40
0.6334846827
 40
0.7061095218
 40
0.7719356171
 40
0.8303445658
 40
0.8807676727
 40
0.9227385298
 40
0.9404207591
 40
0.9558469041
 40
0.9689842114
 40
0.9798010008
 40
0.9882719267
 40
0.9943967696
 40
0.9965887061
 40
0.9982145695
 40
0.9993095966
 40
1.0
 40
1.0
 40
1.0
 40
1.0
 10
28.2428789994
 20
79.3755748025
 30
0.0
 10
27.8527153489
 20
79.3652124142
 30
0.0
 10
27.2721108237
 20
79.3507668483
 30
0.0
 10
26.5067399521
 20
79.3305725918
 30
0.0
 10
25.9541223235
 20
79.3150700611
 30
0.0
 10
25.4235744731
 20
79.2988801713
 30
0.0
 10
24.920167927
 20
79.2826087062
 30
0.0
 10
24.4487417944
 20
79.2668844418
 30
0.0
 10
24.0138666588
 20
79.251670683
 30
0.0
 10
23.6196963412
 20
79.2369128878
 30
0.0
 10
23.2700454637
 20
79.2221188406
 30
0.0
 10
22.968272429
 20
79.2067111295
 30
0.0
 10
22.7481357356
 20
79.1929285957
 30
0.0
 10
22.5981354745
 20
79.181465959
 30
0.0
 10
22.5058224406
 20
79.1734008285
 30
0.0
 10
22.4273160585
 20
79.1654534336
 30
0.0
 10
22.3627997248
 20
79.1577179068
 30
0.0
 10
22.3124267905
 20
79.1502829799
 30
0.0
 10
22.27936852
 20
79.1438602092
 30
0.0
 10
22.2601763077
 20
79.138469456
 30
0.0
 10
22.2509962351
 20
79.1348185335
 30
0.0
 10
22.2450381712
 20
79.1314680361
 30
0.0
 10
22.2428800111
 20
79.1281221928
 30
0.0
 10
22.2428791651
 20
79.1267388392
 30
0.0
  0
SPLINE
  5
28D
100
AcDbEntity
  8
0
100
AcDbSpline
 62
7
  6
BYLAYER
 70
0
 71
3
 72
24
 73
20
 74
0
 42
0.0000001
 43
0.0000001
 44
0.0000000001
 40
0.0
 40
0.0
 40
0.0
 40
0.0
 40
0.0035183609
 40
0.0092086487
 40
0.0171088035
 40
0.0272227564
 40
0.0395317842
 40
0.0540079865
 40
0.0893424174
 40
0.1329274028
 40
0.184370535
 40
0.2432185007
 40
0.3089288136
 40
0.3809148662
 40
0.4585199548
 40
0.5410476035
 40
0.6277307919
 40
0.8104364183
 40
1.0
 40
1.0
 40
1.0
 40
1.0
 10
22.2489916756
 20
80.5538013029
 30
0.0
 10
22.2550801886
 20
80.5573335216
 30
0.0
 10
22.272890849
 20
80.5629155628
 30
0.0
 10
22.3062148691
 20
80.5702742386
 30
0.0
 10
22.3531149536
 20
80.5777682754
 30
0.0
 10
22.4132642326
 20
80.5855303894
 30
0.0
 10
22.486682349
 20
80.5933588099
 30
0.0
 10
22.6104546446
 20
80.6045647113
 30
0.0
 10
22.7968600642
 20
80.6177053799
 30
0.0
 10
23.0572748665
 20
80.632052553
 30
0.0
 10
23.3647959465
 20
80.6463184659
 30
0.0
 10
23.7166112214
 20
80.6608182454
 30
0.0
 10
24.1095362669
 20
80.6758504236
 30
0.0
 10
24.5399895877
 20
80.6915196623
 30
0.0
 10
25.0041062149
 20
80.7072734738
 30
0.0
 10
25.4976518601
 20
80.7227251492
 30
0.0
 10
26.2014181557
 20
80.7428782058
 30
0.0
 10
27.1193204991
 20
80.766044579
 30
0.0
 10
27.863780501
 20
80.7876399953
 30
0.0
 10
28.2428789994
 20
80.7982245333
 30
0.0
  0
SPLINE
  5
28E
100
AcDbEntity
  8
0
100
AcDbSpline
 62
7
  6
BYLAYER
 70
0
 71
3
 72
23
 73
19
 74
0
 42
0.0000001
 43
0.0000001
 44
0.0000000001
 40
0.0
 40
0.0
 40
0.0
 40
0.0
 40
0.1897766228
 40
0.3726654184
 40
0.5420174468
 40
0.6196684824
 40
0.6916818626
 40
0.7574000277
 40
0.8162361535
 40
0.8676455634
 40
0.9111722549
 40
0.9464170976
 40
0.9608357535
 40
0.973079619
 40
0.9831219725
 40
0.9909457697
 40
0.9965570513
 40
1.0
 40
1.0
 40
1.0
 40
1.0
 10
28.2428789994
 20
83.7982245333
 30
0.0
 10
27.8633144824
 20
83.7881303269
 30
0.0
 10
27.1179590648
 20
83.7683985351
 30
0.0
 10
26.0339183797
 20
83.7385844348
 30
0.0
 10
25.1741796642
 20
83.7131550159
 30
0.0
 10
24.5362382859
 20
83.6924299927
 30
0.0
 10
24.1055712106
 20
83.6773556413
 30
0.0
 10
23.7125723173
 20
83.6623033268
 30
0.0
 10
23.3608292588
 20
83.6472870807
 30
0.0
 10
23.0535274534
 20
83.6323247291
 30
0.0
 10
22.7934902162
 20
83.6174336666
 30
0.0
 10
22.6074771726
 20
83.6044493006
 30
0.0
 10
22.4840832502
 20
83.593704094
 30
0.0
 10
22.4110118673
 20
83.5862376537
 30
0.0
 10
22.3512510488
 20
83.5788005723
 30
0.0
 10
22.3047598856
 20
83.5715335512
 30
0.0
 10
22.2719018054
 20
83.564286182
 30
0.0
 10
22.2543735961
 20
83.5587072521
 30
0.0
 10
22.2484997914
 20
83.5551085918
 30
0.0
  0
SPLINE
  5
28F
100
AcDbEntity
  8
0
100
AcDbSpline
 62
7
  6
BYLAYER
 70
0
 71
3
 72
10
 73
6
 74
0
 42
0.0000001
 43
0.0000001
 44
0.0000000001
 40
0.0
 40
0.0
 40
0.0
 40
0.0
 40
0.2346183455
 40
0.609823603
 40
1.0
 40
1.0
 40
1.0
 40
1.0
 10
25.2428790265
 20
83.29224147
 30
0.0
 10
25.4774722229
 20
83.2996076138
 30
0.0
 10
26.0872844411
 20
83.316986839
 30
0.0
 10
27.0872667931
 20
83.34539042
 30
0.0
 10
27.8526979183
 20
83.3648282024
 30
0.0
 10
28.2428789994
 20
83.3754946875
 30
0.0
  0
SPLINE
  5
290
100
AcDbEntity
  8
0
100
AcDbSpline
 62
7
  6
BYLAYER
 70
0
 71
3
 72
23
 73
19
 74
0
 42
0.0000001
 43
0.0000001
 44
0.0000000001
 40
0.0
 40
0.0
 40
0.0
 40
0.0
 40
0.1891743916
 40
0.3715291433
 40
0.5404824981
 40
0.6180040398
 40
0.6899423635
 40
0.7556448614
 40
0.814528797
 40
0.8660535578
 40
0.9097647091
 40
0.9452646156
 40
0.9598366383
 40
0.9722510415
 40
0.9824809474
 40
0.9905077941
 40
0.9963352704
 40
1.0
 40
1.0
 40
1.0
 40
1.0
 10
28.2428789994
 20
82.3755748025
 30
0.0
 10
28.6211429436
 20
82.385240242
 30
0.0
 10
29.3640025865
 20
82.4054554925
 30
0.0
 10
30.4446744068
 20
82.4349870248
 30
0.0
 10
31.3020478364
 20
82.4603494575
 30
0.0
 10
31.9386045622
 20
82.4810099877
 30
0.0
 10
32.3687116908
 20
82.4960269279
 30
0.0
 10
32.7615160475
 20
82.5110265088
 30
0.0
 10
33.1134574364
 20
82.5259941683
 30
0.0
 10
33.4213708666
 20
82.540908911
 30
0.0
 10
33.6824494194
 20
82.5557534811
 30
0.0
 10
33.8696004147
 20
82.5686933172
 30
0.0
 10
33.9941270298
 20
82.5793915145
 30
0.0
 10
34.0682047011
 20
82.5868383394
 30
0.0
 10
34.1290896908
 20
82.5942533668
 30
0.0
 10
34.176774729
 20
82.6015198238
 30
0.0
 10
34.2109766998
 20
82.608751847
 30
0.0
 10
34.2293512175
 20
82.6143306006
 30
0.0
 10
34.2357863378
 20
82.6178407527
 30
0.0
  0
SPLINE
  5
291
100
AcDbEntity
  8
0
100
AcDbSpline
 62
7
  6
BYLAYER
 70
0
 71
3
 72
24
 73
20
 74
0
 42
0.0000001
 43
0.0000001
 44
0.0000000001
 40
0.0
 40
0.0
 40
0.0
 40
0.0
 40
0.0034123354
 40
0.0090045988
 40
0.016821395
 40
0.0268601473
 40
0.0390998928
 40
0.0535163039
 40
0.0887659535
 40
0.132289139
 40
0.1836972964
 40
0.2425268483
 40
0.3082473705
 40
0.3802669875
 40
0.4579277365
 40
0.5405258392
 40
0.6272926893
 40
0.8102070646
 40
1.0
 40
1.0
 40
1.0
 40
1.0
 10
22.2484757054
 20
79.5544399713
 30
0.0
 10
22.2543674481
 20
79.5578892271
 30
0.0
 10
22.271869132
 20
79.5631651463
 30
0.0
 10
22.3046770191
 20
79.5701093886
 30
0.0
 10
22.3511314285
 20
79.5771883248
 30
0.0
 10
22.4108650626
 20
79.5845936346
 30
0.0
 10
22.4839047188
 20
79.5921511422
 30
0.0
 10
22.607267223
 20
79.6031854176
 30
0.0
 10
22.7932298138
 20
79.6167880271
 30
0.0
 10
23.0532266043
 20
79.6323231046
 30
0.0
 10
23.3605043239
 20
79.6472323533
 30
0.0
 10
23.7122568704
 20
79.6616010278
 30
0.0
 10
24.10527701
 20
79.6759772509
 30
0.0
 10
24.5359847997
 20
79.6906763397
 30
0.0
 10
25.0004572657
 20
79.7060194507
 30
0.0
 10
25.4944311261
 20
79.7219644966
 30
0.0
 10
26.198928829
 20
79.7431328075
 30
0.0
 10
27.1178904016
 20
79.7674573021
 30
0.0
 10
27.8632850826
 20
79.7882919522
 30
0.0
 10
28.2428789994
 20
79.7982245333
 30
0.0
  0
SPLINE
  5
292
100
AcDbEntity
  8
0
100
AcDbSpline
 62
7
  6
BYLAYER
 70
0
 71
3
 72
23
 73
19
 74
0
 42
0.0000001
 43
0.0000001
 44
0.0000000001
 40
0.0
 40
0.0
 40
0.0
 40
0.0
 40
0.0016349192
 40
0.0054167475
 40
0.0115241519
 40
0.0199739702
 40
0.0307597697
 40
0.0438685
 40
0.0769669633
 40
0.1189348362
 40
0.1693509762
 40
0.2277818906
 40
0.2936551
 40
0.3662913875
 40
0.4450071565
 40
0.6176854863
 40
0.8052867714
 40
1.0
 40
1.0
 40
1.0
 40
1.0
 10
32.0155394831
 20
18.9482245333
 30
0.0
 10
32.0149939141
 20
18.9482245333
 30
0.0
 10
32.0139805388
 20
18.9503081154
 30
0.0
 10
32.0131578031
 20
18.9536665443
 30
0.0
 10
32.0120505613
 20
18.9599020045
 30
0.0
 10
32.0110355385
 20
18.9682085221
 30
0.0
 10
32.0099684395
 20
18.9789841581
 30
0.0
 10
32.0084570064
 20
18.9979269879
 30
0.0
 10
32.0066856956
 20
19.0273100732
 30
0.0
 10
32.0047450737
 20
19.0691343625
 30
0.0
 10
32.002890855
 20
19.1194290486
 30
0.0
 10
32.0011480817
 20
19.177706558
 30
0.0
 10
31.9995359128
 20
19.2434058045
 30
0.0
 10
31.998069824
 20
19.3158787183
 30
0.0
 10
31.9962796307
 20
19.4239923596
 30
0.0
 10
31.9945622633
 20
19.5704750015
 30
0.0
 10
31.993327182
 20
19.7556714127
 30
0.0
 10
31.9930479296
 20
19.8832491446
 30
0.0
 10
31.9930479296
 20
19.9482245333
 30
0.0
  0
SPLINE
  5
293
100
AcDbEntity
  8
0
100
AcDbSpline
 62
7
  6
BYLAYER
 70
0
 71
3
 72
23
 73
19
 74
0
 42
0.0000001
 43
0.0000001
 44
0.0000000001
 40
0.0
 40
0.0
 40
0.0
 40
0.0
 40
0.0036901882
 40
0.0095325566
 40
0.017567665
 40
0.0278008889
 40
0.0402154628
 40
0.0547863629
 40
0.0902841278
 40
0.133993415
 40
0.1855182998
 40
0.2444018591
 40
0.3101043467
 40
0.3820416143
 40
0.4595608195
 40
0.6285080399
 40
0.8108542036
 40
1.0
 40
1.0
 40
1.0
 40
1.0
 10
22.2500073137
 20
78.5551397607
 30
0.0
 10
22.2564180604
 20
78.5587983947
 30
0.0
 10
22.274803199
 20
78.5646654007
 30
0.0
 10
22.3090455563
 20
78.5721730311
 30
0.0
 10
22.3567679568
 20
78.5795846764
 30
0.0
 10
22.4176872127
 20
78.5869287751
 30
0.0
 10
22.4917933561
 20
78.5941579412
 30
0.0
 10
22.6163539205
 20
78.6044085688
 30
0.0
 10
22.8035372997
 20
78.6167549733
 30
0.0
 10
23.0646332652
 20
78.6312166889
 30
0.0
 10
23.3725404267
 20
78.646277258
 30
0.0
 10
23.7244586526
 20
78.6619221854
 30
0.0
 10
24.1172450448
 20
78.677526282
 30
0.0
 10
24.5473475565
 20
78.6927434218
 30
0.0
 10
25.1839127591
 20
78.7129686648
 30
0.0
 10
26.0413149713
 20
78.7367340381
 30
0.0
 10
27.1218927594
 20
78.767294242
 30
0.0
 10
27.8646745291
 20
78.7881796049
 30
0.0
 10
28.2428789994
 20
78.7982245333
 30
0.0
  0
SPLINE
  5
294
100
AcDbEntity
  8
0
100
AcDbSpline
 62
7
  6
BYLAYER
 70
0
 71
3
 72
27
 73
23
 74
0
 42
0.0000001
 43
0.0000001
 44
0.0000000001
 40
0.0
 40
0.0
 40
0.0
 40
0.0
 40
0.1947947666
 40
0.3821101393
 40
0.4706933465
 40
0.5547575094
 40
0.6334766857
 40
0.7061030264
 40
0.7719313539
 40
0.8303424128
 40
0.8807674646
 40
0.9227393893
 40
0.9404214441
 40
0.9558475603
 40
0.9689845603
 40
0.9798003367
 40
0.9882704481
 40
0.9943953239
 40
0.9965874095
 40
0.998213455
 40
0.9993087726
 40
1.0
 40
1.0
 40
1.0
 40
1.0
 10
28.2428789994
 20
78.7982245333
 30
0.0
 10
28.6330501868
 20
78.808587292
 30
0.0
 10
29.3984441084
 20
78.8276439816
 30
0.0
 10
30.341231767
 20
78.852938124
 30
0.0
 10
31.0621524982
 20
78.8749029662
 30
0.0
 10
31.5655517151
 20
78.8911506446
 30
0.0
 10
32.0369768322
 20
78.9069172447
 30
0.0
 10
32.4718592352
 20
78.9221711114
 30
0.0
 10
32.8660431494
 20
78.9368938477
 30
0.0
 10
33.215708125
 20
78.9516676051
 30
0.0
 10
33.5174912337
 20
78.9670900608
 30
0.0
 10
33.7376332108
 20
78.9808840126
 30
0.0
 10
33.8876353935
 20
78.9923469371
 30
0.0
 10
33.9799481663
 20
79.0004046556
 30
0.0
 10
34.0584531056
 20
79.0083403704
 30
0.0
 10
34.1229672876
 20
79.016058069
 30
0.0
 10
34.1733388444
 20
79.0234791989
 30
0.0
 10
34.2063963579
 20
79.0298994067
 30
0.0
 10
34.2255888452
 20
79.0352936363
 30
0.0
 10
34.234768109
 20
79.0389486759
 30
0.0
 10
34.2407271295
 20
79.0423058106
 30
0.0
 10
34.2428795722
 20
79.0456581242
 30
0.0
 10
34.2428786312
 20
79.0470431309
 30
0.0
  0
SPLINE
  5
295
100
AcDbEntity
  8
0
100
AcDbSpline
 62
7
  6
BYLAYER
 70
0
 71
3
 72
23
 73
19
 74
0
 42
0.0000001
 43
0.0000001
 44
0.0000000001
 40
0.0
 40
0.0
 40
0.0
 40
0.0
 40
0.0035758813
 40
0.0093178746
 40
0.0172642256
 40
0.0274191035
 40
0.0397640712
 40
0.0542719206
 40
0.0896583659
 40
0.1332808032
 40
0.1847479806
 40
0.2436062108
 40
0.3093137173
 40
0.3812839546
 40
0.4588605505
 40
0.6279827745
 40
0.8105713589
 40
1.0
 40
1.0
 40
1.0
 40
1.0
 10
22.2493105446
 20
77.5539719172
 30
0.0
 10
22.2555039812
 20
77.5575518663
 30
0.0
 10
22.2734968038
 20
77.5632609635
 30
0.0
 10
22.3071180653
 20
77.5707392487
 30
0.0
 10
22.3542829982
 20
77.5783084092
 30
0.0
 10
22.4146810081
 20
77.5860565333
 30
0.0
 10
22.4883218372
 20
77.5938054097
 30
0.0
 10
22.612344889
 20
77.6048272594
 30
0.0
 10
22.7990027632
 20
77.6176867253
 30
0.0
 10
23.0596436604
 20
77.6318026313
 30
0.0
 10
23.3672923361
 20
77.6460694374
 30
0.0
 10
23.719141546
 20
77.6608396666
 30
0.0
 10
24.112017919
 20
77.6761882022
 30
0.0
 10
24.542348278
 20
77.6920520821
 30
0.0
 10
25.1794942336
 20
77.7135222046
 30
0.0
 10
26.0379480178
 20
77.7380880565
 30
0.0
 10
27.1201495018
 20
77.7661101215
 30
0.0
 10
27.8640719246
 20
77.7875583722
 30
0.0
 10
28.2428789994
 20
77.7982245333
 30
0.0
  0
SPLINE
  5
296
100
AcDbEntity
  8
0
100
AcDbSpline
 62
7
  6
BYLAYER
 70
0
 71
3
 72
23
 73
19
 74
0
 42
0.0000001
 43
0.0000001
 44
0.0000000001
 40
0.0
 40
0.0
 40
0.0
 40
0.0
 40
0.1947132286
 40
0.3823145137
 40
0.5549928435
 40
0.6337086125
 40
0.7063449
 40
0.7722181094
 40
0.8306490238
 40
0.8810651638
 40
0.9230330367
 40
0.9561315
 40
0.9692402303
 40
0.9800260298
 40
0.9884758481
 40
0.9945832525
 40
0.9983650808
 40
1.0
 40
1.0
 40
1.0
 40
1.0
 10
31.9930479296
 20
73.3482245333
 30
0.0
 10
31.9930479296
 20
73.413199922
 30
0.0
 10
31.993327182
 20
73.540777654
 30
0.0
 10
31.9945622633
 20
73.7259740651
 30
0.0
 10
31.9962796307
 20
73.872456707
 30
0.0
 10
31.998069824
 20
73.9805703484
 30
0.0
 10
31.9995359128
 20
74.0530432621
 30
0.0
 10
32.0011480817
 20
74.1187425086
 30
0.0
 10
32.002890855
 20
74.177020018
 30
0.0
 10
32.0047450737
 20
74.2273147041
 30
0.0
 10
32.0066856956
 20
74.2691389934
 30
0.0
 10
32.0084570064
 20
74.2985220787
 30
0.0
 10
32.0099684395
 20
74.3174649085
 30
0.0
 10
32.0110355385
 20
74.3282405445
 30
0.0
 10
32.0120505613
 20
74.3365470621
 30
0.0
 10
32.0131578031
 20
74.3427825224
 30
0.0
 10
32.0139805388
 20
74.3461409512
 30
0.0
 10
32.0149939141
 20
74.3482245333
 30
0.0
 10
32.0155394831
 20
74.3482245333
 30
0.0
  0
SPLINE
  5
297
100
AcDbEntity
  8
0
100
AcDbSpline
 62
7
  6
BYLAYER
 70
0
 71
3
 72
27
 73
23
 74
0
 42
0.0000001
 43
0.0000001
 44
0.0000000001
 40
0.0
 40
0.0
 40
0.0
 40
0.0
 40
0.0007162974
 40
0.001828879
 40
0.0034666644
 40
0.005666984
 40
0.011801286
 40
0.0202745908
 40
0.0310885259
 40
0.0442204487
 40
0.0596404396
 40
0.0773168512
 40
0.1192786143
 40
0.1696973628
 40
0.2281058985
 40
0.2939311163
 40
0.3665522746
 40
0.4452652691
 40
0.529324187
 40
0.6179019761
 40
0.8052120095
 40
1.0
 40
1.0
 40
1.0
 40
1.0
 10
34.2428789975
 20
84.0482242187
 30
0.0
 10
34.2428788157
 20
84.0467888851
 30
0.0
 10
34.2407709468
 20
84.0433248639
 30
0.0
 10
34.2347908348
 20
84.0397558427
 30
0.0
 10
34.2256043588
 20
84.0359263822
 30
0.0
 10
34.2064208881
 20
84.0302677787
 30
0.0
 10
34.1733621895
 20
84.0236038385
 30
0.0
 10
34.1229832615
 20
84.016047972
 30
0.0
 10
34.0584597192
 20
84.0084220082
 30
0.0
 10
33.9799512292
 20
84.0007315709
 30
0.0
 10
33.8876375148
 20
83.9930091709
 30
0.0
 10
33.7376323104
 20
83.9820482943
 30
0.0
 10
33.5174944093
 20
83.9687057529
 30
0.0
 10
33.2157283873
 20
83.9533421521
 30
0.0
 10
32.8660929681
 20
83.9379292491
 30
0.0
 10
32.4719327304
 20
83.9224645399
 30
0.0
 10
32.0370586647
 20
83.9069765575
 30
0.0
 10
31.5656271886
 20
83.8914654519
 30
0.0
 10
31.0622056977
 20
83.8759442623
 30
0.0
 10
30.341244668
 20
83.8548369872
 30
0.0
 10
29.3984505589
 20
83.8288647445
 30
0.0
 10
28.6330617939
 20
83.8086011241
 30
0.0
 10
28.2428789994
 20
83.7982245333
 30
0.0
  0
SPLINE
  5
298
100
AcDbEntity
  8
0
100
AcDbSpline
 62
7
  6
BYLAYER
 70
0
 71
3
 72
27
 73
23
 74
0
 42
0.0000001
 43
0.0000001
 44
0.0000000001
 40
0.0
 40
0.0
 40
0.0
 40
0.0
 40
0.0007161418
 40
0.0018285605
 40
0.0034662619
 40
0.0056665546
 40
0.011800816
 40
0.020273814
 40
0.0310874423
 40
0.0442193922
 40
0.0596394547
 40
0.0773156909
 40
0.1192773584
 40
0.1696957517
 40
0.2281030566
 40
0.2939265807
 40
0.366545339
 40
0.4452567507
 40
0.5293154958
 40
0.6178944503
 40
0.8052097174
 40
1.0
 40
1.0
 40
1.0
 40
1.0
 10
34.2428788234
 20
78.0482243679
 30
0.0
 10
34.2428794967
 20
78.0467893461
 30
0.0
 10
34.240773214
 20
78.0433247574
 30
0.0
 10
34.2347935724
 20
78.0397561491
 30
0.0
 10
34.2256077701
 20
78.0359267452
 30
0.0
 10
34.2064244617
 20
78.0302684112
 30
0.0
 10
34.1733665401
 20
78.0236046977
 30
0.0
 10
34.1229889147
 20
78.0160487589
 30
0.0
 10
34.0584665552
 20
78.0084227649
 30
0.0
 10
33.9799584571
 20
78.0007324261
 30
0.0
 10
33.8876448877
 20
77.9930099714
 30
0.0
 10
33.7376400914
 20
77.9820486383
 30
0.0
 10
33.517503436
 20
77.9687056241
 30
0.0
 10
33.2157407078
 20
77.9533424839
 30
0.0
 10
32.8661116928
 20
77.9379321553
 30
0.0
 10
32.4719620995
 20
77.922466831
 30
0.0
 10
32.037099648
 20
77.9069702195
 30
0.0
 10
31.565676256
 20
77.8914634414
 30
0.0
 10
31.0622548184
 20
77.8759759916
 30
0.0
 10
30.3412819954
 20
77.8548440352
 30
0.0
 10
29.3984777077
 20
77.8285985273
 30
0.0
 10
28.6330497694
 20
77.8092106647
 30
0.0
 10
28.2428789994
 20
77.7982245333
 30
0.0
  0
SPLINE
  5
299
100
AcDbEntity
  8
0
100
AcDbSpline
 62
7
  6
BYLAYER
 70
0
 71
3
 72
25
 73
21
 74
0
 42
0.0000001
 43
0.0000001
 44
0.0000000001
 40
0.0
 40
0.0
 40
0.0
 40
0.0
 40
0.0018092806
 40
0.003408245
 40
0.0055379695
 40
0.0114444779
 40
0.0195816215
 40
0.0299586087
 40
0.0425682203
 40
0.074386176
 40
0.1148146928
 40
0.1635627907
 40
0.2202507212
 40
0.2844634139
 40
0.355701668
 40
0.4334376772
 40
0.5170634033
 40
0.605935579
 40
0.7967513402
 40
1.0
 40
1.0
 40
1.0
 40
1.0
 10
22.2428802157
 20
84.1255749655
 30
0.0
 10
22.2428766995
 20
84.1285812898
 30
0.0
 10
22.2484638193
 20
84.1328535116
 30
0.0
 10
22.2564481082
 20
84.13642552
 30
0.0
 10
22.271846738
 20
84.1416340997
 30
0.0
 10
22.2979666571
 20
84.1474540497
 30
0.0
 10
22.3380470855
 20
84.1542444895
 30
0.0
 10
22.3893001613
 20
84.1610214272
 30
0.0
 10
22.4798373967
 20
84.1709476073
 30
0.0
 10
22.6203436702
 20
84.1828298843
 30
0.0
 10
22.8209353485
 20
84.1964305589
 30
0.0
 10
23.0629237131
 20
84.2100975167
 30
0.0
 10
23.3444810996
 20
84.2238410979
 30
0.0
 10
23.6634457513
 20
84.2376153715
 30
0.0
 10
24.0174119563
 20
84.2514188276
 30
0.0
 10
24.403657085
 20
84.2652296247
 30
0.0
 10
24.819219601
 20
84.2790582239
 30
0.0
 10
25.4226098721
 20
84.2979970331
 30
0.0
 10
26.2247274664
 20
84.3212779398
 30
0.0
 10
26.8792711448
 20
84.3389822845
 30
0.0
 10
27.2168655178
 20
84.3482245333
 30
0.0
  0
SPLINE
  5
29A
100
AcDbEntity
  8
0
100
AcDbSpline
 62
7
  6
BYLAYER
 70
0
 71
3
 72
20
 73
16
 74
0
 42
0.0000001
 43
0.0000001
 44
0.0000000001
 40
0.0
 40
0.0
 40
0.0
 40
0.0
 40
0.207373142
 40
0.3962004147
 40
0.5632591923
 40
0.7061261388
 40
0.7678345003
 40
0.8227598298
 40
0.8706836751
 40
0.9114229852
 40
0.9448181999
 40
0.9707232664
 40
0.989072525
 40
0.9954437094
 40
1.0
 40
1.0
 40
1.0
 40
1.0
 10
25.4932561989
 20
83.0023615455
 30
0.0
 10
25.3032867038
 20
82.9960226651
 30
0.0
 10
24.9403313388
 20
82.9840943821
 30
0.0
 10
24.4243927478
 20
82.9653619398
 30
0.0
 10
23.9676814328
 20
82.9452420707
 30
0.0
 10
23.627498085
 20
82.9276267279
 30
0.0
 10
23.3900625519
 20
82.9134912712
 30
0.0
 10
23.2395548406
 20
82.9036126866
 30
0.0
 10
23.1082891659
 20
82.8940379372
 30
0.0
 10
22.9968055352
 20
82.88468475
 30
0.0
 10
22.9055533303
 20
82.8754852317
 30
0.0
 10
22.8349997472
 20
82.8662412252
 30
0.0
 10
22.7892379588
 20
82.8580163379
 30
0.0
 10
22.7634158819
 20
82.8507202194
 30
0.0
 10
22.7540521803
 20
82.8469843778
 30
0.0
 10
22.7504236622
 20
82.84491683
 30
0.0
  0
SPLINE
  5
29B
100
AcDbEntity
  8
0
100
AcDbSpline
 62
7
  6
BYLAYER
 70
0
 71
3
 72
27
 73
23
 74
0
 42
0.0000001
 43
0.0000001
 44
0.0000000001
 40
0.0
 40
0.0
 40
0.0
 40
0.0
 40
0.1947984715
 40
0.3821094179
 40
0.470689899
 40
0.5547519274
 40
0.6334677999
 40
0.7060907761
 40
0.7719173597
 40
0.8303268519
 40
0.8807491843
 40
0.9227181773
 40
0.9403994118
 40
0.955825462
 40
0.9689633147
 40
0.9797810729
 40
0.9882547358
 40
0.9943847073
 40
0.9965798056
 40
0.9982090226
 40
0.9993073299
 40
1.0
 40
1.0
 40
1.0
 40
1.0
 10
28.2428789994
 20
81.7982245333
 30
0.0
 10
28.6330552082
 20
81.8089763949
 30
0.0
 10
29.3984613647
 20
81.8281458956
 30
0.0
 10
30.3412732883
 20
81.8529808573
 30
0.0
 10
31.0622026105
 20
81.8745456023
 30
0.0
 10
31.5655985231
 20
81.8907202542
 30
0.0
 10
32.0370038538
 20
81.9068455802
 30
0.0
 10
32.4718640216
 20
81.9225031569
 30
0.0
 10
32.8660396144
 20
81.9373023021
 30
0.0
 10
33.2157062401
 20
81.9519109391
 30
0.0
 10
33.5174970902
 20
81.9670057585
 30
0.0
 10
33.7376465515
 20
81.9805578985
 30
0.0
 10
33.8876469858
 20
81.991988617
 30
0.0
 10
33.9799584722
 20
82.0000854909
 30
0.0
 10
34.0584618368
 20
82.0081102356
 30
0.0
 10
34.1229755952
 20
82.0159546762
 30
0.0
 10
34.1733469927
 20
82.0235305398
 30
0.0
 10
34.2064034883
 20
82.0300885622
 30
0.0
 10
34.2255919716
 20
82.0355791291
 30
0.0
 10
34.234772388
 20
82.0392847098
 30
0.0
 10
34.2407259525
 20
82.0426776165
 30
0.0
 10
34.2428796538
 20
82.0460379967
 30
0.0
 10
34.2428784629
 20
82.0474259228
 30
0.0
  0
SPLINE
  5
29C
100
AcDbEntity
  8
0
100
AcDbSpline
 62
7
  6
BYLAYER
 70
0
 71
3
 72
23
 73
19
 74
0
 42
0.0000001
 43
0.0000001
 44
0.0000000001
 40
0.0
 40
0.0
 40
0.0
 40
0.0
 40
0.0036898403
 40
0.0095324391
 40
0.0175678101
 40
0.0278013032
 40
0.0402163842
 40
0.054787792
 40
0.0902860173
 40
0.1339965426
 40
0.1855222739
 40
0.2444073295
 40
0.3101108315
 40
0.3820491191
 40
0.459567875
 40
0.6285107267
 40
0.8108516379
 40
1.0
 40
1.0
 40
1.0
 40
1.0
 10
34.2357520516
 20
79.6186847167
 30
0.0
 10
34.2293393963
 20
79.6150308313
 30
0.0
 10
34.2109527555
 20
79.609171684
 30
0.0
 10
34.1767093387
 20
79.601667323
 30
0.0
 10
34.1289865898
 20
79.5942494867
 30
0.0
 10
34.0680669589
 20
79.5868907005
 30
0.0
 10
33.9939596255
 20
79.5796469904
 30
0.0
 10
33.8693976382
 20
79.5693769215
 30
0.0
 10
33.6822099804
 20
79.5570252492
 30
0.0
 10
33.4211080186
 20
79.5425788076
 30
0.0
 10
33.1131932097
 20
79.5275273871
 30
0.0
 10
32.7612692588
 20
79.5118588398
 30
0.0
 10
32.3684760268
 20
79.4962449666
 30
0.0
 10
31.9383688513
 20
79.4810666286
 30
0.0
 10
31.3018104801
 20
79.4608632234
 30
0.0
 10
30.444429673
 20
79.4370474663
 30
0.0
 10
29.3638652951
 20
79.4065033281
 30
0.0
 10
28.6210886899
 20
79.3856197046
 30
0.0
 10
28.2428789994
 20
79.3755748025
 30
0.0
  0
SPLINE
  5
29D
100
AcDbEntity
  8
0
100
AcDbSpline
 62
7
  6
BYLAYER
 70
0
 71
3
 72
39
 73
35
 74
0
 42
0.0000001
 43
0.0000001
 44
0.0000000001
 40
0.0
 40
0.0
 40
0.0
 40
0.0
 40
0.0019182454
 40
0.004914086
 40
0.0090071341
 40
0.0142019554
 40
0.0204931056
 40
0.0278620722
 40
0.0457507791
 40
0.0676961555
 40
0.0934948069
 40
0.122928702
 40
0.155746727
 40
0.1916742335
 40
0.230393351
 40
0.3147197129
 40
0.4056592473
 40
0.4999849025
 40
0.5943148183
 40
0.685257949
 40
0.7695857463
 40
0.8082948031
 40
0.8442260798
 40
0.8770483151
 40
0.9064858979
 40
0.9322898354
 40
0.9542341357
 40
0.9721137918
 40
0.9794735076
 40
0.9857594512
 40
0.9909587231
 40
0.9950609355
 40
0.9980657597
 40
1.0
 40
1.0
 40
1.0
 40
1.0
 10
33.7347566771
 20
79.3277386487
 30
0.0
 10
33.728544634
 20
79.3244396497
 30
0.0
 10
33.7111551623
 20
79.3190759227
 30
0.0
 10
33.6789390119
 20
79.3120970482
 30
0.0
 10
33.6344157204
 20
79.3049686852
 30
0.0
 10
33.5777854576
 20
79.2975527941
 30
0.0
 10
33.5090627538
 20
79.2899254381
 30
0.0
 10
33.393913654
 20
79.2788372123
 30
0.0
 10
33.2213477444
 20
79.2653140735
 30
0.0
 10
32.9811582432
 20
79.2502339099
 30
0.0
 10
32.6985467032
 20
79.2355024451
 30
0.0
 10
32.3760045956
 20
79.2211808259
 30
0.0
 10
32.0162887729
 20
79.2069191941
 30
0.0
 10
31.6225240003
 20
79.1920784394
 30
0.0
 10
31.0400014176
 20
79.1707823843
 30
0.0
 10
30.2558173853
 20
79.1443582888
 30
0.0
 10
29.2677125501
 20
79.1156350971
 30
0.0
 10
28.2429067446
 20
79.0871785231
 30
0.0
 10
27.2181568467
 20
79.056301217
 30
0.0
 10
26.2300755683
 20
79.0257358517
 30
0.0
 10
25.4458301263
 20
79.0018475041
 30
0.0
 10
24.863284822
 20
78.9816624725
 30
0.0
 10
24.4695348465
 20
78.9666049161
 30
0.0
 10
24.1098265484
 20
78.9510985314
 30
0.0
 10
23.7872958454
 20
78.9355051935
 30
0.0
 10
23.5046743494
 20
78.9204543699
 30
0.0
 10
23.2644670605
 20
78.9060183708
 30
0.0
 10
23.0918900065
 20
78.8936207575
 30
0.0
 10
22.9767542523
 20
78.8833210642
 30
0.0
 10
22.9080254938
 20
78.8760767322
 30
0.0
 10
22.8513494555
 20
78.8687706427
 30
0.0
 10
22.8067628295
 20
78.8614606375
 30
0.0
 10
22.7745167099
 20
78.8540470189
 30
0.0
 10
22.7571571799
 20
78.8482013708
 30
0.0
 10
22.7510209021
 20
78.844645046
 30
0.0
  0
SPLINE
  5
29E
100
AcDbEntity
  8
0
100
AcDbSpline
 62
7
  6
BYLAYER
 70
0
 71
3
 72
40
 73
36
 74
0
 42
0.0000001
 43
0.0000001
 44
0.0000000001
 40
0.0
 40
0.0
 40
0.0
 40
0.0
 40
0.0019076748
 40
0.0048848176
 40
0.0089555006
 40
0.0141180109
 40
0.020363691
 40
0.027681487
 40
0.0454782578
 40
0.0673690038
 40
0.0931920221
 40
0.1227075046
 40
0.1556274308
 40
0.191644426
 40
0.2304303497
 40
0.3149221824
 40
0.4061192758
 40
0.5006927869
 40
0.5952407876
 40
0.6863513822
 40
0.7295765857
 40
0.7707187107
 40
0.8094230418
 40
0.8453470212
 40
0.8781653735
 40
0.9075639826
 40
0.9332720476
 40
0.9550577521
 40
0.9727310233
 40
0.979985742
 40
0.9861661061
 40
0.9912599104
 40
0.9952609538
 40
0.998168691
 40
1.0
 40
1.0
 40
1.0
 40
1.0
 10
33.735402866
 20
84.3283686768
 30
0.0
 10
33.7293940061
 20
84.3247846154
 30
0.0
 10
33.7122470679
 20
84.318889068
 30
0.0
 10
33.6803400474
 20
84.311393634
 30
0.0
 10
33.6361175995
 20
84.3039592756
 30
0.0
 10
33.5798504232
 20
84.2964994801
 30
0.0
 10
33.5115585625
 20
84.2891136238
 30
0.0
 10
33.3970166166
 20
84.2786662226
 30
0.0
 10
33.2250507092
 20
84.2663027446
 30
0.0
 10
32.9852109282
 20
84.2520024696
 30
0.0
 10
32.7023616431
 20
84.2369949834
 30
0.0
 10
32.3790380194
 20
84.2214626661
 30
0.0
 10
32.0182880422
 20
84.2059305368
 30
0.0
 10
31.6234992398
 20
84.1906627573
 30
0.0
 10
31.039625308
 20
84.1703078311
 30
0.0
 10
30.2533803814
 20
84.146449797
 30
0.0
 10
29.2626434502
 20
84.1158224028
 30
0.0
 10
28.2350146816
 20
84.0849042129
 30
0.0
 10
27.2076320031
 20
84.0564883756
 30
0.0
 10
26.3685413468
 20
84.0318324474
 30
0.0
 10
25.7253042378
 20
84.0107952914
 30
0.0
 10
25.2741974763
 20
83.9952010175
 30
0.0
 10
24.8498786448
 20
83.979799115
 30
0.0
 10
24.4560853468
 20
83.9650330808
 30
0.0
 10
24.0964313461
 20
83.9506552237
 30
0.0
 10
23.7742842669
 20
83.9361261402
 30
0.0
 10
23.4926618156
 20
83.9212718897
 30
0.0
 10
23.2541326426
 20
83.9061173866
 30
0.0
 10
23.0833231084
 20
83.8926349103
 30
0.0
 10
22.9697636175
 20
83.8816202963
 30
0.0
 10
22.9022181717
 20
83.8740645779
 30
0.0
 10
22.8466962585
 20
83.8666975736
 30
0.0
 10
22.803191169
 20
83.8595853583
 30
0.0
 10
22.7719983027
 20
83.8525836642
 30
0.0
 10
22.7552440107
 20
83.8471875957
 30
0.0
 10
22.7494411994
 20
83.8438055033
 30
0.0
  0
SPLINE
  5
29F
100
AcDbEntity
  8
0
100
AcDbSpline
 62
7
  6
BYLAYER
 70
0
 71
3
 72
39
 73
35
 74
0
 42
0.0000001
 43
0.0000001
 44
0.0000000001
 40
0.0
 40
0.0
 40
0.0
 40
0.0
 40
0.0018864153
 40
0.0048612433
 40
0.0089363251
 40
0.014105706
 40
0.0203588387
 40
0.0276830809
 40
0.0454756362
 40
0.0673310928
 40
0.0930759313
 40
0.1224940279
 40
0.1553472428
 40
0.1913197074
 40
0.2300673157
 40
0.3144510022
 40
0.4055003026
 40
0.4999712214
 40
0.5944342608
 40
0.6855176477
 40
0.7699226848
 40
0.8086467063
 40
0.844581154
 40
0.8774221923
 40
0.9068798248
 40
0.9326891252
 40
0.9546011561
 40
0.9724153163
 40
0.9797286447
 40
0.9859589146
 40
0.9911008164
 40
0.9951510829
 40
0.9981110983
 40
1.0
 40
1.0
 40
1.0
 40
1.0
 10
33.7359175134
 20
78.3288385687
 30
0.0
 10
33.7299210236
 20
78.3253884532
 30
0.0
 10
33.7127994154
 20
78.3197347919
 30
0.0
 10
33.6809547355
 20
78.312308974
 30
0.0
 10
33.6367273205
 20
78.3047366206
 30
0.0
 10
33.5804324633
 20
78.296995814
 30
0.0
 10
33.512106683
 20
78.289259617
 30
0.0
 10
33.3975804979
 20
78.278330298
 30
0.0
 10
33.2257829414
 20
78.2654409111
 30
0.0
 10
32.9863941126
 20
78.2510261805
 30
0.0
 10
32.7042932667
 20
78.2368216944
 30
0.0
 10
32.3818322477
 20
78.2223012326
 30
0.0
 10
32.0218607017
 20
78.2070035804
 30
0.0
 10
31.6276608781
 20
78.191328946
 30
0.0
 10
31.0445578958
 20
78.1699994165
 30
0.0
 10
30.2594730383
 20
78.1449988011
 30
0.0
 10
29.2700314635
 20
78.1170282517
 30
0.0
 10
28.2436932982
 20
78.0861775165
 30
0.0
 10
27.2172309551
 20
78.0552981237
 30
0.0
 10
26.2276223599
 20
78.0270738351
 30
0.0
 10
25.4424142193
 20
78.002287095
 30
0.0
 10
24.8594540542
 20
77.981087996
 30
0.0
 10
24.4655250172
 20
77.965411495
 30
0.0
 10
24.1055954253
 20
77.9500457999
 30
0.0
 10
23.7828051357
 20
77.9353501967
 30
0.0
 10
23.5001219581
 20
77.9210075848
 30
0.0
 10
23.2602032435
 20
77.9067110235
 30
0.0
 10
23.0881425112
 20
77.894029858
 30
0.0
 10
22.9736536649
 20
77.8831745474
 30
0.0
 10
22.9055507712
 20
77.875466512
 30
0.0
 10
22.8495322948
 20
77.8677315507
 30
0.0
 10
22.8055600673
 20
77.8601347029
 30
0.0
 10
22.7738606969
 20
77.8526667527
 30
0.0
 10
22.7568100762
 20
77.846952907
 30
0.0
 10
22.750812776
 20
77.843485945
 30
0.0
  0
SPLINE
  5
2A0
100
AcDbEntity
  8
0
100
AcDbSpline
 62
7
  6
BYLAYER
 70
0
 71
3
 72
40
 73
36
 74
0
 42
0.0000001
 43
0.0000001
 44
0.0000000001
 40
0.0
 40
0.0
 40
0.0
 40
0.0
 40
0.0019258844
 40
0.0049329343
 40
0.0090362503
 40
0.0142361238
 40
0.0205274416
 40
0.0278948605
 40
0.0457749161
 40
0.0677063682
 40
0.09349566
 40
0.1229318161
 40
0.1557668611
 40
0.1917077656
 40
0.2304373534
 40
0.2715865146
 40
0.3147767677
 40
0.405727378
 40
0.5000675408
 40
0.5944056133
 40
0.6853621228
 40
0.7697010962
 40
0.8084016586
 40
0.8443188456
 40
0.8771376339
 40
0.9065758936
 40
0.9323835712
 40
0.9543254848
 40
0.9721927246
 40
0.9795384751
 40
0.9858067259
 40
0.990988804
 40
0.9950781947
 40
0.9980742524
 40
1.0
 40
1.0
 40
1.0
 40
1.0
 10
33.7350155786
 20
82.3281020976
 30
0.0
 10
33.7287955586
 20
82.324758105
 30
0.0
 10
33.7113672841
 20
82.3192821684
 30
0.0
 10
33.6790782547
 20
82.312128966
 30
0.0
 10
33.6344815992
 20
82.3048298323
 30
0.0
 10
33.5778067687
 20
82.2972980853
 30
0.0
 10
33.5090728048
 20
82.289626607
 30
0.0
 10
33.3939567052
 20
82.2785381637
 30
0.0
 10
33.2214649075
 20
82.2651194384
 30
0.0
 10
32.9813692094
 20
82.2502872438
 30
0.0
 10
32.6988105406
 20
82.2358578967
 30
0.0
 10
32.3762237288
 20
82.2215029763
 30
0.0
 10
32.01638672
 20
82.2069787766
 30
0.0
 10
31.6224659174
 20
82.1919567432
 30
0.0
 10
31.1980610599
 20
82.1762920956
 30
0.0
 10
30.7470571534
 20
82.1606100239
 30
0.0
 10
30.1046226027
 20
82.1400450747
 30
0.0
 10
29.267159545
 20
82.1160261331
 30
0.0
 10
28.2422063149
 20
82.087214185
 30
0.0
 10
27.2173102815
 20
82.0556971342
 30
0.0
 10
26.2290518884
 20
82.0259593378
 30
0.0
 10
25.44471483
 20
82.0022768987
 30
0.0
 10
24.8622062403
 20
81.9816798102
 30
0.0
 10
24.4685564878
 20
81.9661750332
 30
0.0
 10
24.1089007503
 20
81.950629305
 30
0.0
 10
23.7863427387
 20
81.9353179044
 30
0.0
 10
23.5036907261
 20
81.920526416
 30
0.0
 10
23.2635016804
 20
81.9063432653
 30
0.0
 10
23.0910182131
 20
81.8940011185
 30
0.0
 10
22.9760601729
 20
81.8834793137
 30
0.0
 10
22.9075313049
 20
81.876026175
 30
0.0
 10
22.8510565214
 20
81.8685121037
 30
0.0
 10
22.8066385952
 20
81.8610536706
 30
0.0
 10
22.7745145778
 20
81.8535991022
 30
0.0
 10
22.7572195393
 20
81.8477698409
 30
0.0
 10
22.7511071608
 20
81.8442339281
 30
0.0
  0
SPLINE
  5
2A1
100
AcDbEntity
  8
0
100
AcDbSpline
 62
7
  6
BYLAYER
 70
0
 71
3
 72
40
 73
36
 74
0
 42
0.0000001
 43
0.0000001
 44
0.0000000001
 40
0.0
 40
0.0
 40
0.0
 40
0.0
 40
0.0018517144
 40
0.0047712081
 40
0.0087813652
 40
0.0138819651
 40
0.0200660527
 40
0.0273242092
 40
0.0450135599
 40
0.0668124224
 40
0.0925566326
 40
0.1220108977
 40
0.1548822771
 40
0.190862452
 40
0.2296216336
 40
0.3140915644
 40
0.4053113367
 40
0.499950644
 40
0.5945942762
 40
0.685825005
 40
0.7291133981
 40
0.7703155044
 40
0.809076012
 40
0.845052542
 40
0.8779245482
 40
0.9073833844
 40
0.9331539559
 40
0.9549879251
 40
0.972692962
 40
0.9799582553
 40
0.9861458893
 40
0.9912450002
 40
0.9952507142
 40
0.998163365
 40
1.0
 40
1.0
 40
1.0
 40
1.0
 10
33.7363330016
 20
77.3286869313
 30
0.0
 10
33.7305829238
 20
77.3250723157
 30
0.0
 10
33.7138379041
 20
77.3192016182
 30
0.0
 10
33.6825946465
 20
77.3117344432
 30
0.0
 10
33.639026822
 20
77.304320688
 30
0.0
 10
33.5834380918
 20
77.2968710087
 30
0.0
 10
33.5158149892
 20
77.2894907046
 30
0.0
 10
33.4021080238
 20
77.2790341312
 30
0.0
 10
33.2310810205
 20
77.2666694725
 30
0.0
 10
32.9922441638
 20
77.2523928915
 30
0.0
 10
32.7102249836
 20
77.2374021756
 30
0.0
 10
32.3875733986
 20
77.2218023947
 30
0.0
 10
32.0273385561
 20
77.2061871448
 30
0.0
 10
31.6329336126
 20
77.1908831305
 30
0.0
 10
31.0493320602
 20
77.1704801823
 30
0.0
 10
30.2631213533
 20
77.1467247154
 30
0.0
 10
29.2720644101
 20
77.1161961924
 30
0.0
 10
28.2436919276
 20
77.0850363437
 30
0.0
 10
27.2152067022
 20
77.0564035209
 30
0.0
 10
26.3750235547
 20
77.0320064862
 30
0.0
 10
25.7308402355
 20
77.0111517626
 30
0.0
 10
25.2790452301
 20
76.9954639019
 30
0.0
 10
24.8540829235
 20
76.9798723329
 30
0.0
 10
24.4596716467
 20
76.9649212763
 30
0.0
 10
24.0993851527
 20
76.9504255196
 30
0.0
 10
23.7765623418
 20
76.9360086176
 30
0.0
 10
23.494276029
 20
76.9214475885
 30
0.0
 10
23.2551954726
 20
76.906437246
 30
0.0
 10
23.0840446509
 20
76.8928799348
 30
0.0
 10
22.9703063508
 20
76.8817347321
 30
0.0
 10
22.9026823848
 20
76.8740734468
 30
0.0
 10
22.8471078344
 20
76.8665834071
 30
0.0
 10
22.8035657938
 20
76.8593512401
 30
0.0
 10
22.7723300691
 20
76.8522599506
 30
0.0
 10
22.7555555297
 20
76.8468268917
 30
0.0
 10
22.7497253911
 20
76.843451972
 30
0.0
  0
SPLINE
  5
2A2
100
AcDbEntity
  8
0
100
AcDbSpline
 62
7
  6
BYLAYER
 70
0
 71
3
 72
40
 73
36
 74
0
 42
0.0000001
 43
0.0000001
 44
0.0000000001
 40
0.0
 40
0.0
 40
0.0
 40
0.0
 40
0.0018605617
 40
0.0048024701
 40
0.0088424152
 40
0.013975728
 40
0.0201926471
 40
0.0274813459
 40
0.045211207
 40
0.0670222367
 40
0.0927471197
 40
0.1221592306
 40
0.1550085415
 40
0.1909799154
 40
0.2297301525
 40
0.3141429546
 40
0.4052603193
 40
0.4998148736
 40
0.5943683742
 40
0.6855425336
 40
0.728812688
 40
0.7700041666
 40
0.8087523109
 40
0.8447122319
 40
0.8775769699
 40
0.9070501297
 40
0.9328587441
 40
0.9547455107
 40
0.9725204768
 40
0.9798171998
 40
0.9860313536
 40
0.9911565253
 40
0.9951894359
 40
0.9981314393
 40
1.0
 40
1.0
 40
1.0
 40
1.0
 10
33.7362519808
 20
81.3289793167
 30
0.0
 10
33.7304093537
 20
81.3254539274
 30
0.0
 10
33.713523632
 20
81.3197048015
 30
0.0
 10
33.6820488487
 20
81.3122357442
 30
0.0
 10
33.6381996956
 20
81.3046660699
 30
0.0
 10
33.5822937799
 20
81.2969708483
 30
0.0
 10
33.5143515816
 20
81.2893126396
 30
0.0
 10
33.400299188
 20
81.2785278982
 30
0.0
 10
33.2289957248
 20
81.2658894507
 30
0.0
 10
32.9900512691
 20
81.2515989696
 30
0.0
 10
32.7081995935
 20
81.2372024246
 30
0.0
 10
32.3858385401
 20
81.2224041753
 30
0.0
 10
32.0258908578
 20
81.2069116321
 30
0.0
 10
31.6316756132
 20
81.1911580725
 30
0.0
 10
31.0484111474
 20
81.1700657218
 30
0.0
 10
30.2628910402
 20
81.1455668693
 30
0.0
 10
29.2727310957
 20
81.1171601744
 30
0.0
 10
28.2454527028
 20
81.0856848469
 30
0.0
 10
27.2179286238
 20
81.0554683867
 30
0.0
 10
26.3783853445
 20
81.0317864816
 30
0.0
 10
25.7345327611
 20
81.0116975296
 30
0.0
 10
25.2829105561
 20
80.9962274076
 30
0.0
 10
24.8581225958
 20
80.9805890711
 30
0.0
 10
24.4638904251
 20
80.965098071
 30
0.0
 10
24.1036870992
 20
80.9500054702
 30
0.0
 10
23.7807214684
 20
80.9355702075
 30
0.0
 10
23.4980497775
 20
80.9213615219
 30
0.0
 10
23.2583690869
 20
80.9067768067
 30
0.0
 10
23.0866264988
 20
80.8936746937
 30
0.0
 10
22.9724099713
 20
80.8826669695
 30
0.0
 10
22.904487407
 20
80.8749387257
 30
0.0
 10
22.8486469314
 20
80.8672395071
 30
0.0
 10
22.8048506721
 20
80.8597254829
 30
0.0
 10
22.7733385381
 20
80.8523566606
 30
0.0
 10
22.7564007687
 20
80.8467424757
 30
0.0
 10
22.7504634428
 20
80.8433198937
 30
0.0
  0
SPLINE
  5
2A3
100
AcDbEntity
  8
0
100
AcDbSpline
 62
7
  6
BYLAYER
 70
0
 71
3
 72
24
 73
20
 74
0
 42
0.0000001
 43
0.0000001
 44
0.0000000001
 40
0.0
 40
0.0
 40
0.0
 40
0.0
 40
0.0034303961
 40
0.0090381628
 40
0.0168641927
 40
0.0269126827
 40
0.0391636414
 40
0.0535892829
 40
0.0888454781
 40
0.1323763519
 40
0.1837852083
 40
0.2426170603
 40
0.3083334118
 40
0.3803476618
 40
0.4580000473
 40
0.5405909577
 40
0.6273510225
 40
0.8102385537
 40
1.0
 40
1.0
 40
1.0
 40
1.0
 10
34.2372298594
 20
80.6197513257
 30
0.0
 10
34.2313122307
 20
80.6162746786
 30
0.0
 10
34.2137726859
 20
80.6109056807
 30
0.0
 10
34.1809016962
 20
80.6038265713
 30
0.0
 10
34.1343982833
 20
80.5966169704
 30
0.0
 10
34.0746205119
 20
80.5890688324
 30
0.0
 10
34.0015336543
 20
80.5813757888
 30
0.0
 10
33.878127708
 20
80.5702054042
 30
0.0
 10
33.6921089799
 20
80.5566812855
 30
0.0
 10
33.4320617082
 20
80.5414662537
 30
0.0
 10
33.1247512727
 20
80.5267536754
 30
0.0
 10
32.7729921775
 20
80.5125423857
 30
0.0
 10
32.3799862271
 20
80.4981027658
 30
0.0
 10
31.9493231321
 20
80.4830542309
 30
0.0
 10
31.4848976638
 20
80.4674505672
 30
0.0
 10
30.9909672048
 20
80.4514294102
 30
0.0
 10
30.2865411657
 20
80.4304065929
 30
0.0
 10
29.3676750961
 20
80.4071197029
 30
0.0
 10
28.622406137
 20
80.3857568073
 30
0.0
 10
28.2428789994
 20
80.3755748025
 30
0.0
  0
SPLINE
  5
2A4
100
AcDbEntity
  8
0
100
AcDbSpline
 62
7
  6
BYLAYER
 70
0
 71
3
 72
39
 73
35
 74
0
 42
0.0000001
 43
0.0000001
 44
0.0000000001
 40
0.0
 40
0.0
 40
0.0
 40
0.0
 40
0.0018530459
 40
0.004771825
 40
0.0087798668
 40
0.0138789317
 40
0.0200628405
 40
0.0273227545
 40
0.045025893
 40
0.0668489744
 40
0.0926110312
 40
0.1220787867
 40
0.1549563921
 40
0.1909371647
 40
0.2296975937
 40
0.3141874162
 40
0.4054246126
 40
0.5000689936
 40
0.594712352
 40
0.6859261958
 40
0.7704030506
 40
0.8091656089
 40
0.845146089
 40
0.8780155684
 40
0.9074591153
 40
0.9331996018
 40
0.9550144901
 40
0.972710229
 40
0.9799729466
 40
0.9861598738
 40
0.9912582252
 40
0.9952613379
 40
0.9981693737
 40
1.0
 40
1.0
 40
1.0
 40
1.0
 10
33.7360634484
 20
80.3283237122
 30
0.0
 10
33.7302944534
 20
80.3247302951
 30
0.0
 10
33.7135313929
 20
80.3189116762
 30
0.0
 10
33.6822735579
 20
80.3115274659
 30
0.0
 10
33.6387027315
 20
80.3042333086
 30
0.0
 10
33.5831086528
 20
80.2969366786
 30
0.0
 10
33.5154718531
 20
80.2896943438
 30
0.0
 10
33.401698694
 20
80.2793658427
 30
0.0
 10
33.2305380324
 20
80.2668876758
 30
0.0
 10
32.991516374
 20
80.2523170298
 30
0.0
 10
32.7093071156
 20
80.2371332373
 30
0.0
 10
32.3865263865
 20
80.2214377315
 30
0.0
 10
32.0262180165
 20
80.2059016776
 30
0.0
 10
31.631776184
 20
80.1909226833
 30
0.0
 10
31.0480923279
 20
80.1708330357
 30
0.0
 10
30.2617588021
 20
80.1468354498
 30
0.0
 10
29.2705800197
 20
80.1156416922
 30
0.0
 10
28.2421244033
 20
80.0849882884
 30
0.0
 10
27.2136832881
 20
80.0568683636
 30
0.0
 10
26.2225823549
 20
80.0275215723
 30
0.0
 10
25.4364628869
 20
80.0007560419
 30
0.0
 10
24.8528519569
 20
79.9797812429
 30
0.0
 10
24.4584235464
 20
79.9650879973
 30
0.0
 10
24.0981839675
 20
79.950812309
 30
0.0
 10
23.7755445326
 20
79.9363020194
 30
0.0
 10
23.4935233938
 20
79.9212602956
 30
0.0
 10
23.2546799483
 20
79.9059719272
 30
0.0
 10
23.0836406037
 20
79.8924968695
 30
0.0
 10
22.96993545
 20
79.8815066259
 30
0.0
 10
22.9023141151
 20
79.8739616743
 30
0.0
 10
22.8467385423
 20
79.8666078105
 30
0.0
 10
22.8032004417
 20
79.859523767
 30
0.0
 10
22.771993478
 20
79.852550999
 30
0.0
 10
22.7552327567
 20
79.8471739854
 30
0.0
 10
22.7494293347
 20
79.8437971195
 30
0.0
  0
SPLINE
  5
2A5
100
AcDbEntity
  8
0
100
AcDbSpline
 62
7
  6
BYLAYER
 70
0
 71
3
 72
27
 73
23
 74
0
 42
0.0000001
 43
0.0000001
 44
0.0000000001
 40
0.0
 40
0.0
 40
0.0
 40
0.0
 40
0.0007162895
 40
0.001828828
 40
0.0034665236
 40
0.0056667238
 40
0.0118007844
 40
0.020273993
 40
0.0310878594
 40
0.0442196495
 40
0.0596396187
 40
0.0773162951
 40
0.1192789595
 40
0.1696974311
 40
0.2281035276
 40
0.2939264731
 40
0.3665468801
 40
0.4452605583
 40
0.5293212413
 40
0.6179017626
 40
0.8052165836
 40
1.0
 40
1.0
 40
1.0
 40
1.0
 10
34.2428789864
 20
77.0482242617
 30
0.0
 10
34.2428786138
 20
77.0467889442
 30
0.0
 10
34.2407706779
 20
77.0433252251
 30
0.0
 10
34.2347908859
 20
77.0397562281
 30
0.0
 10
34.2256048933
 20
77.0359269091
 30
0.0
 10
34.2064223445
 20
77.0302683955
 30
0.0
 10
34.173364557
 20
77.0236045296
 30
0.0
 10
34.1229864405
 20
77.0160487827
 30
0.0
 10
34.0584635146
 20
77.0084227156
 30
0.0
 10
33.9799555049
 20
77.0007320039
 30
0.0
 10
33.8876415978
 20
76.9930093001
 30
0.0
 10
33.7376341284
 20
76.9820480475
 30
0.0
 10
33.5174944595
 20
76.9687053774
 30
0.0
 10
33.2157320789
 20
76.9533420564
 30
0.0
 10
32.8661066423
 20
76.9379300565
 30
0.0
 10
32.4719573588
 20
76.9224659007
 30
0.0
 10
32.037088052
 20
76.9069766411
 30
0.0
 10
31.5656531814
 20
76.8914658602
 30
0.0
 10
31.0622211867
 20
76.8759492183
 30
0.0
 10
30.3412417122
 20
76.8548379871
 30
0.0
 10
29.3984428714
 20
76.8288230452
 30
0.0
 10
28.6330501806
 20
76.8086919193
 30
0.0
 10
28.2428789994
 20
76.7982245333
 30
0.0
  0
SPLINE
  5
2A6
100
AcDbEntity
  8
0
100
AcDbSpline
 62
7
  6
BYLAYER
 70
0
 71
3
 72
27
 73
23
 74
0
 42
0.0000001
 43
0.0000001
 44
0.0000000001
 40
0.0
 40
0.0
 40
0.0
 40
0.0
 40
0.1947868712
 40
0.3820979911
 40
0.4706702186
 40
0.5547255487
 40
0.6334380051
 40
0.7060602066
 40
0.7718867507
 40
0.8302955496
 40
0.8807133198
 40
0.9226700439
 40
0.9403457724
 40
0.9557616772
 40
0.9688895853
 40
0.9797041206
 40
0.9881845451
 40
0.9915478161
 40
0.9943299504
 40
0.9965378872
 40
0.9981868336
 40
1.0
 40
1.0
 40
1.0
 40
1.0
 10
28.2428789994
 20
80.3755748025
 30
0.0
 10
27.8526978492
 20
80.3651069704
 30
0.0
 10
27.0872746741
 20
80.3459065811
 30
0.0
 10
26.1445131316
 20
80.3188963299
 30
0.0
 10
25.4235398635
 20
80.2985970921
 30
0.0
 10
24.9201083687
 20
80.2839193782
 30
0.0
 10
24.4486742967
 20
80.2685407626
 30
0.0
 10
24.0138086345
 20
80.2526084907
 30
0.0
 10
23.619669576
 20
80.2363995783
 30
0.0
 10
23.2700583333
 20
80.220377569
 30
0.0
 10
22.9682928654
 20
80.205224234
 30
0.0
 10
22.7481296953
 20
80.1925246015
 30
0.0
 10
22.5981099046
 20
80.1820265027
 30
0.0
 10
22.5057934487
 20
80.1745351979
 30
0.0
 10
22.427287004
 20
80.1669800688
 30
0.0
 10
22.3627529922
 20
80.1593331722
 30
0.0
 10
22.3178691094
 20
80.1525275508
 30
0.0
 10
22.2890915072
 20
80.1467323606
 30
0.0
 10
22.2729111426
 20
80.1427798987
 30
0.0
 10
22.2599834934
 20
80.1386940168
 30
0.0
 10
22.2501087609
 20
80.1345330801
 30
0.0
 10
22.2428930877
 20
80.129594954
 30
0.0
 10
22.2428857599
 20
80.1259616677
 30
0.0
  0
SPLINE
  5
2A7
100
AcDbEntity
  8
0
100
AcDbSpline
 62
7
  6
BYLAYER
 70
0
 71
3
 72
27
 73
23
 74
0
 42
0.0000001
 43
0.0000001
 44
0.0000000001
 40
0.0
 40
0.0
 40
0.0
 40
0.0
 40
0.1947950457
 40
0.3821171149
 40
0.4707019541
 40
0.5547662562
 40
0.6334822168
 40
0.7061057652
 40
0.771935619
 40
0.8303515835
 40
0.8807788921
 40
0.9227465087
 40
0.9404225775
 40
0.9558393345
 40
0.9689660001
 40
0.9797738132
 40
0.9882411365
 40
0.9915973966
 40
0.9943719382
 40
0.9965712096
 40
0.9982099922
 40
1.0
 40
1.0
 40
1.0
 40
1.0
 10
28.2428789994
 20
81.3755748025
 30
0.0
 10
27.8526912905
 20
81.3657782643
 30
0.0
 10
27.0872624122
 20
81.3473655488
 30
0.0
 10
26.1445354145
 20
81.319190502
 30
0.0
 10
25.4235770383
 20
81.2978661254
 30
0.0
 10
24.9201435491
 20
81.2827570427
 30
0.0
 10
24.4486965524
 20
81.2679766585
 30
0.0
 10
24.0138092374
 20
81.2530500464
 30
0.0
 10
23.6196493312
 20
81.2374342882
 30
0.0
 10
23.2700197284
 20
81.2214410862
 30
0.0
 10
22.9682642473
 20
81.2053826835
 30
0.0
 10
22.7481350312
 20
81.1917008496
 30
0.0
 10
22.598119942
 20
81.1809573909
 30
0.0
 10
22.5058048564
 20
81.1735396299
 30
0.0
 10
22.4272964496
 20
81.1662294257
 30
0.0
 10
22.3627682733
 20
81.1589422514
 30
0.0
 10
22.3178921337
 20
81.1524981657
 30
0.0
 10
22.2891090928
 20
81.1470266961
 30
0.0
 10
22.2729291961
 20
81.1432937901
 30
0.0
 10
22.2599901604
 20
81.1394045832
 30
0.0
 10
22.2501425277
 20
81.1354514482
 30
0.0
 10
22.2428796976
 20
81.130633722
 30
0.0
 10
22.2428790088
 20
81.127047085
 30
0.0
  0
SPLINE
  5
2A8
100
AcDbEntity
  8
0
100
AcDbSpline
 62
7
  6
BYLAYER
 70
0
 71
3
 72
28
 73
24
 74
0
 42
0.0000001
 43
0.0000001
 44
0.0000000001
 40
0.0
 40
0.0
 40
0.0
 40
0.0
 40
0.1947927422
 40
0.2898597277
 40
0.3821170806
 40
0.4707039328
 40
0.5547708904
 40
0.6334899196
 40
0.7061142329
 40
0.7719395247
 40
0.8303485264
 40
0.8807734674
 40
0.9227456951
 40
0.9404271611
 40
0.9558512242
 40
0.9689855901
 40
0.9797992232
 40
0.9882673082
 40
0.9943899021
 40
0.9965812869
 40
0.9982073878
 40
0.9993042667
 40
1.0
 40
1.0
 40
1.0
 40
1.0
 10
28.2428789994
 20
82.3755748025
 30
0.0
 10
27.8527032548
 20
82.3656049915
 30
0.0
 10
27.2720940812
 20
82.3512101508
 30
0.0
 10
26.5067281331
 20
82.3306442128
 30
0.0
 10
25.9541150493
 20
82.314833021
 30
0.0
 10
25.4235681944
 20
82.298487413
 30
0.0
 10
24.9201572645
 20
82.2822798069
 30
0.0
 10
24.4487190415
 20
82.266935937
 30
0.0
 10
24.0138346546
 20
82.2520880278
 30
0.0
 10
23.6196686097
 20
82.2372987225
 30
0.0
 10
23.2700278744
 20
82.2222278104
 30
0.0
 10
22.9682672816
 20
82.2064588881
 30
0.0
 10
22.7481396448
 20
82.1924884206
 30
0.0
 10
22.5981355719
 20
82.1811265211
 30
0.0
 10
22.5058219985
 20
82.1732081907
 30
0.0
 10
22.4273147367
 20
82.1654383894
 30
0.0
 10
22.3627966233
 20
82.157872176
 30
0.0
 10
22.3124228303
 20
82.1505549405
 30
0.0
 10
22.2793643572
 20
82.1441935806
 30
0.0
 10
22.2601716548
 20
82.138817058
 30
0.0
 10
22.2509915788
 20
82.1351633947
 30
0.0
 10
22.2450233355
 20
82.1317869063
 30
0.0
 10
22.242879893
 20
82.1284174269
 30
0.0
 10
22.2428791317
 20
82.1270233974
 30
0.0
  0
SPLINE
  5
2A9
100
AcDbEntity
  8
0
100
AcDbSpline
 62
7
  6
BYLAYER
 70
0
 71
3
 72
24
 73
20
 74
0
 42
0.0000001
 43
0.0000001
 44
0.0000000001
 40
0.0
 40
0.0
 40
0.0
 40
0.0
 40
0.2168263571
 40
0.4130667347
 40
0.5022910628
 40
0.5850966838
 40
0.661133585
 40
0.7300933261
 40
0.7916840198
 40
0.8456252625
 40
0.8917051772
 40
0.929743958
 40
0.9595753087
 40
0.9811144254
 40
0.9887750122
 40
0.9943827513
 40
0.9964368701
 40
0.9980166469
 40
1.0
 40
1.0
 40
1.0
 40
1.0
 10
25.2428790265
 20
83.29224147
 30
0.0
 10
25.0254285426
 20
83.2853553869
 30
0.0
 10
24.6111701469
 20
83.2723231726
 30
0.0
 10
24.107473904
 20
83.2550859374
 30
0.0
 10
23.7382275107
 20
83.2409738203
 30
0.0
 10
23.4895288081
 20
83.2308203378
 30
0.0
 10
23.261173413
 20
83.2208505611
 30
0.0
 10
23.0541241793
 20
83.2109299865
 30
0.0
 10
22.8692791053
 20
83.200896065
 30
0.0
 10
22.7074471797
 20
83.1905528823
 30
0.0
 10
22.5693218236
 20
83.1799745398
 30
0.0
 10
22.4554667377
 20
83.1693874489
 30
0.0
 10
22.3663712429
 20
83.158854902
 30
0.0
 10
22.307801978
 20
83.1497863546
 30
0.0
 10
22.2737163819
 20
83.1420205831
 30
0.0
 10
22.2589980815
 20
83.1376132814
 30
0.0
 10
22.2504491816
 20
83.1337920477
 30
0.0
 10
22.2457202682
 20
83.1310238609
 30
0.0
 10
22.2428846102
 20
83.1279070027
 30
0.0
 10
22.2428893073
 20
83.125916949
 30
0.0
  0
SPLINE
  5
2AA
100
AcDbEntity
  8
0
100
AcDbSpline
 62
7
  6
BYLAYER
 70
0
 71
3
 72
24
 73
20
 74
0
 42
0.0000001
 43
0.0000001
 44
0.0000000001
 40
0.0
 40
0.0
 40
0.0
 40
0.0
 40
0.1896407679
 40
0.3724203408
 40
0.4591341941
 40
0.5416867613
 40
0.6193104254
 40
0.6913072882
 40
0.7570207259
 40
0.8158636275
 40
0.8672958533
 40
0.9108602497
 40
0.9461610705
 40
0.960613705
 40
0.9728956725
 40
0.9829804081
 40
0.9908495194
 40
0.9965083476
 40
1.0
 40
1.0
 40
1.0
 40
1.0
 10
28.2428789994
 20
81.3755748025
 30
0.0
 10
28.6221634763
 20
81.3850975906
 30
0.0
 10
29.3669634623
 20
81.4056003429
 30
0.0
 10
30.28518703
 20
81.4306369625
 30
0.0
 10
30.9892096844
 20
81.4510881495
 30
0.0
 10
31.4829180185
 20
81.4662089367
 30
0.0
 10
31.9471692878
 20
81.481299907
 30
0.0
 10
32.3777136847
 20
81.4963548198
 30
0.0
 10
32.7706604299
 20
81.5113922215
 30
0.0
 10
33.1224324021
 20
81.5263994568
 30
0.0
 10
33.4298509004
 20
81.5413505263
 30
0.0
 10
33.6901065674
 20
81.5562304206
 30
0.0
 10
33.876364776
 20
81.5692039787
 30
0.0
 10
34.000009557
 20
81.5799390684
 30
0.0
 10
34.0733062324
 20
81.5874017595
 30
0.0
 10
34.1333195848
 20
81.5948338678
 30
0.0
 10
34.1800763831
 20
81.6021009307
 30
0.0
 10
34.2132329884
 20
81.6093450181
 30
0.0
 10
34.2309452714
 20
81.6149246271
 30
0.0
 10
34.2369448418
 20
81.618502783
 30
0.0
  0
SPLINE
  5
2AB
100
AcDbEntity
  8
0
100
AcDbSpline
 62
7
  6
BYLAYER
 70
0
 71
3
 72
27
 73
23
 74
0
 42
0.0000001
 43
0.0000001
 44
0.0000000001
 40
0.0
 40
0.0
 40
0.0
 40
0.0
 40
0.0007161408
 40
0.0018285194
 40
0.0034661391
 40
0.0056663293
 40
0.0118004172
 40
0.0202734417
 40
0.0310872781
 40
0.0442194382
 40
0.0596396957
 40
0.077316095
 40
0.11927798
 40
0.1696961775
 40
0.2281027584
 40
0.2939260379
 40
0.3665456162
 40
0.4452579084
 40
0.5293169531
 40
0.6178960259
 40
0.8052111243
 40
1.0
 40
1.0
 40
1.0
 40
1.0
 10
34.2428788925
 20
81.0482246091
 30
0.0
 10
34.2428794396
 20
81.0467895893
 30
0.0
 10
34.2407731619
 20
81.0433252038
 30
0.0
 10
34.2347938535
 20
81.0397565225
 30
0.0
 10
34.2256085092
 20
81.0359271677
 30
0.0
 10
34.2064259665
 20
81.0302687859
 30
0.0
 10
34.1733685538
 20
81.023605013
 30
0.0
 10
34.1229908125
 20
81.0160490409
 30
0.0
 10
34.0584675658
 20
81.0084229462
 30
0.0
 10
33.9799582545
 20
81.000732389
 30
0.0
 10
33.887643556
 20
80.9930097559
 30
0.0
 10
33.7376376119
 20
80.982048281
 30
0.0
 10
33.5175005693
 20
80.9687054809
 30
0.0
 10
33.2157392389
 20
80.9533425459
 30
0.0
 10
32.86611257
 20
80.9379319181
 30
0.0
 10
32.4719632643
 20
80.9224667366
 30
0.0
 10
32.0370978455
 20
80.9069713747
 30
0.0
 10
31.5656704711
 20
80.8914637584
 30
0.0
 10
31.0622465887
 20
80.8759710148
 30
0.0
 10
30.3412731185
 20
80.8548435658
 30
0.0
 10
29.3984706706
 20
80.8286365857
 30
0.0
 10
28.6330495446
 20
80.8091182061
 30
0.0
 10
28.2428789994
 20
80.7982245333
 30
0.0
  0
SPLINE
  5
2AC
100
AcDbEntity
  8
0
100
AcDbSpline
 62
7
  6
BYLAYER
 70
0
 71
3
 72
28
 73
24
 74
0
 42
0.0000001
 43
0.0000001
 44
0.0000000001
 40
0.0
 40
0.0
 40
0.0
 40
0.0
 40
0.0015237859
 40
0.0036844382
 40
0.0099757187
 40
0.0189244291
 40
0.030507466
 40
0.0446787142
 40
0.0613881533
 40
0.0805654075
 40
0.1021197422
 40
0.1519881315
 40
0.2101914184
 40
0.2758403121
 40
0.3478756468
 40
0.4251205064
 40
0.5062758908
 40
0.5900249775
 40
0.6750320652
 40
0.7598944096
 40
0.8432300742
 40
0.9237203638
 40
1.0
 40
1.0
 40
1.0
 40
1.0
 10
33.7351698848
 20
83.3277175148
 30
0.0
 10
33.7315155407
 20
83.3256653252
 30
0.0
 10
33.7219965236
 20
83.3219923233
 30
0.0
 10
33.6955322622
 20
83.3147720174
 30
0.0
 10
33.6482961454
 20
83.3065292772
 30
0.0
 10
33.5751690805
 20
83.2969154922
 30
0.0
 10
33.4802062167
 20
83.2870849783
 30
0.0
 10
33.3638503591
 20
83.2769759325
 30
0.0
 10
33.2265497459
 20
83.2666609474
 30
0.0
 10
33.0689040097
 20
83.2562121407
 30
0.0
 10
32.8201376842
 20
83.2415841163
 30
0.0
 10
32.4640109665
 20
83.2243717586
 30
0.0
 10
31.9865799841
 20
83.2051664179
 30
0.0
 10
31.4481494488
 20
83.185598283
 30
0.0
 10
30.8573414833
 20
83.1652347541
 30
0.0
 10
30.2238855582
 20
83.1440647777
 30
0.0
 10
29.5581682921
 20
83.1237063233
 30
0.0
 10
28.871067681
 20
83.1041922249
 30
0.0
 10
28.1737624393
 20
83.084854213
 30
0.0
 10
27.4776161179
 20
83.0647435993
 30
0.0
 10
26.7939323862
 20
83.0435171676
 30
0.0
 10
26.1338410766
 20
83.0231274618
 30
0.0
 10
25.7028610177
 20
83.0095672624
 30
0.0
 10
25.4931696755
 20
83.0026369802
 30
0.0
  0
SPLINE
  5
2AD
100
AcDbEntity
  8
0
100
AcDbSpline
 62
7
  6
BYLAYER
 70
0
 71
3
 72
28
 73
24
 74
0
 42
0.0000001
 43
0.0000001
 44
0.0000000001
 40
0.0
 40
0.0
 40
0.0
 40
0.0
 40
0.1947935672
 40
0.2898611821
 40
0.3821174522
 40
0.4707015913
 40
0.554765794
 40
0.6334836395
 40
0.7061080775
 40
0.7719339888
 40
0.8303436632
 40
0.8807681587
 40
0.9227381819
 40
0.9404177885
 40
0.9558394074
 40
0.9689710955
 40
0.9797823613
 40
0.9882492452
 40
0.9943725046
 40
0.9965653154
 40
0.998194039
 40
0.9992956738
 40
1.0
 40
1.0
 40
1.0
 40
1.0
 10
28.2428789994
 20
82.7982245333
 30
0.0
 10
28.6330628201
 20
82.8081311442
 30
0.0
 10
29.2136823862
 20
82.8225163042
 30
0.0
 10
29.9790543867
 20
82.8432374608
 30
0.0
 10
30.5316651271
 20
82.8591445215
 30
0.0
 10
31.062206176
 20
82.8754625148
 30
0.0
 10
31.565613169
 20
82.8915707031
 30
0.0
 10
32.0370536759
 20
82.9067872323
 30
0.0
 10
32.4719444674
 20
82.9215827315
 30
0.0
 10
32.8661129904
 20
82.9365185067
 30
0.0
 10
33.2157506135
 20
82.9517989538
 30
0.0
 10
33.5175042288
 20
82.9676932355
 30
0.0
 10
33.7376255514
 20
82.9816478909
 30
0.0
 10
33.8876296473
 20
82.9928568162
 30
0.0
 10
33.9799421772
 20
83.000634305
 30
0.0
 10
34.05844883
 20
83.0082658315
 30
0.0
 10
34.122967783
 20
83.0157254992
 30
0.0
 10
34.1733424371
 20
83.0230052534
 30
0.0
 10
34.2064009747
 20
83.0293822586
 30
0.0
 10
34.2255925607
 20
83.0348059643
 30
0.0
 10
34.2347744416
 20
83.0384979542
 30
0.0
 10
34.2407537269
 20
83.0419351444
 30
0.0
 10
34.2428782378
 20
83.0453431404
 30
0.0
 10
34.2428789218
 20
83.0467544046
 30
0.0
  0
SPLINE
  5
2AE
100
AcDbEntity
  8
0
100
AcDbSpline
 62
7
  6
BYLAYER
 70
0
 71
3
 72
11
 73
7
 74
0
 42
0.0000001
 43
0.0000001
 44
0.0000000001
 40
0.0
 40
0.0
 40
0.0
 40
0.0
 40
0.2346157051
 40
0.4823706043
 40
0.738988508
 40
1.0
 40
1.0
 40
1.0
 40
1.0
 10
25.2428781018
 20
82.7149312301
 30
0.0
 10
25.4774843692
 20
82.7217808795
 30
0.0
 10
25.9598672408
 20
82.7347533034
 30
0.0
 10
26.6988454481
 20
82.7556513358
 30
0.0
 10
27.4642073079
 20
82.7777110717
 30
0.0
 10
27.9818509083
 20
82.7915971347
 30
0.0
 10
28.2428789994
 20
82.7982245333
 30
0.0
  0
SPLINE
  5
2AF
100
AcDbEntity
  8
0
100
AcDbSpline
 62
7
  6
BYLAYER
 70
0
 71
3
 72
23
 73
19
 74
0
 42
0.0000001
 43
0.0000001
 44
0.0000000001
 40
0.0
 40
0.0
 40
0.0
 40
0.0
 40
0.1897677519
 40
0.372646609
 40
0.541990667
 40
0.619639764
 40
0.6916526522
 40
0.7573706461
 40
0.8162072714
 40
0.8676183027
 40
0.9111484383
 40
0.9463976
 40
0.9608191493
 40
0.9730661432
 40
0.9831116264
 40
0.9909387407
 40
0.9965535542
 40
1.0
 40
1.0
 40
1.0
 40
1.0
 10
28.2428789994
 20
76.7982245333
 30
0.0
 10
27.8633361485
 20
76.7880422807
 30
0.0
 10
27.1180181029
 20
76.7684355112
 30
0.0
 10
26.034036537
 20
76.738581084
 30
0.0
 10
25.1743408991
 20
76.7131590374
 30
0.0
 10
24.5364228414
 20
76.6924375738
 30
0.0
 10
24.1057627647
 20
76.6773626574
 30
0.0
 10
23.7127658009
 20
76.662310782
 30
0.0
 10
23.3610202285
 20
76.6472958419
 30
0.0
 10
23.053708504
 20
76.6323343419
 30
0.0
 10
22.7936534676
 20
76.6174442337
 30
0.0
 10
22.6076198368
 20
76.6044599426
 30
0.0
 10
22.484205589
 20
76.593715286
 30
0.0
 10
22.411116138
 20
76.5862490673
 30
0.0
 10
22.3513361027
 20
76.5788121648
 30
0.0
 10
22.3048253018
 20
76.5715451495
 30
0.0
 10
22.2719454045
 20
76.5642981543
 30
0.0
 10
22.2544036008
 20
76.5587194417
 30
0.0
 10
22.2485207773
 20
76.5551221677
 30
0.0
  0
SPLINE
  5
2B0
100
AcDbEntity
  8
0
100
AcDbSpline
 62
7
  6
BYLAYER
 70
0
 71
3
 72
23
 73
19
 74
0
 42
0.0000001
 43
0.0000001
 44
0.0000000001
 40
0.0
 40
0.0
 40
0.0
 40
0.0
 40
0.1897955733
 40
0.3727099723
 40
0.5420758337
 40
0.6197314404
 40
0.6917466043
 40
0.7574628122
 40
0.816292954
 40
0.8676959152
 40
0.9112155026
 40
0.9464523901
 40
0.9608667072
 40
0.9731058
 40
0.983142784
 40
0.9909602082
 40
0.996564323
 40
1.0
 40
1.0
 40
1.0
 40
1.0
 10
28.2428789994
 20
77.3755748025
 30
0.0
 10
28.6224889137
 20
77.3855079915
 30
0.0
 10
29.367933802
 20
77.4054685689
 30
0.0
 10
30.4521023863
 20
77.4352117138
 30
0.0
 10
31.3119362164
 20
77.4606526771
 30
0.0
 10
31.9499231512
 20
77.4813856654
 30
0.0
 10
32.3806027099
 20
77.4964593
 30
0.0
 10
32.773592614
 20
77.5115116608
 30
0.0
 10
33.1253097754
 20
77.5265294805
 30
0.0
 10
33.4325750335
 20
77.5414924323
 30
0.0
 10
33.6925713356
 20
77.5563840552
 30
0.0
 10
33.8785470052
 20
77.569369917
 30
0.0
 10
34.0019074877
 20
77.580117102
 30
0.0
 10
34.0749503725
 20
77.587584727
 30
0.0
 10
34.1346779816
 20
77.5950228587
 30
0.0
 10
34.1811319821
 20
77.6022903363
 30
0.0
 10
34.213946061
 20
77.6095386588
 30
0.0
 10
34.2314463865
 20
77.615118121
 30
0.0
 10
34.2373013909
 20
77.618719708
 30
0.0
  0
SPLINE
  5
2B1
100
AcDbEntity
  8
0
100
AcDbSpline
 62
7
  6
BYLAYER
 70
0
 71
3
 72
23
 73
19
 74
0
 42
0.0000001
 43
0.0000001
 44
0.0000000001
 40
0.0
 40
0.0
 40
0.0
 40
0.0
 40
0.189440938
 40
0.3720419808
 40
0.5411745196
 40
0.6187539767
 40
0.6907249099
 40
0.7564333699
 40
0.8152935932
 40
0.8667651941
 40
0.9103913483
 40
0.9457770292
 40
0.9602806005
 40
0.9726191792
 40
0.9827661752
 40
0.9907029977
 40
0.9964341779
 40
1.0
 40
1.0
 40
1.0
 40
1.0
 10
28.2428789994
 20
78.3755748025
 30
0.0
 10
28.6217305876
 20
78.385007523
 30
0.0
 10
29.3657021364
 20
78.4055954086
 30
0.0
 10
30.4478984176
 20
78.4350665948
 30
0.0
 10
31.3063478063
 20
78.4604739529
 30
0.0
 10
31.9435243571
 20
78.4811791247
 30
0.0
 10
32.3738789997
 20
78.4962153567
 30
0.0
 10
32.7667626267
 20
78.5112355818
 30
0.0
 10
33.1186061105
 20
78.526226547
 30
0.0
 10
33.4262338963
 20
78.541162021
 30
0.0
 10
33.6868389612
 20
78.5560266928
 30
0.0
 10
33.8734765083
 20
78.5689852449
 30
0.0
 10
33.997497861
 20
78.5797043297
 30
0.0
 10
34.0711286796
 20
78.5871602164
 30
0.0
 10
34.1315160209
 20
78.5945849056
 30
0.0
 10
34.1786707141
 20
78.6018518617
 30
0.0
 10
34.2122770658
 20
78.6090907814
 30
0.0
 10
34.2302720098
 20
78.6146703442
 30
0.0
 10
34.2364601068
 20
78.6182187519
 30
0.0
  0
SPLINE
  5
2B2
100
AcDbEntity
  8
0
100
AcDbSpline
 62
7
  6
BYLAYER
 70
0
 71
3
 72
27
 73
23
 74
0
 42
0.0000001
 43
0.0000001
 44
0.0000000001
 40
0.0
 40
0.0
 40
0.0
 40
0.0
 40
0.0007163815
 40
0.0018290062
 40
0.0034667268
 40
0.0056669105
 40
0.0118009411
 40
0.02027435
 40
0.031088392
 40
0.0442201298
 40
0.0596400138
 40
0.0773167662
 40
0.119279204
 40
0.1696978167
 40
0.2281049092
 40
0.2939287869
 40
0.3665497269
 40
0.4452633344
 40
0.5293234648
 40
0.6179033709
 40
0.8052176916
 40
1.0
 40
1.0
 40
1.0
 40
1.0
 10
34.2428788305
 20
80.0482240356
 30
0.0
 10
34.2428778324
 20
80.0467885342
 30
0.0
 10
34.2407689926
 20
80.0433252548
 30
0.0
 10
34.234788978
 20
80.039755988
 30
0.0
 10
34.225602746
 20
80.0359266474
 30
0.0
 10
34.2064203361
 20
80.0302679381
 30
0.0
 10
34.1733622387
 20
80.0236039017
 30
0.0
 10
34.1229834228
 20
80.0160482772
 30
0.0
 10
34.0584598411
 20
80.0084222974
 30
0.0
 10
33.9799517643
 20
80.000731637
 30
0.0
 10
33.887637984
 20
79.993009062
 30
0.0
 10
33.7376309842
 20
79.9820482078
 30
0.0
 10
33.5174913711
 20
79.9687055638
 30
0.0
 10
33.2157272355
 20
79.9533418221
 30
0.0
 10
32.8660977603
 20
79.9379285711
 30
0.0
 10
32.4719435872
 20
79.9224647512
 30
0.0
 10
32.0370714143
 20
79.9069794402
 30
0.0
 10
31.5656368668
 20
79.8914669522
 30
0.0
 10
31.0622078795
 20
79.875936097
 30
0.0
 10
30.3412315413
 20
79.8548341547
 30
0.0
 10
29.3984341619
 20
79.8289395732
 30
0.0
 10
28.6330547302
 20
79.8084340017
 30
0.0
 10
28.2428789994
 20
79.7982245333
 30
0.0
  0
SPLINE
  5
2B3
100
AcDbEntity
  8
0
100
AcDbSpline
 62
7
  6
BYLAYER
 70
0
 71
3
 72
20
 73
16
 74
0
 42
0.0000001
 43
0.0000001
 44
0.0000000001
 40
0.0
 40
0.0
 40
0.0
 40
0.0
 40
0.0042986567
 40
0.0104296915
 40
0.0283369157
 40
0.0538278455
 40
0.0868692697
 40
0.127339502
 40
0.1750892912
 40
0.2299577821
 40
0.291721303
 40
0.4349086008
 40
0.6024711638
 40
0.7919187609
 40
1.0
 40
1.0
 40
1.0
 40
1.0
 10
22.2497152579
 20
82.5556490118
 30
0.0
 10
22.2534567413
 20
82.5577646675
 30
0.0
 10
22.2632697621
 20
82.5615146476
 30
0.0
 10
22.2906359395
 20
82.5688226683
 30
0.0
 10
22.3395840556
 20
82.5769804025
 30
0.0
 10
22.4154301894
 20
82.5862451802
 30
0.0
 10
22.5140151435
 20
82.5954583658
 30
0.0
 10
22.6348984589
 20
82.60483611
 30
0.0
 10
22.777654792
 20
82.6144175656
 30
0.0
 10
22.9417194718
 20
82.6243541046
 30
0.0
 10
23.2011197312
 20
82.6386576979
 30
0.0
 10
23.573185017
 20
82.6562573822
 30
0.0
 10
24.0729428109
 20
82.6760382116
 30
0.0
 10
24.6376198742
 20
82.6961452971
 30
0.0
 10
25.0349088479
 20
82.7087831658
 30
0.0
 10
25.2428781018
 20
82.7149312301
 30
0.0
  0
ENDSEC
  0
SECTION
  2
OBJECTS
  0
DICTIONARY
  5
C
100
AcDbDictionary
280
0
281
1
  3
ACAD_GROUP
350
D
  3
ACAD_MLINESTYLE
350
17
  3
ACAD_LAYOUT
350
1A
  3
ACAD_PLOTSETTINGS
350
19
  3
ACAD_PLOTSTYLENAME
350
E
  0
DICTIONARY
  5
D
102
{ACAD_REACTORS
330
C
102
}
100
AcDbDictionary
280
0
281
1
  0
ACDBDICTIONARYWDFLT
  5
E
102
{ACAD_REACTORS
330
C
102
}
100
AcDbDictionary
281
1
  3
Normal
350
F
100
AcDbDictionaryWithDefault
340
F
  0
DICTIONARY
  5
17
102
{ACAD_REACTORS
330
C
102
}
100
AcDbDictionary
280
0
281
1
  3
Standard
350
18
  0
DICTIONARY
  5
19
102
{ACAD_REACTORS
330
C
102
}
100
AcDbDictionary
281
1
  0
DICTIONARY
  5
1A
102
{ACAD_REACTORS
330
C
102
}
100
AcDbDictionary
281
1
  3
Model
350
2B4
  3
Layout1
350
2B5
  0
ACDBPLACEHOLDER
  5
F
102
{ACAD_REACTORS
330
E
102
}
  0
MLINESTYLE
  5
18
102
{ACAD_REACTORS
330
17
102
}
100
AcDbMlineStyle
  2
STANDARD
 70
0
  3

 62
256
 51
90.0
 52
90.0
 71
2
 49
0.5
 62
256
  6
BYLAYER
 49
-0.5
 62
256
  6
BYLAYER
  0
LAYOUT
  5
2B4
102
{ACAD_REACTORS
330
1A
102
}
100
AcDbPlotSettings
  1

  2
none_device
  4

  6

 40
0.0
 41
0.0
 42
0.0
 43
0.0
 44
210.0
 45
297.0
 46
0.0
 47
0.0
 48
0.0
 49
0.0
140
0.0
141
0.0
142
1.0
143
1.0
 70
1024
 72
1
 73
0
 74
0
  7

 75
0
147
1.0
148
0.0
149
0.0
100
AcDbLayout
  1
Model
 70
0
 71
0
 10
0.0
 20
0.0
 11
210.0
 21
297.0
 12
0.0
 22
0.0
 32
0.0
 14
0.0
 24
0.0
 34
0.0
 15
0.0
 25
0.0
 35
0.0
146
0.0
 13
0.0
 23
0.0
 33
0.0
 16
1.0
 26
0.0
 36
0.0
 17
0.0
 27
1.0
 37
0.0
 76
0
330
210
345
0
346
0
  0
LAYOUT
  5
2B5
102
{ACAD_REACTORS
330
1A
102
}
100
AcDbPlotSettings
  1

  2
none_device
  4

  6

 40
0.0
 41
0.0
 42
0.0
 43
0.0
 44
210.0
 45
297.0
 46
0.0
 47
0.0
 48
0.0
 49
0.0
140
0.0
141
0.0
142
1.0
143
1.0
 70
0
 72
1
 73
0
 74
0
  7

 75
0
147
1.0
148
0.0
149
0.0
100
AcDbLayout
  1
Layout1
 70
0
 71
1
 10
0.0
 20
0.0
 11
210.0
 21
297.0
 12
0.0
 22
0.0
 32
0.0
 14
0.0
 24
0.0
 34
0.0
 15
0.0
 25
0.0
 35
0.0
146
0.0
 13
0.0
 23
0.0
 33
0.0
 16
1.0
 26
0.0
 36
0.0
 17
0.0
 27
1.0
 37
0.0
 76
0
330
211
345
0
346
0
  0
ENDSEC
  0
EOF
