999
DXF file: C:\Vinayak\New 2D genarating\updateCreo8 with 3dPdf\CAD\NSYCRN75250_3D-CAD\drw0001_5.dxf
999
Pro/ENGINEER 2021284 by Parametric Technology Corporation
  0
SECTION
  2
HEADER
  9
$ACADVER
  1
AC1024
  9
$DWGCODEPAGE
  3
ANSI_1252
  9
$EXTMAX
 10
592.2698395677
 20
837.6387731029
 30
0.0
  9
$EXTMIN
 10
0.0
 20
0.0
 30
0.0
  9
$LIMMIN
 10
0.0
 20
0.0
  9
$LIMMAX
 10
592.2698395677
 20
837.6387731029
  9
$VIEWCTR
 10
296.1349197838
 20
418.8193865514
  9
$VIEWSIZE
 40
837.6387731029
  9
$CLAYER
  8
0
  9
$LTSCALE
 40
54.601638543
  9
$CELTYPE
  6
BYLAYER
  9
$DIMSCALE
 40
1.0
  9
$DIMASZ
 40
7.0508314234
  9
$DIMEXO
 40
1.0
  9
$DIMDLI
 40
37.7247684479
  9
$DIMEXE
 40
1.0
  9
$DIMCEN
 40
8.9348135798
  9
$DIMLFAC
 40
1.0
  9
$DIMBLK
  1
_FILLED
  9
$DIMALT
 70
0
  9
$DIMALTF
 40
0.0393700787
  9
$DIMTXT
 40
9.8711639928
  9
$DIMTOL
 70
1
  9
$DIMLIM
 70
0
  9
$DIMTFAC
 40
1.0
  9
$DIMTP
 40
0.01
  9
$DIMTM
 40
0.01
  9
$DIMGAP
 40
0.625
  9
$DIMDSEP
 70
46
  9
$AUNITS
 70
0
  9
$PDMODE
 70
3
  9
$PDSIZE
 40
0.3125
  9
$HANDSEED
  5
367
  9
$TILEMODE
 70
1
  9
$MEASUREMENT
 70
1
  9
$INSUNITS
 70
4
  0
ENDSEC
  0
SECTION
  2
CLASSES
  0
CLASS
  1
ACDBDICTIONARYWDFLT
  2
AcDbDictionaryWithDefault
  3
AutoCAD 2000
 90
0
 91
1
280
0
281
0
  0
CLASS
  1
ACDBPLACEHOLDER
  2
AcDbPlaceHolder
  3
AutoCAD 2000
 90
0
 91
1
280
0
281
0
  0
CLASS
  1
LAYOUT
  2
AcDbLayout
  3
AutoCAD 2000
 90
0
 91
0
280
0
281
0
  0
ENDSEC
  0
SECTION
  2
TABLES
  0
TABLE
  2
VPORT
  5
8
100
AcDbSymbolTable
 70
2
  0
VPORT
  5
1F4
100
AcDbSymbolTableRecord
100
AcDbViewportTableRecord
  2
*ACTIVE
 70
0
 10
0.0
 20
0.0
 11
1.0
 21
1.0
 12
296.1349197838
 22
418.8193865514
 13
0.0
 23
0.0
 14
1.0
 24
1.0
 15
0.0
 25
0.0
 16
0.0
 26
0.0
 36
1.0
 17
0.0
 27
0.0
 37
0.0
 40
837.6387731029
 41
0.7070707071
 42
50.0
 43
0.0
 44
0.0
 50
0.0
 51
0.0
 71
0
 72
100
 73
1
 74
1
 75
0
 76
0
 77
0
 78
0
  0
ENDTAB
  0
TABLE
  2
LTYPE
  5
5
100
AcDbSymbolTable
 70
6
  0
LTYPE
  5
14
100
AcDbSymbolTableRecord
100
AcDbLinetypeTableRecord
  2
BYBLOCK
 70
0
  3

 72
65
 73
0
 40
0.0
  0
LTYPE
  5
15
100
AcDbSymbolTableRecord
100
AcDbLinetypeTableRecord
  2
BYLAYER
 70
0
  3

 72
65
 73
0
 40
0.0
  0
LTYPE
  5
16
100
AcDbSymbolTableRecord
100
AcDbLinetypeTableRecord
  2
CONTINUOUS
 70
64
  3
Solid line
 72
65
 73
0
 40
0.0
  0
LTYPE
  5
1F5
100
AcDbSymbolTableRecord
100
AcDbLinetypeTableRecord
  2
CENTER
 70
64
  3
____ _ ____ _ ____ _ ____ _ ____ _ ____ _ ____
 72
65
 73
4
 40
0.6
 49
0.375
 74
0
 49
-0.075
 74
0
 49
0.075
 74
0
 49
-0.075
 74
0
  0
LTYPE
  5
1F6
100
AcDbSymbolTableRecord
100
AcDbLinetypeTableRecord
  2
HIDDEN
 70
64
  3
- - - - - - - - - - - - - - - - - - - -
 72
65
 73
2
 40
0.2
 49
0.1
 74
0
 49
-0.1
 74
0
  0
LTYPE
  5
1F7
100
AcDbSymbolTableRecord
100
AcDbLinetypeTableRecord
  2
PHANTOM
 70
64
  3
_____ _ _ _____ _ _ _____ _ _ _____
 72
65
 73
6
 40
0.8
 49
0.45
 74
0
 49
-0.05
 74
0
 49
0.1
 74
0
 49
-0.05
 74
0
 49
0.1
 74
0
 49
-0.05
 74
0
  0
LTYPE
  5
1F8
100
AcDbSymbolTableRecord
100
AcDbLinetypeTableRecord
  2
DOT
 70
64
  3
. . . . . . . . . . . . . . . . . . . .
 72
65
 73
2
 40
0.2
 49
0.1
 74
0
 49
-0.1
 74
0
  0
LTYPE
  5
1F9
100
AcDbSymbolTableRecord
100
AcDbLinetypeTableRecord
  2
DASHED
 70
64
  3
- - - - - - - - - - - - - - - - - - - -
 72
65
 73
2
 40
0.2
 49
0.1
 74
0
 49
-0.1
 74
0
  0
ENDTAB
  0
TABLE
  2
LAYER
  5
2
100
AcDbSymbolTable
 70
36
  0
LAYER
  5
10
100
AcDbSymbolTableRecord
100
AcDbLayerTableRecord
  2
0
 70
0
 62
7
  6
CONTINUOUS
370
-3
390
F
  0
LAYER
  5
1FA
100
AcDbSymbolTableRecord
100
AcDbLayerTableRecord
  2
DEFAULT_1
 70
0
 62
7
  6
CENTER
370
-3
390
F
  0
LAYER
  5
1FB
100
AcDbSymbolTableRecord
100
AcDbLayerTableRecord
  2
DEFAULT_2
 70
0
 62
8
  6
HIDDEN
370
-3
390
F
  0
LAYER
  5
1FC
100
AcDbSymbolTableRecord
100
AcDbLayerTableRecord
  2
DEFAULT_3
 70
0
 62
7
  6
PHANTOM
370
-3
390
F
  0
LAYER
  5
1FD
100
AcDbSymbolTableRecord
100
AcDbLayerTableRecord
  2
00_COMPONENTS
 70
0
 62
7
  6
CONTINUOUS
370
-3
390
F
  0
LAYER
  5
1FE
100
AcDbSymbolTableRecord
100
AcDbLayerTableRecord
  2
00_COMPONENTS_7
 70
0
 62
7
  6
CONTINUOUS
370
-3
390
F
  0
LAYER
  5
1FF
100
AcDbSymbolTableRecord
100
AcDbLayerTableRecord
  2
01_1_DEFAULT_DATUMS
 70
0
 62
7
  6
CONTINUOUS
370
-3
390
F
  0
LAYER
  5
200
100
AcDbSymbolTableRecord
100
AcDbLayerTableRecord
  2
01_PLANES
 70
0
 62
7
  6
CONTINUOUS
370
-3
390
F
  0
LAYER
  5
201
100
AcDbSymbolTableRecord
100
AcDbLayerTableRecord
  2
02_COORD_SYS
 70
0
 62
7
  6
CONTINUOUS
370
-3
390
F
  0
LAYER
  5
202
100
AcDbSymbolTableRecord
100
AcDbLayerTableRecord
  2
03_AXES
 70
0
 62
7
  6
CONTINUOUS
370
-3
390
F
  0
LAYER
  5
203
100
AcDbSymbolTableRecord
100
AcDbLayerTableRecord
  2
04_POINTS
 70
0
 62
7
  6
CONTINUOUS
370
-3
390
F
  0
LAYER
  5
204
100
AcDbSymbolTableRecord
100
AcDbLayerTableRecord
  2
05_CURVES
 70
0
 62
7
  6
CONTINUOUS
370
-3
390
F
  0
LAYER
  5
205
100
AcDbSymbolTableRecord
100
AcDbLayerTableRecord
  2
06_SURFS
 70
0
 62
7
  6
CONTINUOUS
370
-3
390
F
  0
LAYER
  5
206
100
AcDbSymbolTableRecord
100
AcDbLayerTableRecord
  2
07_COSMETICS
 70
0
 62
7
  6
CONTINUOUS
370
-3
390
F
  0
LAYER
  5
207
100
AcDbSymbolTableRecord
100
AcDbLayerTableRecord
  2
10_NOTES
 70
0
 62
7
  6
CONTINUOUS
370
-3
390
F
  0
LAYER
  5
208
100
AcDbSymbolTableRecord
100
AcDbLayerTableRecord
  2
11_NOTES_PUB
 70
0
 62
7
  6
CONTINUOUS
370
-3
390
F
  0
LAYER
  5
209
100
AcDbSymbolTableRecord
100
AcDbLayerTableRecord
  2
13_REF_GTOL
 70
0
 62
7
  6
CONTINUOUS
370
-3
390
F
  0
LAYER
  5
20A
100
AcDbSymbolTableRecord
100
AcDbLayerTableRecord
  2
16_MISC
 70
0
 62
7
  6
CONTINUOUS
370
-3
390
F
  0
LAYER
  5
20B
100
AcDbSymbolTableRecord
100
AcDbLayerTableRecord
  2
17_NO_PRINT
 70
0
 62
7
  6
CONTINUOUS
370
-3
390
F
  0
LAYER
  5
20C
100
AcDbSymbolTableRecord
100
AcDbLayerTableRecord
  2
18_DATUM_CAMS_JOINTS
 70
0
 62
7
  6
CONTINUOUS
370
-3
390
F
  0
LAYER
  5
20D
100
AcDbSymbolTableRecord
100
AcDbLayerTableRecord
  2
19_DATUM_FUNCTIONAL
 70
0
 62
7
  6
CONTINUOUS
370
-3
390
F
  0
LAYER
  5
20E
100
AcDbSymbolTableRecord
100
AcDbLayerTableRecord
  2
20_DATUM_KINEMATIC_SCHEME
 70
0
 62
7
  6
CONTINUOUS
370
-3
390
F
  0
LAYER
  5
20F
100
AcDbSymbolTableRecord
100
AcDbLayerTableRecord
  2
PART
 70
0
 62
7
  6
CONTINUOUS
370
-3
390
F
  0
LAYER
  5
210
100
AcDbSymbolTableRecord
100
AcDbLayerTableRecord
  2
PART_1
 70
0
 62
7
  6
CONTINUOUS
370
-3
390
F
  0
ENDTAB
  0
TABLE
  2
STYLE
  5
3
100
AcDbSymbolTable
 70
1
  0
STYLE
  5
11
100
AcDbSymbolTableRecord
100
AcDbTextStyleTableRecord
  2
STANDARD
 70
0
 40
0.0
 41
0.8
 50
0.0
 71
0
 42
0.2
  3
txt
  4

  0
STYLE
  5
211
100
AcDbSymbolTableRecord
100
AcDbTextStyleTableRecord
  2
TEXTSTYLE_1
 70
0
 40
0.0
 41
0.8
 50
0.0
 71
0
 42
0.2
  3
gdt
  4

  0
ENDTAB
  0
TABLE
  2
VIEW
  5
6
100
AcDbSymbolTable
 70
0
  0
ENDTAB
  0
TABLE
  2
UCS
  5
7
100
AcDbSymbolTable
 70
0
  0
ENDTAB
  0
TABLE
  2
APPID
  5
9
100
AcDbSymbolTable
 70
1
  0
APPID
  5
212
100
AcDbSymbolTableRecord
100
AcDbRegAppTableRecord
  2
ACAD
 70
0
  0
ENDTAB
  0
TABLE
  2
BLOCK_RECORD
  5
1
100
AcDbSymbolTable
 70
0
  0
BLOCK_RECORD
  5
213
100
AcDbSymbolTableRecord
100
AcDbBlockTableRecord
  2
*Model_Space
  0
BLOCK_RECORD
  5
214
100
AcDbSymbolTableRecord
100
AcDbBlockTableRecord
  2
*Paper_Space
  0
BLOCK_RECORD
  5
215
100
AcDbSymbolTableRecord
100
AcDbBlockTableRecord
  2
_FILLED
  0
ENDTAB
  0
TABLE
  2
DIMSTYLE
  5
A
100
AcDbSymbolTable
 70
1
100
AcDbDimStyleTable
 71
0
  0
DIMSTYLE
105
216
100
AcDbSymbolTableRecord
100
AcDbDimStyleTableRecord
  2
STANDARD
 70
0
  3

  4

 40
1.0
 41
7.0508314234
 42
1.0
 43
0.38
 44
1.0
 45
0.0
 46
0.0
 47
0.01
 48
0.01
140
9.8711639928
141
0.09
142
0.0
143
25.4
144
1.0
145
0.0
146
1.0
147
0.625
 71
1
 72
0
 73
0
 74
0
 75
0
 76
0
 77
1
 78
8
 79
2
170
0
171
1
172
0
173
0
174
0
175
0
176
0
177
0
178
0
270
2
179
2
271
2
272
2
273
2
274
2
275
0
280
0
281
0
282
0
283
1
284
8
285
0
286
0
287
3
288
0
340
11
278
46
341
215
342
215
343
215
344
215
  0
ENDTAB
  0
ENDSEC
  0
SECTION
  2
BLOCKS
  0
BLOCK
  5
20
100
AcDbEntity
  8
0
100
AcDbBlockBegin
  2
*Model_Space
 70
0
 10
0.0
 20
0.0
 30
0.0
  3
*Model_Space
  1

  0
ENDBLK
  5
21
100
AcDbEntity
  8
0
100
AcDbBlockEnd
  0
BLOCK
  5
1C
100
AcDbEntity
  8
0
100
AcDbBlockBegin
  2
*Paper_Space
 70
0
 10
0.0
 20
0.0
 30
0.0
  3
*Paper_Space
  1

  0
ENDBLK
  5
1D
100
AcDbEntity
  8
0
100
AcDbBlockEnd
  0
BLOCK
  5
217
100
AcDbEntity
  8
0
100
AcDbBlockBegin
  2
_FILLED
 70
64
 10
0.0
 20
0.0
  3
_FILLED
  1

  0
SOLID
  5
218
100
AcDbEntity
  8
0
  6
BYBLOCK
 62
0
100
AcDbTrace
 10
0.0
 20
0.0
 11
-1.0
 21
0.25
 12
-1.0
 22
-0.25
 13
-1.0
 23
-0.25
  0
ENDBLK
  5
219
100
AcDbEntity
  8
0
  6
BYBLOCK
 62
0
100
AcDbBlockEnd
  0
ENDSEC
  0
SECTION
  2
ENTITIES
  0
LINE
  5
21A
100
AcDbEntity
  8
PART_1
100
AcDbLine
 62
7
  6
CONTINUOUS
 10
177.1145926109
 20
770.0620024169
 11
176.1799354539
 21
769.3093962789
  0
LINE
  5
21B
100
AcDbEntity
  8
00_COMPONENTS_7
100
AcDbLine
 62
7
  6
CONTINUOUS
 10
330.7019647215
 20
68.2110312086
 11
330.6968946446
 21
68.2099878531
  0
LINE
  5
21C
100
AcDbEntity
  8
00_COMPONENTS_7
100
AcDbLine
 62
7
  6
CONTINUOUS
 10
330.6979142952
 20
68.2053118126
 11
330.7022511785
 21
68.2061875136
  0
LINE
  5
21D
100
AcDbEntity
  8
00_COMPONENTS_7
100
AcDbLine
 62
7
  6
CONTINUOUS
 10
330.6981243592
 20
68.2060246023
 11
330.702454064
 21
68.2068776665
  0
LINE
  5
21E
100
AcDbEntity
  8
00_COMPONENTS_7
100
AcDbLine
 62
7
  6
CONTINUOUS
 10
330.7022932038
 20
68.2121615099
 11
330.6972379815
 21
68.2111657958
  0
LWPOLYLINE
  5
21F
100
AcDbEntity
  8
00_COMPONENTS_7
100
AcDbPolyline
 62
7
  6
CONTINUOUS
 90
3
 70
0
 10
332.4263751934
 20
68.543356088
 10
332.4562522644
 20
68.5464422406
 10
332.4872165611
 20
68.5546211605
  0
LINE
  5
220
100
AcDbEntity
  8
00_COMPONENTS_7
100
AcDbLine
 62
7
  6
CONTINUOUS
 10
330.5422421798
 20
68.1806308058
 11
330.590994218
 21
68.1849171838
  0
LINE
  5
221
100
AcDbEntity
  8
00_COMPONENTS_7
100
AcDbLine
 62
7
  6
CONTINUOUS
 10
265.5422421798
 20
68.1806308058
 11
265.590994218
 21
68.1849171838
  0
LINE
  5
222
100
AcDbEntity
  8
00_COMPONENTS_7
100
AcDbLine
 62
7
  6
CONTINUOUS
 10
330.5422416903
 20
68.1806365755
 11
330.5526225076
 21
68.1815177478
  0
LINE
  5
223
100
AcDbEntity
  8
00_COMPONENTS_7
100
AcDbLine
 62
7
  6
CONTINUOUS
 10
265.5422416903
 20
68.1806365755
 11
265.5526225076
 21
68.1815177478
  0
LINE
  5
224
100
AcDbEntity
  8
00_COMPONENTS_7
100
AcDbLine
 62
7
  6
CONTINUOUS
 10
332.3933886072
 20
68.5424116776
 11
332.4263751934
 21
68.543356088
  0
LINE
  5
225
100
AcDbEntity
  8
00_COMPONENTS_7
100
AcDbLine
 62
7
  6
CONTINUOUS
 10
332.4872125478
 20
68.5546191488
 11
332.4311700141
 21
68.5530160766
  0
LINE
  5
226
100
AcDbEntity
  8
00_COMPONENTS_7
100
AcDbLine
 62
7
  6
CONTINUOUS
 10
267.3933888552
 20
68.5424117472
 11
267.4263751934
 21
68.543356088
  0
LINE
  5
227
100
AcDbEntity
  8
00_COMPONENTS_7
100
AcDbLine
 62
7
  6
CONTINUOUS
 10
267.418041167
 20
68.5431170662
 11
267.4263751934
 21
68.543356088
  0
LINE
  5
228
100
AcDbEntity
  8
00_COMPONENTS_7
100
AcDbLine
 62
7
  6
CONTINUOUS
 10
267.4872096723
 20
68.5546187319
 11
267.4311700141
 21
68.5530160766
  0
LINE
  5
229
100
AcDbEntity
  8
00_COMPONENTS_7
100
AcDbLine
 62
7
  6
CONTINUOUS
 10
202.3933888552
 20
68.5424117472
 11
202.418041167
 21
68.5431170662
  0
LINE
  5
22A
100
AcDbEntity
  8
00_COMPONENTS_7
100
AcDbLine
 62
7
  6
CONTINUOUS
 10
202.3933886072
 20
68.5424116776
 11
202.4263751934
 21
68.543356088
  0
LINE
  5
22B
100
AcDbEntity
  8
00_COMPONENTS_7
100
AcDbLine
 62
7
  6
CONTINUOUS
 10
202.418041167
 20
68.5431170662
 11
202.4263751934
 21
68.543356088
  0
LINE
  5
22C
100
AcDbEntity
  8
00_COMPONENTS_7
100
AcDbLine
 62
7
  6
CONTINUOUS
 10
202.4872096723
 20
68.5546187319
 11
202.4311700141
 21
68.5530160766
  0
LINE
  5
22D
100
AcDbEntity
  8
00_COMPONENTS_7
100
AcDbLine
 62
7
  6
CONTINUOUS
 10
329.3659738542
 20
68.5416279084
 11
329.7032862325
 21
68.5430844287
  0
LINE
  5
22E
100
AcDbEntity
  8
00_COMPONENTS_7
100
AcDbLine
 62
7
  6
CONTINUOUS
 10
264.3659738542
 20
68.5416279084
 11
264.7032862325
 21
68.5430844287
  0
LINE
  5
22F
100
AcDbEntity
  8
00_COMPONENTS_7
100
AcDbLine
 62
7
  6
CONTINUOUS
 10
199.3659738542
 20
68.5416279084
 11
199.7032862325
 21
68.5430844287
  0
LINE
  5
230
100
AcDbEntity
  8
00_COMPONENTS_7
100
AcDbLine
 62
7
  6
CONTINUOUS
 10
269.5499159589
 20
69.6486209968
 11
260.2120317503
 21
69.6486209968
  0
LINE
  5
231
100
AcDbEntity
  8
00_COMPONENTS_7
100
AcDbLine
 62
7
  6
CONTINUOUS
 10
204.5499159589
 20
69.6486209968
 11
195.2120317503
 21
69.6486209968
  0
LINE
  5
232
100
AcDbEntity
  8
00_COMPONENTS_7
100
AcDbLine
 62
7
  6
CONTINUOUS
 10
325.2120317503
 20
69.6486209968
 11
334.5499159589
 21
69.6486209968
  0
LINE
  5
233
100
AcDbEntity
  8
00_COMPONENTS_7
100
AcDbLine
 62
7
  6
CONTINUOUS
 10
195.1309738542
 20
69.8094089803
 11
204.6309738542
 21
69.8094089803
  0
LINE
  5
234
100
AcDbEntity
  8
00_COMPONENTS_7
100
AcDbLine
 62
7
  6
CONTINUOUS
 10
260.1309738542
 20
69.8094089803
 11
269.6309738542
 21
69.8094089803
  0
LINE
  5
235
100
AcDbEntity
  8
00_COMPONENTS_7
100
AcDbLine
 62
7
  6
CONTINUOUS
 10
325.1309738542
 20
69.8094089803
 11
334.6309738542
 21
69.8094089803
  0
LINE
  5
236
100
AcDbEntity
  8
00_COMPONENTS_7
100
AcDbLine
 62
7
  6
CONTINUOUS
 10
334.6309738542
 20
70.1093962789
 11
334.4506730084
 21
70.1093962789
  0
LINE
  5
237
100
AcDbEntity
  8
00_COMPONENTS_7
100
AcDbLine
 62
7
  6
CONTINUOUS
 10
334.0288496201
 20
70.1093962789
 11
332.1956286081
 21
70.1093962789
  0
LINE
  5
238
100
AcDbEntity
  8
00_COMPONENTS_7
100
AcDbLine
 62
7
  6
CONTINUOUS
 10
331.1772568632
 20
70.1093962789
 11
328.5846908451
 21
70.1093962789
  0
LINE
  5
239
100
AcDbEntity
  8
00_COMPONENTS_7
100
AcDbLine
 62
7
  6
CONTINUOUS
 10
327.5663191002
 20
70.1093962789
 11
325.7330980882
 21
70.1093962789
  0
LINE
  5
23A
100
AcDbEntity
  8
00_COMPONENTS_7
100
AcDbLine
 62
7
  6
CONTINUOUS
 10
325.3112746999
 20
70.1093962789
 11
325.1309738542
 21
70.1093962789
  0
LINE
  5
23B
100
AcDbEntity
  8
00_COMPONENTS_7
100
AcDbLine
 62
7
  6
CONTINUOUS
 10
269.6309738542
 20
70.1093962789
 11
269.4506730084
 21
70.1093962789
  0
LINE
  5
23C
100
AcDbEntity
  8
00_COMPONENTS_7
100
AcDbLine
 62
7
  6
CONTINUOUS
 10
269.0288496201
 20
70.1093962789
 11
267.1956286081
 21
70.1093962789
  0
LINE
  5
23D
100
AcDbEntity
  8
00_COMPONENTS_7
100
AcDbLine
 62
7
  6
CONTINUOUS
 10
266.1772568632
 20
70.1093962789
 11
263.5846908451
 21
70.1093962789
  0
LINE
  5
23E
100
AcDbEntity
  8
00_COMPONENTS_7
100
AcDbLine
 62
7
  6
CONTINUOUS
 10
262.5663191002
 20
70.1093962789
 11
260.7330980882
 21
70.1093962789
  0
LINE
  5
23F
100
AcDbEntity
  8
00_COMPONENTS_7
100
AcDbLine
 62
7
  6
CONTINUOUS
 10
260.3112746999
 20
70.1093962789
 11
260.1309738542
 21
70.1093962789
  0
LINE
  5
240
100
AcDbEntity
  8
00_COMPONENTS_7
100
AcDbLine
 62
7
  6
CONTINUOUS
 10
204.6309738542
 20
70.1093962789
 11
204.4506730084
 21
70.1093962789
  0
LINE
  5
241
100
AcDbEntity
  8
00_COMPONENTS_7
100
AcDbLine
 62
7
  6
CONTINUOUS
 10
204.0288496201
 20
70.1093962789
 11
202.1956286081
 21
70.1093962789
  0
LINE
  5
242
100
AcDbEntity
  8
00_COMPONENTS_7
100
AcDbLine
 62
7
  6
CONTINUOUS
 10
201.1772568632
 20
70.1093962789
 11
198.5846908451
 21
70.1093962789
  0
LINE
  5
243
100
AcDbEntity
  8
00_COMPONENTS_7
100
AcDbLine
 62
7
  6
CONTINUOUS
 10
197.5663191002
 20
70.1093962789
 11
195.7330980882
 21
70.1093962789
  0
LINE
  5
244
100
AcDbEntity
  8
00_COMPONENTS_7
100
AcDbLine
 62
7
  6
CONTINUOUS
 10
195.3112746999
 20
70.1093962789
 11
195.1309738542
 21
70.1093962789
  0
LINE
  5
245
100
AcDbEntity
  8
00_COMPONENTS_7
100
AcDbLine
 62
7
  6
CONTINUOUS
 10
195.6834561232
 20
70.1920314611
 11
197.657614589
 21
70.1920314611
  0
LINE
  5
246
100
AcDbEntity
  8
00_COMPONENTS_7
100
AcDbLine
 62
7
  6
CONTINUOUS
 10
198.4850346332
 20
70.1920314611
 11
201.2769130751
 21
70.1920314611
  0
LINE
  5
247
100
AcDbEntity
  8
00_COMPONENTS_7
100
AcDbLine
 62
7
  6
CONTINUOUS
 10
202.104333137
 20
70.1920314611
 11
204.0784915851
 21
70.1920314611
  0
LINE
  5
248
100
AcDbEntity
  8
00_COMPONENTS_7
100
AcDbLine
 62
7
  6
CONTINUOUS
 10
260.6834561232
 20
70.1920314611
 11
262.657614589
 21
70.1920314611
  0
LINE
  5
249
100
AcDbEntity
  8
00_COMPONENTS_7
100
AcDbLine
 62
7
  6
CONTINUOUS
 10
263.4850346332
 20
70.1920314611
 11
266.2769130751
 21
70.1920314611
  0
LINE
  5
24A
100
AcDbEntity
  8
00_COMPONENTS_7
100
AcDbLine
 62
7
  6
CONTINUOUS
 10
267.104333137
 20
70.1920314611
 11
269.0784915851
 21
70.1920314611
  0
LINE
  5
24B
100
AcDbEntity
  8
00_COMPONENTS_7
100
AcDbLine
 62
7
  6
CONTINUOUS
 10
325.6834561232
 20
70.1920314611
 11
327.657614589
 21
70.1920314611
  0
LINE
  5
24C
100
AcDbEntity
  8
00_COMPONENTS_7
100
AcDbLine
 62
7
  6
CONTINUOUS
 10
328.4850346332
 20
70.1920314611
 11
331.2769130751
 21
70.1920314611
  0
LINE
  5
24D
100
AcDbEntity
  8
00_COMPONENTS_7
100
AcDbLine
 62
7
  6
CONTINUOUS
 10
332.104333137
 20
70.1920314611
 11
334.0784915851
 21
70.1920314611
  0
LINE
  5
24E
100
AcDbEntity
  8
00_COMPONENTS_7
100
AcDbLine
 62
7
  6
CONTINUOUS
 10
194.7606130126
 20
70.5093962789
 11
335.0013346957
 21
70.5093962789
  0
LINE
  5
24F
100
AcDbEntity
  8
PART_1
100
AcDbLine
 62
7
  6
CONTINUOUS
 10
403.6910130333
 20
71.509396279
 11
177.2330130333
 21
71.509396279
  0
LINE
  5
250
100
AcDbEntity
  8
PART_1
100
AcDbLine
 62
7
  6
CONTINUOUS
 10
175.8913722468
 20
72.7093962789
 11
403.6910130333
 21
72.7093962789
  0
LINE
  5
251
100
AcDbEntity
  8
PART
100
AcDbLine
 62
7
  6
CONTINUOUS
 10
425.8910130333
 20
73.7093962789
 11
411.8910130333
 21
73.7093962789
  0
LINE
  5
252
100
AcDbEntity
  8
00_COMPONENTS_7
100
AcDbLine
 62
7
  6
CONTINUOUS
 10
199.7032862325
 20
68.5430844287
 11
200.0558331046
 21
68.543090555
  0
LINE
  5
253
100
AcDbEntity
  8
00_COMPONENTS_7
100
AcDbLine
 62
7
  6
CONTINUOUS
 10
264.7032862325
 20
68.5430844287
 11
265.0558331046
 21
68.543090555
  0
LINE
  5
254
100
AcDbEntity
  8
00_COMPONENTS_7
100
AcDbLine
 62
7
  6
CONTINUOUS
 10
329.7032862325
 20
68.5430844287
 11
330.0558331046
 21
68.543090555
  0
LINE
  5
255
100
AcDbEntity
  8
00_COMPONENTS_7
100
AcDbLine
 62
7
  6
CONTINUOUS
 10
200.0558331046
 20
68.543090555
 11
200.3959738542
 21
68.5416279046
  0
LINE
  5
256
100
AcDbEntity
  8
00_COMPONENTS_7
100
AcDbLine
 62
7
  6
CONTINUOUS
 10
265.0558331046
 20
68.543090555
 11
265.3959738542
 21
68.5416279046
  0
LINE
  5
257
100
AcDbEntity
  8
00_COMPONENTS_7
100
AcDbLine
 62
7
  6
CONTINUOUS
 10
330.0558331046
 20
68.543090555
 11
330.3959738542
 21
68.5416279046
  0
LINE
  5
258
100
AcDbEntity
  8
00_COMPONENTS_7
100
AcDbLine
 62
7
  6
CONTINUOUS
 10
197.3355858025
 20
68.5433554145
 11
197.3652239939
 21
68.5425074561
  0
LINE
  5
259
100
AcDbEntity
  8
00_COMPONENTS_7
100
AcDbLine
 62
7
  6
CONTINUOUS
 10
197.330779238
 20
68.553015545
 11
197.2747283422
 21
68.5546221435
  0
LINE
  5
25A
100
AcDbEntity
  8
00_COMPONENTS_7
100
AcDbLine
 62
7
  6
CONTINUOUS
 10
262.3355858025
 20
68.5433554145
 11
262.3652239939
 21
68.5425074561
  0
LINE
  5
25B
100
AcDbEntity
  8
00_COMPONENTS_7
100
AcDbLine
 62
7
  6
CONTINUOUS
 10
262.330779238
 20
68.553015545
 11
262.2747283422
 21
68.5546221435
  0
LINE
  5
25C
100
AcDbEntity
  8
00_COMPONENTS_7
100
AcDbLine
 62
7
  6
CONTINUOUS
 10
327.3355858025
 20
68.5433554145
 11
327.3652239447
 21
68.5425074711
  0
LINE
  5
25D
100
AcDbEntity
  8
00_COMPONENTS_7
100
AcDbLine
 62
7
  6
CONTINUOUS
 10
327.330779238
 20
68.553015545
 11
327.2747268909
 21
68.5546216061
  0
LINE
  5
25E
100
AcDbEntity
  8
00_COMPONENTS_7
100
AcDbLine
 62
7
  6
CONTINUOUS
 10
199.2197051221
 20
68.1806308406
 11
199.2283817787
 21
68.1799001363
  0
LINE
  5
25F
100
AcDbEntity
  8
00_COMPONENTS_7
100
AcDbLine
 62
7
  6
CONTINUOUS
 10
264.2197051221
 20
68.1806308406
 11
264.2283817787
 21
68.1799001363
  0
LINE
  5
260
100
AcDbEntity
  8
00_COMPONENTS_7
100
AcDbLine
 62
7
  6
CONTINUOUS
 10
329.2197051221
 20
68.1806308406
 11
329.2283817787
 21
68.1799001363
  0
LINE
  5
261
100
AcDbEntity
  8
00_COMPONENTS_7
100
AcDbLine
 62
7
  6
CONTINUOUS
 10
197.3057055165
 20
68.5464408746
 11
197.3355858025
 21
68.5433554145
  0
LINE
  5
262
100
AcDbEntity
  8
00_COMPONENTS_7
100
AcDbLine
 62
7
  6
CONTINUOUS
 10
262.3057055165
 20
68.5464408746
 11
262.3355858025
 21
68.5433554145
  0
LINE
  5
263
100
AcDbEntity
  8
00_COMPONENTS_7
100
AcDbLine
 62
7
  6
CONTINUOUS
 10
327.3057055165
 20
68.5464408746
 11
327.3355858025
 21
68.5433554145
  0
LINE
  5
264
100
AcDbEntity
  8
00_COMPONENTS_7
100
AcDbLine
 62
7
  6
CONTINUOUS
 10
199.0630197601
 20
68.2062493914
 11
199.0595110399
 21
68.2069428609
  0
LINE
  5
265
100
AcDbEntity
  8
00_COMPONENTS_7
100
AcDbLine
 62
7
  6
CONTINUOUS
 10
264.0630197601
 20
68.2062493914
 11
264.0595110399
 21
68.2069428609
  0
LINE
  5
266
100
AcDbEntity
  8
00_COMPONENTS_7
100
AcDbLine
 62
7
  6
CONTINUOUS
 10
199.063249785
 20
68.2054685508
 11
199.0597358131
 21
68.2061783009
  0
LINE
  5
267
100
AcDbEntity
  8
00_COMPONENTS_7
100
AcDbLine
 62
7
  6
CONTINUOUS
 10
264.063249785
 20
68.2054685508
 11
264.0597358131
 21
68.2061783009
  0
LINE
  5
268
100
AcDbEntity
  8
00_COMPONENTS_7
100
AcDbLine
 62
7
  6
CONTINUOUS
 10
197.2747365362
 20
68.5546205954
 11
197.3057055165
 21
68.5464408746
  0
LINE
  5
269
100
AcDbEntity
  8
00_COMPONENTS_7
100
AcDbLine
 62
7
  6
CONTINUOUS
 10
262.2747365362
 20
68.5546205954
 11
262.3057055165
 21
68.5464408746
  0
LINE
  5
26A
100
AcDbEntity
  8
00_COMPONENTS_7
100
AcDbLine
 62
7
  6
CONTINUOUS
 10
265.7019647215
 20
68.2110312086
 11
265.6968946446
 21
68.2099878531
  0
LINE
  5
26B
100
AcDbEntity
  8
00_COMPONENTS_7
100
AcDbLine
 62
7
  6
CONTINUOUS
 10
200.7019647215
 20
68.2110312086
 11
200.6968946446
 21
68.2099878531
  0
LINE
  5
26C
100
AcDbEntity
  8
00_COMPONENTS_7
100
AcDbLine
 62
7
  6
CONTINUOUS
 10
265.6979142952
 20
68.2053118126
 11
265.7022511785
 21
68.2061875136
  0
LINE
  5
26D
100
AcDbEntity
  8
00_COMPONENTS_7
100
AcDbLine
 62
7
  6
CONTINUOUS
 10
200.6979142952
 20
68.2053118126
 11
200.7022511785
 21
68.2061875136
  0
LINE
  5
26E
100
AcDbEntity
  8
00_COMPONENTS_7
100
AcDbLine
 62
7
  6
CONTINUOUS
 10
265.7022932038
 20
68.2121615099
 11
265.6972379815
 21
68.2111657958
  0
LINE
  5
26F
100
AcDbEntity
  8
00_COMPONENTS_7
100
AcDbLine
 62
7
  6
CONTINUOUS
 10
265.6981243592
 20
68.2060246023
 11
265.702454064
 21
68.2068776665
  0
LINE
  5
270
100
AcDbEntity
  8
00_COMPONENTS_7
100
AcDbLine
 62
7
  6
CONTINUOUS
 10
200.7022932038
 20
68.2121615099
 11
200.6972379815
 21
68.2111657958
  0
LINE
  5
271
100
AcDbEntity
  8
00_COMPONENTS_7
100
AcDbLine
 62
7
  6
CONTINUOUS
 10
200.6981243592
 20
68.2060246023
 11
200.702454064
 21
68.2068776665
  0
LWPOLYLINE
  5
272
100
AcDbEntity
  8
00_COMPONENTS_7
100
AcDbPolyline
 62
7
  6
CONTINUOUS
 90
3
 70
0
 10
267.4263751934
 20
68.543356088
 10
267.4562522644
 20
68.5464422406
 10
267.4872165611
 20
68.5546211605
  0
LWPOLYLINE
  5
273
100
AcDbEntity
  8
00_COMPONENTS_7
100
AcDbPolyline
 62
7
  6
CONTINUOUS
 90
3
 70
0
 10
202.4263751934
 20
68.543356088
 10
202.4562522644
 20
68.5464422406
 10
202.4872165611
 20
68.5546211605
  0
LINE
  5
274
100
AcDbEntity
  8
00_COMPONENTS_7
100
AcDbLine
 62
7
  6
CONTINUOUS
 10
200.5422421798
 20
68.1806308058
 11
200.590994218
 21
68.1849171838
  0
LINE
  5
275
100
AcDbEntity
  8
00_COMPONENTS_7
100
AcDbLine
 62
7
  6
CONTINUOUS
 10
200.5422416903
 20
68.1806365755
 11
200.5526225076
 21
68.1815177478
  0
LINE
  5
276
100
AcDbEntity
  8
PART
100
AcDbLine
 62
7
  6
CONTINUOUS
 10
411.8910130333
 20
79.7093962789
 11
428.3910130333
 21
79.7093962789
  0
LINE
  5
277
100
AcDbEntity
  8
PART_1
100
AcDbLine
 62
7
  6
CONTINUOUS
 10
411.8910130333
 20
91.8093962789
 11
406.8910130333
 21
91.8093962789
  0
LINE
  5
278
100
AcDbEntity
  8
PART_1
100
AcDbLine
 62
7
  6
CONTINUOUS
 10
411.8910130333
 20
93.0093962789
 11
406.8910130333
 21
93.0093962789
  0
LINE
  5
279
100
AcDbEntity
  8
00_COMPONENTS_7
100
AcDbLine
 62
7
  6
CONTINUOUS
 10
329.0630197601
 20
68.2062493914
 11
329.0595110399
 21
68.2069428609
  0
LINE
  5
27A
100
AcDbEntity
  8
00_COMPONENTS_7
100
AcDbLine
 62
7
  6
CONTINUOUS
 10
329.063249785
 20
68.2054685508
 11
329.0597358131
 21
68.2061783009
  0
LINE
  5
27B
100
AcDbEntity
  8
00_COMPONENTS_7
100
AcDbLine
 62
7
  6
CONTINUOUS
 10
327.2747365362
 20
68.5546205954
 11
327.3057055165
 21
68.5464408746
  0
LINE
  5
27C
100
AcDbEntity
  8
0
100
AcDbLine
 62
7
  6
CONTINUOUS
 10
429.2610130333
 20
168.0093962789
 11
428.3910130333
 21
168.0093962789
  0
LINE
  5
27D
100
AcDbEntity
  8
0
100
AcDbLine
 62
7
  6
CONTINUOUS
 10
428.3910130333
 20
208.0093962789
 11
429.2610130333
 21
208.0093962789
  0
LINE
  5
27E
100
AcDbEntity
  8
PART_1
100
AcDbLine
 62
7
  6
CONTINUOUS
 10
175.8913722468
 20
72.7093962789
 11
175.8830130949
 21
72.8600049505
  0
LINE
  5
27F
100
AcDbEntity
  8
0
100
AcDbLine
 62
7
  6
CONTINUOUS
 10
175.7830130333
 20
752.4320459772
 11
175.7830130333
 21
740.5867465805
  0
LINE
  5
280
100
AcDbEntity
  8
0
100
AcDbLine
 62
7
  6
CONTINUOUS
 10
175.7830130333
 20
90.5867465811
 11
175.7830130333
 21
102.4320459767
  0
LINE
  5
281
100
AcDbEntity
  8
PART_1
100
AcDbLine
 62
7
  6
CONTINUOUS
 10
175.8830130333
 20
72.8595963843
 11
175.8830130333
 21
769.3093962789
  0
LINE
  5
282
100
AcDbEntity
  8
PART_1
100
AcDbLine
 62
7
  6
CONTINUOUS
 10
177.2330130333
 20
771.5093962789
 11
177.2330130333
 21
72.7093962789
  0
LINE
  5
283
100
AcDbEntity
  8
00_COMPONENTS_7
100
AcDbLine
 62
7
  6
CONTINUOUS
 10
200.7022932038
 20
68.2121615099
 11
200.7032532527
 21
68.1806263742
  0
LINE
  5
284
100
AcDbEntity
  8
00_COMPONENTS_7
100
AcDbLine
 62
7
  6
CONTINUOUS
 10
195.1309738542
 20
70.1093962789
 11
195.1309738542
 21
69.8094089805
  0
LINE
  5
285
100
AcDbEntity
  8
00_COMPONENTS_7
100
AcDbLine
 62
7
  6
CONTINUOUS
 10
199.3659738542
 20
68.553017281
 11
199.3659738542
 21
68.1852953894
  0
LINE
  5
286
100
AcDbEntity
  8
00_COMPONENTS_7
100
AcDbLine
 62
7
  6
CONTINUOUS
 10
199.8809738528
 20
68.5432790786
 11
199.8809738533
 21
68.5546217808
  0
LINE
  5
287
100
AcDbEntity
  8
00_COMPONENTS_7
100
AcDbLine
 62
7
  6
CONTINUOUS
 10
200.3959738542
 20
68.1852953894
 11
200.3959738542
 21
68.5530172932
  0
LINE
  5
288
100
AcDbEntity
  8
00_COMPONENTS_7
100
AcDbLine
 62
7
  6
CONTINUOUS
 10
204.6309738542
 20
70.1093962789
 11
204.6309738542
 21
69.8094089805
  0
LINE
  5
289
100
AcDbEntity
  8
00_COMPONENTS_7
100
AcDbLine
 62
7
  6
CONTINUOUS
 10
199.0586761512
 20
68.1799001363
 11
199.058803626
 21
68.1849171838
  0
LINE
  5
28A
100
AcDbEntity
  8
00_COMPONENTS_7
100
AcDbLine
 62
7
  6
CONTINUOUS
 10
199.0594743915
 20
68.2069501042
 11
199.058803626
 21
68.1849171838
  0
LINE
  5
28B
100
AcDbEntity
  8
00_COMPONENTS_7
100
AcDbLine
 62
7
  6
CONTINUOUS
 10
265.7022932038
 20
68.2121615099
 11
265.7032532527
 21
68.1806263742
  0
LINE
  5
28C
100
AcDbEntity
  8
00_COMPONENTS_7
100
AcDbLine
 62
7
  6
CONTINUOUS
 10
234.8809738542
 20
71.509396279
 11
234.8809738542
 21
70.5093962789
  0
LINE
  5
28D
100
AcDbEntity
  8
00_COMPONENTS_7
100
AcDbLine
 62
7
  6
CONTINUOUS
 10
260.1309738542
 20
70.1093962789
 11
260.1309738542
 21
69.8094089805
  0
LINE
  5
28E
100
AcDbEntity
  8
00_COMPONENTS_7
100
AcDbLine
 62
7
  6
CONTINUOUS
 10
264.3659738542
 20
68.553017281
 11
264.3659738542
 21
68.1852953894
  0
LINE
  5
28F
100
AcDbEntity
  8
00_COMPONENTS_7
100
AcDbLine
 62
7
  6
CONTINUOUS
 10
264.8809738528
 20
68.5432790786
 11
264.8809738533
 21
68.5546217808
  0
LINE
  5
290
100
AcDbEntity
  8
00_COMPONENTS_7
100
AcDbLine
 62
7
  6
CONTINUOUS
 10
265.3959738542
 20
68.1852953894
 11
265.3959738542
 21
68.5530172932
  0
LINE
  5
291
100
AcDbEntity
  8
00_COMPONENTS_7
100
AcDbLine
 62
7
  6
CONTINUOUS
 10
269.6309738542
 20
70.1093962789
 11
269.6309738542
 21
69.8094089805
  0
LINE
  5
292
100
AcDbEntity
  8
00_COMPONENTS_7
100
AcDbLine
 62
7
  6
CONTINUOUS
 10
264.0586761512
 20
68.1799001363
 11
264.058803626
 21
68.1849171838
  0
LINE
  5
293
100
AcDbEntity
  8
00_COMPONENTS_7
100
AcDbLine
 62
7
  6
CONTINUOUS
 10
264.0594743915
 20
68.2069501042
 11
264.058803626
 21
68.1849171838
  0
LINE
  5
294
100
AcDbEntity
  8
00_COMPONENTS_7
100
AcDbLine
 62
7
  6
CONTINUOUS
 10
294.8809738542
 20
70.5093962789
 11
294.8809738542
 21
71.509396279
  0
LINE
  5
295
100
AcDbEntity
  8
00_COMPONENTS_7
100
AcDbLine
 62
7
  6
CONTINUOUS
 10
330.7022932038
 20
68.2121615099
 11
330.7032532527
 21
68.1806263742
  0
LINE
  5
296
100
AcDbEntity
  8
00_COMPONENTS_7
100
AcDbLine
 62
7
  6
CONTINUOUS
 10
325.1309738542
 20
70.1093962789
 11
325.1309738542
 21
69.8094089805
  0
LINE
  5
297
100
AcDbEntity
  8
00_COMPONENTS_7
100
AcDbLine
 62
7
  6
CONTINUOUS
 10
329.3659738542
 20
68.553017281
 11
329.3659738542
 21
68.1852953894
  0
LINE
  5
298
100
AcDbEntity
  8
00_COMPONENTS_7
100
AcDbLine
 62
7
  6
CONTINUOUS
 10
329.8809738528
 20
68.5432790786
 11
329.8809738533
 21
68.5546217808
  0
LINE
  5
299
100
AcDbEntity
  8
00_COMPONENTS_7
100
AcDbLine
 62
7
  6
CONTINUOUS
 10
330.3959738542
 20
68.1852953894
 11
330.3959738542
 21
68.5530172932
  0
LINE
  5
29A
100
AcDbEntity
  8
00_COMPONENTS_7
100
AcDbLine
 62
7
  6
CONTINUOUS
 10
334.6309738542
 20
70.1093962789
 11
334.6309738542
 21
69.8094089805
  0
LINE
  5
29B
100
AcDbEntity
  8
00_COMPONENTS_7
100
AcDbLine
 62
7
  6
CONTINUOUS
 10
329.0586761512
 20
68.1799001363
 11
329.058803626
 21
68.1849171838
  0
LINE
  5
29C
100
AcDbEntity
  8
00_COMPONENTS_7
100
AcDbLine
 62
7
  6
CONTINUOUS
 10
329.0594743915
 20
68.2069501042
 11
329.058803626
 21
68.1849171838
  0
LINE
  5
29D
100
AcDbEntity
  8
0
100
AcDbLine
 62
7
  6
CONTINUOUS
 10
430.691483084
 20
636.0580035074
 11
432.821483084
 21
642.8080035074
  0
LINE
  5
29E
100
AcDbEntity
  8
0
100
AcDbLine
 62
7
  6
CONTINUOUS
 10
432.821483084
 20
200.2107890504
 11
430.691483084
 21
206.9607890504
  0
LINE
  5
29F
100
AcDbEntity
  8
PART_1
100
AcDbLine
 62
7
  6
CONTINUOUS
 10
403.6910130333
 20
71.509396279
 11
403.6910130333
 21
771.5093962789
  0
LINE
  5
2A0
100
AcDbEntity
  8
PART_1
100
AcDbLine
 62
7
  6
CONTINUOUS
 10
405.8910130333
 20
769.3093962789
 11
405.8910130333
 21
73.7093962789
  0
LINE
  5
2A1
100
AcDbEntity
  8
PART_1
100
AcDbLine
 62
7
  6
CONTINUOUS
 10
406.8910130333
 20
751.2093962789
 11
406.8910130333
 21
91.8093962789
  0
LINE
  5
2A2
100
AcDbEntity
  8
PART
100
AcDbLine
 62
7
  6
CONTINUOUS
 10
411.8910130333
 20
73.7093962789
 11
411.8910130333
 21
769.3093962789
  0
LINE
  5
2A3
100
AcDbEntity
  8
PART
100
AcDbLine
 62
7
  6
CONTINUOUS
 10
425.8910130333
 20
73.7093962789
 11
425.8910130333
 21
769.3093962789
  0
LINE
  5
2A4
100
AcDbEntity
  8
PART
100
AcDbLine
 62
7
  6
CONTINUOUS
 10
428.3910130333
 20
76.2093962789
 11
428.3910130333
 21
766.8093962789
  0
LINE
  5
2A5
100
AcDbEntity
  8
0
100
AcDbLine
 62
7
  6
CONTINUOUS
 10
432.8910130333
 20
176.2593962721
 11
432.8910130333
 21
199.7593962789
  0
LINE
  5
2A6
100
AcDbEntity
  8
0
100
AcDbLine
 62
7
  6
CONTINUOUS
 10
432.8910130333
 20
643.2593962721
 11
432.8910130333
 21
666.7593962789
  0
LINE
  5
2A7
100
AcDbEntity
  8
00_COMPONENTS_7
100
AcDbLine
 62
7
  6
CONTINUOUS
 10
200.5965858713
 20
68.1913406088
 11
200.590994218
 21
68.1849171838
  0
LINE
  5
2A8
100
AcDbEntity
  8
0
100
AcDbLine
 62
7
  6
CONTINUOUS
 10
430.691483084
 20
169.0580035074
 11
432.821483084
 21
175.8080035074
  0
LINE
  5
2A9
100
AcDbEntity
  8
00_COMPONENTS_7
100
AcDbLine
 62
7
  6
CONTINUOUS
 10
265.5965858713
 20
68.1913406088
 11
265.590994218
 21
68.1849171838
  0
LINE
  5
2AA
100
AcDbEntity
  8
0
100
AcDbLine
 62
7
  6
CONTINUOUS
 10
432.821483084
 20
667.2107890504
 11
430.691483084
 21
673.9607890504
  0
LINE
  5
2AB
100
AcDbEntity
  8
0
100
AcDbLine
 62
7
  6
CONTINUOUS
 10
429.2610130333
 20
635.0093962789
 11
428.3910130333
 21
635.0093962789
  0
LINE
  5
2AC
100
AcDbEntity
  8
00_COMPONENTS_7
100
AcDbLine
 62
7
  6
CONTINUOUS
 10
330.5965858713
 20
68.1913406088
 11
330.590994218
 21
68.1849171838
  0
LINE
  5
2AD
100
AcDbEntity
  8
0
100
AcDbLine
 62
7
  6
CONTINUOUS
 10
428.3910130333
 20
675.0093962789
 11
429.2610130333
 21
675.0093962789
  0
LINE
  5
2AE
100
AcDbEntity
  8
PART_1
100
AcDbLine
 62
7
  6
CONTINUOUS
 10
411.8910130333
 20
750.0093962789
 11
406.8910130333
 21
750.0093962789
  0
LINE
  5
2AF
100
AcDbEntity
  8
PART_1
100
AcDbLine
 62
7
  6
CONTINUOUS
 10
411.8910130333
 20
751.2093962789
 11
406.8910130333
 21
751.2093962789
  0
LINE
  5
2B0
100
AcDbEntity
  8
PART
100
AcDbLine
 62
7
  6
CONTINUOUS
 10
428.3910130333
 20
763.3093962789
 11
411.8910130333
 21
763.3093962789
  0
LINE
  5
2B1
100
AcDbEntity
  8
PART_1
100
AcDbLine
 62
7
  6
CONTINUOUS
 10
405.8910130333
 20
769.3093962789
 11
175.8830130338
 21
769.3093962789
  0
LINE
  5
2B2
100
AcDbEntity
  8
PART
100
AcDbLine
 62
7
  6
CONTINUOUS
 10
411.8910130333
 20
769.3093962789
 11
425.8910130333
 21
769.3093962789
  0
LINE
  5
2B3
100
AcDbEntity
  8
PART_1
100
AcDbLine
 62
7
  6
CONTINUOUS
 10
177.2330130333
 20
771.5093962789
 11
403.6910130333
 21
771.5093962789
  0
ARC
  5
2B4
100
AcDbEntity
  8
00_COMPONENTS_7
100
AcDbCircle
 62
7
  6
CONTINUOUS
 10
79.4760875058
 20
80.9679570421
 40
125.0675020286
100
AcDbArc
 50
355.0572202911
 51
355.203132992
  0
ARC
  5
2B5
100
AcDbEntity
  8
00_COMPONENTS_7
100
AcDbCircle
 62
7
  6
CONTINUOUS
 10
199.8819723985
 20
-14.4410356951
 40
82.9956568631
100
AcDbArc
 50
90.0006893418
 51
90.3562201976
  0
ARC
  5
2B6
100
AcDbEntity
  8
00_COMPONENTS_7
100
AcDbCircle
 62
7
  6
CONTINUOUS
 10
199.8831003367
 20
-13.4384845269
 40
81.9931057165
100
AcDbArc
 50
89.6416079212
 51
90.00148596
  0
ARC
  5
2B7
100
AcDbEntity
  8
PART_1
100
AcDbCircle
 62
7
  6
CONTINUOUS
 10
177.2330130333
 20
72.8614354581
 40
1.3520391791
100
AcDbArc
 50
177.3315960372
 51
270.0
  0
ARC
  5
2B8
100
AcDbEntity
  8
00_COMPONENTS_7
100
AcDbCircle
 62
7
  6
CONTINUOUS
 10
200.1754033204
 20
73.7088308238
 40
5.6146147485
100
AcDbArc
 50
254.0861344428
 51
258.5385976064
  0
ARC
  5
2B9
100
AcDbEntity
  8
00_COMPONENTS_7
100
AcDbCircle
 62
7
  6
CONTINUOUS
 10
199.6394233704
 20
73.3595240078
 40
5.2569923059
100
AcDbArc
 50
279.8882347386
 51
281.6045193927
  0
ARC
  5
2BA
100
AcDbEntity
  8
00_COMPONENTS_7
100
AcDbCircle
 62
7
  6
CONTINUOUS
 10
200.0982049142
 20
73.3368682752
 40
5.2347297209
100
AcDbArc
 50
258.5969587537
 51
259.7971010484
  0
ARC
  5
2BB
100
AcDbEntity
  8
00_COMPONENTS_7
100
AcDbCircle
 62
7
  6
CONTINUOUS
 10
199.664454609
 20
73.3328220311
 40
5.2306213746
100
AcDbArc
 50
280.2030760859
 51
281.3954071109
  0
ARC
  5
2BC
100
AcDbEntity
  8
00_COMPONENTS_7
100
AcDbCircle
 62
7
  6
CONTINUOUS
 10
194.7606130126
 20
75.0093962789
 40
4.5
100
AcDbArc
 50
232.7886697388
 51
270.0
  0
ARC
  5
2BD
100
AcDbEntity
  8
00_COMPONENTS_7
100
AcDbCircle
 62
7
  6
CONTINUOUS
 10
199.1427701664
 20
72.1185705449
 40
3.9396031951
100
AcDbArc
 50
272.586116253
 51
273.2479111092
  0
ARC
  5
2BE
100
AcDbEntity
  8
00_COMPONENTS_7
100
AcDbCircle
 62
7
  6
CONTINUOUS
 10
200.6191750855
 20
72.1185085032
 40
3.9395411139
100
AcDbArc
 50
266.7520734361
 51
267.4190714765
  0
ARC
  5
2BF
100
AcDbEntity
  8
00_COMPONENTS_7
100
AcDbCircle
 62
7
  6
CONTINUOUS
 10
199.1430083511
 20
72.1133811874
 40
3.9344083757
100
AcDbArc
 50
272.2516087375
 51
272.5860610096
  0
ARC
  5
2C0
100
AcDbEntity
  8
00_COMPONENTS_7
100
AcDbCircle
 62
7
  6
CONTINUOUS
 10
200.6188465104
 20
72.1112145277
 40
3.9322397415
100
AcDbArc
 50
267.4190684262
 51
268.0878842461
  0
ARC
  5
2C1
100
AcDbEntity
  8
00_COMPONENTS_7
100
AcDbCircle
 62
7
  6
CONTINUOUS
 10
199.1431763422
 20
72.1091119187
 40
3.9301358032
100
AcDbArc
 50
271.9173540632
 51
272.2516068286
  0
ARC
  5
2C2
100
AcDbEntity
  8
00_COMPONENTS_7
100
AcDbCircle
 62
7
  6
CONTINUOUS
 10
200.6186230323
 20
72.1045842339
 40
3.9256056828
100
AcDbArc
 50
268.0879152444
 51
268.7584605291
  0
ARC
  5
2C3
100
AcDbEntity
  8
00_COMPONENTS_7
100
AcDbCircle
 62
7
  6
CONTINUOUS
 10
199.1433255859
 20
72.1045744196
 40
3.925595851
100
AcDbArc
 50
271.2415292977
 51
271.9173928146
  0
ARC
  5
2C4
100
AcDbEntity
  8
00_COMPONENTS_7
100
AcDbCircle
 62
7
  6
CONTINUOUS
 10
199.1434088103
 20
72.0846969807
 40
3.90571607
100
AcDbArc
 50
268.090037946
 51
268.7568976937
  0
ARC
  5
2C5
100
AcDbEntity
  8
00_COMPONENTS_7
100
AcDbCircle
 62
7
  6
CONTINUOUS
 10
200.6185420275
 20
72.0846194454
 40
3.9056384851
100
AcDbArc
 50
271.2430810842
 51
271.9159098013
  0
ARC
  5
2C6
100
AcDbEntity
  8
00_COMPONENTS_7
100
AcDbCircle
 62
7
  6
CONTINUOUS
 10
199.1433650225
 20
72.0833603017
 40
3.9043786742
100
AcDbArc
 50
267.7539199679
 51
268.0900264015
  0
ARC
  5
2C7
100
AcDbEntity
  8
00_COMPONENTS_7
100
AcDbCircle
 62
7
  6
CONTINUOUS
 10
200.6186020118
 20
72.0827613288
 40
3.9037794018
100
AcDbArc
 50
271.9159416664
 51
272.5880041571
  0
ARC
  5
2C8
100
AcDbEntity
  8
00_COMPONENTS_7
100
AcDbCircle
 62
7
  6
CONTINUOUS
 10
200.6186552762
 20
72.0815862341
 40
3.9026031005
100
AcDbArc
 50
272.5880019542
 51
273.2592020835
  0
ARC
  5
2C9
100
AcDbEntity
  8
00_COMPONENTS_7
100
AcDbCircle
 62
7
  6
CONTINUOUS
 10
199.1432915996
 20
72.081545843
 40
3.9025627275
100
AcDbArc
 50
266.7407764047
 51
267.7539180659
  0
ARC
  5
2CA
100
AcDbEntity
  8
00_COMPONENTS_7
100
AcDbCircle
 62
7
  6
CONTINUOUS
 10
200.0863870681
 20
71.1698442936
 40
3.0522037382
100
AcDbArc
 50
281.6600912678
 51
284.1946443631
  0
ARC
  5
2CB
100
AcDbEntity
  8
00_COMPONENTS_7
100
AcDbCircle
 62
7
  6
CONTINUOUS
 10
204.4309738542
 20
69.8094089805
 40
0.2
100
AcDbArc
 50
306.4919987416
 51
360.0
  0
ARC
  5
2CC
100
AcDbEntity
  8
00_COMPONENTS_7
100
AcDbCircle
 62
7
  6
CONTINUOUS
 10
195.3309738542
 20
69.8094089805
 40
0.2
100
AcDbArc
 50
180.0
 51
233.5080012584
  0
ARC
  5
2CD
100
AcDbEntity
  8
00_COMPONENTS_7
100
AcDbCircle
 62
7
  6
CONTINUOUS
 10
202.1957028393
 20
70.1961544543
 40
0.0867582071
100
AcDbArc
 50
257.2508912723
 51
269.9509771394
  0
ARC
  5
2CE
100
AcDbEntity
  8
00_COMPONENTS_7
100
AcDbCircle
 62
7
  6
CONTINUOUS
 10
197.5662431181
 20
70.1961285204
 40
0.0867322747
100
AcDbArc
 50
270.0501941761
 51
282.7297754111
  0
ARC
  5
2CF
100
AcDbEntity
  8
00_COMPONENTS_7
100
AcDbCircle
 62
7
  6
CONTINUOUS
 10
209.4760875742
 20
80.9679570362
 40
125.0675019599
100
AcDbArc
 50
355.0572202911
 51
355.203132992
  0
ARC
  5
2D0
100
AcDbEntity
  8
00_COMPONENTS_7
100
AcDbCircle
 62
7
  6
CONTINUOUS
 10
199.8809738542
 20
75.9601775289
 40
7.85078125
100
AcDbArc
 50
233.5080024173
 51
250.6115024233
  0
ARC
  5
2D1
100
AcDbEntity
  8
00_COMPONENTS_7
100
AcDbCircle
 62
7
  6
CONTINUOUS
 10
199.8809738542
 20
75.9601775289
 40
7.85078125
100
AcDbArc
 50
289.3885360562
 51
306.4919975871
  0
ARC
  5
2D2
100
AcDbEntity
  8
00_COMPONENTS_7
100
AcDbCircle
 62
7
  6
CONTINUOUS
 10
199.8809738542
 20
75.9601775289
 40
7.8338714079
100
AcDbArc
 50
277.035724314
 51
288.9980033473
  0
ARC
  5
2D3
100
AcDbEntity
  8
00_COMPONENTS_7
100
AcDbCircle
 62
7
  6
CONTINUOUS
 10
199.8809738542
 20
75.9601775289
 40
7.8338714079
100
AcDbArc
 50
251.0020106811
 51
262.964275686
  0
ARC
  5
2D4
100
AcDbEntity
  8
00_COMPONENTS_7
100
AcDbCircle
 62
7
  6
CONTINUOUS
 10
199.8813636099
 20
75.985530404
 40
7.8328953235
100
AcDbArc
 50
264.7963671122
 51
265.1543500503
  0
ARC
  5
2D5
100
AcDbEntity
  8
0
100
AcDbCircle
 62
7
  6
CONTINUOUS
 10
177.7830130333
 20
90.5867465481
 40
2.0
100
AcDbArc
 50
180.0
 51
196.5817187389
  0
ARC
  5
2D6
100
AcDbEntity
  8
0
100
AcDbCircle
 62
7
  6
CONTINUOUS
 10
177.7830130333
 20
102.4320460097
 40
2.0
100
AcDbArc
 50
163.4182812611
 51
180.0
  0
ARC
  5
2D7
100
AcDbEntity
  8
00_COMPONENTS_7
100
AcDbCircle
 62
7
  6
CONTINUOUS
 10
264.1427701664
 20
72.1185705449
 40
3.9396031951
100
AcDbArc
 50
272.586116253
 51
273.2479111092
  0
ARC
  5
2D8
100
AcDbEntity
  8
00_COMPONENTS_7
100
AcDbCircle
 62
7
  6
CONTINUOUS
 10
264.1430083511
 20
72.1133811871
 40
3.9344083754
100
AcDbArc
 50
272.2516087375
 51
272.5860610096
  0
ARC
  5
2D9
100
AcDbEntity
  8
00_COMPONENTS_7
100
AcDbCircle
 62
7
  6
CONTINUOUS
 10
264.1431763421
 20
72.1091119199
 40
3.9301358043
100
AcDbArc
 50
271.9173540632
 51
272.2516068285
  0
ARC
  5
2DA
100
AcDbEntity
  8
00_COMPONENTS_7
100
AcDbCircle
 62
7
  6
CONTINUOUS
 10
264.1433255859
 20
72.1045744191
 40
3.9255958506
100
AcDbArc
 50
271.2415292977
 51
271.9173928147
  0
ARC
  5
2DB
100
AcDbEntity
  8
00_COMPONENTS_7
100
AcDbCircle
 62
7
  6
CONTINUOUS
 10
264.1434088103
 20
72.0846969803
 40
3.9057160696
100
AcDbArc
 50
268.090037946
 51
268.7568976938
  0
ARC
  5
2DC
100
AcDbEntity
  8
00_COMPONENTS_7
100
AcDbCircle
 62
7
  6
CONTINUOUS
 10
264.1433650225
 20
72.0833603005
 40
3.904378673
100
AcDbArc
 50
267.7539199678
 51
268.0900264016
  0
ARC
  5
2DD
100
AcDbEntity
  8
00_COMPONENTS_7
100
AcDbCircle
 62
7
  6
CONTINUOUS
 10
264.1432915996
 20
72.0815458426
 40
3.9025627271
100
AcDbArc
 50
266.7407764046
 51
267.7539180658
  0
ARC
  5
2DE
100
AcDbEntity
  8
00_COMPONENTS_7
100
AcDbCircle
 62
7
  6
CONTINUOUS
 10
260.3309738542
 20
69.8094089805
 40
0.2
100
AcDbArc
 50
180.0
 51
233.5080012584
  0
ARC
  5
2DF
100
AcDbEntity
  8
00_COMPONENTS_7
100
AcDbCircle
 62
7
  6
CONTINUOUS
 10
262.5662431181
 20
70.1961285204
 40
0.0867322747
100
AcDbArc
 50
270.050194176
 51
282.7297754111
  0
ARC
  5
2E0
100
AcDbEntity
  8
PART_1
100
AcDbCircle
 62
7
  6
CONTINUOUS
 10
177.2330130333
 20
770.1573570998
 40
1.3520391791
100
AcDbArc
 50
90.0
 51
218.8417685855
  0
ARC
  5
2E1
100
AcDbEntity
  8
PART_1
100
AcDbCircle
 62
7
  6
CONTINUOUS
 10
177.2330130333
 20
770.1573570998
 40
0.1520391791
100
AcDbArc
 50
115.5791157074
 51
230.7479223945
  0
ARC
  5
2E2
100
AcDbEntity
  8
00_COMPONENTS_7
100
AcDbCircle
 62
7
  6
CONTINUOUS
 10
264.8819723985
 20
-14.4410356951
 40
82.9956568631
100
AcDbArc
 50
90.0006893418
 51
90.3562201976
  0
ARC
  5
2E3
100
AcDbEntity
  8
00_COMPONENTS_7
100
AcDbCircle
 62
7
  6
CONTINUOUS
 10
264.8831003367
 20
-13.4384845308
 40
81.9931057203
100
AcDbArc
 50
89.6416079212
 51
90.00148596
  0
ARC
  5
2E4
100
AcDbEntity
  8
00_COMPONENTS_7
100
AcDbCircle
 62
7
  6
CONTINUOUS
 10
264.8809738542
 20
75.9601775289
 40
7.85078125
100
AcDbArc
 50
233.5080024173
 51
250.6115024233
  0
ARC
  5
2E5
100
AcDbEntity
  8
00_COMPONENTS_7
100
AcDbCircle
 62
7
  6
CONTINUOUS
 10
264.8809738542
 20
75.9601775289
 40
7.85078125
100
AcDbArc
 50
289.3885360562
 51
306.4919975871
  0
ARC
  5
2E6
100
AcDbEntity
  8
00_COMPONENTS_7
100
AcDbCircle
 62
7
  6
CONTINUOUS
 10
264.8809738542
 20
75.9601775289
 40
7.8338714079
100
AcDbArc
 50
277.035724314
 51
288.9980033473
  0
ARC
  5
2E7
100
AcDbEntity
  8
00_COMPONENTS_7
100
AcDbCircle
 62
7
  6
CONTINUOUS
 10
264.8809738542
 20
75.9601775289
 40
7.8338714079
100
AcDbArc
 50
251.0020106811
 51
262.964275686
  0
ARC
  5
2E8
100
AcDbEntity
  8
00_COMPONENTS_7
100
AcDbCircle
 62
7
  6
CONTINUOUS
 10
264.8813636099
 20
75.9855304035
 40
7.832895323
100
AcDbArc
 50
264.7963671122
 51
265.1543500503
  0
ARC
  5
2E9
100
AcDbEntity
  8
00_COMPONENTS_7
100
AcDbCircle
 62
7
  6
CONTINUOUS
 10
265.1754033204
 20
73.7088308238
 40
5.6146147485
100
AcDbArc
 50
254.0861344428
 51
258.5385976064
  0
ARC
  5
2EA
100
AcDbEntity
  8
00_COMPONENTS_7
100
AcDbCircle
 62
7
  6
CONTINUOUS
 10
264.6394233704
 20
73.3595240076
 40
5.2569923056
100
AcDbArc
 50
279.8882347386
 51
281.6045193928
  0
ARC
  5
2EB
100
AcDbEntity
  8
00_COMPONENTS_7
100
AcDbCircle
 62
7
  6
CONTINUOUS
 10
265.0982049142
 20
73.3368682751
 40
5.2347297208
100
AcDbArc
 50
258.5969587537
 51
259.7971010484
  0
ARC
  5
2EC
100
AcDbEntity
  8
00_COMPONENTS_7
100
AcDbCircle
 62
7
  6
CONTINUOUS
 10
264.664454609
 20
73.3328220311
 40
5.2306213745
100
AcDbArc
 50
280.2030760859
 51
281.3954071109
  0
ARC
  5
2ED
100
AcDbEntity
  8
00_COMPONENTS_7
100
AcDbCircle
 62
7
  6
CONTINUOUS
 10
265.6191750855
 20
72.1185085033
 40
3.9395411141
100
AcDbArc
 50
266.7520734361
 51
267.4190714765
  0
ARC
  5
2EE
100
AcDbEntity
  8
00_COMPONENTS_7
100
AcDbCircle
 62
7
  6
CONTINUOUS
 10
265.6188465105
 20
72.1112145279
 40
3.9322397416
100
AcDbArc
 50
267.4190684262
 51
268.0878842461
  0
ARC
  5
2EF
100
AcDbEntity
  8
00_COMPONENTS_7
100
AcDbCircle
 62
7
  6
CONTINUOUS
 10
265.6186230323
 20
72.1045842339
 40
3.9256056828
100
AcDbArc
 50
268.0879152444
 51
268.7584605291
  0
ARC
  5
2F0
100
AcDbEntity
  8
00_COMPONENTS_7
100
AcDbCircle
 62
7
  6
CONTINUOUS
 10
265.6185420275
 20
72.0846194454
 40
3.9056384851
100
AcDbArc
 50
271.2430810842
 51
271.9159098013
  0
ARC
  5
2F1
100
AcDbEntity
  8
00_COMPONENTS_7
100
AcDbCircle
 62
7
  6
CONTINUOUS
 10
265.6186020118
 20
72.0827613289
 40
3.9037794019
100
AcDbArc
 50
271.9159416664
 51
272.5880041571
  0
ARC
  5
2F2
100
AcDbEntity
  8
00_COMPONENTS_7
100
AcDbCircle
 62
7
  6
CONTINUOUS
 10
265.6186552762
 20
72.0815862339
 40
3.9026031003
100
AcDbArc
 50
272.5880019542
 51
273.2592020835
  0
ARC
  5
2F3
100
AcDbEntity
  8
00_COMPONENTS_7
100
AcDbCircle
 62
7
  6
CONTINUOUS
 10
265.0863870681
 20
71.1698442937
 40
3.0522037383
100
AcDbArc
 50
281.6600912678
 51
284.194644363
  0
ARC
  5
2F4
100
AcDbEntity
  8
00_COMPONENTS_7
100
AcDbCircle
 62
7
  6
CONTINUOUS
 10
269.4309738542
 20
69.8094089805
 40
0.2
100
AcDbArc
 50
306.4919987416
 51
360.0
  0
ARC
  5
2F5
100
AcDbEntity
  8
00_COMPONENTS_7
100
AcDbCircle
 62
7
  6
CONTINUOUS
 10
267.1957028393
 20
70.1961544543
 40
0.0867582071
100
AcDbArc
 50
257.2508912722
 51
269.9509771395
  0
ARC
  5
2F6
100
AcDbEntity
  8
00_COMPONENTS_7
100
AcDbCircle
 62
7
  6
CONTINUOUS
 10
329.8819723985
 20
-14.4410356911
 40
82.9956568591
100
AcDbArc
 50
90.0006893418
 51
90.3562201976
  0
ARC
  5
2F7
100
AcDbEntity
  8
00_COMPONENTS_7
100
AcDbCircle
 62
7
  6
CONTINUOUS
 10
329.8831003367
 20
-13.438484527
 40
81.9931057166
100
AcDbArc
 50
89.6416079212
 51
90.00148596
  0
ARC
  5
2F8
100
AcDbEntity
  8
00_COMPONENTS_7
100
AcDbCircle
 62
7
  6
CONTINUOUS
 10
325.3309738542
 20
69.8094089805
 40
0.2
100
AcDbArc
 50
180.0
 51
233.5080012584
  0
ARC
  5
2F9
100
AcDbEntity
  8
00_COMPONENTS_7
100
AcDbCircle
 62
7
  6
CONTINUOUS
 10
319.7699035352
 20
80.9242072445
 40
124.5496945638
100
AcDbArc
 50
184.7966598129
 51
184.9431791265
  0
ARC
  5
2FA
100
AcDbEntity
  8
00_COMPONENTS_7
100
AcDbCircle
 62
7
  6
CONTINUOUS
 10
330.1754033204
 20
73.7088308238
 40
5.6146147485
100
AcDbArc
 50
254.0861344428
 51
258.5385976064
  0
ARC
  5
2FB
100
AcDbEntity
  8
00_COMPONENTS_7
100
AcDbCircle
 62
7
  6
CONTINUOUS
 10
329.6394233704
 20
73.3595240077
 40
5.2569923058
100
AcDbArc
 50
279.8882347386
 51
281.6045193927
  0
ARC
  5
2FC
100
AcDbEntity
  8
00_COMPONENTS_7
100
AcDbCircle
 62
7
  6
CONTINUOUS
 10
330.0982049142
 20
73.3368682751
 40
5.2347297208
100
AcDbArc
 50
258.5969587537
 51
259.7971010484
  0
ARC
  5
2FD
100
AcDbEntity
  8
00_COMPONENTS_7
100
AcDbCircle
 62
7
  6
CONTINUOUS
 10
329.664454609
 20
73.3328220314
 40
5.2306213748
100
AcDbArc
 50
280.203076086
 51
281.3954071109
  0
ARC
  5
2FE
100
AcDbEntity
  8
00_COMPONENTS_7
100
AcDbCircle
 62
7
  6
CONTINUOUS
 10
335.0013346957
 20
75.0093962789
 40
4.5
100
AcDbArc
 50
270.0
 51
307.2113302612
  0
ARC
  5
2FF
100
AcDbEntity
  8
00_COMPONENTS_7
100
AcDbCircle
 62
7
  6
CONTINUOUS
 10
329.1427701665
 20
72.1185705441
 40
3.9396031943
100
AcDbArc
 50
272.5861162529
 51
273.2479111092
  0
ARC
  5
300
100
AcDbEntity
  8
00_COMPONENTS_7
100
AcDbCircle
 62
7
  6
CONTINUOUS
 10
330.6191750855
 20
72.1185085029
 40
3.9395411136
100
AcDbArc
 50
266.7520734361
 51
267.4190714765
  0
ARC
  5
301
100
AcDbEntity
  8
00_COMPONENTS_7
100
AcDbCircle
 62
7
  6
CONTINUOUS
 10
329.1430083509
 20
72.1133811901
 40
3.9344083784
100
AcDbArc
 50
272.2516087376
 51
272.5860610095
  0
ARC
  5
302
100
AcDbEntity
  8
00_COMPONENTS_7
100
AcDbCircle
 62
7
  6
CONTINUOUS
 10
330.6188465105
 20
72.1112145281
 40
3.9322397418
100
AcDbArc
 50
267.4190684262
 51
268.087884246
  0
ARC
  5
303
100
AcDbEntity
  8
00_COMPONENTS_7
100
AcDbCircle
 62
7
  6
CONTINUOUS
 10
329.1431763422
 20
72.1091119182
 40
3.9301358026
100
AcDbArc
 50
271.9173540632
 51
272.2516068286
  0
ARC
  5
304
100
AcDbEntity
  8
00_COMPONENTS_7
100
AcDbCircle
 62
7
  6
CONTINUOUS
 10
330.6186230323
 20
72.1045842339
 40
3.9256056828
100
AcDbArc
 50
268.0879152444
 51
268.7584605291
  0
ARC
  5
305
100
AcDbEntity
  8
00_COMPONENTS_7
100
AcDbCircle
 62
7
  6
CONTINUOUS
 10
329.1433255859
 20
72.1045744196
 40
3.925595851
100
AcDbArc
 50
271.2415292977
 51
271.9173928146
  0
ARC
  5
306
100
AcDbEntity
  8
00_COMPONENTS_7
100
AcDbCircle
 62
7
  6
CONTINUOUS
 10
329.1434088103
 20
72.0846969807
 40
3.90571607
100
AcDbArc
 50
268.090037946
 51
268.7568976938
  0
ARC
  5
307
100
AcDbEntity
  8
00_COMPONENTS_7
100
AcDbCircle
 62
7
  6
CONTINUOUS
 10
330.6185420275
 20
72.0846194453
 40
3.905638485
100
AcDbArc
 50
271.2430810842
 51
271.9159098014
  0
ARC
  5
308
100
AcDbEntity
  8
00_COMPONENTS_7
100
AcDbCircle
 62
7
  6
CONTINUOUS
 10
329.1433650226
 20
72.0833603044
 40
3.904378677
100
AcDbArc
 50
267.753919968
 51
268.0900264014
  0
ARC
  5
309
100
AcDbEntity
  8
00_COMPONENTS_7
100
AcDbCircle
 62
7
  6
CONTINUOUS
 10
330.6186020118
 20
72.0827613289
 40
3.9037794019
100
AcDbArc
 50
271.9159416664
 51
272.5880041571
  0
ARC
  5
30A
100
AcDbEntity
  8
00_COMPONENTS_7
100
AcDbCircle
 62
7
  6
CONTINUOUS
 10
330.6186552762
 20
72.081586234
 40
3.9026031004
100
AcDbArc
 50
272.5880019542
 51
273.2592020835
  0
ARC
  5
30B
100
AcDbEntity
  8
00_COMPONENTS_7
100
AcDbCircle
 62
7
  6
CONTINUOUS
 10
329.1432915996
 20
72.0815458433
 40
3.9025627277
100
AcDbArc
 50
266.7407764047
 51
267.7539180657
  0
ARC
  5
30C
100
AcDbEntity
  8
00_COMPONENTS_7
100
AcDbCircle
 62
7
  6
CONTINUOUS
 10
330.0863870681
 20
71.1698442937
 40
3.0522037382
100
AcDbArc
 50
281.6600912678
 51
284.1946443631
  0
ARC
  5
30D
100
AcDbEntity
  8
00_COMPONENTS_7
100
AcDbCircle
 62
7
  6
CONTINUOUS
 10
334.4309738542
 20
69.8094089805
 40
0.2
100
AcDbArc
 50
306.4919987416
 51
360.0
  0
ARC
  5
30E
100
AcDbEntity
  8
00_COMPONENTS_7
100
AcDbCircle
 62
7
  6
CONTINUOUS
 10
332.1957028393
 20
70.1961544543
 40
0.0867582071
100
AcDbArc
 50
257.2508912723
 51
269.9509771393
  0
ARC
  5
30F
100
AcDbEntity
  8
00_COMPONENTS_7
100
AcDbCircle
 62
7
  6
CONTINUOUS
 10
327.5662431181
 20
70.1961285204
 40
0.0867322747
100
AcDbArc
 50
270.0501941761
 51
282.729775411
  0
ARC
  5
310
100
AcDbEntity
  8
00_COMPONENTS_7
100
AcDbCircle
 62
7
  6
CONTINUOUS
 10
329.8809738542
 20
75.9601775289
 40
7.85078125
100
AcDbArc
 50
233.5080024173
 51
250.6115024233
  0
ARC
  5
311
100
AcDbEntity
  8
00_COMPONENTS_7
100
AcDbCircle
 62
7
  6
CONTINUOUS
 10
329.8809738542
 20
75.9601775289
 40
7.85078125
100
AcDbArc
 50
289.3885360562
 51
306.4919975871
  0
ARC
  5
312
100
AcDbEntity
  8
00_COMPONENTS_7
100
AcDbCircle
 62
7
  6
CONTINUOUS
 10
329.8809738542
 20
75.9601775289
 40
7.8338714079
100
AcDbArc
 50
277.035724314
 51
288.9980033473
  0
ARC
  5
313
100
AcDbEntity
  8
00_COMPONENTS_7
100
AcDbCircle
 62
7
  6
CONTINUOUS
 10
329.8809738542
 20
75.9601775289
 40
7.8338714079
100
AcDbArc
 50
251.0020106811
 51
262.964275686
  0
ARC
  5
314
100
AcDbEntity
  8
00_COMPONENTS_7
100
AcDbCircle
 62
7
  6
CONTINUOUS
 10
329.8813636097
 20
75.9855304017
 40
7.8328953212
100
AcDbArc
 50
264.7963671121
 51
265.1543500504
  0
ARC
  5
315
100
AcDbEntity
  8
00_COMPONENTS_7
100
AcDbCircle
 62
7
  6
CONTINUOUS
 10
449.7699037401
 20
80.9242072619
 40
124.5496947695
100
AcDbArc
 50
184.796659813
 51
184.9431791264
  0
ARC
  5
316
100
AcDbEntity
  8
00_COMPONENTS_7
100
AcDbCircle
 62
7
  6
CONTINUOUS
 10
384.7699035344
 20
80.9242072444
 40
124.5496945631
100
AcDbArc
 50
184.7966598129
 51
184.9431791265
  0
ARC
  5
317
100
AcDbEntity
  8
PART
100
AcDbCircle
 62
7
  6
CONTINUOUS
 10
425.8910130333
 20
76.2093962789
 40
2.5
100
AcDbArc
 50
270.0
 51
359.9999999998
  0
ARC
  5
318
100
AcDbEntity
  8
PART_1
100
AcDbCircle
 62
7
  6
CONTINUOUS
 10
403.6910130333
 20
73.709396279
 40
2.2
100
AcDbArc
 50
270.0
 51
360.0
  0
ARC
  5
319
100
AcDbEntity
  8
0
100
AcDbCircle
 62
7
  6
CONTINUOUS
 10
431.3910130333
 20
199.7593962789
 40
1.5
100
AcDbArc
 50
0.0
 51
17.5133803758
  0
ARC
  5
31A
100
AcDbEntity
  8
0
100
AcDbCircle
 62
7
  6
CONTINUOUS
 10
431.3910130333
 20
176.2593962789
 40
1.5
100
AcDbArc
 50
342.4866196242
 51
359.9999998695
  0
ARC
  5
31B
100
AcDbEntity
  8
0
100
AcDbCircle
 62
7
  6
CONTINUOUS
 10
429.2610130333
 20
169.5093962789
 40
1.5
100
AcDbArc
 50
270.0
 51
342.4866196243
  0
ARC
  5
31C
100
AcDbEntity
  8
0
100
AcDbCircle
 62
7
  6
CONTINUOUS
 10
429.2610130333
 20
206.5093962789
 40
1.5
100
AcDbArc
 50
17.5133803758
 51
90.0
  0
ARC
  5
31D
100
AcDbEntity
  8
PART
100
AcDbCircle
 62
7
  6
CONTINUOUS
 10
425.8910130333
 20
766.8093962789
 40
2.5
100
AcDbArc
 50
0.0000000002
 51
90.0
  0
ARC
  5
31E
100
AcDbEntity
  8
PART_1
100
AcDbCircle
 62
7
  6
CONTINUOUS
 10
403.6910130333
 20
769.3093962789
 40
2.2
100
AcDbArc
 50
0.0
 51
90.0
  0
ARC
  5
31F
100
AcDbEntity
  8
0
100
AcDbCircle
 62
7
  6
CONTINUOUS
 10
431.3910130333
 20
666.7593962789
 40
1.5
100
AcDbArc
 50
0.0
 51
17.5133803758
  0
ARC
  5
320
100
AcDbEntity
  8
0
100
AcDbCircle
 62
7
  6
CONTINUOUS
 10
431.3910130333
 20
643.2593962789
 40
1.5
100
AcDbArc
 50
342.4866196242
 51
359.9999998695
  0
ARC
  5
321
100
AcDbEntity
  8
0
100
AcDbCircle
 62
7
  6
CONTINUOUS
 10
429.2610130333
 20
636.5093962789
 40
1.5
100
AcDbArc
 50
270.0
 51
342.4866196243
  0
ARC
  5
322
100
AcDbEntity
  8
0
100
AcDbCircle
 62
7
  6
CONTINUOUS
 10
429.2610130333
 20
673.5093962789
 40
1.5
100
AcDbArc
 50
17.5133803758
 51
90.0
  0
ARC
  5
323
100
AcDbEntity
  8
PART_1
100
AcDbCircle
 62
7
  6
CONTINUOUS
 10
403.6910130333
 20
769.3093962789
 40
1.0
100
AcDbArc
 50
0.0
 51
90.0
  0
ARC
  5
324
100
AcDbEntity
  8
PART_1
100
AcDbCircle
 62
7
  6
CONTINUOUS
 10
406.8910130333
 20
752.2093962789
 40
1.0
100
AcDbArc
 50
180.0
 51
270.0
  0
SPLINE
  5
325
100
AcDbEntity
  8
00_COMPONENTS_7
100
AcDbSpline
 62
7
  6
CONTINUOUS
 70
0
 71
3
 72
9
 73
5
 74
0
 42
0.0000001
 43
0.0000001
 44
0.0000000001
 40
0.0
 40
0.0
 40
0.0
 40
0.0
 40
0.2550960217
 40
1.0
 40
1.0
 40
1.0
 40
1.0
 10
201.2707383351
 20
68.3593962789
 30
0.0
 10
201.2230400029
 20
68.3444205103
 30
0.0
 10
201.0353724906
 20
68.2879333755
 30
0.0
 10
200.8449414656
 20
68.2405256769
 30
0.0
 10
200.7019647215
 20
68.2110312086
 30
0.0
  0
LINE
  5
326
100
AcDbEntity
  8
00_COMPONENTS_7
100
AcDbLine
 62
7
  6
CONTINUOUS
 10
200.5421898987
 20
68.1806263742
 11
200.5378241772
 21
68.1802627108
  0
LINE
  5
327
100
AcDbEntity
  8
00_COMPONENTS_7
100
AcDbLine
 62
7
  6
CONTINUOUS
 10
200.5378241772
 20
68.1802627108
 11
200.5335659296
 21
68.1799001363
  0
SPLINE
  5
328
100
AcDbEntity
  8
00_COMPONENTS_7
100
AcDbSpline
 62
7
  6
CONTINUOUS
 70
0
 71
3
 72
11
 73
7
 74
0
 42
0.0000001
 43
0.0000001
 44
0.0000000001
 40
0.0
 40
0.0
 40
0.0
 40
0.0
 40
0.1238512556
 40
0.3326669276
 40
0.6329017252
 40
1.0
 40
1.0
 40
1.0
 40
1.0
 10
195.3112746999
 20
70.1093962789
 30
0.0
 10
195.3150553488
 20
70.1093962789
 30
0.0
 10
195.3240817605
 20
70.1167335924
 30
0.0
 10
195.3314192784
 20
70.1344225384
 30
0.0
 10
195.338058674
 20
70.1605456343
 30
0.0
 10
195.340118933
 20
70.1808494051
 30
0.0
 10
195.340726633
 20
70.1920388547
 30
0.0
  0
LINE
  5
329
100
AcDbEntity
  8
00_COMPONENTS_7
100
AcDbLine
 62
7
  6
CONTINUOUS
 10
195.340726633
 20
70.1920388547
 11
195.3582460203
 21
70.5093930516
  0
SPLINE
  5
32A
100
AcDbEntity
  8
00_COMPONENTS_7
100
AcDbSpline
 62
7
  6
CONTINUOUS
 70
0
 71
3
 72
9
 73
5
 74
0
 42
0.0000001
 43
0.0000001
 44
0.0000000001
 40
0.0
 40
0.0
 40
0.0
 40
0.0
 40
0.4822216116
 40
1.0
 40
1.0
 40
1.0
 40
1.0
 10
197.5853548471
 20
70.1115281108
 30
0.0
 10
197.603089373
 20
70.1155308196
 30
0.0
 10
197.6377666926
 20
70.1362805717
 30
0.0
 10
197.6544683152
 20
70.1727728891
 30
0.0
 10
197.657614589
 20
70.1920388532
 30
0.0
  0
LINE
  5
32B
100
AcDbEntity
  8
00_COMPONENTS_7
100
AcDbLine
 62
7
  6
CONTINUOUS
 10
197.657614589
 20
70.1920388532
 11
197.7094292311
 21
70.5093930516
  0
LINE
  5
32C
100
AcDbEntity
  8
00_COMPONENTS_7
100
AcDbLine
 62
7
  6
CONTINUOUS
 10
202.104333137
 20
70.1920387441
 11
202.0525174849
 21
70.5093928746
  0
SPLINE
  5
32D
100
AcDbEntity
  8
00_COMPONENTS_7
100
AcDbSpline
 62
7
  6
CONTINUOUS
 70
0
 71
3
 72
9
 73
5
 74
0
 42
0.0000001
 43
0.0000001
 44
0.0000000001
 40
0.0
 40
0.0
 40
0.0
 40
0.0
 40
0.5178173237
 40
1.0
 40
1.0
 40
1.0
 40
1.0
 10
202.104333137
 20
70.1920387441
 30
0.0
 10
202.1074786734
 20
70.1727772952
 30
0.0
 10
202.1241737359
 20
70.1362979599
 30
0.0
 10
202.1588306832
 20
70.115542755
 30
0.0
 10
202.1765568419
 20
70.1115352054
 30
0.0
  0
SPLINE
  5
32E
100
AcDbEntity
  8
00_COMPONENTS_7
100
AcDbSpline
 62
7
  6
CONTINUOUS
 70
0
 71
3
 72
11
 73
7
 74
0
 42
0.0000001
 43
0.0000001
 44
0.0000000001
 40
0.0
 40
0.0
 40
0.0
 40
0.0
 40
0.3671381174
 40
0.6673741446
 40
0.8761684199
 40
1.0
 40
1.0
 40
1.0
 40
1.0
 10
204.4212210813
 20
70.1920387456
 30
0.0
 10
204.4218288497
 20
70.1808480348
 30
0.0
 10
204.4238897593
 20
70.1605427811
 30
0.0
 10
204.430530029
 20
70.1344197788
 30
0.0
 10
204.4378662843
 20
70.1167303934
 30
0.0
 10
204.4468929444
 20
70.1093962789
 30
0.0
 10
204.4506730084
 20
70.1093962789
 30
0.0
  0
LINE
  5
32F
100
AcDbEntity
  8
00_COMPONENTS_7
100
AcDbLine
 62
7
  6
CONTINUOUS
 10
204.4212210813
 20
70.1920387456
 11
204.4037013548
 21
70.5093928746
  0
SPLINE
  5
330
100
AcDbEntity
  8
00_COMPONENTS_7
100
AcDbSpline
 62
7
  6
CONTINUOUS
 70
0
 71
3
 72
9
 73
5
 74
0
 42
0.0000001
 43
0.0000001
 44
0.0000000001
 40
0.0
 40
0.0
 40
0.0
 40
0.0
 40
0.5052624746
 40
1.0
 40
1.0
 40
1.0
 40
1.0
 10
198.4850314788
 20
70.1920387441
 30
0.0
 10
198.4890695581
 20
70.1691784219
 30
0.0
 10
198.514441401
 20
70.1253872328
 30
0.0
 10
198.561960184
 20
70.1093962789
 30
0.0
 10
198.5846908451
 20
70.1093962789
 30
0.0
  0
SPLINE
  5
331
100
AcDbEntity
  8
00_COMPONENTS_7
100
AcDbSpline
 62
7
  6
CONTINUOUS
 70
0
 71
3
 72
9
 73
5
 74
0
 42
0.0000001
 43
0.0000001
 44
0.0000000001
 40
0.0
 40
0.0
 40
0.0
 40
0.0
 40
0.2461012378
 40
1.0
 40
1.0
 40
1.0
 40
1.0
 10
198.6359211444
 20
68.3093962789
 30
0.0
 10
198.6697282188
 20
68.2965026388
 30
0.0
 10
198.8081378198
 20
68.2468612775
 30
0.0
 10
198.9504338439
 20
68.2081869821
 30
0.0
 10
199.058803626
 20
68.1849171838
 30
0.0
  0
LINE
  5
332
100
AcDbEntity
  8
00_COMPONENTS_7
100
AcDbLine
 62
7
  6
CONTINUOUS
 10
198.4850314788
 20
70.1920387441
 11
198.4292728074
 21
70.5093928746
  0
SPLINE
  5
333
100
AcDbEntity
  8
00_COMPONENTS_7
100
AcDbSpline
 62
7
  6
CONTINUOUS
 70
0
 71
3
 72
12
 73
8
 74
0
 42
0.0000001
 43
0.0000001
 44
0.0000000001
 40
0.0
 40
0.0
 40
0.0
 40
0.0
 40
0.3270039792
 40
0.54176599
 40
0.7225688652
 40
0.8713760224
 40
1.0
 40
1.0
 40
1.0
 40
1.0
 10
195.6834539315
 20
70.1920387456
 30
0.0
 10
195.6844293258
 20
70.1807626797
 30
0.0
 10
195.6876111611
 20
70.1621322072
 30
0.0
 10
195.6964312221
 20
70.1385954411
 30
0.0
 10
195.706643778
 20
70.122545986
 30
0.0
 10
195.7189506294
 20
70.1120022282
 30
0.0
 10
195.7286461897
 20
70.1093962789
 30
0.0
 10
195.7330980882
 20
70.1093962789
 30
0.0
  0
SPLINE
  5
334
100
AcDbEntity
  8
00_COMPONENTS_7
100
AcDbSpline
 62
7
  6
CONTINUOUS
 70
0
 71
3
 72
9
 73
5
 74
0
 42
0.0000001
 43
0.0000001
 44
0.0000000001
 40
0.0
 40
0.0
 40
0.0
 40
0.0
 40
0.4947805499
 40
1.0
 40
1.0
 40
1.0
 40
1.0
 10
201.1772568632
 20
70.1093962789
 30
0.0
 10
201.1999895367
 20
70.1093962789
 30
0.0
 10
201.2475088557
 20
70.1253889638
 30
0.0
 10
201.2728785069
 20
70.1691804417
 30
0.0
 10
201.2769162487
 20
70.1920388532
 30
0.0
  0
LINE
  5
335
100
AcDbEntity
  8
00_COMPONENTS_7
100
AcDbLine
 62
7
  6
CONTINUOUS
 10
201.2769162487
 20
70.1920388532
 11
201.3326738308
 21
70.5093930516
  0
SPLINE
  5
336
100
AcDbEntity
  8
00_COMPONENTS_7
100
AcDbSpline
 62
7
  6
CONTINUOUS
 70
0
 71
3
 72
11
 73
7
 74
0
 42
0.0000001
 43
0.0000001
 44
0.0000000001
 40
0.0
 40
0.0
 40
0.0
 40
0.0
 40
0.1744012102
 40
0.3334981697
 40
0.526315733
 40
1.0
 40
1.0
 40
1.0
 40
1.0
 10
204.0288496201
 20
70.1093962789
 30
0.0
 10
204.0348713495
 20
70.1093962789
 30
0.0
 10
204.0464565843
 20
70.113781491
 30
0.0
 10
204.0589233755
 20
70.1273305356
 30
0.0
 10
204.0724665269
 20
70.1526518847
 30
0.0
 10
204.0770842878
 20
70.1757443207
 30
0.0
 10
204.0784937862
 20
70.1920388547
 30
0.0
  0
SPLINE
  5
337
100
AcDbEntity
  8
00_COMPONENTS_7
100
AcDbSpline
 62
7
  6
CONTINUOUS
 70
0
 71
3
 72
9
 73
5
 74
0
 42
0.0000001
 43
0.0000001
 44
0.0000000001
 40
0.0
 40
0.0
 40
0.0
 40
0.0
 40
0.2542252921
 40
1.0
 40
1.0
 40
1.0
 40
1.0
 10
200.8348386021
 20
68.2108295994
 30
0.0
 10
200.8726950558
 20
68.2204106619
 30
0.0
 10
201.0208500812
 20
68.260993383
 30
0.0
 10
201.165800804
 20
68.3134532721
 30
0.0
 10
201.2707383351
 20
68.3593962789
 30
0.0
  0
SPLINE
  5
338
100
AcDbEntity
  8
00_COMPONENTS_7
100
AcDbSpline
 62
7
  6
CONTINUOUS
 70
0
 71
3
 72
9
 73
5
 74
0
 42
0.0000001
 43
0.0000001
 44
0.0000000001
 40
0.0
 40
0.0
 40
0.0
 40
0.0
 40
0.2550960217
 40
1.0
 40
1.0
 40
1.0
 40
1.0
 10
331.2707383351
 20
68.3593962789
 30
0.0
 10
331.2230400029
 20
68.3444205103
 30
0.0
 10
331.0353724906
 20
68.2879333755
 30
0.0
 10
330.8449414656
 20
68.2405256769
 30
0.0
 10
330.7019647215
 20
68.2110312086
 30
0.0
  0
LINE
  5
339
100
AcDbEntity
  8
00_COMPONENTS_7
100
AcDbLine
 62
7
  6
CONTINUOUS
 10
330.5421898987
 20
68.1806263742
 11
330.5378241772
 21
68.1802627108
  0
LINE
  5
33A
100
AcDbEntity
  8
00_COMPONENTS_7
100
AcDbLine
 62
7
  6
CONTINUOUS
 10
330.5378241772
 20
68.1802627108
 11
330.5335659296
 21
68.1799001363
  0
SPLINE
  5
33B
100
AcDbEntity
  8
00_COMPONENTS_7
100
AcDbSpline
 62
7
  6
CONTINUOUS
 70
0
 71
3
 72
11
 73
7
 74
0
 42
0.0000001
 43
0.0000001
 44
0.0000000001
 40
0.0
 40
0.0
 40
0.0
 40
0.0
 40
0.1238512556
 40
0.3326669276
 40
0.6329017252
 40
1.0
 40
1.0
 40
1.0
 40
1.0
 10
325.3112746999
 20
70.1093962789
 30
0.0
 10
325.3150553488
 20
70.1093962789
 30
0.0
 10
325.3240817605
 20
70.1167335924
 30
0.0
 10
325.3314192784
 20
70.1344225384
 30
0.0
 10
325.338058674
 20
70.1605456343
 30
0.0
 10
325.340118933
 20
70.1808494051
 30
0.0
 10
325.340726633
 20
70.1920388547
 30
0.0
  0
LINE
  5
33C
100
AcDbEntity
  8
00_COMPONENTS_7
100
AcDbLine
 62
7
  6
CONTINUOUS
 10
325.340726633
 20
70.1920388547
 11
325.3582460203
 21
70.5093930516
  0
SPLINE
  5
33D
100
AcDbEntity
  8
00_COMPONENTS_7
100
AcDbSpline
 62
7
  6
CONTINUOUS
 70
0
 71
3
 72
9
 73
5
 74
0
 42
0.0000001
 43
0.0000001
 44
0.0000000001
 40
0.0
 40
0.0
 40
0.0
 40
0.0
 40
0.4822216116
 40
1.0
 40
1.0
 40
1.0
 40
1.0
 10
327.5853548471
 20
70.1115281108
 30
0.0
 10
327.603089373
 20
70.1155308196
 30
0.0
 10
327.6377666926
 20
70.1362805717
 30
0.0
 10
327.6544683152
 20
70.1727728891
 30
0.0
 10
327.657614589
 20
70.1920388532
 30
0.0
  0
LINE
  5
33E
100
AcDbEntity
  8
00_COMPONENTS_7
100
AcDbLine
 62
7
  6
CONTINUOUS
 10
327.657614589
 20
70.1920388532
 11
327.7094292311
 21
70.5093930516
  0
LINE
  5
33F
100
AcDbEntity
  8
00_COMPONENTS_7
100
AcDbLine
 62
7
  6
CONTINUOUS
 10
332.104333137
 20
70.1920387441
 11
332.0525174849
 21
70.5093928746
  0
SPLINE
  5
340
100
AcDbEntity
  8
00_COMPONENTS_7
100
AcDbSpline
 62
7
  6
CONTINUOUS
 70
0
 71
3
 72
9
 73
5
 74
0
 42
0.0000001
 43
0.0000001
 44
0.0000000001
 40
0.0
 40
0.0
 40
0.0
 40
0.0
 40
0.5178173237
 40
1.0
 40
1.0
 40
1.0
 40
1.0
 10
332.104333137
 20
70.1920387441
 30
0.0
 10
332.1074786734
 20
70.1727772952
 30
0.0
 10
332.1241737359
 20
70.1362979599
 30
0.0
 10
332.1588306832
 20
70.115542755
 30
0.0
 10
332.1765568419
 20
70.1115352054
 30
0.0
  0
SPLINE
  5
341
100
AcDbEntity
  8
00_COMPONENTS_7
100
AcDbSpline
 62
7
  6
CONTINUOUS
 70
0
 71
3
 72
11
 73
7
 74
0
 42
0.0000001
 43
0.0000001
 44
0.0000000001
 40
0.0
 40
0.0
 40
0.0
 40
0.0
 40
0.3671381174
 40
0.6673741446
 40
0.8761684199
 40
1.0
 40
1.0
 40
1.0
 40
1.0
 10
334.4212210813
 20
70.1920387456
 30
0.0
 10
334.4218288497
 20
70.1808480348
 30
0.0
 10
334.4238897593
 20
70.1605427811
 30
0.0
 10
334.430530029
 20
70.1344197788
 30
0.0
 10
334.4378662843
 20
70.1167303934
 30
0.0
 10
334.4468929444
 20
70.1093962789
 30
0.0
 10
334.4506730084
 20
70.1093962789
 30
0.0
  0
LINE
  5
342
100
AcDbEntity
  8
00_COMPONENTS_7
100
AcDbLine
 62
7
  6
CONTINUOUS
 10
334.4212210813
 20
70.1920387456
 11
334.4037013548
 21
70.5093928746
  0
SPLINE
  5
343
100
AcDbEntity
  8
00_COMPONENTS_7
100
AcDbSpline
 62
7
  6
CONTINUOUS
 70
0
 71
3
 72
9
 73
5
 74
0
 42
0.0000001
 43
0.0000001
 44
0.0000000001
 40
0.0
 40
0.0
 40
0.0
 40
0.0
 40
0.5052624746
 40
1.0
 40
1.0
 40
1.0
 40
1.0
 10
328.4850314788
 20
70.1920387441
 30
0.0
 10
328.4890695581
 20
70.1691784219
 30
0.0
 10
328.514441401
 20
70.1253872328
 30
0.0
 10
328.561960184
 20
70.1093962789
 30
0.0
 10
328.5846908451
 20
70.1093962789
 30
0.0
  0
SPLINE
  5
344
100
AcDbEntity
  8
00_COMPONENTS_7
100
AcDbSpline
 62
7
  6
CONTINUOUS
 70
0
 71
3
 72
9
 73
5
 74
0
 42
0.0000001
 43
0.0000001
 44
0.0000000001
 40
0.0
 40
0.0
 40
0.0
 40
0.0
 40
0.2461012378
 40
1.0
 40
1.0
 40
1.0
 40
1.0
 10
328.6359211444
 20
68.3093962789
 30
0.0
 10
328.6697282188
 20
68.2965026388
 30
0.0
 10
328.8081378198
 20
68.2468612775
 30
0.0
 10
328.9504338439
 20
68.2081869821
 30
0.0
 10
329.058803626
 20
68.1849171838
 30
0.0
  0
LINE
  5
345
100
AcDbEntity
  8
00_COMPONENTS_7
100
AcDbLine
 62
7
  6
CONTINUOUS
 10
328.4850314788
 20
70.1920387441
 11
328.4292728074
 21
70.5093928746
  0
SPLINE
  5
346
100
AcDbEntity
  8
00_COMPONENTS_7
100
AcDbSpline
 62
7
  6
CONTINUOUS
 70
0
 71
3
 72
12
 73
8
 74
0
 42
0.0000001
 43
0.0000001
 44
0.0000000001
 40
0.0
 40
0.0
 40
0.0
 40
0.0
 40
0.3270039792
 40
0.54176599
 40
0.7225688652
 40
0.8713760224
 40
1.0
 40
1.0
 40
1.0
 40
1.0
 10
325.6834539315
 20
70.1920387456
 30
0.0
 10
325.6844293258
 20
70.1807626797
 30
0.0
 10
325.6876111611
 20
70.1621322072
 30
0.0
 10
325.6964312221
 20
70.1385954411
 30
0.0
 10
325.706643778
 20
70.122545986
 30
0.0
 10
325.7189506294
 20
70.1120022282
 30
0.0
 10
325.7286461897
 20
70.1093962789
 30
0.0
 10
325.7330980882
 20
70.1093962789
 30
0.0
  0
SPLINE
  5
347
100
AcDbEntity
  8
00_COMPONENTS_7
100
AcDbSpline
 62
7
  6
CONTINUOUS
 70
0
 71
3
 72
9
 73
5
 74
0
 42
0.0000001
 43
0.0000001
 44
0.0000000001
 40
0.0
 40
0.0
 40
0.0
 40
0.0
 40
0.4947805499
 40
1.0
 40
1.0
 40
1.0
 40
1.0
 10
331.1772568632
 20
70.1093962789
 30
0.0
 10
331.1999895367
 20
70.1093962789
 30
0.0
 10
331.2475088557
 20
70.1253889638
 30
0.0
 10
331.2728785069
 20
70.1691804417
 30
0.0
 10
331.2769162487
 20
70.1920388532
 30
0.0
  0
LINE
  5
348
100
AcDbEntity
  8
00_COMPONENTS_7
100
AcDbLine
 62
7
  6
CONTINUOUS
 10
331.2769162487
 20
70.1920388532
 11
331.3326738308
 21
70.5093930516
  0
SPLINE
  5
349
100
AcDbEntity
  8
00_COMPONENTS_7
100
AcDbSpline
 62
7
  6
CONTINUOUS
 70
0
 71
3
 72
11
 73
7
 74
0
 42
0.0000001
 43
0.0000001
 44
0.0000000001
 40
0.0
 40
0.0
 40
0.0
 40
0.0
 40
0.1744012102
 40
0.3334981697
 40
0.526315733
 40
1.0
 40
1.0
 40
1.0
 40
1.0
 10
334.0288496201
 20
70.1093962789
 30
0.0
 10
334.0348713495
 20
70.1093962789
 30
0.0
 10
334.0464565843
 20
70.113781491
 30
0.0
 10
334.0589233755
 20
70.1273305356
 30
0.0
 10
334.0724665269
 20
70.1526518847
 30
0.0
 10
334.0770842878
 20
70.1757443207
 30
0.0
 10
334.0784937862
 20
70.1920388547
 30
0.0
  0
SPLINE
  5
34A
100
AcDbEntity
  8
00_COMPONENTS_7
100
AcDbSpline
 62
7
  6
CONTINUOUS
 70
0
 71
3
 72
9
 73
5
 74
0
 42
0.0000001
 43
0.0000001
 44
0.0000000001
 40
0.0
 40
0.0
 40
0.0
 40
0.0
 40
0.2542252921
 40
1.0
 40
1.0
 40
1.0
 40
1.0
 10
330.8348386021
 20
68.2108295994
 30
0.0
 10
330.8726950558
 20
68.2204106619
 30
0.0
 10
331.0208500812
 20
68.260993383
 30
0.0
 10
331.165800804
 20
68.3134532721
 30
0.0
 10
331.2707383351
 20
68.3593962789
 30
0.0
  0
SPLINE
  5
34B
100
AcDbEntity
  8
00_COMPONENTS_7
100
AcDbSpline
 62
7
  6
CONTINUOUS
 70
0
 71
3
 72
9
 73
5
 74
0
 42
0.0000001
 43
0.0000001
 44
0.0000000001
 40
0.0
 40
0.0
 40
0.0
 40
0.0
 40
0.2550960217
 40
1.0
 40
1.0
 40
1.0
 40
1.0
 10
266.2707383351
 20
68.3593962789
 30
0.0
 10
266.2230400029
 20
68.3444205103
 30
0.0
 10
266.0353724906
 20
68.2879333755
 30
0.0
 10
265.8449414656
 20
68.2405256769
 30
0.0
 10
265.7019647215
 20
68.2110312086
 30
0.0
  0
LINE
  5
34C
100
AcDbEntity
  8
00_COMPONENTS_7
100
AcDbLine
 62
7
  6
CONTINUOUS
 10
265.5421898987
 20
68.1806263742
 11
265.5378241772
 21
68.1802627108
  0
LINE
  5
34D
100
AcDbEntity
  8
00_COMPONENTS_7
100
AcDbLine
 62
7
  6
CONTINUOUS
 10
265.5378241772
 20
68.1802627108
 11
265.5335659296
 21
68.1799001363
  0
SPLINE
  5
34E
100
AcDbEntity
  8
00_COMPONENTS_7
100
AcDbSpline
 62
7
  6
CONTINUOUS
 70
0
 71
3
 72
11
 73
7
 74
0
 42
0.0000001
 43
0.0000001
 44
0.0000000001
 40
0.0
 40
0.0
 40
0.0
 40
0.0
 40
0.1238512556
 40
0.3326669276
 40
0.6329017252
 40
1.0
 40
1.0
 40
1.0
 40
1.0
 10
260.3112746999
 20
70.1093962789
 30
0.0
 10
260.3150553488
 20
70.1093962789
 30
0.0
 10
260.3240817605
 20
70.1167335924
 30
0.0
 10
260.3314192784
 20
70.1344225384
 30
0.0
 10
260.338058674
 20
70.1605456343
 30
0.0
 10
260.340118933
 20
70.1808494051
 30
0.0
 10
260.340726633
 20
70.1920388547
 30
0.0
  0
SPLINE
  5
34F
100
AcDbEntity
  8
00_COMPONENTS_7
100
AcDbSpline
 62
7
  6
CONTINUOUS
 70
0
 71
3
 72
9
 73
5
 74
0
 42
0.0000001
 43
0.0000001
 44
0.0000000001
 40
0.0
 40
0.0
 40
0.0
 40
0.0
 40
0.4822216116
 40
1.0
 40
1.0
 40
1.0
 40
1.0
 10
262.5853548471
 20
70.1115281108
 30
0.0
 10
262.603089373
 20
70.1155308196
 30
0.0
 10
262.6377666926
 20
70.1362805717
 30
0.0
 10
262.6544683152
 20
70.1727728891
 30
0.0
 10
262.657614589
 20
70.1920388532
 30
0.0
  0
LINE
  5
350
100
AcDbEntity
  8
00_COMPONENTS_7
100
AcDbLine
 62
7
  6
CONTINUOUS
 10
267.104333137
 20
70.1920387441
 11
267.0525174849
 21
70.5093928746
  0
SPLINE
  5
351
100
AcDbEntity
  8
00_COMPONENTS_7
100
AcDbSpline
 62
7
  6
CONTINUOUS
 70
0
 71
3
 72
9
 73
5
 74
0
 42
0.0000001
 43
0.0000001
 44
0.0000000001
 40
0.0
 40
0.0
 40
0.0
 40
0.0
 40
0.5178173237
 40
1.0
 40
1.0
 40
1.0
 40
1.0
 10
267.104333137
 20
70.1920387441
 30
0.0
 10
267.1074786734
 20
70.1727772952
 30
0.0
 10
267.1241737359
 20
70.1362979599
 30
0.0
 10
267.1588306832
 20
70.115542755
 30
0.0
 10
267.1765568419
 20
70.1115352054
 30
0.0
  0
SPLINE
  5
352
100
AcDbEntity
  8
00_COMPONENTS_7
100
AcDbSpline
 62
7
  6
CONTINUOUS
 70
0
 71
3
 72
11
 73
7
 74
0
 42
0.0000001
 43
0.0000001
 44
0.0000000001
 40
0.0
 40
0.0
 40
0.0
 40
0.0
 40
0.3671381174
 40
0.6673741446
 40
0.8761684199
 40
1.0
 40
1.0
 40
1.0
 40
1.0
 10
269.4212210813
 20
70.1920387456
 30
0.0
 10
269.4218288497
 20
70.1808480348
 30
0.0
 10
269.4238897593
 20
70.1605427811
 30
0.0
 10
269.430530029
 20
70.1344197788
 30
0.0
 10
269.4378662843
 20
70.1167303934
 30
0.0
 10
269.4468929444
 20
70.1093962789
 30
0.0
 10
269.4506730084
 20
70.1093962789
 30
0.0
  0
LINE
  5
353
100
AcDbEntity
  8
00_COMPONENTS_7
100
AcDbLine
 62
7
  6
CONTINUOUS
 10
269.4212210813
 20
70.1920387456
 11
269.4037013548
 21
70.5093928746
  0
SPLINE
  5
354
100
AcDbEntity
  8
00_COMPONENTS_7
100
AcDbSpline
 62
7
  6
CONTINUOUS
 70
0
 71
3
 72
9
 73
5
 74
0
 42
0.0000001
 43
0.0000001
 44
0.0000000001
 40
0.0
 40
0.0
 40
0.0
 40
0.0
 40
0.5052624746
 40
1.0
 40
1.0
 40
1.0
 40
1.0
 10
263.4850314788
 20
70.1920387441
 30
0.0
 10
263.4890695581
 20
70.1691784219
 30
0.0
 10
263.514441401
 20
70.1253872328
 30
0.0
 10
263.561960184
 20
70.1093962789
 30
0.0
 10
263.5846908451
 20
70.1093962789
 30
0.0
  0
SPLINE
  5
355
100
AcDbEntity
  8
00_COMPONENTS_7
100
AcDbSpline
 62
7
  6
CONTINUOUS
 70
0
 71
3
 72
9
 73
5
 74
0
 42
0.0000001
 43
0.0000001
 44
0.0000000001
 40
0.0
 40
0.0
 40
0.0
 40
0.0
 40
0.2461012378
 40
1.0
 40
1.0
 40
1.0
 40
1.0
 10
263.6359211444
 20
68.3093962789
 30
0.0
 10
263.6697282188
 20
68.2965026388
 30
0.0
 10
263.8081378198
 20
68.2468612775
 30
0.0
 10
263.9504338439
 20
68.2081869821
 30
0.0
 10
264.058803626
 20
68.1849171838
 30
0.0
  0
LINE
  5
356
100
AcDbEntity
  8
00_COMPONENTS_7
100
AcDbLine
 62
7
  6
CONTINUOUS
 10
263.4850314788
 20
70.1920387441
 11
263.4292728074
 21
70.5093928746
  0
SPLINE
  5
357
100
AcDbEntity
  8
00_COMPONENTS_7
100
AcDbSpline
 62
7
  6
CONTINUOUS
 70
0
 71
3
 72
12
 73
8
 74
0
 42
0.0000001
 43
0.0000001
 44
0.0000000001
 40
0.0
 40
0.0
 40
0.0
 40
0.0
 40
0.3270039792
 40
0.54176599
 40
0.7225688652
 40
0.8713760224
 40
1.0
 40
1.0
 40
1.0
 40
1.0
 10
260.6834539315
 20
70.1920387456
 30
0.0
 10
260.6844293258
 20
70.1807626797
 30
0.0
 10
260.6876111611
 20
70.1621322072
 30
0.0
 10
260.6964312221
 20
70.1385954411
 30
0.0
 10
260.706643778
 20
70.122545986
 30
0.0
 10
260.7189506294
 20
70.1120022282
 30
0.0
 10
260.7286461897
 20
70.1093962789
 30
0.0
 10
260.7330980882
 20
70.1093962789
 30
0.0
  0
SPLINE
  5
358
100
AcDbEntity
  8
00_COMPONENTS_7
100
AcDbSpline
 62
7
  6
CONTINUOUS
 70
0
 71
3
 72
9
 73
5
 74
0
 42
0.0000001
 43
0.0000001
 44
0.0000000001
 40
0.0
 40
0.0
 40
0.0
 40
0.0
 40
0.4947805499
 40
1.0
 40
1.0
 40
1.0
 40
1.0
 10
266.1772568632
 20
70.1093962789
 30
0.0
 10
266.1999895367
 20
70.1093962789
 30
0.0
 10
266.2475088557
 20
70.1253889638
 30
0.0
 10
266.2728785069
 20
70.1691804417
 30
0.0
 10
266.2769162487
 20
70.1920388532
 30
0.0
  0
SPLINE
  5
359
100
AcDbEntity
  8
00_COMPONENTS_7
100
AcDbSpline
 62
7
  6
CONTINUOUS
 70
0
 71
3
 72
11
 73
7
 74
0
 42
0.0000001
 43
0.0000001
 44
0.0000000001
 40
0.0
 40
0.0
 40
0.0
 40
0.0
 40
0.1744012102
 40
0.3334981697
 40
0.526315733
 40
1.0
 40
1.0
 40
1.0
 40
1.0
 10
269.0288496201
 20
70.1093962789
 30
0.0
 10
269.0348713495
 20
70.1093962789
 30
0.0
 10
269.0464565843
 20
70.113781491
 30
0.0
 10
269.0589233755
 20
70.1273305356
 30
0.0
 10
269.0724665269
 20
70.1526518847
 30
0.0
 10
269.0770842878
 20
70.1757443207
 30
0.0
 10
269.0784937862
 20
70.1920388547
 30
0.0
  0
SPLINE
  5
35A
100
AcDbEntity
  8
00_COMPONENTS_7
100
AcDbSpline
 62
7
  6
CONTINUOUS
 70
0
 71
3
 72
9
 73
5
 74
0
 42
0.0000001
 43
0.0000001
 44
0.0000000001
 40
0.0
 40
0.0
 40
0.0
 40
0.0
 40
0.2542252921
 40
1.0
 40
1.0
 40
1.0
 40
1.0
 10
265.8348386021
 20
68.2108295994
 30
0.0
 10
265.8726950558
 20
68.2204106619
 30
0.0
 10
266.0208500812
 20
68.260993383
 30
0.0
 10
266.165800804
 20
68.3134532721
 30
0.0
 10
266.2707383351
 20
68.3593962789
 30
0.0
  0
SPLINE
  5
35B
100
AcDbEntity
  8
PART_1
100
AcDbSpline
 62
7
  6
CONTINUOUS
 70
0
 71
3
 72
9
 73
5
 74
0
 42
0.0000001
 43
0.0000001
 44
0.0000000001
 40
0.0
 40
0.0
 40
0.0
 40
0.0
 40
0.3432795376
 40
1.0
 40
1.0
 40
1.0
 40
1.0
 10
405.8910130333
 20
73.7093962789
 30
0.0
 10
405.8910130333
 20
73.5782664
 30
0.0
 10
405.5235666051
 20
73.295415573
 30
0.0
 10
405.1914421247
 20
73.1826516349
 30
0.0
 10
404.9549244181
 20
73.0990397516
 30
0.0
  0
SPLINE
  5
35C
100
AcDbEntity
  8
PART_1
100
AcDbSpline
 62
7
  6
CONTINUOUS
 70
0
 71
3
 72
9
 73
5
 74
0
 42
0.0000001
 43
0.0000001
 44
0.0000000001
 40
0.0
 40
0.0
 40
0.0
 40
0.0
 40
0.2350996188
 40
1.0
 40
1.0
 40
1.0
 40
1.0
 10
404.9549244181
 20
73.0990397516
 30
0.0
 10
404.901849384
 20
73.0802770821
 30
0.0
 10
404.6753188783
 20
73.0026575379
 30
0.0
 10
404.4465075998
 20
72.9318849494
 30
0.0
 10
404.2710773125
 20
72.8792616695
 30
0.0
  0
SPLINE
  5
35D
100
AcDbEntity
  8
PART_1
100
AcDbSpline
 62
7
  6
CONTINUOUS
 70
0
 71
3
 72
8
 73
4
 74
0
 42
0.0000001
 43
0.0000001
 44
0.0000000001
 40
0.0
 40
0.0
 40
0.0
 40
0.0
 40
1.0
 40
1.0
 40
1.0
 40
1.0
 10
404.2710773125
 20
72.8792616695
 30
0.0
 10
404.0780977051
 20
72.8213741744
 30
0.0
 10
403.8845477399
 20
72.7653999247
 30
0.0
 10
403.6910130333
 20
72.7093962789
 30
0.0
  0
SPLINE
  5
35E
100
AcDbEntity
  8
PART_1
100
AcDbSpline
 62
7
  6
CONTINUOUS
 70
0
 71
3
 72
9
 73
5
 74
0
 42
0.0000001
 43
0.0000001
 44
0.0000000001
 40
0.0
 40
0.0
 40
0.0
 40
0.0
 40
0.2353833766
 40
1.0
 40
1.0
 40
1.0
 40
1.0
 10
405.8910130333
 20
752.2093962789
 30
0.0
 10
405.8910130333
 20
752.086780538
 30
0.0
 10
405.9415566718
 20
751.5646820001
 30
0.0
 10
406.1815600545
 20
751.0815145187
 30
0.0
 10
406.3910129194
 20
750.7427296122
 30
0.0
  0
SPLINE
  5
35F
100
AcDbEntity
  8
PART_1
100
AcDbSpline
 62
7
  6
CONTINUOUS
 70
0
 71
3
 72
8
 73
4
 74
0
 42
0.0000001
 43
0.0000001
 44
0.0000000001
 40
0.0
 40
0.0
 40
0.0
 40
0.0
 40
1.0
 40
1.0
 40
1.0
 40
1.0
 10
406.3910129194
 20
750.7427296122
 30
0.0
 10
406.5465925625
 20
750.4910833297
 30
0.0
 10
406.7190959464
 20
750.2501770756
 30
0.0
 10
406.8910130333
 20
750.0093962789
 30
0.0
  0
SPLINE
  5
360
100
AcDbEntity
  8
PART_1
100
AcDbSpline
 62
7
  6
CONTINUOUS
 70
0
 71
3
 72
9
 73
5
 74
0
 42
0.0000001
 43
0.0000001
 44
0.0000000001
 40
0.0
 40
0.0
 40
0.0
 40
0.0
 40
0.2628757777
 40
1.0
 40
1.0
 40
1.0
 40
1.0
 10
406.8910130333
 20
93.0093962789
 30
0.0
 10
406.8041849287
 20
92.887788005
 30
0.0
 10
406.4751119312
 20
92.4260021286
 30
0.0
 10
406.1656555783
 20
91.937409146
 30
0.0
 10
406.0249876953
 20
91.5427296122
 30
0.0
  0
ELLIPSE
  5
361
100
AcDbEntity
  8
0
100
AcDbEllipse
 62
7
  6
CONTINUOUS
 10
439.821065336
 20
207.0093962789
 30
0.0
 11
11.4300523028
 21
0.0
 31
0.0
 40
0.0874886635
 41
2.5512328805
 42
3.1415918858
  0
ELLIPSE
  5
362
100
AcDbEntity
  8
0
100
AcDbEllipse
 62
7
  6
CONTINUOUS
 10
439.821065336
 20
169.0093962789
 30
0.0
 11
11.4300523028
 21
-0.0
 31
0.0
 40
0.0874886635
 41
3.1415926106
 42
3.7319524267
  0
ELLIPSE
  5
363
100
AcDbEntity
  8
0
100
AcDbEllipse
 62
7
  6
CONTINUOUS
 10
439.821065336
 20
674.0093962789
 30
0.0
 11
11.4300523028
 21
0.0
 31
0.0
 40
0.0874886635
 41
2.5512328805
 42
3.1415918858
  0
ELLIPSE
  5
364
100
AcDbEntity
  8
0
100
AcDbEllipse
 62
7
  6
CONTINUOUS
 10
439.821065336
 20
636.0093962789
 30
0.0
 11
11.4300523028
 21
0.0
 31
0.0
 40
0.0874886635
 41
3.1415926106
 42
3.7319524267
  0
ENDSEC
  0
SECTION
  2
OBJECTS
  0
DICTIONARY
  5
C
100
AcDbDictionary
280
0
281
1
  3
ACAD_GROUP
350
D
  3
ACAD_MLINESTYLE
350
17
  3
ACAD_LAYOUT
350
1A
  3
ACAD_PLOTSETTINGS
350
19
  3
ACAD_PLOTSTYLENAME
350
E
  0
DICTIONARY
  5
D
102
{ACAD_REACTORS
330
C
102
}
100
AcDbDictionary
280
0
281
1
  0
ACDBDICTIONARYWDFLT
  5
E
102
{ACAD_REACTORS
330
C
102
}
100
AcDbDictionary
281
1
  3
Normal
350
F
100
AcDbDictionaryWithDefault
340
F
  0
DICTIONARY
  5
17
102
{ACAD_REACTORS
330
C
102
}
100
AcDbDictionary
280
0
281
1
  3
Standard
350
18
  0
DICTIONARY
  5
19
102
{ACAD_REACTORS
330
C
102
}
100
AcDbDictionary
281
1
  0
DICTIONARY
  5
1A
102
{ACAD_REACTORS
330
C
102
}
100
AcDbDictionary
281
1
  3
Model
350
365
  3
Layout1
350
366
  0
ACDBPLACEHOLDER
  5
F
102
{ACAD_REACTORS
330
E
102
}
  0
MLINESTYLE
  5
18
102
{ACAD_REACTORS
330
17
102
}
100
AcDbMlineStyle
  2
STANDARD
 70
0
  3

 62
256
 51
90.0
 52
90.0
 71
2
 49
0.5
 62
256
  6
BYLAYER
 49
-0.5
 62
256
  6
BYLAYER
  0
LAYOUT
  5
365
102
{ACAD_REACTORS
330
1A
102
}
100
AcDbPlotSettings
  1

  2
none_device
  4

  6

 40
0.0
 41
0.0
 42
0.0
 43
0.0
 44
210.0
 45
297.0
 46
0.0
 47
0.0
 48
0.0
 49
0.0
140
0.0
141
0.0
142
1.0
143
1.0
 70
1024
 72
1
 73
0
 74
0
  7

 75
0
147
1.0
148
0.0
149
0.0
100
AcDbLayout
  1
Model
 70
0
 71
0
 10
0.0
 20
0.0
 11
210.0
 21
297.0
 12
0.0
 22
0.0
 32
0.0
 14
0.0
 24
0.0
 34
0.0
 15
0.0
 25
0.0
 35
0.0
146
0.0
 13
0.0
 23
0.0
 33
0.0
 16
1.0
 26
0.0
 36
0.0
 17
0.0
 27
1.0
 37
0.0
 76
0
330
213
345
0
346
0
  0
LAYOUT
  5
366
102
{ACAD_REACTORS
330
1A
102
}
100
AcDbPlotSettings
  1

  2
none_device
  4

  6

 40
0.0
 41
0.0
 42
0.0
 43
0.0
 44
210.0
 45
297.0
 46
0.0
 47
0.0
 48
0.0
 49
0.0
140
0.0
141
0.0
142
1.0
143
1.0
 70
0
 72
1
 73
0
 74
0
  7

 75
0
147
1.0
148
0.0
149
0.0
100
AcDbLayout
  1
Layout1
 70
0
 71
1
 10
0.0
 20
0.0
 11
210.0
 21
297.0
 12
0.0
 22
0.0
 32
0.0
 14
0.0
 24
0.0
 34
0.0
 15
0.0
 25
0.0
 35
0.0
146
0.0
 13
0.0
 23
0.0
 33
0.0
 16
1.0
 26
0.0
 36
0.0
 17
0.0
 27
1.0
 37
0.0
 76
0
330
214
345
0
346
0
  0
ENDSEC
  0
EOF
