999
DXF file: C:\Users\sesa63760\Dev\_Creo\CAD\MCADID0000768_3D-CAD\drw0001_1.dxf
999
Pro/ENGINEER 2019471 by Parametric Technology Corporation
  0
SECTION
  2
HEADER
  9
$ACADVER
  1
AC1024
  9
$DWGCODEPAGE
  3
ANSI_1252
  9
$EXTMAX
 10
100.4046667967
 20
142.0008858983
 30
0.0
  9
$EXTMIN
 10
0.0
 20
0.0
 30
0.0
  9
$LIMMIN
 10
0.0
 20
0.0
  9
$LIMMAX
 10
100.4046667967
 20
142.0008858983
  9
$VIEWCTR
 10
50.2023333984
 20
71.0004429491
  9
$VIEWSIZE
 40
142.0008858983
  9
$CLAYER
  8
0
  9
$LTSCALE
 40
9.2563540437
  9
$CELTYPE
  6
BYLAYER
  9
$DIMSCALE
 40
1.0
  9
$DIMASZ
 40
1.1952936523
  9
$DIMEXO
 40
1.0
  9
$DIMDLI
 40
6.3952991575
  9
$DIMEXE
 40
1.0
  9
$DIMCEN
 40
1.5146761162
  9
$DIMLFAC
 40
1.0
  9
$DIMBLK
  1
_FILLED
  9
$DIMALT
 70
0
  9
$DIMALTF
 40
0.0393700787
  9
$DIMTXT
 40
1.6734111133
  9
$DIMTOL
 70
1
  9
$DIMLIM
 70
0
  9
$DIMTFAC
 40
1.0
  9
$DIMTP
 40
0.01
  9
$DIMTM
 40
0.01
  9
$DIMGAP
 40
0.625
  9
$DIMDSEP
 70
46
  9
$AUNITS
 70
0
  9
$PDMODE
 70
3
  9
$PDSIZE
 40
0.3125
  9
$HANDSEED
  5
62D
  9
$TILEMODE
 70
1
  9
$MEASUREMENT
 70
1
  9
$INSUNITS
 70
4
  0
ENDSEC
  0
SECTION
  2
CLASSES
  0
CLASS
  1
ACDBDICTIONARYWDFLT
  2
AcDbDictionaryWithDefault
  3
AutoCAD 2000
 90
0
 91
1
280
0
281
0
  0
CLASS
  1
ACDBPLACEHOLDER
  2
AcDbPlaceHolder
  3
AutoCAD 2000
 90
0
 91
1
280
0
281
0
  0
CLASS
  1
LAYOUT
  2
AcDbLayout
  3
AutoCAD 2000
 90
0
 91
0
280
0
281
0
  0
ENDSEC
  0
SECTION
  2
TABLES
  0
TABLE
  2
VPORT
  5
8
100
AcDbSymbolTable
 70
2
  0
VPORT
  5
1F4
100
AcDbSymbolTableRecord
100
AcDbViewportTableRecord
  2
*ACTIVE
 70
0
 10
0.0
 20
0.0
 11
1.0
 21
1.0
 12
50.2023333984
 22
71.0004429491
 13
0.0
 23
0.0
 14
1.0
 24
1.0
 15
0.0
 25
0.0
 16
0.0
 26
0.0
 36
1.0
 17
0.0
 27
0.0
 37
0.0
 40
142.0008858983
 41
0.7070707071
 42
50.0
 43
0.0
 44
0.0
 50
0.0
 51
0.0
 71
0
 72
100
 73
1
 74
1
 75
0
 76
0
 77
0
 78
0
  0
ENDTAB
  0
TABLE
  2
LTYPE
  5
5
100
AcDbSymbolTable
 70
6
  0
LTYPE
  5
14
100
AcDbSymbolTableRecord
100
AcDbLinetypeTableRecord
  2
BYBLOCK
 70
0
  3

 72
65
 73
0
 40
0.0
  0
LTYPE
  5
15
100
AcDbSymbolTableRecord
100
AcDbLinetypeTableRecord
  2
BYLAYER
 70
0
  3

 72
65
 73
0
 40
0.0
  0
LTYPE
  5
16
100
AcDbSymbolTableRecord
100
AcDbLinetypeTableRecord
  2
CONTINUOUS
 70
64
  3
Solid line
 72
65
 73
0
 40
0.0
  0
LTYPE
  5
1F5
100
AcDbSymbolTableRecord
100
AcDbLinetypeTableRecord
  2
CENTER
 70
64
  3
____ _ ____ _ ____ _ ____ _ ____ _ ____ _ ____
 72
65
 73
4
 40
0.6
 49
0.375
 74
0
 49
-0.075
 74
0
 49
0.075
 74
0
 49
-0.075
 74
0
  0
LTYPE
  5
1F6
100
AcDbSymbolTableRecord
100
AcDbLinetypeTableRecord
  2
HIDDEN
 70
64
  3
- - - - - - - - - - - - - - - - - - - -
 72
65
 73
2
 40
0.2
 49
0.1
 74
0
 49
-0.1
 74
0
  0
LTYPE
  5
1F7
100
AcDbSymbolTableRecord
100
AcDbLinetypeTableRecord
  2
PHANTOM
 70
64
  3
_____ _ _ _____ _ _ _____ _ _ _____
 72
65
 73
6
 40
0.8
 49
0.45
 74
0
 49
-0.05
 74
0
 49
0.1
 74
0
 49
-0.05
 74
0
 49
0.1
 74
0
 49
-0.05
 74
0
  0
LTYPE
  5
1F8
100
AcDbSymbolTableRecord
100
AcDbLinetypeTableRecord
  2
DOT
 70
64
  3
. . . . . . . . . . . . . . . . . . . .
 72
65
 73
2
 40
0.2
 49
0.1
 74
0
 49
-0.1
 74
0
  0
LTYPE
  5
1F9
100
AcDbSymbolTableRecord
100
AcDbLinetypeTableRecord
  2
DASHED
 70
64
  3
- - - - - - - - - - - - - - - - - - - -
 72
65
 73
2
 40
0.2
 49
0.1
 74
0
 49
-0.1
 74
0
  0
ENDTAB
  0
TABLE
  2
LAYER
  5
2
100
AcDbSymbolTable
 70
36
  0
LAYER
  5
10
100
AcDbSymbolTableRecord
100
AcDbLayerTableRecord
  2
0
 70
0
 62
7
  6
CONTINUOUS
370
-3
390
F
  0
LAYER
  5
1FA
100
AcDbSymbolTableRecord
100
AcDbLayerTableRecord
  2
DEFAULT_1
 70
0
 62
7
  6
CENTER
370
-3
390
F
  0
LAYER
  5
1FB
100
AcDbSymbolTableRecord
100
AcDbLayerTableRecord
  2
DEFAULT_2
 70
0
 62
8
  6
HIDDEN
370
-3
390
F
  0
LAYER
  5
1FC
100
AcDbSymbolTableRecord
100
AcDbLayerTableRecord
  2
DEFAULT_3
 70
0
 62
7
  6
PHANTOM
370
-3
390
F
  0
LAYER
  5
1FD
100
AcDbSymbolTableRecord
100
AcDbLayerTableRecord
  2
00_COMPONENTS
 70
0
 62
7
  6
CONTINUOUS
370
-3
390
F
  0
LAYER
  5
1FE
100
AcDbSymbolTableRecord
100
AcDbLayerTableRecord
  2
01_1_DEFAULT_DATUMS
 70
0
 62
7
  6
CONTINUOUS
370
-3
390
F
  0
LAYER
  5
1FF
100
AcDbSymbolTableRecord
100
AcDbLayerTableRecord
  2
01_PLANES
 70
0
 62
7
  6
CONTINUOUS
370
-3
390
F
  0
LAYER
  5
200
100
AcDbSymbolTableRecord
100
AcDbLayerTableRecord
  2
02_COORD_SYS
 70
0
 62
7
  6
CONTINUOUS
370
-3
390
F
  0
LAYER
  5
201
100
AcDbSymbolTableRecord
100
AcDbLayerTableRecord
  2
03_AXES
 70
0
 62
7
  6
CONTINUOUS
370
-3
390
F
  0
LAYER
  5
202
100
AcDbSymbolTableRecord
100
AcDbLayerTableRecord
  2
04_POINTS
 70
0
 62
7
  6
CONTINUOUS
370
-3
390
F
  0
LAYER
  5
203
100
AcDbSymbolTableRecord
100
AcDbLayerTableRecord
  2
05_CURVES
 70
0
 62
7
  6
CONTINUOUS
370
-3
390
F
  0
LAYER
  5
204
100
AcDbSymbolTableRecord
100
AcDbLayerTableRecord
  2
06_SURFS
 70
0
 62
7
  6
CONTINUOUS
370
-3
390
F
  0
LAYER
  5
205
100
AcDbSymbolTableRecord
100
AcDbLayerTableRecord
  2
07_COSMETICS
 70
0
 62
7
  6
CONTINUOUS
370
-3
390
F
  0
LAYER
  5
206
100
AcDbSymbolTableRecord
100
AcDbLayerTableRecord
  2
10_NOTES
 70
0
 62
7
  6
CONTINUOUS
370
-3
390
F
  0
LAYER
  5
207
100
AcDbSymbolTableRecord
100
AcDbLayerTableRecord
  2
11_NOTES_PUB
 70
0
 62
7
  6
CONTINUOUS
370
-3
390
F
  0
LAYER
  5
208
100
AcDbSymbolTableRecord
100
AcDbLayerTableRecord
  2
13_REF_GTOL
 70
0
 62
7
  6
CONTINUOUS
370
-3
390
F
  0
LAYER
  5
209
100
AcDbSymbolTableRecord
100
AcDbLayerTableRecord
  2
16_MISC
 70
0
 62
7
  6
CONTINUOUS
370
-3
390
F
  0
LAYER
  5
20A
100
AcDbSymbolTableRecord
100
AcDbLayerTableRecord
  2
17_NO_PRINT
 70
0
 62
7
  6
CONTINUOUS
370
-3
390
F
  0
LAYER
  5
20B
100
AcDbSymbolTableRecord
100
AcDbLayerTableRecord
  2
18_DATUM_CAMS_JOINTS
 70
0
 62
7
  6
CONTINUOUS
370
-3
390
F
  0
LAYER
  5
20C
100
AcDbSymbolTableRecord
100
AcDbLayerTableRecord
  2
19_DATUM_FUNCTIONAL
 70
0
 62
7
  6
CONTINUOUS
370
-3
390
F
  0
LAYER
  5
20D
100
AcDbSymbolTableRecord
100
AcDbLayerTableRecord
  2
20_DATUM_KINEMATIC_SCHEME
 70
0
 62
7
  6
CONTINUOUS
370
-3
390
F
  0
ENDTAB
  0
TABLE
  2
STYLE
  5
3
100
AcDbSymbolTable
 70
1
  0
STYLE
  5
11
100
AcDbSymbolTableRecord
100
AcDbTextStyleTableRecord
  2
STANDARD
 70
0
 40
0.0
 41
0.8
 50
0.0
 71
0
 42
0.2
  3
txt
  4

  0
STYLE
  5
20E
100
AcDbSymbolTableRecord
100
AcDbTextStyleTableRecord
  2
TEXTSTYLE_1
 70
0
 40
0.0
 41
0.8
 50
0.0
 71
0
 42
0.2
  3
gdt
  4

  0
ENDTAB
  0
TABLE
  2
VIEW
  5
6
100
AcDbSymbolTable
 70
0
  0
ENDTAB
  0
TABLE
  2
UCS
  5
7
100
AcDbSymbolTable
 70
0
  0
ENDTAB
  0
TABLE
  2
APPID
  5
9
100
AcDbSymbolTable
 70
1
  0
APPID
  5
20F
100
AcDbSymbolTableRecord
100
AcDbRegAppTableRecord
  2
ACAD
 70
0
  0
ENDTAB
  0
TABLE
  2
BLOCK_RECORD
  5
1
100
AcDbSymbolTable
 70
0
  0
BLOCK_RECORD
  5
210
100
AcDbSymbolTableRecord
100
AcDbBlockTableRecord
  2
*Model_Space
  0
BLOCK_RECORD
  5
211
100
AcDbSymbolTableRecord
100
AcDbBlockTableRecord
  2
*Paper_Space
  0
BLOCK_RECORD
  5
212
100
AcDbSymbolTableRecord
100
AcDbBlockTableRecord
  2
_FILLED
  0
ENDTAB
  0
TABLE
  2
DIMSTYLE
  5
A
100
AcDbSymbolTable
 70
1
100
AcDbDimStyleTable
 71
0
  0
DIMSTYLE
105
213
100
AcDbSymbolTableRecord
100
AcDbDimStyleTableRecord
  2
STANDARD
 70
0
  3

  4

 40
1.0
 41
1.1952936523
 42
1.0
 43
0.38
 44
1.0
 45
0.0
 46
0.0
 47
0.01
 48
0.01
140
1.6734111133
141
0.09
142
0.0
143
25.4
144
1.0
145
0.0
146
1.0
147
0.625
 71
1
 72
0
 73
0
 74
0
 75
0
 76
0
 77
1
 78
8
 79
2
170
0
171
1
172
0
173
0
174
0
175
0
176
0
177
0
178
0
270
2
179
2
271
2
272
2
273
2
274
2
275
0
280
0
281
0
282
0
283
1
284
8
285
0
286
0
287
3
288
0
340
11
278
46
341
212
342
212
343
212
344
212
  0
ENDTAB
  0
ENDSEC
  0
SECTION
  2
BLOCKS
  0
BLOCK
  5
20
100
AcDbEntity
  8
0
100
AcDbBlockBegin
  2
*Model_Space
 70
0
 10
0.0
 20
0.0
 30
0.0
  3
*Model_Space
  1

  0
ENDBLK
  5
21
100
AcDbEntity
  8
0
100
AcDbBlockEnd
  0
BLOCK
  5
1C
100
AcDbEntity
  8
0
100
AcDbBlockBegin
  2
*Paper_Space
 70
0
 10
0.0
 20
0.0
 30
0.0
  3
*Paper_Space
  1

  0
ENDBLK
  5
1D
100
AcDbEntity
  8
0
100
AcDbBlockEnd
  0
BLOCK
  5
214
100
AcDbEntity
  8
0
100
AcDbBlockBegin
  2
_FILLED
 70
64
 10
0.0
 20
0.0
  3
_FILLED
  1

  0
SOLID
  5
215
100
AcDbEntity
  8
0
  6
BYBLOCK
 62
0
100
AcDbTrace
 10
0.0
 20
0.0
 11
-1.0
 21
0.25
 12
-1.0
 22
-0.25
 13
-1.0
 23
-0.25
  0
ENDBLK
  5
216
100
AcDbEntity
  8
0
  6
BYBLOCK
 62
0
100
AcDbBlockEnd
  0
ENDSEC
  0
SECTION
  2
ENTITIES
  0
LINE
  5
217
100
AcDbEntity
  8
0
100
AcDbLine
 62
7
  6
CONTINUOUS
 10
40.6647313107
 20
12.4371195392
 11
40.4171998606
 21
12.5041290367
  0
LINE
  5
218
100
AcDbEntity
  8
0
100
AcDbLine
 62
7
  6
CONTINUOUS
 10
40.4172535123
 20
12.5040980482
 11
13.6616203893
 21
27.9511205758
  0
LINE
  5
219
100
AcDbEntity
  8
0
100
AcDbLine
 62
7
  6
CONTINUOUS
 10
40.313697352
 20
12.7329911221
 11
13.558064229
 21
28.1800136497
  0
LINE
  5
21A
100
AcDbEntity
  8
0
100
AcDbLine
 62
7
  6
CONTINUOUS
 10
13.6616203893
 20
27.9511205758
 11
13.6594450828
 21
27.9523985093
  0
LINE
  5
21B
100
AcDbEntity
  8
0
100
AcDbLine
 62
7
  6
CONTINUOUS
 10
40.9039992987
 20
12.4967163122
 11
40.6647313108
 21
12.4371195392
  0
LINE
  5
21C
100
AcDbEntity
  8
0
100
AcDbLine
 62
7
  6
CONTINUOUS
 10
39.3641704361
 20
16.0106156883
 11
13.558064229
 21
30.9094409972
  0
LINE
  5
21D
100
AcDbEntity
  8
0
100
AcDbLine
 62
7
  6
CONTINUOUS
 10
39.3641704361
 20
17.2567161059
 11
21.0309520398
 21
27.8411652299
  0
LINE
  5
21E
100
AcDbEntity
  8
0
100
AcDbLine
 62
7
  6
CONTINUOUS
 10
17.5136219454
 20
29.8718507665
 11
14.6032379256
 21
31.5521237509
  0
LINE
  5
21F
100
AcDbEntity
  8
0
100
AcDbLine
 62
7
  6
CONTINUOUS
 10
21.3470140256
 20
28.0119779939
 11
23.2117637817
 21
26.935388576
  0
LINE
  5
220
100
AcDbEntity
  8
0
100
AcDbLine
 62
7
  6
CONTINUOUS
 10
23.2593647691
 20
26.9628708549
 11
24.0720775717
 21
26.4936615144
  0
LINE
  5
221
100
AcDbEntity
  8
0
100
AcDbLine
 62
7
  6
CONTINUOUS
 10
18.9620465804
 20
29.7727080649
 11
19.4994499716
 21
29.4624450914
  0
LINE
  5
222
100
AcDbEntity
  8
0
100
AcDbLine
 62
7
  6
CONTINUOUS
 10
13.558064229
 20
28.1800136497
 11
13.4116161476
 21
28.3841356544
  0
LINE
  5
223
100
AcDbEntity
  8
0
100
AcDbLine
 62
7
  6
CONTINUOUS
 10
43.4458693141
 20
121.3234943113
 11
43.3871577756
 21
121.287672053
  0
LINE
  5
224
100
AcDbEntity
  8
0
100
AcDbLine
 62
7
  6
CONTINUOUS
 10
42.550978606
 20
120.6150273366
 11
42.2097663391
 21
120.4177228547
  0
LINE
  5
225
100
AcDbEntity
  8
0
100
AcDbLine
 62
7
  6
CONTINUOUS
 10
39.7932108946
 20
119.05685591
 11
39.8640004895
 21
119.0977260578
  0
LINE
  5
226
100
AcDbEntity
  8
0
100
AcDbLine
 62
7
  6
CONTINUOUS
 10
45.0965419925
 20
122.1187172351
 11
45.1673331467
 21
122.1595882831
  0
LINE
  5
227
100
AcDbEntity
  8
0
100
AcDbLine
 62
7
  6
CONTINUOUS
 10
16.774971369
 20
32.0315209102
 11
18.9620465804
 21
30.7688410138
  0
LINE
  5
228
100
AcDbEntity
  8
0
100
AcDbLine
 62
7
  6
CONTINUOUS
 10
19.4994499716
 20
30.4585780403
 11
21.686525183
 21
29.1958981439
  0
LINE
  5
229
100
AcDbEntity
  8
0
100
AcDbLine
 62
7
  6
CONTINUOUS
 10
21.6794474452
 20
29.804180702
 11
20.0227068111
 21
30.7606787142
  0
LINE
  5
22A
100
AcDbEntity
  8
0
100
AcDbLine
 62
7
  6
CONTINUOUS
 10
19.48530342
 20
31.0709416876
 11
17.2982282085
 21
32.3336215841
  0
LINE
  5
22B
100
AcDbEntity
  8
0
100
AcDbLine
 62
7
  6
CONTINUOUS
 10
21.686525183
 20
29.8164399809
 11
19.4994499716
 21
31.0791198774
  0
LINE
  5
22C
100
AcDbEntity
  8
0
100
AcDbLine
 62
7
  6
CONTINUOUS
 10
18.9620465804
 20
31.3893828508
 11
16.774971369
 21
32.6520627473
  0
LINE
  5
22D
100
AcDbEntity
  8
0
100
AcDbLine
 62
7
  6
CONTINUOUS
 10
19.4994499716
 20
32.0752528263
 11
18.9620465804
 21
32.3855157997
  0
LINE
  5
22E
100
AcDbEntity
  8
0
100
AcDbLine
 62
7
  6
CONTINUOUS
 10
45.1672747096
 20
120.6719260877
 11
45.1506624919
 21
120.6584022198
  0
LINE
  5
22F
100
AcDbEntity
  8
0
100
AcDbLine
 62
7
  6
CONTINUOUS
 10
18.8679262025
 20
104.4916718692
 11
13.6486460288
 21
101.2642056975
  0
LINE
  5
230
100
AcDbEntity
  8
0
100
AcDbLine
 62
7
  6
CONTINUOUS
 10
19.122217376
 20
104.4694864537
 11
13.9054458158
 21
101.2435715429
  0
LINE
  5
231
100
AcDbEntity
  8
0
100
AcDbLine
 62
7
  6
CONTINUOUS
 10
12.2902145056
 20
97.7617313813
 11
14.4572865851
 21
99.075430711
  0
LINE
  5
232
100
AcDbEntity
  8
0
100
AcDbLine
 62
7
  6
CONTINUOUS
 10
13.6529664038
 20
101.2667879081
 11
13.6486460288
 21
101.2642056975
  0
LINE
  5
233
100
AcDbEntity
  8
0
100
AcDbLine
 62
7
  6
CONTINUOUS
 10
13.7811900226
 20
97.6265319279
 11
15.9756800507
 21
98.9377450386
  0
LINE
  5
234
100
AcDbEntity
  8
0
100
AcDbLine
 62
7
  6
CONTINUOUS
 10
46.2887961149
 20
121.4892793013
 11
46.2377988744
 21
121.4598362065
  0
LINE
  5
235
100
AcDbEntity
  8
0
100
AcDbLine
 62
7
  6
CONTINUOUS
 10
40.9854946833
 20
118.4274350689
 11
40.9344985554
 21
118.3979926165
  0
LINE
  5
236
100
AcDbEntity
  8
0
100
AcDbLine
 62
7
  6
CONTINUOUS
 10
18.871019393
 20
104.5745958966
 11
37.4810801529
 21
115.3190553502
  0
LINE
  5
237
100
AcDbEntity
  8
0
100
AcDbLine
 62
7
  6
CONTINUOUS
 10
47.8279767626
 20
121.2928032347
 11
62.7009222428
 21
129.8796510547
  0
LINE
  5
238
100
AcDbEntity
  8
0
100
AcDbLine
 62
7
  6
CONTINUOUS
 10
19.1228257597
 20
104.5508773034
 11
37.7354427441
 21
115.296812585
  0
LINE
  5
239
100
AcDbEntity
  8
0
100
AcDbLine
 62
7
  6
CONTINUOUS
 10
48.0736119331
 20
121.2655217208
 11
62.9509211236
 21
129.8548889152
  0
LINE
  5
23A
100
AcDbEntity
  8
0
100
AcDbLine
 62
7
  6
CONTINUOUS
 10
47.2762474841
 20
120.5855625457
 11
47.7262283422
 21
120.8453575645
  0
LINE
  5
23B
100
AcDbEntity
  8
0
100
AcDbLine
 62
7
  6
CONTINUOUS
 10
38.4855460546
 20
114.8786089428
 11
39.0861727999
 21
115.225378886
  0
LINE
  5
23C
100
AcDbEntity
  8
0
100
AcDbLine
 62
7
  6
CONTINUOUS
 10
41.2050277668
 20
116.4426763265
 11
46.2986413602
 21
119.3834579517
  0
LINE
  5
23D
100
AcDbEntity
  8
0
100
AcDbLine
 62
7
  6
CONTINUOUS
 10
61.1831703625
 20
127.6095511679
 11
62.1067090745
 21
128.1427533092
  0
LINE
  5
23E
100
AcDbEntity
  8
0
100
AcDbLine
 62
7
  6
CONTINUOUS
 10
46.583953571
 20
117.9968331013
 11
41.2050277668
 21
114.8913273777
  0
LINE
  5
23F
100
AcDbEntity
  8
0
100
AcDbLine
 62
7
  6
CONTINUOUS
 10
65.1429612715
 20
128.5893425762
 11
63.7386268798
 21
127.7785545769
  0
LINE
  5
240
100
AcDbEntity
  8
0
100
AcDbLine
 62
7
  6
CONTINUOUS
 10
40.2175530705
 20
113.9129664343
 11
50.4705587101
 21
119.8325066654
  0
LINE
  5
241
100
AcDbEntity
  8
0
100
AcDbLine
 62
7
  6
CONTINUOUS
 10
21.6490511721
 20
37.9387087217
 11
21.2700223962
 21
38.156562608
  0
LINE
  5
242
100
AcDbEntity
  8
0
100
AcDbLine
 62
7
  6
CONTINUOUS
 10
18.1912847331
 20
36.6108679953
 11
23.2117637817
 21
33.7123586382
  0
LINE
  5
243
100
AcDbEntity
  8
0
100
AcDbLine
 62
7
  6
CONTINUOUS
 10
22.7662845371
 20
35.4964094834
 11
17.6426440276
 21
38.4544777903
  0
LINE
  5
244
100
AcDbEntity
  8
0
100
AcDbLine
 62
7
  6
CONTINUOUS
 10
21.2700223962
 20
37.0910269537
 11
18.0399810836
 21
38.9558499871
  0
LINE
  5
245
100
AcDbEntity
  8
0
100
AcDbLine
 62
7
  6
CONTINUOUS
 10
21.2700223848
 20
38.8097645483
 11
21.6490511721
 21
38.5909371265
  0
LINE
  5
246
100
AcDbEntity
  8
0
100
AcDbLine
 62
7
  6
CONTINUOUS
 10
18.0399810841
 20
41.7401232292
 11
21.2700223848
 21
39.8753002027
  0
LINE
  5
247
100
AcDbEntity
  8
0
100
AcDbLine
 62
7
  6
CONTINUOUS
 10
22.1298857852
 20
36.770143845
 11
21.6490511721
 21
37.2396256261
  0
LINE
  5
248
100
AcDbEntity
  8
0
100
AcDbLine
 62
7
  6
CONTINUOUS
 10
22.1298857852
 20
39.8810180543
 11
21.6490511721
 21
40.3504998354
  0
LINE
  5
249
100
AcDbEntity
  8
0
100
AcDbLine
 62
7
  6
CONTINUOUS
 10
11.6420346706
 20
81.9732098505
 11
11.6420346706
 21
96.343652392
  0
LINE
  5
24A
100
AcDbEntity
  8
0
100
AcDbLine
 62
7
  6
CONTINUOUS
 10
11.7006151628
 20
81.8915602925
 11
11.7006151628
 21
96.2620042111
  0
LINE
  5
24B
100
AcDbEntity
  8
0
100
AcDbLine
 62
7
  6
CONTINUOUS
 10
12.0767218756
 20
81.6743621954
 11
12.0767218756
 21
96.0451065145
  0
LINE
  5
24C
100
AcDbEntity
  8
0
100
AcDbLine
 62
7
  6
CONTINUOUS
 10
12.6522790623
 20
81.995314521
 11
12.6522790623
 21
96.3657570624
  0
LINE
  5
24D
100
AcDbEntity
  8
0
100
AcDbLine
 62
7
  6
CONTINUOUS
 10
13.4116161476
 20
28.3841357266
 11
13.4116161476
 21
30.9910634156
  0
LINE
  5
24E
100
AcDbEntity
  8
0
100
AcDbLine
 62
7
  6
CONTINUOUS
 10
13.4116161476
 20
98.4415355278
 11
13.4116161476
 21
100.8389449344
  0
LINE
  5
24F
100
AcDbEntity
  8
0
100
AcDbLine
 62
7
  6
CONTINUOUS
 10
13.558064229
 20
28.1800136497
 11
13.558064229
 21
30.9094409972
  0
LINE
  5
250
100
AcDbEntity
  8
0
100
AcDbLine
 62
7
  6
CONTINUOUS
 10
13.558064229
 20
98.5303137222
 11
13.558064229
 21
100.6348228575
  0
LINE
  5
251
100
AcDbEntity
  8
0
100
AcDbLine
 62
7
  6
CONTINUOUS
 10
45.1672747096
 20
120.6719260877
 11
45.1507659422
 21
120.6579471659
  0
LINE
  5
252
100
AcDbEntity
  8
0
100
AcDbLine
 62
7
  6
CONTINUOUS
 10
60.6619876734
 20
124.9853676316
 11
56.748231482
 21
122.7257729289
  0
LINE
  5
253
100
AcDbEntity
  8
0
100
AcDbLine
 62
7
  6
CONTINUOUS
 10
35.2062495337
 20
110.2885780922
 11
31.2924933423
 21
108.0289833895
  0
LINE
  5
254
100
AcDbEntity
  8
0
100
AcDbLine
 62
7
  6
CONTINUOUS
 10
63.8467382715
 20
126.0446980683
 11
61.3369560474
 21
124.595683275
  0
LINE
  5
255
100
AcDbEntity
  8
0
100
AcDbLine
 62
7
  6
CONTINUOUS
 10
57.423199856
 20
122.3360885723
 11
35.8812179077
 21
109.8988937357
  0
LINE
  5
256
100
AcDbEntity
  8
0
100
AcDbLine
 62
7
  6
CONTINUOUS
 10
31.9674617163
 20
107.6392990329
 11
22.870507303
 21
102.3872013044
  0
LINE
  5
257
100
AcDbEntity
  8
0
100
AcDbLine
 62
7
  6
CONTINUOUS
 10
66.8400246119
 20
127.6095647653
 11
23.011929248
 21
102.3055531535
  0
LINE
  5
258
100
AcDbEntity
  8
0
100
AcDbLine
 62
7
  6
CONTINUOUS
 10
12.0767218756
 20
96.0448624344
 11
12.6522790623
 21
96.3657570624
  0
LINE
  5
259
100
AcDbEntity
  8
0
100
AcDbLine
 62
7
  6
CONTINUOUS
 10
48.2433891725
 20
32.5960232581
 11
46.4756236916
 21
32.4061498845
  0
LINE
  5
25A
100
AcDbEntity
  8
0
100
AcDbLine
 62
7
  6
CONTINUOUS
 10
21.6490511721
 20
41.049582931
 11
21.2700223962
 21
41.2674368173
  0
LINE
  5
25B
100
AcDbEntity
  8
0
100
AcDbLine
 62
7
  6
CONTINUOUS
 10
21.6490511721
 20
44.1604571402
 11
21.2700223962
 21
44.3783110266
  0
LINE
  5
25C
100
AcDbEntity
  8
0
100
AcDbLine
 62
7
  6
CONTINUOUS
 10
53.38574855
 20
21.5578500262
 11
54.2097584686
 21
21.0821180224
  0
LINE
  5
25D
100
AcDbEntity
  8
0
100
AcDbLine
 62
7
  6
CONTINUOUS
 10
21.2700223962
 20
40.2019011629
 11
18.0399810836
 21
42.0667241963
  0
LINE
  5
25E
100
AcDbEntity
  8
0
100
AcDbLine
 62
7
  6
CONTINUOUS
 10
21.2700223848
 20
41.9206387576
 11
21.6490511721
 21
41.7018113357
  0
LINE
  5
25F
100
AcDbEntity
  8
0
100
AcDbLine
 62
7
  6
CONTINUOUS
 10
33.7971962494
 20
35.2965294743
 11
28.6706507421
 21
38.2562749445
  0
LINE
  5
260
100
AcDbEntity
  8
0
100
AcDbLine
 62
7
  6
CONTINUOUS
 10
34.1099683281
 20
35.4771074402
 11
35.1737002565
 21
34.8629754185
  0
LINE
  5
261
100
AcDbEntity
  8
0
100
AcDbLine
 62
7
  6
CONTINUOUS
 10
18.0399810841
 20
44.8509974384
 11
21.2700223848
 21
42.9861744119
  0
LINE
  5
262
100
AcDbEntity
  8
0
100
AcDbLine
 62
7
  6
CONTINUOUS
 10
32.3009341085
 20
36.8911469446
 11
29.0708927959
 21
38.755969978
  0
LINE
  5
263
100
AcDbEntity
  8
0
100
AcDbLine
 62
7
  6
CONTINUOUS
 10
21.2700223962
 20
43.3127753722
 11
18.0399810836
 21
45.1775984056
  0
LINE
  5
264
100
AcDbEntity
  8
0
100
AcDbLine
 62
7
  6
CONTINUOUS
 10
32.6799628844
 20
37.7378551836
 11
32.3009341085
 21
37.9566825989
  0
LINE
  5
265
100
AcDbEntity
  8
0
100
AcDbLine
 62
7
  6
CONTINUOUS
 10
32.3009340926
 20
38.6098845418
 11
32.6799628844
 21
38.3910571173
  0
LINE
  5
266
100
AcDbEntity
  8
0
100
AcDbLine
 62
7
  6
CONTINUOUS
 10
21.2700223848
 20
45.0315129668
 11
21.6490511721
 21
44.812685545
  0
LINE
  5
267
100
AcDbEntity
  8
0
100
AcDbLine
 62
7
  6
CONTINUOUS
 10
43.9541790028
 20
30.732572481
 11
44.6239862556
 21
30.3391769494
  0
LINE
  5
268
100
AcDbEntity
  8
0
100
AcDbLine
 62
7
  6
CONTINUOUS
 10
22.1298857852
 20
42.9918922635
 11
21.6490511721
 21
43.4613740446
  0
LINE
  5
269
100
AcDbEntity
  8
0
100
AcDbLine
 62
7
  6
CONTINUOUS
 10
22.1298857852
 20
46.1027664728
 11
21.6490511721
 21
46.5722482539
  0
LINE
  5
26A
100
AcDbEntity
  8
0
100
AcDbLine
 62
7
  6
CONTINUOUS
 10
33.1607974975
 20
36.5702638359
 11
32.6799628844
 21
37.039745617
  0
LINE
  5
26B
100
AcDbEntity
  8
0
100
AcDbLine
 62
7
  6
CONTINUOUS
 10
14.4537579342
 20
31.6354966038
 11
14.4537579342
 21
77.9924256573
  0
LINE
  5
26C
100
AcDbEntity
  8
0
100
AcDbLine
 62
7
  6
CONTINUOUS
 10
14.6032378248
 20
77.9061253546
 11
14.6032378248
 21
31.5521238091
  0
LINE
  5
26D
100
AcDbEntity
  8
0
100
AcDbLine
 62
7
  6
CONTINUOUS
 10
17.6426440276
 20
38.4544777903
 11
17.6426440276
 21
76.1513630633
  0
LINE
  5
26E
100
AcDbEntity
  8
0
100
AcDbLine
 62
7
  6
CONTINUOUS
 10
17.9909339355
 20
38.2533970673
 11
17.9909339355
 21
34.3419993336
  0
LINE
  5
26F
100
AcDbEntity
  8
0
100
AcDbLine
 62
7
  6
CONTINUOUS
 10
18.0399810836
 20
38.9558499871
 11
18.0399810836
 21
39.6505505053
  0
LINE
  5
270
100
AcDbEntity
  8
0
100
AcDbLine
 62
7
  6
CONTINUOUS
 10
18.0399810841
 20
41.0454227105
 11
18.0399810841
 21
41.7401232292
  0
LINE
  5
271
100
AcDbEntity
  8
0
100
AcDbLine
 62
7
  6
CONTINUOUS
 10
18.0399810836
 20
42.0667241963
 11
18.0399810836
 21
42.7614247146
  0
LINE
  5
272
100
AcDbEntity
  8
0
100
AcDbLine
 62
7
  6
CONTINUOUS
 10
18.0399810841
 20
44.1562969198
 11
18.0399810841
 21
44.8509974384
  0
LINE
  5
273
100
AcDbEntity
  8
0
100
AcDbLine
 62
7
  6
CONTINUOUS
 10
18.0399810836
 20
45.1775984056
 11
18.0399810836
 21
45.8722989238
  0
LINE
  5
274
100
AcDbEntity
  8
0
100
AcDbLine
 62
7
  6
CONTINUOUS
 10
18.0399810841
 20
47.267171129
 11
18.0399810841
 21
47.9618716477
  0
LINE
  5
275
100
AcDbEntity
  8
0
100
AcDbLine
 62
7
  6
CONTINUOUS
 10
18.0399810836
 20
48.2884726148
 11
18.0399810836
 21
48.9831731331
  0
LINE
  5
276
100
AcDbEntity
  8
0
100
AcDbLine
 62
7
  6
CONTINUOUS
 10
18.0399810841
 20
50.3780453383
 11
18.0399810841
 21
51.072745857
  0
LINE
  5
277
100
AcDbEntity
  8
0
100
AcDbLine
 62
7
  6
CONTINUOUS
 10
18.0399810836
 20
51.3993468241
 11
18.0399810836
 21
52.0940473424
  0
LINE
  5
278
100
AcDbEntity
  8
0
100
AcDbLine
 62
7
  6
CONTINUOUS
 10
18.0399810841
 20
53.4889195476
 11
18.0399810841
 21
54.1836200662
  0
LINE
  5
279
100
AcDbEntity
  8
0
100
AcDbLine
 62
7
  6
CONTINUOUS
 10
18.0399810836
 20
54.5102210334
 11
18.0399810836
 21
55.2049215516
  0
LINE
  5
27A
100
AcDbEntity
  8
0
100
AcDbLine
 62
7
  6
CONTINUOUS
 10
18.0399810841
 20
56.5997937568
 11
18.0399810841
 21
57.2944942755
  0
LINE
  5
27B
100
AcDbEntity
  8
0
100
AcDbLine
 62
7
  6
CONTINUOUS
 10
18.0399810836
 20
57.6210952426
 11
18.0399810836
 21
58.3157957609
  0
LINE
  5
27C
100
AcDbEntity
  8
0
100
AcDbLine
 62
7
  6
CONTINUOUS
 10
18.0399810841
 20
59.7106679661
 11
18.0399810841
 21
60.4053684848
  0
LINE
  5
27D
100
AcDbEntity
  8
0
100
AcDbLine
 62
7
  6
CONTINUOUS
 10
18.0399810836
 20
60.7319694519
 11
18.0399810836
 21
61.4266699702
  0
LINE
  5
27E
100
AcDbEntity
  8
0
100
AcDbLine
 62
7
  6
CONTINUOUS
 10
18.0399810841
 20
62.8215421754
 11
18.0399810841
 21
63.516242694
  0
LINE
  5
27F
100
AcDbEntity
  8
0
100
AcDbLine
 62
7
  6
CONTINUOUS
 10
18.0399810836
 20
63.8428436612
 11
18.0399810836
 21
64.5375441794
  0
LINE
  5
280
100
AcDbEntity
  8
0
100
AcDbLine
 62
7
  6
CONTINUOUS
 10
18.0399810841
 20
65.9324163846
 11
18.0399810841
 21
66.6271169033
  0
LINE
  5
281
100
AcDbEntity
  8
0
100
AcDbLine
 62
7
  6
CONTINUOUS
 10
18.0399810836
 20
66.9537178704
 11
18.0399810836
 21
67.6484183887
  0
LINE
  5
282
100
AcDbEntity
  8
0
100
AcDbLine
 62
7
  6
CONTINUOUS
 10
18.0399810841
 20
69.0432905939
 11
18.0399810841
 21
69.7379911125
  0
LINE
  5
283
100
AcDbEntity
  8
0
100
AcDbLine
 62
7
  6
CONTINUOUS
 10
18.0399810836
 20
70.0645920797
 11
18.0399810836
 21
70.759292598
  0
LINE
  5
284
100
AcDbEntity
  8
0
100
AcDbLine
 62
7
  6
CONTINUOUS
 10
18.0399810841
 20
72.1541648031
 11
18.0399810841
 21
72.8488653218
  0
LINE
  5
285
100
AcDbEntity
  8
0
100
AcDbLine
 62
7
  6
CONTINUOUS
 10
18.0399810836
 20
73.175466289
 11
18.0399810836
 21
73.8701668072
  0
LINE
  5
286
100
AcDbEntity
  8
0
100
AcDbLine
 62
7
  6
CONTINUOUS
 10
18.0399810841
 20
75.2650390124
 11
18.0399810841
 21
75.9219655964
  0
LINE
  5
287
100
AcDbEntity
  8
0
100
AcDbLine
 62
7
  6
CONTINUOUS
 10
18.1912847331
 20
34.4576712301
 11
18.1912847331
 21
36.6108679953
  0
LINE
  5
288
100
AcDbEntity
  8
0
100
AcDbLine
 62
7
  6
CONTINUOUS
 10
71.6598077362
 20
123.4982362157
 11
72.7904164971
 21
124.1741821274
  0
LINE
  5
289
100
AcDbEntity
  8
0
100
AcDbLine
 62
7
  6
CONTINUOUS
 10
71.0354102202
 20
121.2571639753
 11
71.6006961622
 21
121.5951259076
  0
LINE
  5
28A
100
AcDbEntity
  8
0
100
AcDbLine
 62
7
  6
CONTINUOUS
 10
68.3282820833
 20
123.1801377146
 11
69.7747640112
 21
124.01525946
  0
LINE
  5
28B
100
AcDbEntity
  8
0
100
AcDbLine
 62
7
  6
CONTINUOUS
 10
70.3595718918
 20
122.0073985278
 11
70.6230851932
 21
122.1595370951
  0
LINE
  5
28C
100
AcDbEntity
  8
0
100
AcDbLine
 62
7
  6
CONTINUOUS
 10
21.6490511721
 20
39.2890466931
 11
22.1298857852
 21
39.2033210481
  0
LINE
  5
28D
100
AcDbEntity
  8
0
100
AcDbLine
 62
7
  6
CONTINUOUS
 10
32.6799628844
 20
39.089166684
 11
33.1607974975
 21
39.0034410389
  0
LINE
  5
28E
100
AcDbEntity
  8
0
100
AcDbLine
 62
7
  6
CONTINUOUS
 10
21.6490511721
 20
42.3999209024
 11
22.1298857852
 21
42.3141952573
  0
LINE
  5
28F
100
AcDbEntity
  8
0
100
AcDbLine
 62
7
  6
CONTINUOUS
 10
46.4167066148
 20
35.7318758678
 11
46.4879721229
 21
35.6935550927
  0
LINE
  5
290
100
AcDbEntity
  8
0
100
AcDbLine
 62
7
  6
CONTINUOUS
 10
21.6490511721
 20
47.2713313495
 11
21.2700223962
 21
47.4891852358
  0
LINE
  5
291
100
AcDbEntity
  8
0
100
AcDbLine
 62
7
  6
CONTINUOUS
 10
21.6490511721
 20
50.3822055587
 11
21.2700223962
 21
50.6000594451
  0
LINE
  5
292
100
AcDbEntity
  8
0
100
AcDbLine
 62
7
  6
CONTINUOUS
 10
29.0708927878
 20
41.540243225
 11
32.3009340926
 21
39.6754201962
  0
LINE
  5
293
100
AcDbEntity
  8
0
100
AcDbLine
 62
7
  6
CONTINUOUS
 10
18.0399810841
 20
47.9618716477
 11
21.2700223848
 21
46.0970486212
  0
LINE
  5
294
100
AcDbEntity
  8
0
100
AcDbLine
 62
7
  6
CONTINUOUS
 10
46.4167066148
 20
31.6236830673
 11
46.4879721229
 21
31.5825388017
  0
LINE
  5
295
100
AcDbEntity
  8
0
100
AcDbLine
 62
7
  6
CONTINUOUS
 10
32.3009341085
 20
40.0020211538
 11
29.0708927959
 21
41.8668441872
  0
LINE
  5
296
100
AcDbEntity
  8
0
100
AcDbLine
 62
7
  6
CONTINUOUS
 10
21.2700223962
 20
46.4236495815
 11
18.0399810836
 21
48.2884726148
  0
LINE
  5
297
100
AcDbEntity
  8
0
100
AcDbLine
 62
7
  6
CONTINUOUS
 10
32.6799628844
 20
40.8487293929
 11
32.3009341085
 21
41.0675568082
  0
LINE
  5
298
100
AcDbEntity
  8
0
100
AcDbLine
 62
7
  6
CONTINUOUS
 10
32.3009340926
 20
41.7207587511
 11
32.6799628844
 21
41.5019313266
  0
LINE
  5
299
100
AcDbEntity
  8
0
100
AcDbLine
 62
7
  6
CONTINUOUS
 10
21.2700223848
 20
48.1423871761
 11
21.6490511721
 21
47.9235597542
  0
LINE
  5
29A
100
AcDbEntity
  8
0
100
AcDbLine
 62
7
  6
CONTINUOUS
 10
29.0708927878
 20
44.6511174343
 11
32.3009340926
 21
42.7862944054
  0
LINE
  5
29B
100
AcDbEntity
  8
0
100
AcDbLine
 62
7
  6
CONTINUOUS
 10
18.0399810841
 20
51.072745857
 11
21.2700223848
 21
49.2079228305
  0
LINE
  5
29C
100
AcDbEntity
  8
0
100
AcDbLine
 62
7
  6
CONTINUOUS
 10
32.3009341085
 20
43.1128953631
 11
29.0708927959
 21
44.9777183965
  0
LINE
  5
29D
100
AcDbEntity
  8
0
100
AcDbLine
 62
7
  6
CONTINUOUS
 10
21.2700223962
 20
49.5345237907
 11
18.0399810836
 21
51.3993468241
  0
LINE
  5
29E
100
AcDbEntity
  8
0
100
AcDbLine
 62
7
  6
CONTINUOUS
 10
32.6799628844
 20
43.9596036022
 11
32.3009341085
 21
44.1784310175
  0
LINE
  5
29F
100
AcDbEntity
  8
0
100
AcDbLine
 62
7
  6
CONTINUOUS
 10
22.1298857852
 20
49.2136406821
 11
21.6490511721
 21
49.6831224632
  0
LINE
  5
2A0
100
AcDbEntity
  8
0
100
AcDbLine
 62
7
  6
CONTINUOUS
 10
33.1607974975
 20
39.6811380452
 11
32.6799628844
 21
40.1506198263
  0
LINE
  5
2A1
100
AcDbEntity
  8
0
100
AcDbLine
 62
7
  6
CONTINUOUS
 10
22.1298857852
 20
52.3245148913
 11
21.6490511721
 21
52.7939966724
  0
LINE
  5
2A2
100
AcDbEntity
  8
0
100
AcDbLine
 62
7
  6
CONTINUOUS
 10
33.1607974975
 20
42.7920122544
 11
32.6799628844
 21
43.2614940355
  0
LINE
  5
2A3
100
AcDbEntity
  8
0
100
AcDbLine
 62
7
  6
CONTINUOUS
 10
40.313697352
 20
12.7329911221
 11
40.4171683228
 21
12.5041472446
  0
LINE
  5
2A4
100
AcDbEntity
  8
0
100
AcDbLine
 62
7
  6
CONTINUOUS
 10
18.9620465804
 20
32.3855157997
 11
18.9620465804
 21
31.3893828508
  0
LINE
  5
2A5
100
AcDbEntity
  8
0
100
AcDbLine
 62
7
  6
CONTINUOUS
 10
18.9620465804
 20
30.7688410138
 11
18.9620465804
 21
29.7727080649
  0
LINE
  5
2A6
100
AcDbEntity
  8
0
100
AcDbLine
 62
7
  6
CONTINUOUS
 10
19.3927999037
 20
37.4440476831
 11
19.3927999037
 21
37.3045589617
  0
LINE
  5
2A7
100
AcDbEntity
  8
0
100
AcDbLine
 62
7
  6
CONTINUOUS
 10
19.48530342
 20
30.0748087387
 11
19.48530342
 21
31.0709416876
  0
LINE
  5
2A8
100
AcDbEntity
  8
0
100
AcDbLine
 62
7
  6
CONTINUOUS
 10
19.48530342
 20
31.6914835247
 11
19.48530342
 21
32.0752528263
  0
LINE
  5
2A9
100
AcDbEntity
  8
0
100
AcDbLine
 62
7
  6
CONTINUOUS
 10
19.4994499716
 20
29.4624450914
 11
19.4994499716
 21
30.4585780403
  0
LINE
  5
2AA
100
AcDbEntity
  8
0
100
AcDbLine
 62
7
  6
CONTINUOUS
 10
19.4994499716
 20
31.0791198774
 11
19.4994499716
 21
32.0752528263
  0
LINE
  5
2AB
100
AcDbEntity
  8
0
100
AcDbLine
 62
7
  6
CONTINUOUS
 10
21.2700223848
 20
74.0571425699
 11
21.2700223848
 21
73.0293808502
  0
LINE
  5
2AC
100
AcDbEntity
  8
0
100
AcDbLine
 62
7
  6
CONTINUOUS
 10
21.2700223962
 20
72.3761789099
 11
21.2700223962
 21
71.3106432556
  0
LINE
  5
2AD
100
AcDbEntity
  8
0
100
AcDbLine
 62
7
  6
CONTINUOUS
 10
21.2700223848
 20
70.9840422953
 11
21.2700223848
 21
69.918506641
  0
LINE
  5
2AE
100
AcDbEntity
  8
0
100
AcDbLine
 62
7
  6
CONTINUOUS
 10
21.2700223962
 20
69.2653047007
 11
21.2700223962
 21
68.1997690463
  0
LINE
  5
2AF
100
AcDbEntity
  8
0
100
AcDbLine
 62
7
  6
CONTINUOUS
 10
21.2700223848
 20
67.873168086
 11
21.2700223848
 21
66.8076324317
  0
LINE
  5
2B0
100
AcDbEntity
  8
0
100
AcDbLine
 62
7
  6
CONTINUOUS
 10
21.2700223962
 20
66.1544304914
 11
21.2700223962
 21
65.0888948371
  0
LINE
  5
2B1
100
AcDbEntity
  8
0
100
AcDbLine
 62
7
  6
CONTINUOUS
 10
21.2700223848
 20
64.7622938768
 11
21.2700223848
 21
63.6967582224
  0
LINE
  5
2B2
100
AcDbEntity
  8
0
100
AcDbLine
 62
7
  6
CONTINUOUS
 10
21.2700223962
 20
63.0435562821
 11
21.2700223962
 21
61.9780206278
  0
LINE
  5
2B3
100
AcDbEntity
  8
0
100
AcDbLine
 62
7
  6
CONTINUOUS
 10
21.2700223848
 20
61.6514196675
 11
21.2700223848
 21
60.5858840132
  0
LINE
  5
2B4
100
AcDbEntity
  8
0
100
AcDbLine
 62
7
  6
CONTINUOUS
 10
21.2700223962
 20
59.9326820729
 11
21.2700223962
 21
58.8671464185
  0
LINE
  5
2B5
100
AcDbEntity
  8
0
100
AcDbLine
 62
7
  6
CONTINUOUS
 10
21.2700223848
 20
58.5405454582
 11
21.2700223848
 21
57.4750098039
  0
LINE
  5
2B6
100
AcDbEntity
  8
0
100
AcDbLine
 62
7
  6
CONTINUOUS
 10
21.2700223962
 20
56.8218078636
 11
21.2700223962
 21
55.7562722093
  0
LINE
  5
2B7
100
AcDbEntity
  8
0
100
AcDbLine
 62
7
  6
CONTINUOUS
 10
21.2700223848
 20
55.429671249
 11
21.2700223848
 21
54.3641355946
  0
LINE
  5
2B8
100
AcDbEntity
  8
0
100
AcDbLine
 62
7
  6
CONTINUOUS
 10
21.2700223962
 20
53.7109336544
 11
21.2700223962
 21
52.645398
  0
LINE
  5
2B9
100
AcDbEntity
  8
0
100
AcDbLine
 62
7
  6
CONTINUOUS
 10
21.2700223848
 20
52.3187970397
 11
21.2700223848
 21
51.2532613854
  0
LINE
  5
2BA
100
AcDbEntity
  8
0
100
AcDbLine
 62
7
  6
CONTINUOUS
 10
21.2700223962
 20
50.6000594451
 11
21.2700223962
 21
49.5345237907
  0
LINE
  5
2BB
100
AcDbEntity
  8
0
100
AcDbLine
 62
7
  6
CONTINUOUS
 10
21.2700223848
 20
49.2079228305
 11
21.2700223848
 21
48.1423871761
  0
LINE
  5
2BC
100
AcDbEntity
  8
0
100
AcDbLine
 62
7
  6
CONTINUOUS
 10
21.2700223962
 20
47.4891852358
 11
21.2700223962
 21
46.4236495815
  0
LINE
  5
2BD
100
AcDbEntity
  8
0
100
AcDbLine
 62
7
  6
CONTINUOUS
 10
21.2700223848
 20
46.0970486212
 11
21.2700223848
 21
45.0315129668
  0
LINE
  5
2BE
100
AcDbEntity
  8
0
100
AcDbLine
 62
7
  6
CONTINUOUS
 10
21.2700223962
 20
44.3783110266
 11
21.2700223962
 21
43.3127753722
  0
LINE
  5
2BF
100
AcDbEntity
  8
0
100
AcDbLine
 62
7
  6
CONTINUOUS
 10
21.2700223848
 20
42.9861744119
 11
21.2700223848
 21
41.9206387576
  0
LINE
  5
2C0
100
AcDbEntity
  8
0
100
AcDbLine
 62
7
  6
CONTINUOUS
 10
21.2700223962
 20
41.2674368173
 11
21.2700223962
 21
40.2019011629
  0
LINE
  5
2C1
100
AcDbEntity
  8
0
100
AcDbLine
 62
7
  6
CONTINUOUS
 10
21.2700223848
 20
39.8753002027
 11
21.2700223848
 21
38.8097645483
  0
LINE
  5
2C2
100
AcDbEntity
  8
0
100
AcDbLine
 62
7
  6
CONTINUOUS
 10
21.2700223962
 20
38.156562608
 11
21.2700223962
 21
37.0910269537
  0
LINE
  5
2C3
100
AcDbEntity
  8
0
100
AcDbLine
 62
7
  6
CONTINUOUS
 10
21.6490511721
 20
37.2396256261
 11
21.6490511721
 21
37.9387087217
  0
LINE
  5
2C4
100
AcDbEntity
  8
0
100
AcDbLine
 62
7
  6
CONTINUOUS
 10
21.6490511721
 20
38.5909371265
 11
21.6490511721
 21
39.2890466931
  0
LINE
  5
2C5
100
AcDbEntity
  8
0
100
AcDbLine
 62
7
  6
CONTINUOUS
 10
21.6490511721
 20
40.3504998354
 11
21.6490511721
 21
41.049582931
  0
LINE
  5
2C6
100
AcDbEntity
  8
0
100
AcDbLine
 62
7
  6
CONTINUOUS
 10
21.6490511721
 20
41.7018113357
 11
21.6490511721
 21
42.3999209024
  0
LINE
  5
2C7
100
AcDbEntity
  8
0
100
AcDbLine
 62
7
  6
CONTINUOUS
 10
21.6490511721
 20
43.4613740446
 11
21.6490511721
 21
44.1604571402
  0
LINE
  5
2C8
100
AcDbEntity
  8
0
100
AcDbLine
 62
7
  6
CONTINUOUS
 10
21.6490511721
 20
44.812685545
 11
21.6490511721
 21
45.5107951116
  0
LINE
  5
2C9
100
AcDbEntity
  8
0
100
AcDbLine
 62
7
  6
CONTINUOUS
 10
21.6490511721
 20
46.5722482539
 11
21.6490511721
 21
47.2713313495
  0
LINE
  5
2CA
100
AcDbEntity
  8
0
100
AcDbLine
 62
7
  6
CONTINUOUS
 10
21.6490511721
 20
47.9235597542
 11
21.6490511721
 21
48.6216693209
  0
LINE
  5
2CB
100
AcDbEntity
  8
0
100
AcDbLine
 62
7
  6
CONTINUOUS
 10
21.6490511721
 20
49.6831224632
 11
21.6490511721
 21
50.3822055587
  0
LINE
  5
2CC
100
AcDbEntity
  8
0
100
AcDbLine
 62
7
  6
CONTINUOUS
 10
21.6490511721
 20
51.0344339635
 11
21.6490511721
 21
51.7325435302
  0
LINE
  5
2CD
100
AcDbEntity
  8
0
100
AcDbLine
 62
7
  6
CONTINUOUS
 10
21.6490511721
 20
52.7939966724
 11
21.6490511721
 21
53.493079768
  0
LINE
  5
2CE
100
AcDbEntity
  8
0
100
AcDbLine
 62
7
  6
CONTINUOUS
 10
21.6490511721
 20
54.1453081728
 11
21.6490511721
 21
54.8434177394
  0
LINE
  5
2CF
100
AcDbEntity
  8
0
100
AcDbLine
 62
7
  6
CONTINUOUS
 10
21.6490511721
 20
55.9048708817
 11
21.6490511721
 21
56.6039539773
  0
LINE
  5
2D0
100
AcDbEntity
  8
0
100
AcDbLine
 62
7
  6
CONTINUOUS
 10
21.6490511721
 20
57.256182382
 11
21.6490511721
 21
57.9542919487
  0
LINE
  5
2D1
100
AcDbEntity
  8
0
100
AcDbLine
 62
7
  6
CONTINUOUS
 10
21.6490511721
 20
59.0157450909
 11
21.6490511721
 21
59.7148281865
  0
LINE
  5
2D2
100
AcDbEntity
  8
0
100
AcDbLine
 62
7
  6
CONTINUOUS
 10
21.6490511721
 20
60.3670565913
 11
21.6490511721
 21
61.0651661579
  0
LINE
  5
2D3
100
AcDbEntity
  8
0
100
AcDbLine
 62
7
  6
CONTINUOUS
 10
21.6490511721
 20
62.1266193002
 11
21.6490511721
 21
62.8257023958
  0
LINE
  5
2D4
100
AcDbEntity
  8
0
100
AcDbLine
 62
7
  6
CONTINUOUS
 10
21.6490511721
 20
63.4779308006
 11
21.6490511721
 21
64.1760403672
  0
LINE
  5
2D5
100
AcDbEntity
  8
0
100
AcDbLine
 62
7
  6
CONTINUOUS
 10
21.6490511721
 20
65.2374935095
 11
21.6490511721
 21
65.9365766051
  0
LINE
  5
2D6
100
AcDbEntity
  8
0
100
AcDbLine
 62
7
  6
CONTINUOUS
 10
21.6490511721
 20
66.5888050098
 11
21.6490511721
 21
67.2869145765
  0
LINE
  5
2D7
100
AcDbEntity
  8
0
100
AcDbLine
 62
7
  6
CONTINUOUS
 10
21.6490511721
 20
68.3483677187
 11
21.6490511721
 21
69.0474508143
  0
LINE
  5
2D8
100
AcDbEntity
  8
0
100
AcDbLine
 62
7
  6
CONTINUOUS
 10
21.6490511721
 20
69.6996792191
 11
21.6490511721
 21
70.3977887857
  0
LINE
  5
2D9
100
AcDbEntity
  8
0
100
AcDbLine
 62
7
  6
CONTINUOUS
 10
21.6490511721
 20
71.459241928
 11
21.6490511721
 21
72.1583250236
  0
LINE
  5
2DA
100
AcDbEntity
  8
0
100
AcDbLine
 62
7
  6
CONTINUOUS
 10
21.6490511721
 20
72.8105534284
 11
21.6490511721
 21
73.508662995
  0
LINE
  5
2DB
100
AcDbEntity
  8
0
100
AcDbLine
 62
7
  6
CONTINUOUS
 10
22.1298857852
 20
73.42293735
 11
22.1298857852
 21
70.9897601469
  0
LINE
  5
2DC
100
AcDbEntity
  8
0
100
AcDbLine
 62
7
  6
CONTINUOUS
 10
22.1298857852
 20
70.3120631407
 11
22.1298857852
 21
67.8788859376
  0
LINE
  5
2DD
100
AcDbEntity
  8
0
100
AcDbLine
 62
7
  6
CONTINUOUS
 10
22.1298857852
 20
67.2011889314
 11
22.1298857852
 21
64.7680117284
  0
LINE
  5
2DE
100
AcDbEntity
  8
0
100
AcDbLine
 62
7
  6
CONTINUOUS
 10
22.1298857852
 20
64.0903147222
 11
22.1298857852
 21
61.6571375191
  0
LINE
  5
2DF
100
AcDbEntity
  8
0
100
AcDbLine
 62
7
  6
CONTINUOUS
 10
22.1298857852
 20
60.9794405129
 11
22.1298857852
 21
58.5462633099
  0
LINE
  5
2E0
100
AcDbEntity
  8
0
100
AcDbLine
 62
7
  6
CONTINUOUS
 10
22.1298857852
 20
57.8685663036
 11
22.1298857852
 21
55.4353891006
  0
LINE
  5
2E1
100
AcDbEntity
  8
0
100
AcDbLine
 62
7
  6
CONTINUOUS
 10
22.1298857852
 20
54.7576920944
 11
22.1298857852
 21
52.3245148913
  0
LINE
  5
2E2
100
AcDbEntity
  8
0
100
AcDbLine
 62
7
  6
CONTINUOUS
 10
22.1298857852
 20
51.6468178851
 11
22.1298857852
 21
49.2136406821
  0
LINE
  5
2E3
100
AcDbEntity
  8
0
100
AcDbLine
 62
7
  6
CONTINUOUS
 10
22.1298857852
 20
48.5359436758
 11
22.1298857852
 21
46.1027664728
  0
LINE
  5
2E4
100
AcDbEntity
  8
0
100
AcDbLine
 62
7
  6
CONTINUOUS
 10
22.1298857852
 20
45.4250694666
 11
22.1298857852
 21
42.9918922635
  0
LINE
  5
2E5
100
AcDbEntity
  8
0
100
AcDbLine
 62
7
  6
CONTINUOUS
 10
22.1298857852
 20
42.3141952573
 11
22.1298857852
 21
39.8810180543
  0
LINE
  5
2E6
100
AcDbEntity
  8
0
100
AcDbLine
 62
7
  6
CONTINUOUS
 10
22.1298857852
 20
39.2033210481
 11
22.1298857852
 21
36.770143845
  0
LINE
  5
2E7
100
AcDbEntity
  8
0
100
AcDbLine
 62
7
  6
CONTINUOUS
 10
22.7662845371
 20
73.1932947564
 11
22.7662845371
 21
35.4964094834
  0
LINE
  5
2E8
100
AcDbEntity
  8
0
100
AcDbLine
 62
7
  6
CONTINUOUS
 10
23.2117637817
 20
26.935388576
 11
23.2117637817
 21
29.9462467561
  0
LINE
  5
2E9
100
AcDbEntity
  8
0
100
AcDbLine
 62
7
  6
CONTINUOUS
 10
23.2117637817
 20
30.7015004581
 11
23.2117637817
 21
33.7123586382
  0
LINE
  5
2EA
100
AcDbEntity
  8
0
100
AcDbLine
 62
7
  6
CONTINUOUS
 10
22.8692928579
 20
102.3061603566
 11
22.870507303
 21
102.3872013044
  0
LINE
  5
2EB
100
AcDbEntity
  8
0
100
AcDbLine
 62
7
  6
CONTINUOUS
 10
23.0107168904
 20
102.2245110005
 11
23.011929248
 21
102.3055531535
  0
LINE
  5
2EC
100
AcDbEntity
  8
0
100
AcDbLine
 62
7
  6
CONTINUOUS
 10
73.4395832857
 20
119.86914541
 11
74.0048692277
 21
120.2071073423
  0
LINE
  5
2ED
100
AcDbEntity
  8
0
100
AcDbLine
 62
7
  6
CONTINUOUS
 10
76.4407155281
 20
118.4965280389
 11
76.7042288294
 21
118.6486666062
  0
LINE
  5
2EE
100
AcDbEntity
  8
0
100
AcDbLine
 62
7
  6
CONTINUOUS
 10
73.3224447949
 20
120.601096359
 11
72.7370738957
 21
120.2747302198
  0
LINE
  5
2EF
100
AcDbEntity
  8
0
100
AcDbLine
 62
7
  6
CONTINUOUS
 10
75.7266178604
 20
119.2130777937
 11
75.1412469612
 21
118.8867116544
  0
LINE
  5
2F0
100
AcDbEntity
  8
0
100
AcDbLine
 62
7
  6
CONTINUOUS
 10
80.1937282232
 20
119.8999748049
 11
79.0229482379
 21
119.2472212358
  0
LINE
  5
2F1
100
AcDbEntity
  8
0
100
AcDbLine
 62
7
  6
CONTINUOUS
 10
12.6522790623
 20
81.995314521
 11
12.0767218756
 21
81.674419893
  0
LINE
  5
2F2
100
AcDbEntity
  8
0
100
AcDbLine
 62
7
  6
CONTINUOUS
 10
32.6799628844
 20
42.2000408933
 11
33.1607974975
 21
42.1143152482
  0
LINE
  5
2F3
100
AcDbEntity
  8
0
100
AcDbLine
 62
7
  6
CONTINUOUS
 10
21.6490511721
 20
45.5107951116
 11
22.1298857852
 21
45.4250694666
  0
LINE
  5
2F4
100
AcDbEntity
  8
0
100
AcDbLine
 62
7
  6
CONTINUOUS
 10
32.6799628844
 20
45.3109151025
 11
33.1607974975
 21
45.2251894575
  0
LINE
  5
2F5
100
AcDbEntity
  8
0
100
AcDbLine
 62
7
  6
CONTINUOUS
 10
21.6490511721
 20
53.493079768
 11
21.2700223962
 21
53.7109336544
  0
LINE
  5
2F6
100
AcDbEntity
  8
0
100
AcDbLine
 62
7
  6
CONTINUOUS
 10
32.3009340926
 20
44.8316329603
 11
32.6799628844
 21
44.6128055359
  0
LINE
  5
2F7
100
AcDbEntity
  8
0
100
AcDbLine
 62
7
  6
CONTINUOUS
 10
21.2700223848
 20
51.2532613854
 11
21.6490511721
 21
51.0344339635
  0
LINE
  5
2F8
100
AcDbEntity
  8
0
100
AcDbLine
 62
7
  6
CONTINUOUS
 10
29.0708927878
 20
47.7619916436
 11
32.3009340926
 21
45.8971686147
  0
LINE
  5
2F9
100
AcDbEntity
  8
0
100
AcDbLine
 62
7
  6
CONTINUOUS
 10
18.0399810841
 20
54.1836200662
 11
21.2700223848
 21
52.3187970397
  0
LINE
  5
2FA
100
AcDbEntity
  8
0
100
AcDbLine
 62
7
  6
CONTINUOUS
 10
32.3009341085
 20
46.2237695724
 11
29.0708927959
 21
48.0885926057
  0
LINE
  5
2FB
100
AcDbEntity
  8
0
100
AcDbLine
 62
7
  6
CONTINUOUS
 10
21.2700223962
 20
52.645398
 11
18.0399810836
 21
54.5102210334
  0
LINE
  5
2FC
100
AcDbEntity
  8
0
100
AcDbLine
 62
7
  6
CONTINUOUS
 10
32.6799628844
 20
47.0704778114
 11
32.3009341085
 21
47.2893052267
  0
LINE
  5
2FD
100
AcDbEntity
  8
0
100
AcDbLine
 62
7
  6
CONTINUOUS
 10
32.3009340926
 20
47.9425071696
 11
32.6799628844
 21
47.7236797451
  0
LINE
  5
2FE
100
AcDbEntity
  8
0
100
AcDbLine
 62
7
  6
CONTINUOUS
 10
21.2700223848
 20
54.3641355946
 11
21.6490511721
 21
54.1453081728
  0
LINE
  5
2FF
100
AcDbEntity
  8
0
100
AcDbLine
 62
7
  6
CONTINUOUS
 10
29.0708927878
 20
50.8728658528
 11
32.3009340926
 21
49.008042824
  0
LINE
  5
300
100
AcDbEntity
  8
0
100
AcDbLine
 62
7
  6
CONTINUOUS
 10
18.0399810841
 20
57.2944942755
 11
21.2700223848
 21
55.429671249
  0
LINE
  5
301
100
AcDbEntity
  8
0
100
AcDbLine
 62
7
  6
CONTINUOUS
 10
32.3009341085
 20
49.3346437816
 11
29.0708927959
 21
51.199466815
  0
LINE
  5
302
100
AcDbEntity
  8
0
100
AcDbLine
 62
7
  6
CONTINUOUS
 10
21.2700223962
 20
55.7562722093
 11
18.0399810836
 21
57.6210952426
  0
LINE
  5
303
100
AcDbEntity
  8
0
100
AcDbLine
 62
7
  6
CONTINUOUS
 10
22.1298857852
 20
55.4353891006
 11
21.6490511721
 21
55.9048708817
  0
LINE
  5
304
100
AcDbEntity
  8
0
100
AcDbLine
 62
7
  6
CONTINUOUS
 10
33.1607974975
 20
45.9028864637
 11
32.6799628844
 21
46.3723682448
  0
LINE
  5
305
100
AcDbEntity
  8
0
100
AcDbLine
 62
7
  6
CONTINUOUS
 10
22.1298857852
 20
58.5462633099
 11
21.6490511721
 21
59.0157450909
  0
LINE
  5
306
100
AcDbEntity
  8
0
100
AcDbLine
 62
7
  6
CONTINUOUS
 10
33.1607974975
 20
49.013760673
 11
32.6799628844
 21
49.4832424541
  0
LINE
  5
307
100
AcDbEntity
  8
0
100
AcDbLine
 62
7
  6
CONTINUOUS
 10
24.0720775717
 20
26.4936615144
 11
24.0720775717
 21
72.4394118514
  0
LINE
  5
308
100
AcDbEntity
  8
0
100
AcDbLine
 62
7
  6
CONTINUOUS
 10
47.8279820906
 20
121.2927937865
 11
47.7262283422
 21
121.0649538536
  0
LINE
  5
309
100
AcDbEntity
  8
0
100
AcDbLine
 62
7
  6
CONTINUOUS
 10
13.6422373879
 20
78.9628825381
 11
14.2079204577
 21
79.3008795433
  0
LINE
  5
30A
100
AcDbEntity
  8
0
100
AcDbLine
 62
7
  6
CONTINUOUS
 10
79.9183591555
 20
118.1588366342
 11
78.4720053365
 21
117.3237888521
  0
LINE
  5
30B
100
AcDbEntity
  8
0
100
AcDbLine
 62
7
  6
CONTINUOUS
 10
21.6490511721
 20
48.6216693209
 11
22.1298857852
 21
48.5359436758
  0
LINE
  5
30C
100
AcDbEntity
  8
0
100
AcDbLine
 62
7
  6
CONTINUOUS
 10
32.6799628844
 20
48.4217893118
 11
33.1607974975
 21
48.3360636667
  0
LINE
  5
30D
100
AcDbEntity
  8
0
100
AcDbLine
 62
7
  6
CONTINUOUS
 10
21.6490511721
 20
51.7325435302
 11
22.1298857852
 21
51.6468178851
  0
LINE
  5
30E
100
AcDbEntity
  8
0
100
AcDbLine
 62
7
  6
CONTINUOUS
 10
21.6490511721
 20
56.6039539773
 11
21.2700223962
 21
56.8218078636
  0
LINE
  5
30F
100
AcDbEntity
  8
0
100
AcDbLine
 62
7
  6
CONTINUOUS
 10
21.6490511721
 20
59.7148281865
 11
21.2700223962
 21
59.9326820729
  0
LINE
  5
310
100
AcDbEntity
  8
0
100
AcDbLine
 62
7
  6
CONTINUOUS
 10
32.6799628844
 20
50.1813520207
 11
32.3009341085
 21
50.400179436
  0
LINE
  5
311
100
AcDbEntity
  8
0
100
AcDbLine
 62
7
  6
CONTINUOUS
 10
32.3009340926
 20
51.0533813789
 11
32.6799628844
 21
50.8345539544
  0
LINE
  5
312
100
AcDbEntity
  8
0
100
AcDbLine
 62
7
  6
CONTINUOUS
 10
21.2700223848
 20
57.4750098039
 11
21.6490511721
 21
57.256182382
  0
LINE
  5
313
100
AcDbEntity
  8
0
100
AcDbLine
 62
7
  6
CONTINUOUS
 10
29.0708927878
 20
53.9837400621
 11
32.3009340926
 21
52.1189170332
  0
LINE
  5
314
100
AcDbEntity
  8
0
100
AcDbLine
 62
7
  6
CONTINUOUS
 10
18.0399810841
 20
60.4053684848
 11
21.2700223848
 21
58.5405454582
  0
LINE
  5
315
100
AcDbEntity
  8
0
100
AcDbLine
 62
7
  6
CONTINUOUS
 10
32.3009341085
 20
52.4455179909
 11
29.0708927959
 21
54.3103410243
  0
LINE
  5
316
100
AcDbEntity
  8
0
100
AcDbLine
 62
7
  6
CONTINUOUS
 10
21.2700223962
 20
58.8671464185
 11
18.0399810836
 21
60.7319694519
  0
LINE
  5
317
100
AcDbEntity
  8
0
100
AcDbLine
 62
7
  6
CONTINUOUS
 10
32.6799628844
 20
53.29222623
 11
32.3009341085
 21
53.5110536452
  0
LINE
  5
318
100
AcDbEntity
  8
0
100
AcDbLine
 62
7
  6
CONTINUOUS
 10
32.3009340926
 20
54.1642555881
 11
32.6799628844
 21
53.9454281637
  0
LINE
  5
319
100
AcDbEntity
  8
0
100
AcDbLine
 62
7
  6
CONTINUOUS
 10
21.2700223848
 20
60.5858840132
 11
21.6490511721
 21
60.3670565913
  0
LINE
  5
31A
100
AcDbEntity
  8
0
100
AcDbLine
 62
7
  6
CONTINUOUS
 10
29.0708927878
 20
57.0946142713
 11
32.3009340926
 21
55.2297912425
  0
LINE
  5
31B
100
AcDbEntity
  8
0
100
AcDbLine
 62
7
  6
CONTINUOUS
 10
18.0399810841
 20
63.516242694
 11
21.2700223848
 21
61.6514196675
  0
LINE
  5
31C
100
AcDbEntity
  8
0
100
AcDbLine
 62
7
  6
CONTINUOUS
 10
22.1298857852
 20
61.6571375191
 11
21.6490511721
 21
62.1266193002
  0
LINE
  5
31D
100
AcDbEntity
  8
0
100
AcDbLine
 62
7
  6
CONTINUOUS
 10
33.1607974975
 20
52.1246348822
 11
32.6799628844
 21
52.5941166633
  0
LINE
  5
31E
100
AcDbEntity
  8
0
100
AcDbLine
 62
7
  6
CONTINUOUS
 10
22.1298857852
 20
64.7680117284
 11
21.6490511721
 21
65.2374935095
  0
LINE
  5
31F
100
AcDbEntity
  8
0
100
AcDbLine
 62
7
  6
CONTINUOUS
 10
33.1607974975
 20
55.2355090915
 11
32.6799628844
 21
55.7049908726
  0
LINE
  5
320
100
AcDbEntity
  8
0
100
AcDbLine
 62
7
  6
CONTINUOUS
 10
31.9699301823
 20
107.4774265324
 11
31.9674617163
 21
107.6392990329
  0
LINE
  5
321
100
AcDbEntity
  8
0
100
AcDbLine
 62
7
  6
CONTINUOUS
 10
28.6706507421
 20
38.2562749445
 11
28.6706507421
 21
69.7844844561
  0
LINE
  5
322
100
AcDbEntity
  8
0
100
AcDbLine
 62
7
  6
CONTINUOUS
 10
29.0708927959
 20
38.755969978
 11
29.0708927959
 21
39.4506704962
  0
LINE
  5
323
100
AcDbEntity
  8
0
100
AcDbLine
 62
7
  6
CONTINUOUS
 10
29.0708927878
 20
40.8455427154
 11
29.0708927878
 21
41.540243225
  0
LINE
  5
324
100
AcDbEntity
  8
0
100
AcDbLine
 62
7
  6
CONTINUOUS
 10
29.0708927959
 20
41.8668441872
 11
29.0708927959
 21
42.5615447055
  0
LINE
  5
325
100
AcDbEntity
  8
0
100
AcDbLine
 62
7
  6
CONTINUOUS
 10
29.0708927878
 20
43.9564169247
 11
29.0708927878
 21
44.6511174343
  0
LINE
  5
326
100
AcDbEntity
  8
0
100
AcDbLine
 62
7
  6
CONTINUOUS
 10
29.0708927959
 20
44.9777183965
 11
29.0708927959
 21
45.6724189147
  0
LINE
  5
327
100
AcDbEntity
  8
0
100
AcDbLine
 62
7
  6
CONTINUOUS
 10
29.0708927878
 20
47.0672911339
 11
29.0708927878
 21
47.7619916436
  0
LINE
  5
328
100
AcDbEntity
  8
0
100
AcDbLine
 62
7
  6
CONTINUOUS
 10
29.0708927959
 20
48.0885926057
 11
29.0708927959
 21
48.783293124
  0
LINE
  5
329
100
AcDbEntity
  8
0
100
AcDbLine
 62
7
  6
CONTINUOUS
 10
29.0708927878
 20
50.1781653432
 11
29.0708927878
 21
50.8728658528
  0
LINE
  5
32A
100
AcDbEntity
  8
0
100
AcDbLine
 62
7
  6
CONTINUOUS
 10
29.0708927959
 20
51.199466815
 11
29.0708927959
 21
51.8941673333
  0
LINE
  5
32B
100
AcDbEntity
  8
0
100
AcDbLine
 62
7
  6
CONTINUOUS
 10
29.0708927878
 20
53.2890395525
 11
29.0708927878
 21
53.9837400621
  0
LINE
  5
32C
100
AcDbEntity
  8
0
100
AcDbLine
 62
7
  6
CONTINUOUS
 10
29.0708927959
 20
54.3103410243
 11
29.0708927959
 21
55.0050415425
  0
LINE
  5
32D
100
AcDbEntity
  8
0
100
AcDbLine
 62
7
  6
CONTINUOUS
 10
29.0708927878
 20
56.3999137617
 11
29.0708927878
 21
57.0946142713
  0
LINE
  5
32E
100
AcDbEntity
  8
0
100
AcDbLine
 62
7
  6
CONTINUOUS
 10
29.0708927959
 20
57.4212152335
 11
29.0708927959
 21
58.1159157518
  0
LINE
  5
32F
100
AcDbEntity
  8
0
100
AcDbLine
 62
7
  6
CONTINUOUS
 10
29.0708927878
 20
59.510787971
 11
29.0708927878
 21
60.2054884806
  0
LINE
  5
330
100
AcDbEntity
  8
0
100
AcDbLine
 62
7
  6
CONTINUOUS
 10
29.0708927959
 20
60.5320894428
 11
29.0708927959
 21
61.2267899611
  0
LINE
  5
331
100
AcDbEntity
  8
0
100
AcDbLine
 62
7
  6
CONTINUOUS
 10
29.0708927878
 20
62.6216621802
 11
29.0708927878
 21
63.3163626899
  0
LINE
  5
332
100
AcDbEntity
  8
0
100
AcDbLine
 62
7
  6
CONTINUOUS
 10
29.0708927959
 20
63.6429636521
 11
29.0708927959
 21
64.3376641703
  0
LINE
  5
333
100
AcDbEntity
  8
0
100
AcDbLine
 62
7
  6
CONTINUOUS
 10
29.0708927878
 20
65.7325363895
 11
29.0708927878
 21
66.4272368991
  0
LINE
  5
334
100
AcDbEntity
  8
0
100
AcDbLine
 62
7
  6
CONTINUOUS
 10
29.0708927959
 20
66.7538378613
 11
29.0708927959
 21
67.4485383796
  0
LINE
  5
335
100
AcDbEntity
  8
0
100
AcDbLine
 62
7
  6
CONTINUOUS
 10
29.0708927878
 20
68.8434105988
 11
29.0708927878
 21
69.5381111084
  0
LINE
  5
336
100
AcDbEntity
  8
0
100
AcDbLine
 62
7
  6
CONTINUOUS
 10
32.3009340926
 20
67.6732880795
 11
32.3009340926
 21
66.6077524252
  0
LINE
  5
337
100
AcDbEntity
  8
0
100
AcDbLine
 62
7
  6
CONTINUOUS
 10
32.3009341085
 20
65.9545504823
 11
32.3009341085
 21
64.8890148279
  0
LINE
  5
338
100
AcDbEntity
  8
0
100
AcDbLine
 62
7
  6
CONTINUOUS
 10
32.3009340926
 20
64.5624138703
 11
32.3009340926
 21
63.4968782159
  0
LINE
  5
339
100
AcDbEntity
  8
0
100
AcDbLine
 62
7
  6
CONTINUOUS
 10
32.3009341085
 20
62.843676273
 11
32.3009341085
 21
61.7781406187
  0
LINE
  5
33A
100
AcDbEntity
  8
0
100
AcDbLine
 62
7
  6
CONTINUOUS
 10
32.3009340926
 20
61.451539661
 11
32.3009340926
 21
60.3860040067
  0
LINE
  5
33B
100
AcDbEntity
  8
0
100
AcDbLine
 62
7
  6
CONTINUOUS
 10
32.3009341085
 20
59.7328020638
 11
32.3009341085
 21
58.6672664094
  0
LINE
  5
33C
100
AcDbEntity
  8
0
100
AcDbLine
 62
7
  6
CONTINUOUS
 10
32.3009340926
 20
58.3406654517
 11
32.3009340926
 21
57.2751297974
  0
LINE
  5
33D
100
AcDbEntity
  8
0
100
AcDbLine
 62
7
  6
CONTINUOUS
 10
32.3009341085
 20
56.6219278545
 11
32.3009341085
 21
55.5563922002
  0
LINE
  5
33E
100
AcDbEntity
  8
0
100
AcDbLine
 62
7
  6
CONTINUOUS
 10
32.3009340926
 20
55.2297912425
 11
32.3009340926
 21
54.1642555881
  0
LINE
  5
33F
100
AcDbEntity
  8
0
100
AcDbLine
 62
7
  6
CONTINUOUS
 10
32.3009341085
 20
53.5110536452
 11
32.3009341085
 21
52.4455179909
  0
LINE
  5
340
100
AcDbEntity
  8
0
100
AcDbLine
 62
7
  6
CONTINUOUS
 10
32.3009340926
 20
52.1189170332
 11
32.3009340926
 21
51.0533813789
  0
LINE
  5
341
100
AcDbEntity
  8
0
100
AcDbLine
 62
7
  6
CONTINUOUS
 10
32.3009341085
 20
50.400179436
 11
32.3009341085
 21
49.3346437816
  0
LINE
  5
342
100
AcDbEntity
  8
0
100
AcDbLine
 62
7
  6
CONTINUOUS
 10
32.3009340926
 20
49.008042824
 11
32.3009340926
 21
47.9425071696
  0
LINE
  5
343
100
AcDbEntity
  8
0
100
AcDbLine
 62
7
  6
CONTINUOUS
 10
32.3009341085
 20
47.2893052267
 11
32.3009341085
 21
46.2237695724
  0
LINE
  5
344
100
AcDbEntity
  8
0
100
AcDbLine
 62
7
  6
CONTINUOUS
 10
32.3009340926
 20
45.8971686147
 11
32.3009340926
 21
44.8316329603
  0
LINE
  5
345
100
AcDbEntity
  8
0
100
AcDbLine
 62
7
  6
CONTINUOUS
 10
32.3009341085
 20
44.1784310175
 11
32.3009341085
 21
43.1128953631
  0
LINE
  5
346
100
AcDbEntity
  8
0
100
AcDbLine
 62
7
  6
CONTINUOUS
 10
32.3009340926
 20
42.7862944054
 11
32.3009340926
 21
41.7207587511
  0
LINE
  5
347
100
AcDbEntity
  8
0
100
AcDbLine
 62
7
  6
CONTINUOUS
 10
32.3009341085
 20
41.0675568082
 11
32.3009341085
 21
40.0020211538
  0
LINE
  5
348
100
AcDbEntity
  8
0
100
AcDbLine
 62
7
  6
CONTINUOUS
 10
32.3009340926
 20
39.6754201962
 11
32.3009340926
 21
38.6098845418
  0
LINE
  5
349
100
AcDbEntity
  8
0
100
AcDbLine
 62
7
  6
CONTINUOUS
 10
32.3009341085
 20
37.9566825989
 11
32.3009341085
 21
36.8911469446
  0
LINE
  5
34A
100
AcDbEntity
  8
0
100
AcDbLine
 62
7
  6
CONTINUOUS
 10
32.6799628844
 20
37.039745617
 11
32.6799628844
 21
37.7378551836
  0
LINE
  5
34B
100
AcDbEntity
  8
0
100
AcDbLine
 62
7
  6
CONTINUOUS
 10
32.6799628844
 20
38.3910571173
 11
32.6799628844
 21
39.089166684
  0
LINE
  5
34C
100
AcDbEntity
  8
0
100
AcDbLine
 62
7
  6
CONTINUOUS
 10
32.6799628844
 20
40.1506198263
 11
32.6799628844
 21
40.8487293929
  0
LINE
  5
34D
100
AcDbEntity
  8
0
100
AcDbLine
 62
7
  6
CONTINUOUS
 10
32.6799628844
 20
41.5019313266
 11
32.6799628844
 21
42.2000408933
  0
LINE
  5
34E
100
AcDbEntity
  8
0
100
AcDbLine
 62
7
  6
CONTINUOUS
 10
32.6799628844
 20
43.2614940355
 11
32.6799628844
 21
43.9596036022
  0
LINE
  5
34F
100
AcDbEntity
  8
0
100
AcDbLine
 62
7
  6
CONTINUOUS
 10
32.6799628844
 20
44.6128055359
 11
32.6799628844
 21
45.3109151025
  0
LINE
  5
350
100
AcDbEntity
  8
0
100
AcDbLine
 62
7
  6
CONTINUOUS
 10
32.6799628844
 20
46.3723682448
 11
32.6799628844
 21
47.0704778114
  0
LINE
  5
351
100
AcDbEntity
  8
0
100
AcDbLine
 62
7
  6
CONTINUOUS
 10
32.6799628844
 20
47.7236797451
 11
32.6799628844
 21
48.4217893118
  0
LINE
  5
352
100
AcDbEntity
  8
0
100
AcDbLine
 62
7
  6
CONTINUOUS
 10
32.6799628844
 20
49.4832424541
 11
32.6799628844
 21
50.1813520207
  0
LINE
  5
353
100
AcDbEntity
  8
0
100
AcDbLine
 62
7
  6
CONTINUOUS
 10
32.6799628844
 20
50.8345539544
 11
32.6799628844
 21
51.5326635211
  0
LINE
  5
354
100
AcDbEntity
  8
0
100
AcDbLine
 62
7
  6
CONTINUOUS
 10
32.6799628844
 20
52.5941166633
 11
32.6799628844
 21
53.29222623
  0
LINE
  5
355
100
AcDbEntity
  8
0
100
AcDbLine
 62
7
  6
CONTINUOUS
 10
32.6799628844
 20
53.9454281637
 11
32.6799628844
 21
54.6435377303
  0
LINE
  5
356
100
AcDbEntity
  8
0
100
AcDbLine
 62
7
  6
CONTINUOUS
 10
32.6799628844
 20
55.7049908726
 11
32.6799628844
 21
56.4031004392
  0
LINE
  5
357
100
AcDbEntity
  8
0
100
AcDbLine
 62
7
  6
CONTINUOUS
 10
32.6799628844
 20
57.0563023729
 11
32.6799628844
 21
57.7544119396
  0
LINE
  5
358
100
AcDbEntity
  8
0
100
AcDbLine
 62
7
  6
CONTINUOUS
 10
32.6799628844
 20
58.8158650818
 11
32.6799628844
 21
59.5139746485
  0
LINE
  5
359
100
AcDbEntity
  8
0
100
AcDbLine
 62
7
  6
CONTINUOUS
 10
32.6799628844
 20
60.1671765822
 11
32.6799628844
 21
60.8652861488
  0
LINE
  5
35A
100
AcDbEntity
  8
0
100
AcDbLine
 62
7
  6
CONTINUOUS
 10
32.6799628844
 20
61.9267392911
 11
32.6799628844
 21
62.6248488578
  0
LINE
  5
35B
100
AcDbEntity
  8
0
100
AcDbLine
 62
7
  6
CONTINUOUS
 10
32.6799628844
 20
63.2780507915
 11
32.6799628844
 21
63.9761603581
  0
LINE
  5
35C
100
AcDbEntity
  8
0
100
AcDbLine
 62
7
  6
CONTINUOUS
 10
32.6799628844
 20
65.0376135004
 11
32.6799628844
 21
65.735723067
  0
LINE
  5
35D
100
AcDbEntity
  8
0
100
AcDbLine
 62
7
  6
CONTINUOUS
 10
32.6799628844
 20
66.3889250007
 11
32.6799628844
 21
67.0870345674
  0
LINE
  5
35E
100
AcDbEntity
  8
0
100
AcDbLine
 62
7
  6
CONTINUOUS
 10
37.5425266677
 20
86.4864020257
 11
35.3480366395
 21
85.175188915
  0
LINE
  5
35F
100
AcDbEntity
  8
0
100
AcDbLine
 62
7
  6
CONTINUOUS
 10
18.6089043275
 20
75.5935050395
 11
18.0399810841
 21
75.2650390124
  0
LINE
  5
360
100
AcDbEntity
  8
0
100
AcDbLine
 62
7
  6
CONTINUOUS
 10
18.0399810836
 20
73.8701668072
 11
19.8169163615
 21
74.8960747444
  0
LINE
  5
361
100
AcDbEntity
  8
0
100
AcDbLine
 62
7
  6
CONTINUOUS
 10
32.6799628844
 20
51.5326635211
 11
33.1607974975
 21
51.446937876
  0
LINE
  5
362
100
AcDbEntity
  8
0
100
AcDbLine
 62
7
  6
CONTINUOUS
 10
21.6490511721
 20
54.8434177394
 11
22.1298857852
 21
54.7576920944
  0
LINE
  5
363
100
AcDbEntity
  8
0
100
AcDbLine
 62
7
  6
CONTINUOUS
 10
32.6799628844
 20
54.6435377303
 11
33.1607974975
 21
54.5578120853
  0
LINE
  5
364
100
AcDbEntity
  8
0
100
AcDbLine
 62
7
  6
CONTINUOUS
 10
21.6490511721
 20
62.8257023958
 11
21.2700223962
 21
63.0435562821
  0
LINE
  5
365
100
AcDbEntity
  8
0
100
AcDbLine
 62
7
  6
CONTINUOUS
 10
21.6490511721
 20
65.9365766051
 11
21.2700223962
 21
66.1544304914
  0
LINE
  5
366
100
AcDbEntity
  8
0
100
AcDbLine
 62
7
  6
CONTINUOUS
 10
32.3009341085
 20
55.5563922002
 11
29.0708927959
 21
57.4212152335
  0
LINE
  5
367
100
AcDbEntity
  8
0
100
AcDbLine
 62
7
  6
CONTINUOUS
 10
21.2700223962
 20
61.9780206278
 11
18.0399810836
 21
63.8428436612
  0
LINE
  5
368
100
AcDbEntity
  8
0
100
AcDbLine
 62
7
  6
CONTINUOUS
 10
32.6799628844
 20
56.4031004392
 11
32.3009341085
 21
56.6219278545
  0
LINE
  5
369
100
AcDbEntity
  8
0
100
AcDbLine
 62
7
  6
CONTINUOUS
 10
32.3009340926
 20
57.2751297974
 11
32.6799628844
 21
57.0563023729
  0
LINE
  5
36A
100
AcDbEntity
  8
0
100
AcDbLine
 62
7
  6
CONTINUOUS
 10
21.2700223848
 20
63.6967582224
 11
21.6490511721
 21
63.4779308006
  0
LINE
  5
36B
100
AcDbEntity
  8
0
100
AcDbLine
 62
7
  6
CONTINUOUS
 10
29.0708927878
 20
60.2054884806
 11
32.3009340926
 21
58.3406654517
  0
LINE
  5
36C
100
AcDbEntity
  8
0
100
AcDbLine
 62
7
  6
CONTINUOUS
 10
18.0399810841
 20
66.6271169033
 11
21.2700223848
 21
64.7622938768
  0
LINE
  5
36D
100
AcDbEntity
  8
0
100
AcDbLine
 62
7
  6
CONTINUOUS
 10
32.3009341085
 20
58.6672664094
 11
29.0708927959
 21
60.5320894428
  0
LINE
  5
36E
100
AcDbEntity
  8
0
100
AcDbLine
 62
7
  6
CONTINUOUS
 10
21.2700223962
 20
65.0888948371
 11
18.0399810836
 21
66.9537178704
  0
LINE
  5
36F
100
AcDbEntity
  8
0
100
AcDbLine
 62
7
  6
CONTINUOUS
 10
32.6799628844
 20
59.5139746485
 11
32.3009341085
 21
59.7328020638
  0
LINE
  5
370
100
AcDbEntity
  8
0
100
AcDbLine
 62
7
  6
CONTINUOUS
 10
32.3009340926
 20
60.3860040067
 11
32.6799628844
 21
60.1671765822
  0
LINE
  5
371
100
AcDbEntity
  8
0
100
AcDbLine
 62
7
  6
CONTINUOUS
 10
21.2700223848
 20
66.8076324317
 11
21.6490511721
 21
66.5888050098
  0
LINE
  5
372
100
AcDbEntity
  8
0
100
AcDbLine
 62
7
  6
CONTINUOUS
 10
22.1298857852
 20
67.8788859376
 11
21.6490511721
 21
68.3483677187
  0
LINE
  5
373
100
AcDbEntity
  8
0
100
AcDbLine
 62
7
  6
CONTINUOUS
 10
33.1607974975
 20
58.3463833007
 11
32.6799628844
 21
58.8158650818
  0
LINE
  5
374
100
AcDbEntity
  8
0
100
AcDbLine
 62
7
  6
CONTINUOUS
 10
22.1298857852
 20
70.9897601469
 11
21.6490511721
 21
71.459241928
  0
LINE
  5
375
100
AcDbEntity
  8
0
100
AcDbLine
 62
7
  6
CONTINUOUS
 10
33.1607974975
 20
61.45725751
 11
32.6799628844
 21
61.9267392911
  0
LINE
  5
376
100
AcDbEntity
  8
0
100
AcDbLine
 62
7
  6
CONTINUOUS
 10
33.1607974975
 20
67.0013089223
 11
33.1607974975
 21
64.5681317193
  0
LINE
  5
377
100
AcDbEntity
  8
0
100
AcDbLine
 62
7
  6
CONTINUOUS
 10
33.1607974975
 20
63.8904347131
 11
33.1607974975
 21
61.45725751
  0
LINE
  5
378
100
AcDbEntity
  8
0
100
AcDbLine
 62
7
  6
CONTINUOUS
 10
33.1607974975
 20
60.7795605038
 11
33.1607974975
 21
58.3463833007
  0
LINE
  5
379
100
AcDbEntity
  8
0
100
AcDbLine
 62
7
  6
CONTINUOUS
 10
33.1607974975
 20
57.6686862945
 11
33.1607974975
 21
55.2355090915
  0
LINE
  5
37A
100
AcDbEntity
  8
0
100
AcDbLine
 62
7
  6
CONTINUOUS
 10
33.1607974975
 20
54.5578120853
 11
33.1607974975
 21
52.1246348822
  0
LINE
  5
37B
100
AcDbEntity
  8
0
100
AcDbLine
 62
7
  6
CONTINUOUS
 10
33.1607974975
 20
51.446937876
 11
33.1607974975
 21
49.013760673
  0
LINE
  5
37C
100
AcDbEntity
  8
0
100
AcDbLine
 62
7
  6
CONTINUOUS
 10
33.1607974975
 20
48.3360636667
 11
33.1607974975
 21
45.9028864637
  0
LINE
  5
37D
100
AcDbEntity
  8
0
100
AcDbLine
 62
7
  6
CONTINUOUS
 10
33.1607974975
 20
45.2251894575
 11
33.1607974975
 21
42.7920122544
  0
LINE
  5
37E
100
AcDbEntity
  8
0
100
AcDbLine
 62
7
  6
CONTINUOUS
 10
33.1607974975
 20
42.1143152482
 11
33.1607974975
 21
39.6811380452
  0
LINE
  5
37F
100
AcDbEntity
  8
0
100
AcDbLine
 62
7
  6
CONTINUOUS
 10
33.1607974975
 20
39.0034410389
 11
33.1607974975
 21
36.5702638359
  0
LINE
  5
380
100
AcDbEntity
  8
0
100
AcDbLine
 62
7
  6
CONTINUOUS
 10
33.7971962494
 20
66.8247389858
 11
33.7971962494
 21
35.2965294743
  0
LINE
  5
381
100
AcDbEntity
  8
0
100
AcDbLine
 62
7
  6
CONTINUOUS
 10
35.1737002565
 20
34.8629754185
 11
35.1737002565
 21
66.0300320054
  0
LINE
  5
382
100
AcDbEntity
  8
0
100
AcDbLine
 62
7
  6
CONTINUOUS
 10
36.7745995171
 20
81.7859164111
 11
36.7745995171
 21
67.4151720394
  0
LINE
  5
383
100
AcDbEntity
  8
0
100
AcDbLine
 62
7
  6
CONTINUOUS
 10
37.1507066079
 20
67.1982755523
 11
37.1507069858
 21
81.5687178756
  0
LINE
  5
384
100
AcDbEntity
  8
0
100
AcDbLine
 62
7
  6
CONTINUOUS
 10
37.4310605301
 20
67.1968631899
 11
37.4310605301
 21
81.5673057314
  0
LINE
  5
385
100
AcDbEntity
  8
0
100
AcDbLine
 62
7
  6
CONTINUOUS
 10
35.8787494417
 20
109.7341709131
 11
35.8812179077
 21
109.8988937357
  0
LINE
  5
386
100
AcDbEntity
  8
0
100
AcDbLine
 62
7
  6
CONTINUOUS
 10
18.0399810836
 20
73.175466289
 11
20.4185532593
 21
74.5487273776
  0
LINE
  5
387
100
AcDbEntity
  8
0
100
AcDbLine
 62
7
  6
CONTINUOUS
 10
40.6610789388
 20
85.7965490153
 11
46.0632056004
 21
88.9154515295
  0
LINE
  5
388
100
AcDbEntity
  8
0
100
AcDbLine
 62
7
  6
CONTINUOUS
 10
89.9625126242
 20
114.2600920925
 11
46.1344172603
 21
88.9560804807
  0
LINE
  5
389
100
AcDbEntity
  8
0
100
AcDbLine
 62
7
  6
CONTINUOUS
 10
46.3133064618
 20
88.6511140135
 11
46.3826107775
 21
88.6911279992
  0
LINE
  5
38A
100
AcDbEntity
  8
0
100
AcDbLine
 62
7
  6
CONTINUOUS
 10
18.6416179822
 20
72.5015179548
 11
18.0399810841
 21
72.1541648031
  0
LINE
  5
38B
100
AcDbEntity
  8
0
100
AcDbLine
 62
7
  6
CONTINUOUS
 10
46.4167066148
 20
88.3031732108
 11
41.0145799533
 21
85.1842706966
  0
LINE
  5
38C
100
AcDbEntity
  8
0
100
AcDbLine
 62
7
  6
CONTINUOUS
 10
46.4879721229
 20
88.3437088949
 11
90.3160674868
 21
113.6477205067
  0
LINE
  5
38D
100
AcDbEntity
  8
0
100
AcDbLine
 62
7
  6
CONTINUOUS
 10
52.3886047487
 20
90.8014449561
 11
54.2097584686
 21
91.8528822703
  0
LINE
  5
38E
100
AcDbEntity
  8
0
100
AcDbLine
 62
7
  6
CONTINUOUS
 10
75.0159275395
 20
103.86525788
 11
76.8370812594
 21
104.9166951941
  0
LINE
  5
38F
100
AcDbEntity
  8
0
100
AcDbLine
 62
7
  6
CONTINUOUS
 10
18.0399810836
 20
70.759292598
 11
19.8496300162
 21
71.8040876598
  0
LINE
  5
390
100
AcDbEntity
  8
0
100
AcDbLine
 62
7
  6
CONTINUOUS
 10
21.6490511721
 20
72.8105534284
 11
22.1298857852
 21
73.0881617646
  0
LINE
  5
391
100
AcDbEntity
  8
0
100
AcDbLine
 62
7
  6
CONTINUOUS
 10
21.2700223962
 20
72.3761789099
 11
22.1298857852
 21
72.8726183057
  0
LINE
  5
392
100
AcDbEntity
  8
0
100
AcDbLine
 62
7
  6
CONTINUOUS
 10
21.6490511721
 20
72.1583250236
 11
22.1298857852
 21
72.4359333598
  0
LINE
  5
393
100
AcDbEntity
  8
0
100
AcDbLine
 62
7
  6
CONTINUOUS
 10
18.0399810836
 20
70.0645920797
 11
20.4512669139
 21
71.4567402929
  0
LINE
  5
394
100
AcDbEntity
  8
0
100
AcDbLine
 62
7
  6
CONTINUOUS
 10
72.4263404053
 20
101.0329366458
 11
75.0159275395
 21
102.5280265504
  0
LINE
  5
395
100
AcDbEntity
  8
0
100
AcDbLine
 62
7
  6
CONTINUOUS
 10
76.8370812594
 20
103.5794638645
 11
86.5684171495
 21
109.1978197232
  0
LINE
  5
396
100
AcDbEntity
  8
0
100
AcDbLine
 62
7
  6
CONTINUOUS
 10
21.6490511721
 20
71.459241928
 11
22.1298857852
 21
71.7368502642
  0
LINE
  5
397
100
AcDbEntity
  8
0
100
AcDbLine
 62
7
  6
CONTINUOUS
 10
18.6416179822
 20
69.3906437455
 11
18.0399810841
 21
69.0432905939
  0
LINE
  5
398
100
AcDbEntity
  8
0
100
AcDbLine
 62
7
  6
CONTINUOUS
 10
76.0130713409
 20
102.3913635719
 11
74.9950845241
 21
101.8036321175
  0
LINE
  5
399
100
AcDbEntity
  8
0
100
AcDbLine
 62
7
  6
CONTINUOUS
 10
53.38574855
 20
89.327550648
 11
52.3886047487
 21
88.7518528423
  0
LINE
  5
39A
100
AcDbEntity
  8
0
100
AcDbLine
 62
7
  6
CONTINUOUS
 10
65.7672217921
 20
95.977814148
 11
72.4263404053
 21
99.8224351226
  0
LINE
  5
39B
100
AcDbEntity
  8
0
100
AcDbLine
 62
7
  6
CONTINUOUS
 10
77.5118139562
 20
102.5875158408
 11
85.4002985035
 21
107.1419073316
  0
LINE
  5
39C
100
AcDbEntity
  8
0
100
AcDbLine
 62
7
  6
CONTINUOUS
 10
76.8154976914
 20
101.9280925759
 11
74.9950845241
 21
100.8770828175
  0
LINE
  5
39D
100
AcDbEntity
  8
0
100
AcDbLine
 62
7
  6
CONTINUOUS
 10
54.2097584686
 20
88.8518186442
 11
52.3886047487
 21
87.80038133
  0
LINE
  5
39E
100
AcDbEntity
  8
0
100
AcDbLine
 62
7
  6
CONTINUOUS
 10
37.4310605301
 20
81.5673057314
 11
39.6638558431
 21
82.8121725107
  0
LINE
  5
39F
100
AcDbEntity
  8
0
100
AcDbLine
 62
7
  6
CONTINUOUS
 10
21.6490511721
 20
57.9542919487
 11
22.1298857852
 21
57.8685663036
  0
LINE
  5
3A0
100
AcDbEntity
  8
0
100
AcDbLine
 62
7
  6
CONTINUOUS
 10
32.6799628844
 20
57.7544119396
 11
33.1607974975
 21
57.6686862945
  0
LINE
  5
3A1
100
AcDbEntity
  8
0
100
AcDbLine
 62
7
  6
CONTINUOUS
 10
21.6490511721
 20
61.0651661579
 11
22.1298857852
 21
60.9794405129
  0
LINE
  5
3A2
100
AcDbEntity
  8
0
100
AcDbLine
 62
7
  6
CONTINUOUS
 10
21.6490511721
 20
69.0474508143
 11
21.2700223962
 21
69.2653047007
  0
LINE
  5
3A3
100
AcDbEntity
  8
0
100
AcDbLine
 62
7
  6
CONTINUOUS
 10
21.6490511721
 20
72.1583250236
 11
21.2700223962
 21
72.3761789099
  0
LINE
  5
3A4
100
AcDbEntity
  8
0
100
AcDbLine
 62
7
  6
CONTINUOUS
 10
29.0708927878
 20
63.3163626899
 11
32.3009340926
 21
61.451539661
  0
LINE
  5
3A5
100
AcDbEntity
  8
0
100
AcDbLine
 62
7
  6
CONTINUOUS
 10
18.0399810841
 20
69.7379911125
 11
21.2700223848
 21
67.873168086
  0
LINE
  5
3A6
100
AcDbEntity
  8
0
100
AcDbLine
 62
7
  6
CONTINUOUS
 10
32.3009341085
 20
61.7781406187
 11
29.0708927959
 21
63.6429636521
  0
LINE
  5
3A7
100
AcDbEntity
  8
0
100
AcDbLine
 62
7
  6
CONTINUOUS
 10
21.2700223962
 20
68.1997690463
 11
18.0399810836
 21
70.0645920797
  0
LINE
  5
3A8
100
AcDbEntity
  8
0
100
AcDbLine
 62
7
  6
CONTINUOUS
 10
32.6799628844
 20
62.6248488578
 11
32.3009341085
 21
62.843676273
  0
LINE
  5
3A9
100
AcDbEntity
  8
0
100
AcDbLine
 62
7
  6
CONTINUOUS
 10
32.3009340926
 20
63.4968782159
 11
32.6799628844
 21
63.2780507915
  0
LINE
  5
3AA
100
AcDbEntity
  8
0
100
AcDbLine
 62
7
  6
CONTINUOUS
 10
21.2700223848
 20
69.918506641
 11
21.6490511721
 21
69.6996792191
  0
LINE
  5
3AB
100
AcDbEntity
  8
0
100
AcDbLine
 62
7
  6
CONTINUOUS
 10
29.0708927878
 20
66.4272368991
 11
32.3009340926
 21
64.5624138703
  0
LINE
  5
3AC
100
AcDbEntity
  8
0
100
AcDbLine
 62
7
  6
CONTINUOUS
 10
18.0399810841
 20
72.8488653218
 11
21.2700223848
 21
70.9840422953
  0
LINE
  5
3AD
100
AcDbEntity
  8
0
100
AcDbLine
 62
7
  6
CONTINUOUS
 10
32.3009341085
 20
64.8890148279
 11
29.0708927959
 21
66.7538378613
  0
LINE
  5
3AE
100
AcDbEntity
  8
0
100
AcDbLine
 62
7
  6
CONTINUOUS
 10
21.2700223962
 20
71.3106432556
 11
18.0399810836
 21
73.175466289
  0
LINE
  5
3AF
100
AcDbEntity
  8
0
100
AcDbLine
 62
7
  6
CONTINUOUS
 10
32.6799628844
 20
65.735723067
 11
32.3009341085
 21
65.9545504823
  0
LINE
  5
3B0
100
AcDbEntity
  8
0
100
AcDbLine
 62
7
  6
CONTINUOUS
 10
33.1607974975
 20
64.5681317193
 11
32.6799628844
 21
65.0376135004
  0
LINE
  5
3B1
100
AcDbEntity
  8
0
100
AcDbLine
 62
7
  6
CONTINUOUS
 10
39.0861727999
 20
117.832178393
 11
39.0861727999
 21
114.5437426797
  0
LINE
  5
3B2
100
AcDbEntity
  8
0
100
AcDbLine
 62
7
  6
CONTINUOUS
 10
39.3641704361
 20
64.512790453
 11
39.3641704361
 21
16.0106156883
  0
LINE
  5
3B3
100
AcDbEntity
  8
0
100
AcDbLine
 62
7
  6
CONTINUOUS
 10
39.6638558431
 20
68.4417299693
 11
39.6638558431
 21
82.8121725107
  0
LINE
  5
3B4
100
AcDbEntity
  8
0
100
AcDbLine
 62
7
  6
CONTINUOUS
 10
40.1591652112
 20
119.4240008015
 11
40.1591652112
 21
119.4094001231
  0
LINE
  5
3B5
100
AcDbEntity
  8
0
100
AcDbLine
 62
7
  6
CONTINUOUS
 10
40.313697352
 20
85.1878003299
 11
40.313697352
 21
12.7329911221
  0
LINE
  5
3B6
100
AcDbEntity
  8
0
100
AcDbLine
 62
7
  6
CONTINUOUS
 10
40.5127338536
 20
117.0085712521
 11
40.5127338536
 21
114.0833881216
  0
LINE
  5
3B7
100
AcDbEntity
  8
0
100
AcDbLine
 62
7
  6
CONTINUOUS
 10
40.853932393
 20
119.0118209645
 11
40.853932393
 21
119.4307622243
  0
LINE
  5
3B8
100
AcDbEntity
  8
0
100
AcDbLine
 62
7
  6
CONTINUOUS
 10
41.0145799533
 20
12.7294614889
 11
41.0145799533
 21
85.1842706966
  0
LINE
  5
3B9
100
AcDbEntity
  8
0
100
AcDbLine
 62
7
  6
CONTINUOUS
 10
41.1269100658
 20
118.1370896107
 11
41.1269100658
 21
118.3457865253
  0
LINE
  5
3BA
100
AcDbEntity
  8
0
100
AcDbLine
 62
7
  6
CONTINUOUS
 10
41.2050277668
 20
114.8913273777
 11
41.2050277668
 21
117.9555849678
  0
LINE
  5
3BB
100
AcDbEntity
  8
0
100
AcDbLine
 62
7
  6
CONTINUOUS
 10
41.9951812359
 20
118.6967432306
 11
41.9951812359
 21
118.3501041087
  0
LINE
  5
3BC
100
AcDbEntity
  8
0
100
AcDbLine
 62
7
  6
CONTINUOUS
 10
18.0399810836
 20
67.6484183887
 11
19.8496300162
 21
68.6932134505
  0
LINE
  5
3BD
100
AcDbEntity
  8
0
100
AcDbLine
 62
7
  6
CONTINUOUS
 10
21.6490511721
 20
69.6996792191
 11
22.1298857852
 21
69.9772875553
  0
LINE
  5
3BE
100
AcDbEntity
  8
0
100
AcDbLine
 62
7
  6
CONTINUOUS
 10
21.2700223962
 20
69.2653047007
 11
22.1298857852
 21
69.7617440965
  0
LINE
  5
3BF
100
AcDbEntity
  8
0
100
AcDbLine
 62
7
  6
CONTINUOUS
 10
21.6490511721
 20
69.0474508143
 11
22.1298857852
 21
69.3250591505
  0
LINE
  5
3C0
100
AcDbEntity
  8
0
100
AcDbLine
 62
7
  6
CONTINUOUS
 10
18.0399810836
 20
66.9537178704
 11
20.4512669139
 21
68.3458660837
  0
LINE
  5
3C1
100
AcDbEntity
  8
0
100
AcDbLine
 62
7
  6
CONTINUOUS
 10
80.6673958823
 20
102.4802194321
 11
82.010893173
 21
103.2558833244
  0
LINE
  5
3C2
100
AcDbEntity
  8
0
100
AcDbLine
 62
7
  6
CONTINUOUS
 10
21.6490511721
 20
68.3483677187
 11
22.1298857852
 21
68.625976055
  0
LINE
  5
3C3
100
AcDbEntity
  8
0
100
AcDbLine
 62
7
  6
CONTINUOUS
 10
18.6416179822
 20
66.2797695363
 11
18.0399810841
 21
65.9324163846
  0
LINE
  5
3C4
100
AcDbEntity
  8
0
100
AcDbLine
 62
7
  6
CONTINUOUS
 10
79.3238985916
 20
101.2963043312
 11
80.6673958823
 21
102.0719682235
  0
LINE
  5
3C5
100
AcDbEntity
  8
0
100
AcDbLine
 62
7
  6
CONTINUOUS
 10
81.7318290227
 20
101.8656825746
 11
83.0753263134
 21
102.641346467
  0
LINE
  5
3C6
100
AcDbEntity
  8
0
100
AcDbLine
 62
7
  6
CONTINUOUS
 10
80.3883317319
 20
100.6817674737
 11
81.7318290227
 21
101.4574313661
  0
LINE
  5
3C7
100
AcDbEntity
  8
0
100
AcDbLine
 62
7
  6
CONTINUOUS
 10
18.0399810836
 20
64.5375441794
 11
19.8496300162
 21
65.5823392412
  0
LINE
  5
3C8
100
AcDbEntity
  8
0
100
AcDbLine
 62
7
  6
CONTINUOUS
 10
21.6490511721
 20
66.5888050098
 11
22.1298857852
 21
66.866413346
  0
LINE
  5
3C9
100
AcDbEntity
  8
0
100
AcDbLine
 62
7
  6
CONTINUOUS
 10
21.2700223962
 20
66.1544304914
 11
22.1298857852
 21
66.6508698872
  0
LINE
  5
3CA
100
AcDbEntity
  8
0
100
AcDbLine
 62
7
  6
CONTINUOUS
 10
81.2015011447
 20
100.7429970421
 11
82.2621569006
 21
101.3553632729
  0
LINE
  5
3CB
100
AcDbEntity
  8
0
100
AcDbLine
 62
7
  6
CONTINUOUS
 10
65.7672217921
 20
91.7986793515
 11
71.6491301154
 21
95.1945804345
  0
LINE
  5
3CC
100
AcDbEntity
  8
0
100
AcDbLine
 62
7
  6
CONTINUOUS
 10
71.7192306801
 20
95.1541087884
 11
65.7672217921
 21
91.7177353671
  0
LINE
  5
3CD
100
AcDbEntity
  8
0
100
AcDbLine
 62
7
  6
CONTINUOUS
 10
21.6490511721
 20
65.9365766051
 11
22.1298857852
 21
66.2141849413
  0
LINE
  5
3CE
100
AcDbEntity
  8
0
100
AcDbLine
 62
7
  6
CONTINUOUS
 10
18.0399810836
 20
63.8428436612
 11
20.4512669139
 21
65.2349918744
  0
LINE
  5
3CF
100
AcDbEntity
  8
0
100
AcDbLine
 62
7
  6
CONTINUOUS
 10
21.6490511721
 20
65.2374935095
 11
22.1298857852
 21
65.5151018457
  0
LINE
  5
3D0
100
AcDbEntity
  8
0
100
AcDbLine
 62
7
  6
CONTINUOUS
 10
18.6416179822
 20
63.168895327
 11
18.0399810841
 21
62.8215421754
  0
LINE
  5
3D1
100
AcDbEntity
  8
0
100
AcDbLine
 62
7
  6
CONTINUOUS
 10
72.4051271135
 20
93.9661079119
 11
72.4170993806
 21
93.9730200623
  0
LINE
  5
3D2
100
AcDbEntity
  8
0
100
AcDbLine
 62
7
  6
CONTINUOUS
 10
72.4263404053
 20
93.9293656168
 11
65.7672217921
 21
90.0847446422
  0
LINE
  5
3D3
100
AcDbEntity
  8
0
100
AcDbLine
 62
7
  6
CONTINUOUS
 10
29.6725296781
 20
69.1907637459
 11
29.0708927878
 21
68.8434105988
  0
LINE
  5
3D4
100
AcDbEntity
  8
0
100
AcDbLine
 62
7
  6
CONTINUOUS
 10
32.6799628844
 20
60.8652861488
 11
33.1607974975
 21
60.7795605038
  0
LINE
  5
3D5
100
AcDbEntity
  8
0
100
AcDbLine
 62
7
  6
CONTINUOUS
 10
21.6490511721
 20
64.1760403672
 11
22.1298857852
 21
64.0903147222
  0
LINE
  5
3D6
100
AcDbEntity
  8
0
100
AcDbLine
 62
7
  6
CONTINUOUS
 10
32.6799628844
 20
63.9761603581
 11
33.1607974975
 21
63.8904347131
  0
LINE
  5
3D7
100
AcDbEntity
  8
0
100
AcDbLine
 62
7
  6
CONTINUOUS
 10
21.6490511721
 20
67.2869145765
 11
22.1298857852
 21
67.2011889314
  0
LINE
  5
3D8
100
AcDbEntity
  8
0
100
AcDbLine
 62
7
  6
CONTINUOUS
 10
32.3009340926
 20
66.6077524252
 11
32.6799628844
 21
66.3889250007
  0
LINE
  5
3D9
100
AcDbEntity
  8
0
100
AcDbLine
 62
7
  6
CONTINUOUS
 10
21.2700223848
 20
73.0293808502
 11
21.6490511721
 21
72.8105534284
  0
LINE
  5
3DA
100
AcDbEntity
  8
0
100
AcDbLine
 62
7
  6
CONTINUOUS
 10
29.0708927878
 20
69.5381111084
 11
32.3009340926
 21
67.6732880795
  0
LINE
  5
3DB
100
AcDbEntity
  8
0
100
AcDbLine
 62
7
  6
CONTINUOUS
 10
35.2505064658
 20
65.985688923
 11
13.683659852
 21
78.437031934
  0
LINE
  5
3DC
100
AcDbEntity
  8
0
100
AcDbLine
 62
7
  6
CONTINUOUS
 10
35.2090816179
 20
66.0772475288
 11
13.6422421583
 21
78.5285864095
  0
LINE
  5
3DD
100
AcDbEntity
  8
0
100
AcDbLine
 62
7
  6
CONTINUOUS
 10
35.2091338753
 20
66.5115107331
 11
13.6420260848
 21
78.9630045312
  0
LINE
  5
3DE
100
AcDbEntity
  8
0
100
AcDbLine
 62
7
  6
CONTINUOUS
 10
39.3641704361
 20
64.512790453
 11
36.9390429211
 21
65.9129068018
  0
LINE
  5
3DF
100
AcDbEntity
  8
0
100
AcDbLine
 62
7
  6
CONTINUOUS
 10
35.7747670747
 20
66.8495365305
 11
14.2079204577
 21
79.3008795433
  0
LINE
  5
3E0
100
AcDbEntity
  8
0
100
AcDbLine
 62
7
  6
CONTINUOUS
 10
85.322327306
 20
39.0448607928
 11
84.4983173874
 21
39.5205927966
  0
LINE
  5
3E1
100
AcDbEntity
  8
0
100
AcDbLine
 62
7
  6
CONTINUOUS
 10
13.4116161476
 20
100.8389447653
 11
13.558064229
 21
100.6348228575
  0
LINE
  5
3E2
100
AcDbEntity
  8
0
100
AcDbLine
 62
7
  6
CONTINUOUS
 10
42.2097663391
 20
120.4177228547
 11
42.2097663391
 21
120.4034460867
  0
LINE
  5
3E3
100
AcDbEntity
  8
0
100
AcDbLine
 62
7
  6
CONTINUOUS
 10
42.9045335209
 20
120.0015285275
 11
42.9045335209
 21
120.4104814015
  0
LINE
  5
3E4
100
AcDbEntity
  8
0
100
AcDbLine
 62
7
  6
CONTINUOUS
 10
43.1618457923
 20
70.7838621599
 11
43.1618457923
 21
66.2668406029
  0
LINE
  5
3E5
100
AcDbEntity
  8
0
100
AcDbLine
 62
7
  6
CONTINUOUS
 10
43.1618457923
 20
34.0412533891
 11
43.1618457923
 21
29.5242318321
  0
LINE
  5
3E6
100
AcDbEntity
  8
0
100
AcDbLine
 62
7
  6
CONTINUOUS
 10
43.1775111938
 20
118.8419898589
 11
43.1775111938
 21
119.1805931516
  0
LINE
  5
3E7
100
AcDbEntity
  8
0
100
AcDbLine
 62
7
  6
CONTINUOUS
 10
43.9541790028
 20
30.732572481
 11
43.9541790028
 21
34.483145739
  0
LINE
  5
3E8
100
AcDbEntity
  8
0
100
AcDbLine
 62
7
  6
CONTINUOUS
 10
43.9541790028
 20
67.4751812519
 11
43.9541790028
 21
71.2257545099
  0
LINE
  5
3E9
100
AcDbEntity
  8
0
100
AcDbLine
 62
7
  6
CONTINUOUS
 10
44.0457823639
 20
119.6818867531
 11
44.0457823639
 21
119.3432834604
  0
LINE
  5
3EA
100
AcDbEntity
  8
0
100
AcDbLine
 62
7
  6
CONTINUOUS
 10
44.2603674671
 20
122.0821614866
 11
44.2603674671
 21
122.0670369792
  0
LINE
  5
3EB
100
AcDbEntity
  8
0
100
AcDbLine
 62
7
  6
CONTINUOUS
 10
44.6239862556
 20
30.3391769494
 11
44.6239862556
 21
34.8567041069
  0
LINE
  5
3EC
100
AcDbEntity
  8
0
100
AcDbLine
 62
7
  6
CONTINUOUS
 10
44.6239862556
 20
67.0817857202
 11
44.6239862556
 21
71.5993128778
  0
LINE
  5
3ED
100
AcDbEntity
  8
0
100
AcDbLine
 62
7
  6
CONTINUOUS
 10
44.9551346557
 20
121.8737959174
 11
44.9551346557
 21
121.6617417765
  0
LINE
  5
3EE
100
AcDbEntity
  8
0
100
AcDbLine
 62
7
  6
CONTINUOUS
 10
45.2281123217
 20
120.2166265998
 11
45.2281123217
 21
120.5632657217
  0
LINE
  5
3EF
100
AcDbEntity
  8
0
100
AcDbLine
 62
7
  6
CONTINUOUS
 10
46.0963834918
 20
121.2148962192
 11
46.0963834918
 21
121.0061993049
  0
LINE
  5
3F0
100
AcDbEntity
  8
0
100
AcDbLine
 62
7
  6
CONTINUOUS
 10
46.2986413602
 20
119.3834579517
 11
46.2986413602
 21
121.4948842603
  0
LINE
  5
3F1
100
AcDbEntity
  8
0
100
AcDbLine
 62
7
  6
CONTINUOUS
 10
46.4167066148
 20
88.3031732108
 11
46.4167066148
 21
15.634333729
  0
LINE
  5
3F2
100
AcDbEntity
  8
0
100
AcDbLine
 62
7
  6
CONTINUOUS
 10
46.4756236916
 20
32.4061498845
 11
46.4756236916
 21
35.6935550927
  0
LINE
  5
3F3
100
AcDbEntity
  8
0
100
AcDbLine
 62
7
  6
CONTINUOUS
 10
46.4756236916
 20
69.1487586554
 11
46.4756236916
 21
72.4361638636
  0
LINE
  5
3F4
100
AcDbEntity
  8
0
100
AcDbLine
 62
7
  6
CONTINUOUS
 10
46.4879721229
 20
88.3437088949
 11
46.4879721229
 21
72.4361638636
  0
LINE
  5
3F5
100
AcDbEntity
  8
0
100
AcDbLine
 62
7
  6
CONTINUOUS
 10
46.4879721229
 20
68.3251475725
 11
46.4879721229
 21
35.6935550927
  0
LINE
  5
3F6
100
AcDbEntity
  8
0
100
AcDbLine
 62
7
  6
CONTINUOUS
 10
46.4879721229
 20
31.5825388017
 11
46.4879721229
 21
15.6749937703
  0
LINE
  5
3F7
100
AcDbEntity
  8
0
100
AcDbLine
 62
7
  6
CONTINUOUS
 10
46.583953571
 20
121.0610906916
 11
46.583953571
 21
117.9968331013
  0
LINE
  5
3F8
100
AcDbEntity
  8
0
100
AcDbLine
 62
7
  6
CONTINUOUS
 10
35.7747670747
 20
66.8495365305
 11
35.2090840049
 21
66.5115395252
  0
LINE
  5
3F9
100
AcDbEntity
  8
0
100
AcDbLine
 62
7
  6
CONTINUOUS
 10
18.0399810836
 20
61.4266699702
 11
19.8496300162
 21
62.471465032
  0
LINE
  5
3FA
100
AcDbEntity
  8
0
100
AcDbLine
 62
7
  6
CONTINUOUS
 10
21.6490511721
 20
63.4779308006
 11
22.1298857852
 21
63.7555391368
  0
LINE
  5
3FB
100
AcDbEntity
  8
0
100
AcDbLine
 62
7
  6
CONTINUOUS
 10
21.2700223962
 20
63.0435562821
 11
22.1298857852
 21
63.5399956779
  0
LINE
  5
3FC
100
AcDbEntity
  8
0
100
AcDbLine
 62
7
  6
CONTINUOUS
 10
29.0708927959
 20
67.4485383796
 11
30.8805417285
 21
68.4933334414
  0
LINE
  5
3FD
100
AcDbEntity
  8
0
100
AcDbLine
 62
7
  6
CONTINUOUS
 10
21.6490511721
 20
62.8257023958
 11
22.1298857852
 21
63.103310732
  0
LINE
  5
3FE
100
AcDbEntity
  8
0
100
AcDbLine
 62
7
  6
CONTINUOUS
 10
18.0399810836
 20
60.7319694519
 11
20.4512669139
 21
62.1241176651
  0
LINE
  5
3FF
100
AcDbEntity
  8
0
100
AcDbLine
 62
7
  6
CONTINUOUS
 10
85.4002985035
 20
99.280602349
 11
85.8279056824
 21
99.5274799952
  0
LINE
  5
400
100
AcDbEntity
  8
0
100
AcDbLine
 62
7
  6
CONTINUOUS
 10
29.0708927959
 20
66.7538378613
 11
31.4821786262
 21
68.1459860746
  0
LINE
  5
401
100
AcDbEntity
  8
0
100
AcDbLine
 62
7
  6
CONTINUOUS
 10
21.6490511721
 20
62.1266193002
 11
22.1298857852
 21
62.4042276364
  0
LINE
  5
402
100
AcDbEntity
  8
0
100
AcDbLine
 62
7
  6
CONTINUOUS
 10
18.6416179822
 20
60.0580211177
 11
18.0399810841
 21
59.7106679661
  0
LINE
  5
403
100
AcDbEntity
  8
0
100
AcDbLine
 62
7
  6
CONTINUOUS
 10
29.6725296781
 20
66.0798895366
 11
29.0708927878
 21
65.7325363895
  0
LINE
  5
404
100
AcDbEntity
  8
0
100
AcDbLine
 62
7
  6
CONTINUOUS
 10
18.0399810836
 20
58.3157957609
 11
19.8496300162
 21
59.3605908227
  0
LINE
  5
405
100
AcDbEntity
  8
0
100
AcDbLine
 62
7
  6
CONTINUOUS
 10
21.6490511721
 20
60.3670565913
 11
22.1298857852
 21
60.6446649275
  0
LINE
  5
406
100
AcDbEntity
  8
0
100
AcDbLine
 62
7
  6
CONTINUOUS
 10
21.2700223962
 20
59.9326820729
 11
22.1298857852
 21
60.4291214687
  0
LINE
  5
407
100
AcDbEntity
  8
0
100
AcDbLine
 62
7
  6
CONTINUOUS
 10
29.0708927959
 20
64.3376641703
 11
30.8805417285
 21
65.3824592321
  0
LINE
  5
408
100
AcDbEntity
  8
0
100
AcDbLine
 62
7
  6
CONTINUOUS
 10
32.6799628844
 20
66.3889250007
 11
33.1607974975
 21
66.6665333369
  0
LINE
  5
409
100
AcDbEntity
  8
0
100
AcDbLine
 62
7
  6
CONTINUOUS
 10
32.3009341085
 20
65.9545504823
 11
33.1607974975
 21
66.4509898781
  0
LINE
  5
40A
100
AcDbEntity
  8
0
100
AcDbLine
 62
7
  6
CONTINUOUS
 10
21.6490511721
 20
59.7148281865
 11
22.1298857852
 21
59.9924365228
  0
LINE
  5
40B
100
AcDbEntity
  8
0
100
AcDbLine
 62
7
  6
CONTINUOUS
 10
18.0399810836
 20
57.6210952426
 11
20.4512669139
 21
59.0132434559
  0
LINE
  5
40C
100
AcDbEntity
  8
0
100
AcDbLine
 62
7
  6
CONTINUOUS
 10
32.6799628844
 20
65.735723067
 11
33.1607974975
 21
66.0133314032
  0
LINE
  5
40D
100
AcDbEntity
  8
0
100
AcDbLine
 62
7
  6
CONTINUOUS
 10
29.0708927959
 20
63.6429636521
 11
31.4821786262
 21
65.0351118653
  0
LINE
  5
40E
100
AcDbEntity
  8
0
100
AcDbLine
 62
7
  6
CONTINUOUS
 10
21.6490511721
 20
59.0157450909
 11
22.1298857852
 21
59.2933534272
  0
LINE
  5
40F
100
AcDbEntity
  8
0
100
AcDbLine
 62
7
  6
CONTINUOUS
 10
32.6799628844
 20
67.0870345674
 11
33.1607974975
 21
67.0013089223
  0
LINE
  5
410
100
AcDbEntity
  8
0
100
AcDbLine
 62
7
  6
CONTINUOUS
 10
21.6490511721
 20
70.3977887857
 11
22.1298857852
 21
70.3120631407
  0
LINE
  5
411
100
AcDbEntity
  8
0
100
AcDbLine
 62
7
  6
CONTINUOUS
 10
46.4879721229
 20
68.3251475725
 11
46.4167066148
 21
68.3662918381
  0
LINE
  5
412
100
AcDbEntity
  8
0
100
AcDbLine
 62
7
  6
CONTINUOUS
 10
44.6239862556
 20
67.0817857202
 11
43.9541790028
 21
67.4751812519
  0
LINE
  5
413
100
AcDbEntity
  8
0
100
AcDbLine
 62
7
  6
CONTINUOUS
 10
47.2762474841
 20
117.9882812277
 11
47.2762474841
 21
120.9134643583
  0
LINE
  5
414
100
AcDbEntity
  8
0
100
AcDbLine
 62
7
  6
CONTINUOUS
 10
47.7262283422
 20
120.8453575645
 11
47.7262283422
 21
121.0649538536
  0
LINE
  5
415
100
AcDbEntity
  8
0
100
AcDbLine
 62
7
  6
CONTINUOUS
 10
48.2433891725
 20
36.7070395492
 11
48.2433891725
 21
32.5960232581
  0
LINE
  5
416
100
AcDbEntity
  8
0
100
AcDbLine
 62
7
  6
CONTINUOUS
 10
48.2433891725
 20
69.338632029
 11
48.2433891725
 21
73.44964832
  0
LINE
  5
417
100
AcDbEntity
  8
0
100
AcDbLine
 62
7
  6
CONTINUOUS
 10
18.6416179822
 20
56.9471469085
 11
18.0399810841
 21
56.5997937568
  0
LINE
  5
418
100
AcDbEntity
  8
0
100
AcDbLine
 62
7
  6
CONTINUOUS
 10
32.6799628844
 20
65.0376135004
 11
33.1607974975
 21
65.3152218366
  0
LINE
  5
419
100
AcDbEntity
  8
0
100
AcDbLine
 62
7
  6
CONTINUOUS
 10
29.6725296781
 20
62.9690153274
 11
29.0708927878
 21
62.6216621802
  0
LINE
  5
41A
100
AcDbEntity
  8
0
100
AcDbLine
 62
7
  6
CONTINUOUS
 10
46.4879721229
 20
72.4361638636
 11
48.2433891725
 21
73.44964832
  0
LINE
  5
41B
100
AcDbEntity
  8
0
100
AcDbLine
 62
7
  6
CONTINUOUS
 10
18.0399810836
 20
55.2049215516
 11
19.8496300162
 21
56.2497166134
  0
LINE
  5
41C
100
AcDbEntity
  8
0
100
AcDbLine
 62
7
  6
CONTINUOUS
 10
21.6490511721
 20
57.256182382
 11
22.1298857852
 21
57.5337907182
  0
LINE
  5
41D
100
AcDbEntity
  8
0
100
AcDbLine
 62
7
  6
CONTINUOUS
 10
84.597872153
 20
93.4409089422
 11
85.0254793319
 21
93.6877865884
  0
LINE
  5
41E
100
AcDbEntity
  8
0
100
AcDbLine
 62
7
  6
CONTINUOUS
 10
21.2700223962
 20
56.8218078636
 11
22.1298857852
 21
57.3182472594
  0
LINE
  5
41F
100
AcDbEntity
  8
0
100
AcDbLine
 62
7
  6
CONTINUOUS
 10
29.0708927959
 20
61.2267899611
 11
30.8805417285
 21
62.2715850229
  0
LINE
  5
420
100
AcDbEntity
  8
0
100
AcDbLine
 62
7
  6
CONTINUOUS
 10
32.6799628844
 20
63.2780507915
 11
33.1607974975
 21
63.5556591277
  0
LINE
  5
421
100
AcDbEntity
  8
0
100
AcDbLine
 62
7
  6
CONTINUOUS
 10
72.4159190824
 20
86.1189692527
 11
73.827604292
 21
86.9340012234
  0
LINE
  5
422
100
AcDbEntity
  8
0
100
AcDbLine
 62
7
  6
CONTINUOUS
 10
71.0121327308
 20
85.2844305765
 11
72.4263404053
 21
86.1009188842
  0
LINE
  5
423
100
AcDbEntity
  8
0
100
AcDbLine
 62
7
  6
CONTINUOUS
 10
32.3009341085
 20
62.843676273
 11
33.1607974975
 21
63.3401156688
  0
LINE
  5
424
100
AcDbEntity
  8
0
100
AcDbLine
 62
7
  6
CONTINUOUS
 10
21.6490511721
 20
56.6039539773
 11
22.1298857852
 21
56.8815623135
  0
LINE
  5
425
100
AcDbEntity
  8
0
100
AcDbLine
 62
7
  6
CONTINUOUS
 10
18.0399810836
 20
54.5102210334
 11
20.4512669139
 21
55.9023692466
  0
LINE
  5
426
100
AcDbEntity
  8
0
100
AcDbLine
 62
7
  6
CONTINUOUS
 10
32.6799628844
 20
62.6248488578
 11
33.1607974975
 21
62.902457194
  0
LINE
  5
427
100
AcDbEntity
  8
0
100
AcDbLine
 62
7
  6
CONTINUOUS
 10
29.0708927959
 20
60.5320894428
 11
31.4821786262
 21
61.924237656
  0
LINE
  5
428
100
AcDbEntity
  8
0
100
AcDbLine
 62
7
  6
CONTINUOUS
 10
85.4002985035
 20
92.9935337371
 11
85.8279056824
 21
93.2404113833
  0
LINE
  5
429
100
AcDbEntity
  8
0
100
AcDbLine
 62
7
  6
CONTINUOUS
 10
21.6490511721
 20
55.9048708817
 11
22.1298857852
 21
56.1824792179
  0
LINE
  5
42A
100
AcDbEntity
  8
0
100
AcDbLine
 62
7
  6
CONTINUOUS
 10
18.6416179822
 20
53.8362726992
 11
18.0399810841
 21
53.4889195476
  0
LINE
  5
42B
100
AcDbEntity
  8
0
100
AcDbLine
 62
7
  6
CONTINUOUS
 10
32.6799628844
 20
61.9267392911
 11
33.1607974975
 21
62.2043476273
  0
LINE
  5
42C
100
AcDbEntity
  8
0
100
AcDbLine
 62
7
  6
CONTINUOUS
 10
29.6725296781
 20
59.8581411181
 11
29.0708927878
 21
59.510787971
  0
LINE
  5
42D
100
AcDbEntity
  8
0
100
AcDbLine
 62
7
  6
CONTINUOUS
 10
46.4167066148
 20
69.1147430683
 11
46.4756236916
 21
69.1487586554
  0
LINE
  5
42E
100
AcDbEntity
  8
0
100
AcDbLine
 62
7
  6
CONTINUOUS
 10
18.0399810836
 20
52.0940473424
 11
19.8496300162
 21
53.1388424042
  0
LINE
  5
42F
100
AcDbEntity
  8
0
100
AcDbLine
 62
7
  6
CONTINUOUS
 10
21.6490511721
 20
54.1453081728
 11
22.1298857852
 21
54.422916509
  0
LINE
  5
430
100
AcDbEntity
  8
0
100
AcDbLine
 62
7
  6
CONTINUOUS
 10
48.2433891725
 20
69.338632029
 11
46.4879721229
 21
68.3251475725
  0
LINE
  5
431
100
AcDbEntity
  8
0
100
AcDbLine
 62
7
  6
CONTINUOUS
 10
21.2700223962
 20
53.7109336544
 11
22.1298857852
 21
54.2073730501
  0
LINE
  5
432
100
AcDbEntity
  8
0
100
AcDbLine
 62
7
  6
CONTINUOUS
 10
29.0708927959
 20
58.1159157518
 11
30.8805417285
 21
59.1607108136
  0
LINE
  5
433
100
AcDbEntity
  8
0
100
AcDbLine
 62
7
  6
CONTINUOUS
 10
32.6799628844
 20
60.1671765822
 11
33.1607974975
 21
60.4447849184
  0
LINE
  5
434
100
AcDbEntity
  8
0
100
AcDbLine
 62
7
  6
CONTINUOUS
 10
32.3009341085
 20
59.7328020638
 11
33.1607974975
 21
60.2292414596
  0
LINE
  5
435
100
AcDbEntity
  8
0
100
AcDbLine
 62
7
  6
CONTINUOUS
 10
43.1618457923
 20
67.0256453449
 11
43.9541790028
 21
67.4751812519
  0
LINE
  5
436
100
AcDbEntity
  8
0
100
AcDbLine
 62
7
  6
CONTINUOUS
 10
44.6239862556
 20
71.5993128778
 11
43.1618457923
 21
70.7838621599
  0
LINE
  5
437
100
AcDbEntity
  8
0
100
AcDbLine
 62
7
  6
CONTINUOUS
 10
39.6638558431
 20
68.4417299693
 11
37.4310605301
 21
67.1968631899
  0
LINE
  5
438
100
AcDbEntity
  8
0
100
AcDbLine
 62
7
  6
CONTINUOUS
 10
43.1618457923
 20
66.2668406029
 11
44.6239862556
 21
67.0817857202
  0
LINE
  5
439
100
AcDbEntity
  8
0
100
AcDbLine
 62
7
  6
CONTINUOUS
 10
36.8026518799
 20
65.8380024581
 11
39.0238912466
 21
67.0578807989
  0
LINE
  5
43A
100
AcDbEntity
  8
0
100
AcDbLine
 62
7
  6
CONTINUOUS
 10
48.2433891725
 20
69.338632029
 11
46.4756236916
 21
69.1487586554
  0
LINE
  5
43B
100
AcDbEntity
  8
0
100
AcDbLine
 62
7
  6
CONTINUOUS
 10
21.6490511721
 20
73.508662995
 11
22.1298857852
 21
73.42293735
  0
LINE
  5
43C
100
AcDbEntity
  8
0
100
AcDbLine
 62
7
  6
CONTINUOUS
 10
46.4879721229
 20
72.4361638636
 11
46.4167066148
 21
72.4744846386
  0
LINE
  5
43D
100
AcDbEntity
  8
0
100
AcDbLine
 62
7
  6
CONTINUOUS
 10
35.2062495337
 20
110.2885780922
 11
35.4515717001
 21
109.4875412012
  0
LINE
  5
43E
100
AcDbEntity
  8
0
100
AcDbLine
 62
7
  6
CONTINUOUS
 10
52.3886047487
 20
20.0306807083
 11
52.3886047487
 21
23.0317443343
  0
LINE
  5
43F
100
AcDbEntity
  8
0
100
AcDbLine
 62
7
  6
CONTINUOUS
 10
52.3886047487
 20
87.80038133
 11
52.3886047487
 21
90.8014449561
  0
LINE
  5
440
100
AcDbEntity
  8
0
100
AcDbLine
 62
7
  6
CONTINUOUS
 10
53.38574855
 20
91.3771427618
 11
53.38574855
 21
89.327550648
  0
LINE
  5
441
100
AcDbEntity
  8
0
100
AcDbLine
 62
7
  6
CONTINUOUS
 10
53.38574855
 20
23.60744214
 11
53.38574855
 21
21.5578500262
  0
LINE
  5
442
100
AcDbEntity
  8
0
100
AcDbLine
 62
7
  6
CONTINUOUS
 10
54.2097584686
 20
91.8528822703
 11
54.2097584686
 21
88.8518186442
  0
LINE
  5
443
100
AcDbEntity
  8
0
100
AcDbLine
 62
7
  6
CONTINUOUS
 10
54.2097584686
 20
24.0831816485
 11
54.2097584686
 21
21.0821180224
  0
LINE
  5
444
100
AcDbEntity
  8
0
100
AcDbLine
 62
7
  6
CONTINUOUS
 10
88.9522216194
 20
89.3080791871
 11
89.3331194361
 21
89.5356665557
  0
LINE
  5
445
100
AcDbEntity
  8
0
100
AcDbLine
 62
7
  6
CONTINUOUS
 10
21.6490511721
 20
53.493079768
 11
22.1298857852
 21
53.7706881042
  0
LINE
  5
446
100
AcDbEntity
  8
0
100
AcDbLine
 62
7
  6
CONTINUOUS
 10
18.0399810836
 20
51.3993468241
 11
20.4512669139
 21
52.7914950374
  0
LINE
  5
447
100
AcDbEntity
  8
0
100
AcDbLine
 62
7
  6
CONTINUOUS
 10
32.6799628844
 20
59.5139746485
 11
33.1607974975
 21
59.7915829847
  0
LINE
  5
448
100
AcDbEntity
  8
0
100
AcDbLine
 62
7
  6
CONTINUOUS
 10
29.0708927959
 20
57.4212152335
 11
31.4821786262
 21
58.8133634468
  0
LINE
  5
449
100
AcDbEntity
  8
0
100
AcDbLine
 62
7
  6
CONTINUOUS
 10
21.6490511721
 20
52.7939966724
 11
22.1298857852
 21
53.0716050086
  0
LINE
  5
44A
100
AcDbEntity
  8
0
100
AcDbLine
 62
7
  6
CONTINUOUS
 10
18.6416179822
 20
50.7253984899
 11
18.0399810841
 21
50.3780453383
  0
LINE
  5
44B
100
AcDbEntity
  8
0
100
AcDbLine
 62
7
  6
CONTINUOUS
 10
32.6799628844
 20
58.8158650818
 11
33.1607974975
 21
59.0934734181
  0
LINE
  5
44C
100
AcDbEntity
  8
0
100
AcDbLine
 62
7
  6
CONTINUOUS
 10
87.4876521379
 20
90.2997346908
 11
88.5870882598
 21
90.9344906427
  0
LINE
  5
44D
100
AcDbEntity
  8
0
100
AcDbLine
 62
7
  6
CONTINUOUS
 10
29.6725296781
 20
56.7472669088
 11
29.0708927878
 21
56.3999137617
  0
LINE
  5
44E
100
AcDbEntity
  8
0
100
AcDbLine
 62
7
  6
CONTINUOUS
 10
82.2621569006
 20
86.6583197646
 11
81.2015011447
 21
86.0459535338
  0
LINE
  5
44F
100
AcDbEntity
  8
0
100
AcDbLine
 62
7
  6
CONTINUOUS
 10
81.7318290227
 20
85.9438854406
 11
80.3883317319
 21
85.1682215483
  0
LINE
  5
450
100
AcDbEntity
  8
0
100
AcDbLine
 62
7
  6
CONTINUOUS
 10
18.0399810836
 20
48.9831731331
 11
19.8496300162
 21
50.0279681949
  0
LINE
  5
451
100
AcDbEntity
  8
0
100
AcDbLine
 62
7
  6
CONTINUOUS
 10
21.6490511721
 20
51.0344339635
 11
22.1298857852
 21
51.3120422997
  0
LINE
  5
452
100
AcDbEntity
  8
0
100
AcDbLine
 62
7
  6
CONTINUOUS
 10
83.0753263134
 20
86.3112981244
 11
81.7318290227
 21
85.535634232
  0
LINE
  5
453
100
AcDbEntity
  8
0
100
AcDbLine
 62
7
  6
CONTINUOUS
 10
21.2700223962
 20
50.6000594451
 11
22.1298857852
 21
51.0964988409
  0
LINE
  5
454
100
AcDbEntity
  8
0
100
AcDbLine
 62
7
  6
CONTINUOUS
 10
29.0708927959
 20
55.0050415425
 11
30.8805417285
 21
56.0498366043
  0
LINE
  5
455
100
AcDbEntity
  8
0
100
AcDbLine
 62
7
  6
CONTINUOUS
 10
32.6799628844
 20
57.0563023729
 11
33.1607974975
 21
57.3339107091
  0
LINE
  5
456
100
AcDbEntity
  8
0
100
AcDbLine
 62
7
  6
CONTINUOUS
 10
32.3009341085
 20
56.6219278545
 11
33.1607974975
 21
57.1183672503
  0
LINE
  5
457
100
AcDbEntity
  8
0
100
AcDbLine
 62
7
  6
CONTINUOUS
 10
21.6490511721
 20
50.3822055587
 11
22.1298857852
 21
50.659813895
  0
LINE
  5
458
100
AcDbEntity
  8
0
100
AcDbLine
 62
7
  6
CONTINUOUS
 10
18.0399810836
 20
48.2884726148
 11
20.4512669139
 21
49.6806208281
  0
LINE
  5
459
100
AcDbEntity
  8
0
100
AcDbLine
 62
7
  6
CONTINUOUS
 10
32.6799628844
 20
56.4031004392
 11
33.1607974975
 21
56.6807087754
  0
LINE
  5
45A
100
AcDbEntity
  8
0
100
AcDbLine
 62
7
  6
CONTINUOUS
 10
29.0708927959
 20
54.3103410243
 11
31.4821786262
 21
55.7024892375
  0
LINE
  5
45B
100
AcDbEntity
  8
0
100
AcDbLine
 62
7
  6
CONTINUOUS
 10
21.6490511721
 20
49.6831224632
 11
22.1298857852
 21
49.9607307994
  0
LINE
  5
45C
100
AcDbEntity
  8
0
100
AcDbLine
 62
7
  6
CONTINUOUS
 10
18.6416179822
 20
47.6145242807
 11
18.0399810841
 21
47.267171129
  0
LINE
  5
45D
100
AcDbEntity
  8
0
100
AcDbLine
 62
7
  6
CONTINUOUS
 10
32.6799628844
 20
55.7049908726
 11
33.1607974975
 21
55.9825992088
  0
LINE
  5
45E
100
AcDbEntity
  8
0
100
AcDbLine
 62
7
  6
CONTINUOUS
 10
84.597872153
 20
85.6433108586
 11
77.5118139562
 21
81.5521976718
  0
LINE
  5
45F
100
AcDbEntity
  8
0
100
AcDbLine
 62
7
  6
CONTINUOUS
 10
29.6725296781
 20
53.6363926996
 11
29.0708927878
 21
53.2890395525
  0
LINE
  5
460
100
AcDbEntity
  8
0
100
AcDbLine
 62
7
  6
CONTINUOUS
 10
85.4002985035
 20
85.1959356535
 11
77.5118139562
 21
80.6415441627
  0
LINE
  5
461
100
AcDbEntity
  8
0
100
AcDbLine
 62
7
  6
CONTINUOUS
 10
13.6421874927
 20
96.9487678856
 11
35.2092953089
 21
84.4972740727
  0
LINE
  5
462
100
AcDbEntity
  8
0
100
AcDbLine
 62
7
  6
CONTINUOUS
 10
35.2090840049
 20
84.9316884227
 11
13.6422373879
 21
97.3830318719
  0
LINE
  5
463
100
AcDbEntity
  8
0
100
AcDbLine
 62
7
  6
CONTINUOUS
 10
35.3480366395
 20
85.175188915
 11
13.7811900226
 21
97.6265319279
  0
LINE
  5
464
100
AcDbEntity
  8
0
100
AcDbLine
 62
7
  6
CONTINUOUS
 10
46.2986413602
 20
119.3834579517
 11
46.583953571
 21
117.9968331013
  0
LINE
  5
465
100
AcDbEntity
  8
0
100
AcDbLine
 62
7
  6
CONTINUOUS
 10
57.425668322
 20
122.1742160718
 11
57.423199856
 21
122.3360885723
  0
LINE
  5
466
100
AcDbEntity
  8
0
100
AcDbLine
 62
7
  6
CONTINUOUS
 10
61.3344875814
 20
124.4309604525
 11
61.3369560474
 21
124.595683275
  0
LINE
  5
467
100
AcDbEntity
  8
0
100
AcDbLine
 62
7
  6
CONTINUOUS
 10
18.0399810836
 20
45.8722989238
 11
19.8496300162
 21
46.9170939856
  0
LINE
  5
468
100
AcDbEntity
  8
0
100
AcDbLine
 62
7
  6
CONTINUOUS
 10
21.6490511721
 20
47.9235597542
 11
22.1298857852
 21
48.2011680905
  0
LINE
  5
469
100
AcDbEntity
  8
0
100
AcDbLine
 62
7
  6
CONTINUOUS
 10
21.2700223962
 20
47.4891852358
 11
22.1298857852
 21
47.9856246316
  0
LINE
  5
46A
100
AcDbEntity
  8
0
100
AcDbLine
 62
7
  6
CONTINUOUS
 10
29.0708927959
 20
51.8941673333
 11
30.8805417285
 21
52.9389623951
  0
LINE
  5
46B
100
AcDbEntity
  8
0
100
AcDbLine
 62
7
  6
CONTINUOUS
 10
32.6799628844
 20
53.9454281637
 11
33.1607974975
 21
54.2230364999
  0
LINE
  5
46C
100
AcDbEntity
  8
0
100
AcDbLine
 62
7
  6
CONTINUOUS
 10
71.0121286093
 20
76.0479645349
 11
73.3455712721
 21
77.3951702427
  0
LINE
  5
46D
100
AcDbEntity
  8
0
100
AcDbLine
 62
7
  6
CONTINUOUS
 10
32.3009341085
 20
53.5110536452
 11
33.1607974975
 21
54.007493041
  0
LINE
  5
46E
100
AcDbEntity
  8
0
100
AcDbLine
 62
7
  6
CONTINUOUS
 10
21.6490511721
 20
47.2713313495
 11
22.1298857852
 21
47.5489396857
  0
LINE
  5
46F
100
AcDbEntity
  8
0
100
AcDbLine
 62
7
  6
CONTINUOUS
 10
18.0399810836
 20
45.1775984056
 11
20.4512669139
 21
46.5697466188
  0
LINE
  5
470
100
AcDbEntity
  8
0
100
AcDbLine
 62
7
  6
CONTINUOUS
 10
73.827604292
 20
77.1168744002
 11
72.4051271135
 21
76.2956117206
  0
LINE
  5
471
100
AcDbEntity
  8
0
100
AcDbLine
 62
7
  6
CONTINUOUS
 10
72.4263404053
 20
76.2829369349
 11
71.0121327308
 21
75.4664486271
  0
LINE
  5
472
100
AcDbEntity
  8
0
100
AcDbLine
 62
7
  6
CONTINUOUS
 10
32.6799628844
 20
53.29222623
 11
33.1607974975
 21
53.5698345662
  0
LINE
  5
473
100
AcDbEntity
  8
0
100
AcDbLine
 62
7
  6
CONTINUOUS
 10
29.0708927959
 20
51.199466815
 11
31.4821786262
 21
52.5916150283
  0
LINE
  5
474
100
AcDbEntity
  8
0
100
AcDbLine
 62
7
  6
CONTINUOUS
 10
21.6490511721
 20
46.5722482539
 11
22.1298857852
 21
46.8498565901
  0
LINE
  5
475
100
AcDbEntity
  8
0
100
AcDbLine
 62
7
  6
CONTINUOUS
 10
18.6416179822
 20
44.5036500714
 11
18.0399810841
 21
44.1562969198
  0
LINE
  5
476
100
AcDbEntity
  8
0
100
AcDbLine
 62
7
  6
CONTINUOUS
 10
32.6799628844
 20
52.5941166633
 11
33.1607974975
 21
52.8717249995
  0
LINE
  5
477
100
AcDbEntity
  8
0
100
AcDbLine
 62
7
  6
CONTINUOUS
 10
29.6725296781
 20
50.5255184903
 11
29.0708927878
 21
50.1781653432
  0
LINE
  5
478
100
AcDbEntity
  8
0
100
AcDbLine
 62
7
  6
CONTINUOUS
 10
72.4263404053
 20
74.6844032217
 11
86.5472038578
 21
82.8370388726
  0
LINE
  5
479
100
AcDbEntity
  8
0
100
AcDbLine
 62
7
  6
CONTINUOUS
 10
86.5684171495
 20
82.8247916499
 11
72.4263404053
 21
74.6599085725
  0
LINE
  5
47A
100
AcDbEntity
  8
0
100
AcDbLine
 62
7
  6
CONTINUOUS
 10
18.0399810836
 20
42.7614247146
 11
19.8496300162
 21
43.8062197764
  0
LINE
  5
47B
100
AcDbEntity
  8
0
100
AcDbLine
 62
7
  6
CONTINUOUS
 10
21.6490511721
 20
44.812685545
 11
22.1298857852
 21
45.0902938812
  0
LINE
  5
47C
100
AcDbEntity
  8
0
100
AcDbLine
 62
7
  6
CONTINUOUS
 10
21.2700223962
 20
44.3783110266
 11
22.1298857852
 21
44.8747504223
  0
LINE
  5
47D
100
AcDbEntity
  8
0
100
AcDbLine
 62
7
  6
CONTINUOUS
 10
29.0708927959
 20
48.783293124
 11
30.8805417285
 21
49.8280881858
  0
LINE
  5
47E
100
AcDbEntity
  8
0
100
AcDbLine
 62
7
  6
CONTINUOUS
 10
32.6799628844
 20
50.8345539544
 11
33.1607974975
 21
51.1121622906
  0
LINE
  5
47F
100
AcDbEntity
  8
0
100
AcDbLine
 62
7
  6
CONTINUOUS
 10
32.3009341085
 20
50.400179436
 11
33.1607974975
 21
50.8966188318
  0
LINE
  5
480
100
AcDbEntity
  8
0
100
AcDbLine
 62
7
  6
CONTINUOUS
 10
21.6490511721
 20
44.1604571402
 11
22.1298857852
 21
44.4380654764
  0
LINE
  5
481
100
AcDbEntity
  8
0
100
AcDbLine
 62
7
  6
CONTINUOUS
 10
18.0399810836
 20
42.0667241963
 11
20.4512669139
 21
43.4588724096
  0
LINE
  5
482
100
AcDbEntity
  8
0
100
AcDbLine
 62
7
  6
CONTINUOUS
 10
32.6799628844
 20
50.1813520207
 11
33.1607974975
 21
50.4589603569
  0
LINE
  5
483
100
AcDbEntity
  8
0
100
AcDbLine
 62
7
  6
CONTINUOUS
 10
29.0708927959
 20
48.0885926057
 11
31.4821786262
 21
49.480740819
  0
LINE
  5
484
100
AcDbEntity
  8
0
100
AcDbLine
 62
7
  6
CONTINUOUS
 10
21.6490511721
 20
43.4613740446
 11
22.1298857852
 21
43.7389823808
  0
LINE
  5
485
100
AcDbEntity
  8
0
100
AcDbLine
 62
7
  6
CONTINUOUS
 10
18.6416179822
 20
41.3927758622
 11
18.0399810841
 21
41.0454227105
  0
LINE
  5
486
100
AcDbEntity
  8
0
100
AcDbLine
 62
7
  6
CONTINUOUS
 10
32.6799628844
 20
49.4832424541
 11
33.1607974975
 21
49.7608507903
  0
LINE
  5
487
100
AcDbEntity
  8
0
100
AcDbLine
 62
7
  6
CONTINUOUS
 10
29.6725296781
 20
47.4146442811
 11
29.0708927878
 21
47.0672911339
  0
LINE
  5
488
100
AcDbEntity
  8
0
100
AcDbLine
 62
7
  6
CONTINUOUS
 10
37.5425266677
 20
86.4864020257
 11
15.9756800507
 21
98.9377450386
  0
LINE
  5
489
100
AcDbEntity
  8
0
100
AcDbLine
 62
7
  6
CONTINUOUS
 10
13.558064229
 20
100.6348228575
 11
40.313697352
 21
85.1878003299
  0
LINE
  5
48A
100
AcDbEntity
  8
0
100
AcDbLine
 62
7
  6
CONTINUOUS
 10
40.6610789388
 20
85.7965490153
 11
13.9054458158
 21
101.2435715429
  0
LINE
  5
48B
100
AcDbEntity
  8
0
100
AcDbLine
 62
7
  6
CONTINUOUS
 10
62.1067060643
 20
128.1427515712
 11
62.1067060643
 21
127.0669715323
  0
LINE
  5
48C
100
AcDbEntity
  8
0
100
AcDbLine
 62
7
  6
CONTINUOUS
 10
63.0923172782
 20
126.4879223712
 11
63.0923172782
 21
128.1452368387
  0
LINE
  5
48D
100
AcDbEntity
  8
0
100
AcDbLine
 62
7
  6
CONTINUOUS
 10
63.7386268798
 20
126.1082137931
 11
63.7386268798
 21
127.7785545769
  0
LINE
  5
48E
100
AcDbEntity
  8
0
100
AcDbLine
 62
7
  6
CONTINUOUS
 10
63.8467382715
 20
126.0446980683
 11
63.8467382715
 21
125.8814004067
  0
LINE
  5
48F
100
AcDbEntity
  8
0
100
AcDbLine
 62
7
  6
CONTINUOUS
 10
65.1429612715
 20
128.5893425762
 11
65.1429612715
 21
126.6297706375
  0
LINE
  5
490
100
AcDbEntity
  8
0
100
AcDbLine
 62
7
  6
CONTINUOUS
 10
14.6032379256
 20
31.5521237509
 11
13.565604377
 21
30.9050877892
  0
LINE
  5
491
100
AcDbEntity
  8
0
100
AcDbLine
 62
7
  6
CONTINUOUS
 10
13.4116161521
 20
30.9910634237
 11
14.4537579387
 21
31.6354966119
  0
LINE
  5
492
100
AcDbEntity
  8
0
100
AcDbLine
 62
7
  6
CONTINUOUS
 10
18.0399810836
 20
39.6505505053
 11
19.8496300162
 21
40.6953455671
  0
LINE
  5
493
100
AcDbEntity
  8
0
100
AcDbLine
 62
7
  6
CONTINUOUS
 10
21.6490511721
 20
41.7018113357
 11
22.1298857852
 21
41.9794196719
  0
LINE
  5
494
100
AcDbEntity
  8
0
100
AcDbLine
 62
7
  6
CONTINUOUS
 10
21.2700223962
 20
41.2674368173
 11
22.1298857852
 21
41.7638762131
  0
LINE
  5
495
100
AcDbEntity
  8
0
100
AcDbLine
 62
7
  6
CONTINUOUS
 10
29.0708927959
 20
45.6724189147
 11
30.8805417285
 21
46.7172139765
  0
LINE
  5
496
100
AcDbEntity
  8
0
100
AcDbLine
 62
7
  6
CONTINUOUS
 10
32.6799628844
 20
47.7236797451
 11
33.1607974975
 21
48.0012880814
  0
LINE
  5
497
100
AcDbEntity
  8
0
100
AcDbLine
 62
7
  6
CONTINUOUS
 10
32.3009341085
 20
47.2893052267
 11
33.1607974975
 21
47.7857446225
  0
LINE
  5
498
100
AcDbEntity
  8
0
100
AcDbLine
 62
7
  6
CONTINUOUS
 10
21.6490511721
 20
41.049582931
 11
22.1298857852
 21
41.3271912672
  0
LINE
  5
499
100
AcDbEntity
  8
0
100
AcDbLine
 62
7
  6
CONTINUOUS
 10
18.0399810836
 20
38.9558499871
 11
20.4512669139
 21
40.3479982003
  0
LINE
  5
49A
100
AcDbEntity
  8
0
100
AcDbLine
 62
7
  6
CONTINUOUS
 10
32.6799628844
 20
47.0704778114
 11
33.1607974975
 21
47.3480861476
  0
LINE
  5
49B
100
AcDbEntity
  8
0
100
AcDbLine
 62
7
  6
CONTINUOUS
 10
29.0708927959
 20
44.9777183965
 11
31.4821786262
 21
46.3698666097
  0
LINE
  5
49C
100
AcDbEntity
  8
0
100
AcDbLine
 62
7
  6
CONTINUOUS
 10
21.6490511721
 20
40.3504998354
 11
22.1298857852
 21
40.6281081716
  0
LINE
  5
49D
100
AcDbEntity
  8
0
100
AcDbLine
 62
7
  6
CONTINUOUS
 10
32.6799628844
 20
46.3723682448
 11
33.1607974975
 21
46.649976581
  0
LINE
  5
49E
100
AcDbEntity
  8
0
100
AcDbLine
 62
7
  6
CONTINUOUS
 10
29.6725296781
 20
44.3037700718
 11
29.0708927878
 21
43.9564169247
  0
LINE
  5
49F
100
AcDbEntity
  8
0
100
AcDbLine
 62
7
  6
CONTINUOUS
 10
18.1912847331
 20
36.6108679953
 11
19.513602407
 21
37.3743039031
  0
LINE
  5
4A0
100
AcDbEntity
  8
0
100
AcDbLine
 62
7
  6
CONTINUOUS
 10
21.6490511721
 20
38.5909371265
 11
22.1298857852
 21
38.8685454627
  0
LINE
  5
4A1
100
AcDbEntity
  8
0
100
AcDbLine
 62
7
  6
CONTINUOUS
 10
21.2700223962
 20
38.156562608
 11
22.1298857852
 21
38.6530020038
  0
LINE
  5
4A2
100
AcDbEntity
  8
0
100
AcDbLine
 62
7
  6
CONTINUOUS
 10
29.0708927959
 20
42.5615447055
 11
30.8805417285
 21
43.6063397673
  0
LINE
  5
4A3
100
AcDbEntity
  8
0
100
AcDbLine
 62
7
  6
CONTINUOUS
 10
32.6799628844
 20
44.6128055359
 11
33.1607974975
 21
44.8904138721
  0
LINE
  5
4A4
100
AcDbEntity
  8
0
100
AcDbLine
 62
7
  6
CONTINUOUS
 10
32.3009341085
 20
44.1784310175
 11
33.1607974975
 21
44.6748704132
  0
LINE
  5
4A5
100
AcDbEntity
  8
0
100
AcDbLine
 62
7
  6
CONTINUOUS
 10
21.6490511721
 20
37.9387087217
 11
22.1298857852
 21
38.2163170579
  0
LINE
  5
4A6
100
AcDbEntity
  8
0
100
AcDbLine
 62
7
  6
CONTINUOUS
 10
32.6799628844
 20
43.9596036022
 11
33.1607974975
 21
44.2372119384
  0
LINE
  5
4A7
100
AcDbEntity
  8
0
100
AcDbLine
 62
7
  6
CONTINUOUS
 10
29.0708927959
 20
41.8668441872
 11
31.4821786262
 21
43.2589924005
  0
LINE
  5
4A8
100
AcDbEntity
  8
0
100
AcDbLine
 62
7
  6
CONTINUOUS
 10
21.6490511721
 20
37.2396256261
 11
22.1298857852
 21
37.5172339623
  0
LINE
  5
4A9
100
AcDbEntity
  8
0
100
AcDbLine
 62
7
  6
CONTINUOUS
 10
90.3160674868
 20
62.8450868713
 11
87.4876521379
 21
64.4780362921
  0
LINE
  5
4AA
100
AcDbEntity
  8
0
100
AcDbLine
 62
7
  6
CONTINUOUS
 10
19.122217376
 20
104.4694864537
 11
46.0632056004
 21
88.9154515295
  0
LINE
  5
4AB
100
AcDbEntity
  8
0
100
AcDbLine
 62
7
  6
CONTINUOUS
 10
22.870507303
 20
102.3872013044
 11
19.1231004464
 21
104.5507187165
  0
LINE
  5
4AC
100
AcDbEntity
  8
0
100
AcDbLine
 62
7
  6
CONTINUOUS
 10
23.011929248
 20
102.3055531535
 11
46.1344172603
 21
88.9560804807
  0
LINE
  5
4AD
100
AcDbEntity
  8
0
100
AcDbLine
 62
7
  6
CONTINUOUS
 10
41.0601576506
 20
118.2214468165
 11
40.9877646063
 21
118.3544895285
  0
LINE
  5
4AE
100
AcDbEntity
  8
0
100
AcDbLine
 62
7
  6
CONTINUOUS
 10
65.7672217921
 20
90.0847446422
 11
65.7672217921
 21
95.977814148
  0
LINE
  5
4AF
100
AcDbEntity
  8
0
100
AcDbLine
 62
7
  6
CONTINUOUS
 10
69.7746174932
 20
122.3451144671
 11
69.7746190612
 21
124.0151757736
  0
LINE
  5
4B0
100
AcDbEntity
  8
0
100
AcDbLine
 62
7
  6
CONTINUOUS
 10
40.9040485628
 20
12.4967427923
 11
41.0145799533
 21
12.7294614889
  0
LINE
  5
4B1
100
AcDbEntity
  8
0
100
AcDbLine
 62
7
  6
CONTINUOUS
 10
32.6799628844
 20
43.2614940355
 11
33.1607974975
 21
43.5391023717
  0
LINE
  5
4B2
100
AcDbEntity
  8
0
100
AcDbLine
 62
7
  6
CONTINUOUS
 10
29.6725296781
 20
41.1928958625
 11
29.0708927878
 21
40.8455427154
  0
LINE
  5
4B3
100
AcDbEntity
  8
0
100
AcDbLine
 62
7
  6
CONTINUOUS
 10
17.4407562896
 20
34.0243560178
 11
18.911532271
 21
34.8735038578
  0
LINE
  5
4B4
100
AcDbEntity
  8
0
100
AcDbLine
 62
7
  6
CONTINUOUS
 10
29.0708927959
 20
39.4506704962
 11
30.8805417285
 21
40.495465558
  0
LINE
  5
4B5
100
AcDbEntity
  8
0
100
AcDbLine
 62
7
  6
CONTINUOUS
 10
32.6799628844
 20
41.5019313266
 11
33.1607974975
 21
41.7795396628
  0
LINE
  5
4B6
100
AcDbEntity
  8
0
100
AcDbLine
 62
7
  6
CONTINUOUS
 10
32.3009341085
 20
41.0675568082
 11
33.1607974975
 21
41.563996204
  0
LINE
  5
4B7
100
AcDbEntity
  8
0
100
AcDbLine
 62
7
  6
CONTINUOUS
 10
22.7662845371
 20
35.4964094834
 11
24.0720775717
 21
36.2503049433
  0
LINE
  5
4B8
100
AcDbEntity
  8
0
100
AcDbLine
 62
7
  6
CONTINUOUS
 10
16.774971369
 20
32.0315209102
 11
17.2982282085
 21
32.3336215841
  0
LINE
  5
4B9
100
AcDbEntity
  8
0
100
AcDbLine
 62
7
  6
CONTINUOUS
 10
32.6799628844
 20
40.8487293929
 11
33.1607974975
 21
41.1263377291
  0
LINE
  5
4BA
100
AcDbEntity
  8
0
100
AcDbLine
 62
7
  6
CONTINUOUS
 10
29.0708927959
 20
38.755969978
 11
31.4821786262
 21
40.1481181912
  0
LINE
  5
4BB
100
AcDbEntity
  8
0
100
AcDbLine
 62
7
  6
CONTINUOUS
 10
32.6799628844
 20
40.1506198263
 11
33.1607974975
 21
40.4282281625
  0
LINE
  5
4BC
100
AcDbEntity
  8
0
100
AcDbLine
 62
7
  6
CONTINUOUS
 10
19.48530342
 20
31.6914835247
 11
18.9620465804
 21
31.3893828508
  0
LINE
  5
4BD
100
AcDbEntity
  8
0
100
AcDbLine
 62
7
  6
CONTINUOUS
 10
23.2117637817
 20
33.7123586382
 11
24.0720775717
 21
34.2090580715
  0
LINE
  5
4BE
100
AcDbEntity
  8
0
100
AcDbLine
 62
7
  6
CONTINUOUS
 10
19.48530342
 20
31.0709416876
 11
18.9620465804
 21
30.7688410138
  0
LINE
  5
4BF
100
AcDbEntity
  8
0
100
AcDbLine
 62
7
  6
CONTINUOUS
 10
32.6799628844
 20
38.3910571174
 11
33.1607974975
 21
38.6686654536
  0
LINE
  5
4C0
100
AcDbEntity
  8
0
100
AcDbLine
 62
7
  6
CONTINUOUS
 10
32.3009341085
 20
37.9566825989
 11
33.1607974975
 21
38.4531219947
  0
LINE
  5
4C1
100
AcDbEntity
  8
0
100
AcDbLine
 62
7
  6
CONTINUOUS
 10
73.827604292
 20
77.1168744002
 11
73.3455712721
 21
77.3951702427
  0
LINE
  5
4C2
100
AcDbEntity
  8
0
100
AcDbLine
 62
7
  6
CONTINUOUS
 10
54.2097584686
 20
88.8518186442
 11
53.38574855
 21
89.327550648
  0
LINE
  5
4C3
100
AcDbEntity
  8
0
100
AcDbLine
 62
7
  6
CONTINUOUS
 10
72.4051271135
 20
76.2956117206
 11
72.4263404053
 21
76.2829369349
  0
LINE
  5
4C4
100
AcDbEntity
  8
0
100
AcDbLine
 62
7
  6
CONTINUOUS
 10
44.0457823639
 20
119.6818867531
 11
43.9838735691
 21
119.7879729208
  0
LINE
  5
4C5
100
AcDbEntity
  8
0
100
AcDbLine
 62
7
  6
CONTINUOUS
 10
43.1166735817
 20
119.2872977632
 11
43.1775111938
 21
119.1805931516
  0
LINE
  5
4C6
100
AcDbEntity
  8
0
100
AcDbLine
 62
7
  6
CONTINUOUS
 10
70.7644177807
 20
124.0151781527
 11
70.7644221376
 21
122.0779380182
  0
LINE
  5
4C7
100
AcDbEntity
  8
0
100
AcDbLine
 62
7
  6
CONTINUOUS
 10
71.0121327308
 20
75.4664486271
 11
71.0121327308
 21
85.2844305765
  0
LINE
  5
4C8
100
AcDbEntity
  8
0
100
AcDbLine
 62
7
  6
CONTINUOUS
 10
71.6006961622
 20
121.5951259076
 11
71.6006961622
 21
120.9308033678
  0
LINE
  5
4C9
100
AcDbEntity
  8
0
100
AcDbLine
 62
7
  6
CONTINUOUS
 10
71.6173635656
 20
99.3553749144
 11
71.6173635656
 21
95.1755879365
  0
LINE
  5
4CA
100
AcDbEntity
  8
0
100
AcDbLine
 62
7
  6
CONTINUOUS
 10
71.7192306801
 20
99.4141875693
 11
71.7192306801
 21
95.1541087884
  0
LINE
  5
4CB
100
AcDbEntity
  8
0
100
AcDbLine
 62
7
  6
CONTINUOUS
 10
72.4170993806
 20
99.8224351226
 11
72.4170993806
 21
93.9730200623
  0
LINE
  5
4CC
100
AcDbEntity
  8
0
100
AcDbLine
 62
7
  6
CONTINUOUS
 10
72.4263404053
 20
74.6599085725
 11
72.4263404053
 21
76.2829369349
  0
LINE
  5
4CD
100
AcDbEntity
  8
0
100
AcDbLine
 62
7
  6
CONTINUOUS
 10
72.4263404053
 20
86.1009188842
 11
72.4263404053
 21
93.9293656168
  0
LINE
  5
4CE
100
AcDbEntity
  8
0
100
AcDbLine
 62
7
  6
CONTINUOUS
 10
72.4263404053
 20
99.8224351226
 11
72.4263404053
 21
101.0329366458
  0
LINE
  5
4CF
100
AcDbEntity
  8
0
100
AcDbLine
 62
7
  6
CONTINUOUS
 10
72.7904164971
 20
120.3044707123
 11
72.7904164971
 21
124.1741821274
  0
LINE
  5
4D0
100
AcDbEntity
  8
0
100
AcDbLine
 62
7
  6
CONTINUOUS
 10
73.3455712721
 20
86.6557009908
 11
73.3455712721
 21
77.3951702427
  0
LINE
  5
4D1
100
AcDbEntity
  8
0
100
AcDbLine
 62
7
  6
CONTINUOUS
 10
73.827604292
 20
86.9340012234
 11
73.827604292
 21
77.1168744002
  0
LINE
  5
4D2
100
AcDbEntity
  8
0
100
AcDbLine
 62
7
  6
CONTINUOUS
 10
74.0048692277
 20
120.2071073423
 11
74.0048692277
 21
119.5427848024
  0
LINE
  5
4D3
100
AcDbEntity
  8
0
100
AcDbLine
 62
7
  6
CONTINUOUS
 10
74.9950845241
 20
100.8770828175
 11
74.9950845241
 21
102.5280265504
  0
LINE
  5
4D4
100
AcDbEntity
  8
0
100
AcDbLine
 62
7
  6
CONTINUOUS
 10
75.0159275395
 20
102.5280265504
 11
75.0159275395
 21
103.86525788
  0
LINE
  5
4D5
100
AcDbEntity
  8
0
100
AcDbLine
 62
7
  6
CONTINUOUS
 10
71.6598077362
 20
123.4982362157
 11
71.6218309358
 21
120.9186014766
  0
LINE
  5
4D6
100
AcDbEntity
  8
0
100
AcDbLine
 62
7
  6
CONTINUOUS
 10
20.0227068111
 20
30.7606787142
 11
19.4994499716
 21
30.4585780403
  0
LINE
  5
4D7
100
AcDbEntity
  8
0
100
AcDbLine
 62
7
  6
CONTINUOUS
 10
32.6799628844
 20
37.7378551836
 11
33.1607974975
 21
38.0154635199
  0
LINE
  5
4D8
100
AcDbEntity
  8
0
100
AcDbLine
 62
7
  6
CONTINUOUS
 10
19.48530342
 20
30.0748087387
 11
18.9620465804
 21
29.7727080649
  0
LINE
  5
4D9
100
AcDbEntity
  8
0
100
AcDbLine
 62
7
  6
CONTINUOUS
 10
32.6799628844
 20
37.039745617
 11
33.1607974975
 21
37.3173539532
  0
LINE
  5
4DA
100
AcDbEntity
  8
0
100
AcDbLine
 62
7
  6
CONTINUOUS
 10
33.7971962494
 20
35.2965294743
 11
35.1737002565
 21
36.0912496895
  0
LINE
  5
4DB
100
AcDbEntity
  8
0
100
AcDbLine
 62
7
  6
CONTINUOUS
 10
21.0207402624
 20
27.8236048734
 11
22.4915162438
 21
28.6727527134
  0
LINE
  5
4DC
100
AcDbEntity
  8
0
100
AcDbLine
 62
7
  6
CONTINUOUS
 10
31.2924933423
 20
108.0289833895
 11
31.9674617163
 21
107.6392990329
  0
LINE
  5
4DD
100
AcDbEntity
  8
0
100
AcDbLine
 62
7
  6
CONTINUOUS
 10
76.0130713409
 20
104.4409556856
 11
76.0130713409
 21
102.3913635719
  0
LINE
  5
4DE
100
AcDbEntity
  8
0
100
AcDbLine
 62
7
  6
CONTINUOUS
 10
76.7042288294
 20
118.6486666062
 11
76.7042288294
 21
118.3443920052
  0
LINE
  5
4DF
100
AcDbEntity
  8
0
100
AcDbLine
 62
7
  6
CONTINUOUS
 10
76.8154976914
 20
103.5914973093
 11
76.8154976914
 21
101.9280925759
  0
LINE
  5
4E0
100
AcDbEntity
  8
0
100
AcDbLine
 62
7
  6
CONTINUOUS
 10
76.8370812594
 20
104.9166951941
 11
76.8370812594
 21
103.5794638645
  0
LINE
  5
4E1
100
AcDbEntity
  8
0
100
AcDbLine
 62
7
  6
CONTINUOUS
 10
77.5118139562
 20
80.6415441627
 11
77.5118139562
 21
102.5875158408
  0
LINE
  5
4E2
100
AcDbEntity
  8
0
100
AcDbLine
 62
7
  6
CONTINUOUS
 10
79.3238985916
 20
85.7827584057
 11
79.3238985916
 21
101.2963043312
  0
LINE
  5
4E3
100
AcDbEntity
  8
0
100
AcDbLine
 62
7
  6
CONTINUOUS
 10
78.9982501226
 20
117.6276146074
 11
79.0229482379
 21
119.2472212358
  0
LINE
  5
4E4
100
AcDbEntity
  8
0
100
AcDbLine
 62
7
  6
CONTINUOUS
 10
79.9010764001
 20
118.1593591791
 11
79.9183381934
 21
118.7302792987
  0
LINE
  5
4E5
100
AcDbEntity
  8
0
100
AcDbLine
 62
7
  6
CONTINUOUS
 10
89.3331194361
 20
89.5356665557
 11
90.3160674868
 21
91.7246306068
  0
LINE
  5
4E6
100
AcDbEntity
  8
0
100
AcDbLine
 62
7
  6
CONTINUOUS
 10
23.2117637817
 20
26.935388576
 11
24.0720775717
 21
27.4320880094
  0
LINE
  5
4E7
100
AcDbEntity
  8
0
100
AcDbLine
 62
7
  6
CONTINUOUS
 10
46.4879721229
 20
35.6935550927
 11
48.2433891725
 21
36.7070395492
  0
LINE
  5
4E8
100
AcDbEntity
  8
0
100
AcDbLine
 62
7
  6
CONTINUOUS
 10
44.6239862556
 20
34.8567041069
 11
43.1618457923
 21
34.0412533891
  0
LINE
  5
4E9
100
AcDbEntity
  8
0
100
AcDbLine
 62
7
  6
CONTINUOUS
 10
90.3160674868
 20
62.8450868713
 11
87.4876521379
 21
61.2691186666
  0
LINE
  5
4EA
100
AcDbEntity
  8
0
100
AcDbLine
 62
7
  6
CONTINUOUS
 10
35.8812179077
 20
109.8988937357
 11
35.2062495337
 21
110.2885780922
  0
LINE
  5
4EB
100
AcDbEntity
  8
0
100
AcDbLine
 62
7
  6
CONTINUOUS
 10
80.3883317319
 20
85.1682215483
 11
79.3238985916
 21
85.7827584057
  0
LINE
  5
4EC
100
AcDbEntity
  8
0
100
AcDbLine
 62
7
  6
CONTINUOUS
 10
81.7318290227
 20
85.535634232
 11
81.3782680505
 21
85.7397581366
  0
LINE
  5
4ED
100
AcDbEntity
  8
0
100
AcDbLine
 62
7
  6
CONTINUOUS
 10
86.5472038578
 20
82.8370388726
 11
86.5684171495
 21
82.8247916499
  0
LINE
  5
4EE
100
AcDbEntity
  8
0
100
AcDbLine
 62
7
  6
CONTINUOUS
 10
60.6619876734
 20
124.9853676316
 11
60.9073098398
 21
124.1843307405
  0
LINE
  5
4EF
100
AcDbEntity
  8
0
100
AcDbLine
 62
7
  6
CONTINUOUS
 10
80.3883317319
 20
85.1682215483
 11
80.3883317319
 21
100.6817674737
  0
LINE
  5
4F0
100
AcDbEntity
  8
0
100
AcDbLine
 62
7
  6
CONTINUOUS
 10
80.6673958823
 20
102.0719682235
 11
80.6673958823
 21
102.4802194321
  0
LINE
  5
4F1
100
AcDbEntity
  8
0
100
AcDbLine
 62
7
  6
CONTINUOUS
 10
81.2015011447
 20
86.0459535338
 11
81.2015011447
 21
100.7429970421
  0
LINE
  5
4F2
100
AcDbEntity
  8
0
100
AcDbLine
 62
7
  6
CONTINUOUS
 10
81.7318290227
 20
85.535634232
 11
81.7318290227
 21
85.9438854406
  0
LINE
  5
4F3
100
AcDbEntity
  8
0
100
AcDbLine
 62
7
  6
CONTINUOUS
 10
81.7318290227
 20
101.4574313661
 11
81.7318290227
 21
101.8656825746
  0
LINE
  5
4F4
100
AcDbEntity
  8
0
100
AcDbLine
 62
7
  6
CONTINUOUS
 10
82.2621569006
 20
101.3553632729
 11
82.2621569006
 21
86.6583197646
  0
LINE
  5
4F5
100
AcDbEntity
  8
0
100
AcDbLine
 62
7
  6
CONTINUOUS
 10
83.0753263134
 20
102.641346467
 11
83.0753263134
 21
86.3112981244
  0
LINE
  5
4F6
100
AcDbEntity
  8
0
100
AcDbLine
 62
7
  6
CONTINUOUS
 10
83.5011735861
 20
37.9934234786
 11
83.5011735861
 21
40.9944871047
  0
LINE
  5
4F7
100
AcDbEntity
  8
0
100
AcDbLine
 62
7
  6
CONTINUOUS
 10
84.4983173874
 20
41.5701849103
 11
84.4983173874
 21
39.5205927966
  0
LINE
  5
4F8
100
AcDbEntity
  8
0
100
AcDbLine
 62
7
  6
CONTINUOUS
 10
84.597872153
 20
106.6786290276
 11
84.597872153
 21
99.7279775541
  0
LINE
  5
4F9
100
AcDbEntity
  8
0
100
AcDbLine
 62
7
  6
CONTINUOUS
 10
84.597872153
 20
93.4409089422
 11
84.597872153
 21
85.6433108586
  0
LINE
  5
4FA
100
AcDbEntity
  8
0
100
AcDbLine
 62
7
  6
CONTINUOUS
 10
46.4167066148
 20
32.3721342975
 11
46.4756236916
 21
32.4061498845
  0
LINE
  5
4FB
100
AcDbEntity
  8
0
100
AcDbLine
 62
7
  6
CONTINUOUS
 10
48.2433891725
 20
32.5960232581
 11
46.4879721229
 21
31.5825388017
  0
LINE
  5
4FC
100
AcDbEntity
  8
0
100
AcDbLine
 62
7
  6
CONTINUOUS
 10
43.1618457923
 20
30.2830365741
 11
43.9541790028
 21
30.732572481
  0
LINE
  5
4FD
100
AcDbEntity
  8
0
100
AcDbLine
 62
7
  6
CONTINUOUS
 10
43.1618457923
 20
29.5242318321
 11
44.6239862556
 21
30.3391769494
  0
LINE
  5
4FE
100
AcDbEntity
  8
0
100
AcDbLine
 62
7
  6
CONTINUOUS
 10
18.8679370389
 20
104.4916535595
 11
19.122217376
 21
104.4694864537
  0
LINE
  5
4FF
100
AcDbEntity
  8
0
100
AcDbLine
 62
7
  6
CONTINUOUS
 10
18.8710193933
 20
104.5745958962
 11
19.1231004464
 21
104.5507187165
  0
LINE
  5
500
100
AcDbEntity
  8
0
100
AcDbLine
 62
7
  6
CONTINUOUS
 10
85.4002985035
 20
85.1959356535
 11
84.597872153
 21
85.6433108586
  0
LINE
  5
501
100
AcDbEntity
  8
0
100
AcDbLine
 62
7
  6
CONTINUOUS
 10
40.2175530705
 20
113.9129664343
 11
37.7354427441
 21
115.296812585
  0
LINE
  5
502
100
AcDbEntity
  8
0
100
AcDbLine
 62
7
  6
CONTINUOUS
 10
82.2621569006
 20
86.6583197646
 11
81.1977237602
 21
87.272856622
  0
LINE
  5
503
100
AcDbEntity
  8
0
100
AcDbLine
 62
7
  6
CONTINUOUS
 10
71.6491301154
 20
95.1945804345
 11
71.7192306801
 21
95.1541087884
  0
LINE
  5
504
100
AcDbEntity
  8
0
100
AcDbLine
 62
7
  6
CONTINUOUS
 10
38.826635496
 20
117.9821219183
 11
39.0862216616
 21
117.8235305138
  0
LINE
  5
505
100
AcDbEntity
  8
0
100
AcDbLine
 62
7
  6
CONTINUOUS
 10
71.7192306801
 20
95.1541087884
 11
72.4170993806
 21
93.9730200623
  0
LINE
  5
506
100
AcDbEntity
  8
0
100
AcDbLine
 62
7
  6
CONTINUOUS
 10
72.4051271135
 20
93.9661079119
 11
72.4263404053
 21
93.9293656168
  0
LINE
  5
507
100
AcDbEntity
  8
0
100
AcDbLine
 62
7
  6
CONTINUOUS
 10
85.0254793319
 20
99.4895745539
 11
85.0254793319
 21
93.6877865884
  0
LINE
  5
508
100
AcDbEntity
  8
0
100
AcDbLine
 62
7
  6
CONTINUOUS
 10
85.322327306
 20
42.0459244188
 11
85.322327306
 21
39.0448607928
  0
LINE
  5
509
100
AcDbEntity
  8
0
100
AcDbLine
 62
7
  6
CONTINUOUS
 10
85.4002985035
 20
107.1419073316
 11
85.4002985035
 21
99.280602349
  0
LINE
  5
50A
100
AcDbEntity
  8
0
100
AcDbLine
 62
7
  6
CONTINUOUS
 10
85.4002985035
 20
92.9935337371
 11
85.4002985035
 21
85.1959356535
  0
LINE
  5
50B
100
AcDbEntity
  8
0
100
AcDbLine
 62
7
  6
CONTINUOUS
 10
85.8279056824
 20
99.5274799952
 11
85.8279056824
 21
93.2404113833
  0
LINE
  5
50C
100
AcDbEntity
  8
0
100
AcDbLine
 62
7
  6
CONTINUOUS
 10
86.5472038578
 20
109.1855722966
 11
86.5472038578
 21
82.8370388726
  0
LINE
  5
50D
100
AcDbEntity
  8
0
100
AcDbLine
 62
7
  6
CONTINUOUS
 10
86.5684171495
 20
109.1978197232
 11
86.5684171495
 21
82.8247916499
  0
LINE
  5
50E
100
AcDbEntity
  8
0
100
AcDbLine
 62
7
  6
CONTINUOUS
 10
87.4876521379
 20
90.2997346908
 11
87.4876521379
 21
88.458649157
  0
LINE
  5
50F
100
AcDbEntity
  8
0
100
AcDbLine
 62
7
  6
CONTINUOUS
 10
87.4876521379
 20
85.9383105661
 11
87.4876521379
 21
61.2691186666
  0
LINE
  5
510
100
AcDbEntity
  8
0
100
AcDbLine
 62
7
  6
CONTINUOUS
 10
88.5870882598
 20
90.9344906427
 11
88.5870882598
 21
90.1934941876
  0
LINE
  5
511
100
AcDbEntity
  8
0
100
AcDbLine
 62
7
  6
CONTINUOUS
 10
39.3936202954
 20
119.3506671505
 11
39.8640004895
 21
119.0977260578
  0
LINE
  5
512
100
AcDbEntity
  8
0
100
AcDbLine
 62
7
  6
CONTINUOUS
 10
39.4899578846
 20
119.3625719563
 11
39.9619744262
 21
119.1087599762
  0
LINE
  5
513
100
AcDbEntity
  8
0
100
AcDbLine
 62
7
  6
CONTINUOUS
 10
88.5870882598
 20
90.1934941876
 11
87.9320328884
 21
90.5562965052
  0
LINE
  5
514
100
AcDbEntity
  8
0
100
AcDbLine
 62
7
  6
CONTINUOUS
 10
87.4876521379
 20
90.1222488222
 11
88.9522216194
 21
89.3080791871
  0
LINE
  5
515
100
AcDbEntity
  8
0
100
AcDbLine
 62
7
  6
CONTINUOUS
 10
84.597872153
 20
93.4409089422
 11
85.4002985035
 21
92.9935337371
  0
LINE
  5
516
100
AcDbEntity
  8
0
100
AcDbLine
 62
7
  6
CONTINUOUS
 10
85.8279056824
 20
93.2404113833
 11
85.0254793319
 21
93.6877865884
  0
LINE
  5
517
100
AcDbEntity
  8
0
100
AcDbLine
 62
7
  6
CONTINUOUS
 10
39.9620098167
 20
119.108740946
 11
39.9646384724
 21
119.1072496892
  0
LINE
  5
518
100
AcDbEntity
  8
0
100
AcDbLine
 62
7
  6
CONTINUOUS
 10
40.5003774781
 20
119.6329738702
 11
40.853932393
 21
119.4307622243
  0
LINE
  5
519
100
AcDbEntity
  8
0
100
AcDbLine
 62
7
  6
CONTINUOUS
 10
40.853932393
 20
119.0118209645
 11
40.1591652112
 21
119.4094001231
  0
LINE
  5
51A
100
AcDbEntity
  8
0
100
AcDbLine
 62
7
  6
CONTINUOUS
 10
39.0861727999
 20
117.832178393
 11
40.5127338536
 21
117.0085712521
  0
LINE
  5
51B
100
AcDbEntity
  8
0
100
AcDbLine
 62
7
  6
CONTINUOUS
 10
39.3189039907
 20
119.3306422501
 11
40.9344985555
 21
118.3979926165
  0
LINE
  5
51C
100
AcDbEntity
  8
0
100
AcDbLine
 62
7
  6
CONTINUOUS
 10
44.0457823639
 20
119.3432834604
 11
42.2097663391
 21
120.4034460867
  0
LINE
  5
51D
100
AcDbEntity
  8
0
100
AcDbLine
 62
7
  6
CONTINUOUS
 10
41.277387308
 20
118.7662937965
 11
40.853932393
 21
119.0118209645
  0
LINE
  5
51E
100
AcDbEntity
  8
0
100
AcDbLine
 62
7
  6
CONTINUOUS
 10
40.853932393
 20
119.4307622243
 11
41.9332724412
 21
118.8047851526
  0
LINE
  5
51F
100
AcDbEntity
  8
0
100
AcDbLine
 62
7
  6
CONTINUOUS
 10
43.1166735817
 20
119.2872977632
 11
42.0560089162
 21
119.9205884169
  0
LINE
  5
520
100
AcDbEntity
  8
0
100
AcDbLine
 62
7
  6
CONTINUOUS
 10
39.8640004895
 20
119.0977260575
 11
40.9854946833
 21
118.4274350689
  0
LINE
  5
521
100
AcDbEntity
  8
0
100
AcDbLine
 62
7
  6
CONTINUOUS
 10
39.9646224796
 20
119.1072571256
 11
41.0863586235
 21
118.4368310217
  0
LINE
  5
522
100
AcDbEntity
  8
0
100
AcDbLine
 62
7
  6
CONTINUOUS
 10
40.9246521974
 20
118.3922286909
 11
40.9877646063
 21
118.3544895285
  0
LINE
  5
523
100
AcDbEntity
  8
0
100
AcDbLine
 62
7
  6
CONTINUOUS
 10
90.3160674868
 20
40.9790053822
 11
90.3160674868
 21
62.8450868713
  0
LINE
  5
524
100
AcDbEntity
  8
0
100
AcDbLine
 62
7
  6
CONTINUOUS
 10
90.3160674868
 20
91.7246306068
 11
90.3160674868
 21
113.6477205067
  0
LINE
  5
525
100
AcDbEntity
  8
0
100
AcDbLine
 62
7
  6
CONTINUOUS
 10
52.3886047487
 20
23.0317443343
 11
54.2097584686
 21
24.0831816485
  0
LINE
  5
526
100
AcDbEntity
  8
0
100
AcDbLine
 62
7
  6
CONTINUOUS
 10
83.5011735861
 20
40.9944871047
 11
85.322327306
 21
42.0459244188
  0
LINE
  5
527
100
AcDbEntity
  8
0
100
AcDbLine
 62
7
  6
CONTINUOUS
 10
37.7354207124
 20
115.2968248683
 11
37.4810801533
 21
115.3190553497
  0
LINE
  5
528
100
AcDbEntity
  8
0
100
AcDbLine
 62
7
  6
CONTINUOUS
 10
44.1066100442
 20
121.3086853322
 11
43.7404933187
 21
121.5036444566
  0
LINE
  5
529
100
AcDbEntity
  8
0
100
AcDbLine
 62
7
  6
CONTINUOUS
 10
45.1673331467
 20
122.1595882831
 11
44.6762579043
 21
122.4236935115
  0
LINE
  5
52A
100
AcDbEntity
  8
0
100
AcDbLine
 62
7
  6
CONTINUOUS
 10
45.6572028265
 20
122.2147578772
 11
44.9390498663
 21
122.6009219388
  0
LINE
  5
52B
100
AcDbEntity
  8
0
100
AcDbLine
 62
7
  6
CONTINUOUS
 10
42.0560089162
 20
119.9205884169
 11
41.6898921908
 21
120.1178818305
  0
LINE
  5
52C
100
AcDbEntity
  8
0
100
AcDbLine
 62
7
  6
CONTINUOUS
 10
76.8370812594
 20
103.5794638645
 11
76.8154976914
 21
103.5914973093
  0
LINE
  5
52D
100
AcDbEntity
  8
0
100
AcDbLine
 62
7
  6
CONTINUOUS
 10
85.4002985035
 20
99.280602349
 11
84.597872153
 21
99.7279775541
  0
LINE
  5
52E
100
AcDbEntity
  8
0
100
AcDbLine
 62
7
  6
CONTINUOUS
 10
45.6573876398
 20
122.2146584997
 11
45.6705325176
 21
122.2072013563
  0
LINE
  5
52F
100
AcDbEntity
  8
0
100
AcDbLine
 62
7
  6
CONTINUOUS
 10
46.0963834918
 20
121.0061993049
 11
44.9551346557
 21
121.6617417765
  0
LINE
  5
530
100
AcDbEntity
  8
0
100
AcDbLine
 62
7
  6
CONTINUOUS
 10
76.8154976914
 20
101.9280925759
 11
76.0130713409
 21
102.3913635719
  0
LINE
  5
531
100
AcDbEntity
  8
0
100
AcDbLine
 62
7
  6
CONTINUOUS
 10
80.3883317319
 20
100.6817674737
 11
79.3238985916
 21
101.2963043312
  0
LINE
  5
532
100
AcDbEntity
  8
0
100
AcDbLine
 62
7
  6
CONTINUOUS
 10
44.4182264332
 20
122.1837773935
 11
46.0963834918
 21
121.2148962192
  0
LINE
  5
533
100
AcDbEntity
  8
0
100
AcDbLine
 62
7
  6
CONTINUOUS
 10
46.2377988744
 20
121.4598362065
 11
44.6422850781
 21
122.3809670874
  0
LINE
  5
534
100
AcDbEntity
  8
0
100
AcDbLine
 62
7
  6
CONTINUOUS
 10
47.7262283422
 20
120.8453575645
 11
49.9755731239
 21
119.5467283098
  0
LINE
  5
535
100
AcDbEntity
  8
0
100
AcDbLine
 62
7
  6
CONTINUOUS
 10
81.7318290227
 20
101.4574313661
 11
80.6673958823
 21
102.0719682235
  0
LINE
  5
536
100
AcDbEntity
  8
0
100
AcDbLine
 62
7
  6
CONTINUOUS
 10
81.7318290227
 20
101.8656825746
 11
80.6673958823
 21
102.4802194321
  0
LINE
  5
537
100
AcDbEntity
  8
0
100
AcDbLine
 62
7
  6
CONTINUOUS
 10
46.3628650187
 20
121.4577866495
 11
46.2986413602
 21
121.4948842603
  0
LINE
  5
538
100
AcDbEntity
  8
0
100
AcDbLine
 62
7
  6
CONTINUOUS
 10
42.550978606
 20
120.6150273366
 11
43.9838735691
 21
119.7879729208
  0
LINE
  5
539
100
AcDbEntity
  8
0
100
AcDbLine
 62
7
  6
CONTINUOUS
 10
44.9551346555
 20
121.6617417764
 11
44.2603674671
 21
122.0670369792
  0
LINE
  5
53A
100
AcDbEntity
  8
0
100
AcDbLine
 62
7
  6
CONTINUOUS
 10
46.2887951157
 20
121.4892787244
 11
45.1673331467
 21
122.1595882819
  0
LINE
  5
53B
100
AcDbEntity
  8
0
100
AcDbLine
 62
7
  6
CONTINUOUS
 10
47.0734902723
 20
121.3686868402
 11
45.6704930515
 21
122.2072137663
  0
LINE
  5
53C
100
AcDbEntity
  8
0
100
AcDbLine
 62
7
  6
CONTINUOUS
 10
48.0736119331
 20
121.2655217208
 11
50.4705587101
 21
119.8325066654
  0
LINE
  5
53D
100
AcDbEntity
  8
0
100
AcDbLine
 62
7
  6
CONTINUOUS
 10
45.1672747096
 20
120.6719260877
 11
44.1066100442
 21
121.3086853322
  0
LINE
  5
53E
100
AcDbEntity
  8
0
100
AcDbLine
 62
7
  6
CONTINUOUS
 10
88.5870882598
 20
90.1934941876
 11
88.9522216194
 21
89.3080791871
  0
LINE
  5
53F
100
AcDbEntity
  8
0
100
AcDbLine
 62
7
  6
CONTINUOUS
 10
87.7855039994
 20
87.0884028674
 11
87.4876521379
 21
88.458649157
  0
LINE
  5
540
100
AcDbEntity
  8
0
100
AcDbLine
 62
7
  6
CONTINUOUS
 10
84.4983173874
 20
39.5205927966
 11
83.5011735861
 21
38.9448949909
  0
LINE
  5
541
100
AcDbEntity
  8
0
100
AcDbLine
 62
7
  6
CONTINUOUS
 10
53.38574855
 20
21.5578500262
 11
52.3886047487
 21
20.9821522206
  0
LINE
  5
542
100
AcDbEntity
  8
0
100
AcDbLine
 62
7
  6
CONTINUOUS
 10
85.322327306
 20
39.0448607928
 11
83.5011735861
 21
37.9934234786
  0
LINE
  5
543
100
AcDbEntity
  8
0
100
AcDbLine
 62
7
  6
CONTINUOUS
 10
54.2097584686
 20
21.0821180224
 11
52.3886047487
 21
20.0306807083
  0
LINE
  5
544
100
AcDbEntity
  8
0
100
AcDbLine
 62
7
  6
CONTINUOUS
 10
90.3160674868
 20
40.9790053822
 11
46.4879721229
 21
15.6749937703
  0
LINE
  5
545
100
AcDbEntity
  8
0
100
AcDbLine
 62
7
  6
CONTINUOUS
 10
46.3826086175
 20
15.4450572315
 11
90.212511505
 21
40.7501124114
  0
LINE
  5
546
100
AcDbEntity
  8
0
100
AcDbLine
 62
7
  6
CONTINUOUS
 10
41.0145799533
 20
12.7294614889
 11
46.4167066148
 21
15.634333729
  0
LINE
  5
547
100
AcDbEntity
  8
0
100
AcDbLine
 62
7
  6
CONTINUOUS
 10
46.3087729677
 20
15.4030119105
 11
40.9040485628
 21
12.4967427923
  0
LINE
  5
548
100
AcDbEntity
  8
0
100
AcDbLine
 62
7
  6
CONTINUOUS
 10
47.0734090048
 20
121.3685471649
 11
46.9197467849
 21
121.4166933224
  0
LINE
  5
549
100
AcDbEntity
  8
0
100
AcDbLine
 62
7
  6
CONTINUOUS
 10
83.0753263134
 20
102.641346467
 11
82.010893173
 21
103.2558833244
  0
LINE
  5
54A
100
AcDbEntity
  8
0
100
AcDbLine
 62
7
  6
CONTINUOUS
 10
56.748231482
 20
122.7257729289
 11
57.423199856
 21
122.3360885723
  0
LINE
  5
54B
100
AcDbEntity
  8
0
100
AcDbLine
 62
7
  6
CONTINUOUS
 10
90.3160674868
 20
40.9789915874
 11
90.2125264301
 21
40.7500865601
  0
LINE
  5
54C
100
AcDbEntity
  8
0
100
AcDbLine
 62
7
  6
CONTINUOUS
 10
48.0736119331
 20
121.2655217208
 11
47.8279820906
 21
121.2927937865
  0
LINE
  5
54D
100
AcDbEntity
  8
0
100
AcDbLine
 62
7
  6
CONTINUOUS
 10
61.3369560474
 20
124.595683275
 11
60.6619876734
 21
124.9853676316
  0
LINE
  5
54E
100
AcDbEntity
  8
0
100
AcDbLine
 62
7
  6
CONTINUOUS
 10
63.0923008851
 20
128.1452461392
 11
63.7386268798
 21
127.7785545769
  0
LINE
  5
54F
100
AcDbEntity
  8
0
100
AcDbLine
 62
7
  6
CONTINUOUS
 10
71.0354102202
 20
121.2571639753
 11
72.7370738957
 21
120.2747302198
  0
LINE
  5
550
100
AcDbEntity
  8
0
100
AcDbLine
 62
7
  6
CONTINUOUS
 10
73.4395832857
 20
119.86914541
 11
75.1412469612
 21
118.8867116544
  0
LINE
  5
551
100
AcDbEntity
  8
0
100
AcDbLine
 62
7
  6
CONTINUOUS
 10
78.4720053365
 20
117.3237888521
 11
76.4407155281
 21
118.4965280389
  0
LINE
  5
552
100
AcDbEntity
  8
0
100
AcDbLine
 62
7
  6
CONTINUOUS
 10
70.3595718918
 20
122.0073985277
 11
68.3282820833
 21
123.1801377146
  0
LINE
  5
553
100
AcDbEntity
  8
0
100
AcDbLine
 62
7
  6
CONTINUOUS
 10
70.6230851932
 20
122.1595370951
 11
71.6006961622
 21
121.5951259076
  0
LINE
  5
554
100
AcDbEntity
  8
0
100
AcDbLine
 62
7
  6
CONTINUOUS
 10
73.3224447949
 20
120.601096359
 11
74.0048692277
 21
120.2071073423
  0
LINE
  5
555
100
AcDbEntity
  8
0
100
AcDbLine
 62
7
  6
CONTINUOUS
 10
75.7266178604
 20
119.2130777937
 11
76.7042288294
 21
118.6486666062
  0
LINE
  5
556
100
AcDbEntity
  8
0
100
AcDbLine
 62
7
  6
CONTINUOUS
 10
70.7644009441
 20
124.0151878732
 11
71.6598077362
 21
123.4982362157
  0
LINE
  5
557
100
AcDbEntity
  8
0
100
AcDbLine
 62
7
  6
CONTINUOUS
 10
79.0229482379
 20
119.2472212358
 11
79.918483149
 21
118.7301956104
  0
LINE
  5
558
100
AcDbEntity
  8
0
100
AcDbLine
 62
7
  6
CONTINUOUS
 10
89.9625126242
 20
114.2600920925
 11
80.1937282232
 21
119.8999748049
  0
LINE
  5
559
100
AcDbEntity
  8
0
100
AcDbLine
 62
7
  6
CONTINUOUS
 10
72.7904164971
 20
124.1741821274
 11
66.8400246119
 21
127.6095647653
  0
LINE
  5
55A
100
AcDbEntity
  8
0
100
AcDbLine
 62
7
  6
CONTINUOUS
 10
62.9509211236
 20
129.8548889152
 11
65.1429612715
 21
128.5893425762
  0
LINE
  5
55B
100
AcDbEntity
  8
0
100
AcDbLine
 62
7
  6
CONTINUOUS
 10
63.8467382715
 20
126.0446980683
 11
61.1831703625
 21
127.6095511679
  0
LINE
  5
55C
100
AcDbEntity
  8
0
100
AcDbLine
 62
7
  6
CONTINUOUS
 10
62.700927666
 20
129.8796416614
 11
62.9509211236
 21
129.8548889152
  0
ARC
  5
55D
100
AcDbEntity
  8
0
100
AcDbCircle
 62
7
  6
CONTINUOUS
 10
-43.6064647846
 20
264.0101619301
 40
167.1454414942
100
AcDbArc
 50
301.3871319821
 51
301.5055099614
  0
ARC
  5
55E
100
AcDbEntity
  8
0
100
AcDbCircle
 62
7
  6
CONTINUOUS
 10
-41.3567747694
 20
252.9066864946
 40
156.4048459951
100
AcDbArc
 50
301.4118070456
 51
301.5583828149
  0
ARC
  5
55F
100
AcDbEntity
  8
0
100
AcDbCircle
 62
7
  6
CONTINUOUS
 10
-0.8464637493
 20
192.3284504984
 40
83.4815389312
100
AcDbArc
 50
302.7054955165
 51
302.8343449605
  0
ARC
  5
560
100
AcDbEntity
  8
0
100
AcDbCircle
 62
7
  6
CONTINUOUS
 10
33.9412206459
 20
139.5450943305
 40
20.9175417071
100
AcDbArc
 50
284.8974417141
 51
285.1093220791
  0
ARC
  5
561
100
AcDbEntity
  8
0
100
AcDbCircle
 62
7
  6
CONTINUOUS
 10
35.3617411832
 20
131.9944966495
 40
15.6677189378
100
AcDbArc
 50
315.7468287331
 51
317.5354749388
  0
ARC
  5
562
100
AcDbEntity
  8
0
100
AcDbCircle
 62
7
  6
CONTINUOUS
 10
33.4713697934
 20
133.0005502679
 40
15.3497128436
100
AcDbArc
 50
314.6584813842
 51
317.5558131037
  0
ARC
  5
563
100
AcDbEntity
  8
0
100
AcDbCircle
 62
7
  6
CONTINUOUS
 10
34.2186109398
 20
132.2279424352
 40
14.2856877272
100
AcDbArc
 50
311.483753189
 51
314.6620914805
  0
ARC
  5
564
100
AcDbEntity
  8
0
100
AcDbCircle
 62
7
  6
CONTINUOUS
 10
34.9252643945
 20
131.8278507899
 40
14.2810388253
100
AcDbArc
 50
311.5237963971
 51
314.6134979638
  0
ARC
  5
565
100
AcDbEntity
  8
0
100
AcDbCircle
 62
7
  6
CONTINUOUS
 10
36.0829986185
 20
131.1454472908
 40
14.2503412711
100
AcDbArc
 50
309.9222122854
 51
314.6421643049
  0
ARC
  5
566
100
AcDbEntity
  8
0
100
AcDbCircle
 62
7
  6
CONTINUOUS
 10
34.7012610135
 20
131.6842784963
 40
13.5586943532
100
AcDbArc
 50
310.1627547336
 51
311.4776382826
  0
ARC
  5
567
100
AcDbEntity
  8
0
100
AcDbCircle
 62
7
  6
CONTINUOUS
 10
37.0476944673
 20
130.2432235394
 40
12.5513859986
100
AcDbArc
 50
309.2057412594
 51
310.210058695
  0
ARC
  5
568
100
AcDbEntity
  8
0
100
AcDbCircle
 62
7
  6
CONTINUOUS
 10
35.7246422945
 20
130.9424555397
 40
12.3832557231
100
AcDbArc
 50
308.4365153939
 51
310.3393708824
  0
ARC
  5
569
100
AcDbEntity
  8
0
100
AcDbCircle
 62
7
  6
CONTINUOUS
 10
35.9445280662
 20
130.6666479028
 40
12.0305249796
100
AcDbArc
 50
307.9773245873
 51
308.4327961452
  0
ARC
  5
56A
100
AcDbEntity
  8
0
100
AcDbCircle
 62
7
  6
CONTINUOUS
 10
36.5461751433
 20
129.1756403584
 40
10.4416309825
100
AcDbArc
 50
300.9664502468
 51
302.84749735
  0
ARC
  5
56B
100
AcDbEntity
  8
0
100
AcDbCircle
 62
7
  6
CONTINUOUS
 10
37.3518563297
 20
128.6218001304
 40
10.2538434987
100
AcDbArc
 50
300.0096344452
 51
302.7872773083
  0
ARC
  5
56C
100
AcDbEntity
  8
0
100
AcDbCircle
 62
7
  6
CONTINUOUS
 10
36.7416349998
 20
128.8507026019
 40
10.0624358771
100
AcDbArc
 50
300.0020287365
 51
300.9641241215
  0
ARC
  5
56D
100
AcDbEntity
  8
0
100
AcDbCircle
 62
7
  6
CONTINUOUS
 10
36.8405139805
 20
128.6800664289
 40
9.8652211199
100
AcDbArc
 50
299.6152813818
 51
300.0002478178
  0
ARC
  5
56E
100
AcDbEntity
  8
0
100
AcDbCircle
 62
7
  6
CONTINUOUS
 10
37.5629503967
 20
128.2595119842
 40
9.8345455824
100
AcDbArc
 50
299.5658436614
 51
300.0003231133
  0
ARC
  5
56F
100
AcDbEntity
  8
0
100
AcDbCircle
 62
7
  6
CONTINUOUS
 10
38.9055440676
 20
126.9772598906
 40
7.3509254488
100
AcDbArc
 50
321.2981957878
 51
321.7236647652
  0
ARC
  5
570
100
AcDbEntity
  8
0
100
AcDbCircle
 62
7
  6
CONTINUOUS
 10
38.1220876702
 20
125.7534005169
 40
6.6630342866
100
AcDbArc
 50
285.1616879195
 51
287.8019800781
  0
ARC
  5
571
100
AcDbEntity
  8
0
100
AcDbCircle
 62
7
  6
CONTINUOUS
 10
38.8965679758
 20
125.1393308196
 40
6.4325463453
100
AcDbArc
 50
283.083553337
 51
287.7154994363
  0
ARC
  5
572
100
AcDbEntity
  8
0
100
AcDbCircle
 62
7
  6
CONTINUOUS
 10
38.2248301358
 20
125.3727409707
 40
6.2687532445
100
AcDbArc
 50
283.2204680004
 51
285.1652798565
  0
ARC
  5
573
100
AcDbEntity
  8
0
100
AcDbCircle
 62
7
  6
CONTINUOUS
 10
40.5458732512
 20
123.0727888254
 40
5.1594825318
100
AcDbArc
 50
273.5932650529
 51
277.3399355638
  0
ARC
  5
574
100
AcDbEntity
  8
0
100
AcDbCircle
 62
7
  6
CONTINUOUS
 10
16.1498953343
 20
82.1764842538
 40
3.4893953569
100
AcDbArc
 50
218.7672819707
 51
221.4273046713
  0
ARC
  5
575
100
AcDbEntity
  8
0
100
AcDbCircle
 62
7
  6
CONTINUOUS
 10
36.4624731625
 20
68.2477393779
 40
2.5063968623
100
AcDbArc
 50
239.9949023973
 51
241.6189618508
  0
ARC
  5
576
100
AcDbEntity
  8
0
100
AcDbCircle
 62
7
  6
CONTINUOUS
 10
14.2069757637
 20
96.2622526021
 40
2.5063606132
100
AcDbArc
 50
178.3788379548
 51
180.0056782572
  0
ARC
  5
577
100
AcDbEntity
  8
0
100
AcDbCircle
 62
7
  6
CONTINUOUS
 10
59.5757432334
 20
27.6749055105
 40
1.1265181374
100
AcDbArc
 50
359.9781078059
 51
3.2135120811
  0
ARC
  5
578
100
AcDbEntity
  8
0
100
AcDbCircle
 62
7
  6
CONTINUOUS
 10
46.7561958486
 20
120.6797296139
 40
0.9347904618
100
AcDbArc
 50
119.3059349849
 51
120.0003186783
  0
ARC
  5
579
100
AcDbEntity
  8
0
100
AcDbCircle
 62
7
  6
CONTINUOUS
 10
13.9116161476
 20
100.8389449344
 40
0.5
100
AcDbArc
 50
121.7315611707
 51
180.0000193751
  0
ARC
  5
57A
100
AcDbEntity
  8
0
100
AcDbCircle
 62
7
  6
CONTINUOUS
 10
13.9116161476
 20
28.3841357266
 40
0.5
100
AcDbArc
 50
180.0000082813
 51
239.1333119857
  0
SPLINE
  5
57B
100
AcDbEntity
  8
0
100
AcDbSpline
 62
7
  6
CONTINUOUS
 70
0
 71
3
 72
11
 73
7
 74
0
 42
0.0000001
 43
0.0000001
 44
0.0000000001
 40
0.0
 40
0.0
 40
0.0
 40
0.0
 40
0.21775491
 40
0.4512122034
 40
0.7107131045
 40
1.0
 40
1.0
 40
1.0
 40
1.0
 10
12.5489372441
 20
97.0662513603
 30
0.0
 10
12.6218576878
 20
97.1062847102
 30
0.0
 10
12.7884610275
 20
97.1632555289
 30
0.0
 10
13.063480287
 20
97.1671666738
 30
0.0
 10
13.3560752206
 20
97.0949010042
 30
0.0
 10
13.5464793632
 20
97.0040237499
 30
0.0
 10
13.6421874927
 20
96.9487678856
 30
0.0
  0
SPLINE
  5
57C
100
AcDbEntity
  8
0
100
AcDbSpline
 62
7
  6
CONTINUOUS
 70
0
 71
3
 72
18
 73
14
 74
0
 42
0.0000001
 43
0.0000001
 44
0.0000000001
 40
0.0
 40
0.0
 40
0.0
 40
0.0
 40
0.1286617873
 40
0.2702093511
 40
0.4173254079
 40
0.5616295315
 40
0.6952644509
 40
0.75627021
 40
0.8127610373
 40
0.8647134537
 40
0.912533241
 40
0.9571511917
 40
1.0
 40
1.0
 40
1.0
 40
1.0
 10
16.69929546
 20
32.3854823468
 30
0.0
 10
16.69929546
 20
32.0794642946
 30
0.0
 10
16.7849040105
 20
31.4360379343
 30
0.0
 10
17.104425813
 20
30.4913624658
 30
0.0
 10
17.5968856943
 20
29.58119778
 30
0.0
 10
18.2220403801
 20
28.7808184753
 30
0.0
 10
18.8303653793
 20
28.242042778
 30
0.0
 10
19.3410331846
 20
27.9294944949
 30
0.0
 10
19.7109630945
 20
27.7660426957
 30
0.0
 10
20.0718773429
 20
27.6700933582
 30
0.0
 10
20.416752776
 20
27.6447811038
 30
0.0
 10
20.7379186531
 20
27.6917807955
 30
0.0
 10
20.9324602395
 20
27.7726812356
 30
0.0
 10
21.0207297815
 20
27.8236230117
 30
0.0
  0
SPLINE
  5
57D
100
AcDbEntity
  8
0
100
AcDbSpline
 62
7
  6
CONTINUOUS
 70
0
 71
3
 72
9
 73
5
 74
0
 42
0.0000001
 43
0.0000001
 44
0.0000000001
 40
0.0
 40
0.0
 40
0.0
 40
0.0
 40
0.2553895935
 40
1.0
 40
1.0
 40
1.0
 40
1.0
 10
21.701181602
 20
29.4977073664
 30
0.0
 10
21.701181602
 20
29.4719781868
 30
0.0
 10
21.7000011714
 20
29.3712389049
 30
0.0
 10
21.6940073094
 20
29.2705397186
 30
0.0
 10
21.686525183
 20
29.1958981439
 30
0.0
  0
SPLINE
  5
57E
100
AcDbEntity
  8
0
100
AcDbSpline
 62
7
  6
CONTINUOUS
 70
0
 71
3
 72
9
 73
5
 74
0
 42
0.0000001
 43
0.0000001
 44
0.0000000001
 40
0.0
 40
0.0
 40
0.0
 40
0.0
 40
0.2548138197
 40
1.0
 40
1.0
 40
1.0
 40
1.0
 10
21.686525183
 20
29.8164399809
 30
0.0
 10
21.6889506809
 20
29.7894425916
 30
0.0
 10
21.697347677
 20
29.6833969322
 30
0.0
 10
21.701181602
 20
29.5769774412
 30
0.0
 10
21.701181602
 20
29.4977073664
 30
0.0
  0
SPLINE
  5
57F
100
AcDbEntity
  8
0
100
AcDbSpline
 62
7
  6
CONTINUOUS
 70
0
 71
3
 72
9
 73
5
 74
0
 42
0.0000001
 43
0.0000001
 44
0.0000000001
 40
0.0
 40
0.0
 40
0.0
 40
0.0
 40
0.2564674943
 40
1.0
 40
1.0
 40
1.0
 40
1.0
 10
23.2329770734
 20
30.3116263844
 30
0.0
 10
23.2329770734
 20
30.2803274066
 30
0.0
 10
23.2312795572
 20
30.158298932
 30
0.0
 10
23.222635965
 20
30.0363328577
 30
0.0
 10
23.2117637817
 20
29.9462467561
 30
0.0
  0
SPLINE
  5
580
100
AcDbEntity
  8
0
100
AcDbSpline
 62
7
  6
CONTINUOUS
 70
0
 71
3
 72
9
 73
5
 74
0
 42
0.0000001
 43
0.0000001
 44
0.0000000001
 40
0.0
 40
0.0
 40
0.0
 40
0.0
 40
0.2556499539
 40
1.0
 40
1.0
 40
1.0
 40
1.0
 10
23.2117637817
 20
30.7015004581
 30
0.0
 10
23.2152695217
 20
30.668404169
 30
0.0
 10
23.2273833375
 20
30.5387835677
 30
0.0
 10
23.2329770734
 20
30.4085285922
 30
0.0
 10
23.2329770734
 20
30.3116263844
 30
0.0
  0
SPLINE
  5
581
100
AcDbEntity
  8
0
100
AcDbSpline
 62
7
  6
CONTINUOUS
 70
0
 71
3
 72
11
 73
7
 74
0
 42
0.0000001
 43
0.0000001
 44
0.0000000001
 40
0.0
 40
0.0
 40
0.0
 40
0.0
 40
0.2280350567
 40
0.4656103077
 40
0.7216628241
 40
1.0
 40
1.0
 40
1.0
 40
1.0
 10
12.2913879098
 20
97.7624397647
 30
0.0
 10
12.1855431263
 20
97.6984326789
 30
0.0
 10
11.9904764223
 20
97.529725127
 30
0.0
 10
11.7849144075
 20
97.1906191191
 30
0.0
 10
11.6654200757
 20
96.785460671
 30
0.0
 10
11.6420346706
 20
96.4946310887
 30
0.0
 10
11.6420346706
 20
96.343652392
 30
0.0
  0
SPLINE
  5
582
100
AcDbEntity
  8
0
100
AcDbSpline
 62
7
  6
CONTINUOUS
 70
0
 71
3
 72
15
 73
11
 74
0
 42
0.0000001
 43
0.0000001
 44
0.0000000001
 40
0.0
 40
0.0
 40
0.0
 40
0.0
 40
0.1152955767
 40
0.238655598
 40
0.3677655949
 40
0.5000029488
 40
0.6322399
 40
0.7613486519
 40
0.8847059121
 40
1.0
 40
1.0
 40
1.0
 40
1.0
 10
11.6420346706
 20
81.9732098505
 30
0.0
 10
11.6420346706
 20
81.8101514418
 30
0.0
 10
11.6714939218
 20
81.4723052234
 30
0.0
 10
11.7890629061
 20
80.9642465728
 30
0.0
 10
11.9771340119
 20
80.452296995
 30
0.0
 10
12.2283744508
 20
79.9542622704
 30
0.0
 10
12.5340679966
 20
79.48766839
 30
0.0
 10
12.8833932865
 20
79.0688270362
 30
0.0
 10
13.2645970488
 20
78.7129876544
 30
0.0
 10
13.5424481526
 20
78.5185587023
 30
0.0
 10
13.683659852
 20
78.437031934
 30
0.0
  0
SPLINE
  5
583
100
AcDbEntity
  8
0
100
AcDbSpline
 62
7
  6
CONTINUOUS
 70
0
 71
3
 72
11
 73
7
 74
0
 42
0.0000001
 43
0.0000001
 44
0.0000000001
 40
0.0
 40
0.0
 40
0.0
 40
0.0
 40
0.2783367747
 40
0.5343868692
 40
0.7719631263
 40
1.0
 40
1.0
 40
1.0
 40
1.0
 10
35.2505064655
 20
65.9856889232
 30
0.0
 10
35.381254653
 20
65.9102031294
 30
0.0
 10
35.6448055771
 20
65.7850482933
 30
0.0
 10
36.0554175918
 20
65.6859574099
 30
0.0
 10
36.4518616065
 20
65.6944295341
 30
0.0
 10
36.6954949356
 20
65.779003763
 30
0.0
 10
36.803847541
 20
65.8386619922
 30
0.0
  0
SPLINE
  5
584
100
AcDbEntity
  8
0
100
AcDbSpline
 62
7
  6
CONTINUOUS
 70
0
 71
3
 72
11
 73
7
 74
0
 42
0.0000001
 43
0.0000001
 44
0.0000000001
 40
0.0
 40
0.0
 40
0.0
 40
0.0
 40
0.2177170765
 40
0.4511929739
 40
0.7108829529
 40
1.0
 40
1.0
 40
1.0
 40
1.0
 10
59.9674174725
 20
92.5356608499
 30
0.0
 10
59.9261373884
 20
92.5606775054
 30
0.0
 10
59.8490974113
 20
92.6278006221
 30
0.0
 10
59.767311708
 20
92.7649446509
 30
0.0
 10
59.7187995813
 20
92.9329904272
 30
0.0
 10
59.7091414405
 20
93.0550520404
 30
0.0
 10
59.7091414405
 20
93.1191505354
 30
0.0
  0
SPLINE
  5
585
100
AcDbEntity
  8
0
100
AcDbSpline
 62
7
  6
CONTINUOUS
 70
0
 71
3
 72
11
 73
7
 74
0
 42
0.0000001
 43
0.0000001
 44
0.0000000001
 40
0.0
 40
0.0
 40
0.0
 40
0.0
 40
0.2177011139
 40
0.4511789761
 40
0.7108841283
 40
1.0
 40
1.0
 40
1.0
 40
1.0
 10
59.9674096119
 20
25.5824494162
 30
0.0
 10
59.9261325555
 20
25.6074646893
 30
0.0
 10
59.8491079279
 20
25.6746005812
 30
0.0
 10
59.7673105013
 20
25.8117359815
 30
0.0
 10
59.7188021306
 20
25.9797894452
 30
0.0
 10
59.7091414405
 20
26.1018537866
 30
0.0
 10
59.7091414405
 20
26.1659523307
 30
0.0
  0
SPLINE
  5
586
100
AcDbEntity
  8
0
100
AcDbSpline
 62
7
  6
CONTINUOUS
 70
0
 71
3
 72
11
 73
7
 74
0
 42
0.0000001
 43
0.0000001
 44
0.0000000001
 40
0.0
 40
0.0
 40
0.0
 40
0.0
 40
0.2176972792
 40
0.4511844607
 40
0.710892325
 40
1.0
 40
1.0
 40
1.0
 40
1.0
 10
86.8373551374
 20
108.0489249174
 30
0.0
 10
86.7960782229
 20
108.0739386818
 30
0.0
 10
86.7190561173
 20
108.141079557
 30
0.0
 10
86.6372559748
 20
108.2782142806
 30
0.0
 10
86.5887468538
 20
108.4462687768
 30
0.0
 10
86.5790872546
 20
108.5683317262
 30
0.0
 10
86.5790872546
 20
108.6324283825
 30
0.0
  0
SPLINE
  5
587
100
AcDbEntity
  8
0
100
AcDbSpline
 62
7
  6
CONTINUOUS
 70
0
 71
3
 72
11
 73
7
 74
0
 42
0.0000001
 43
0.0000001
 44
0.0000000001
 40
0.0
 40
0.0
 40
0.0
 40
0.0
 40
0.2176972792
 40
0.4511844607
 40
0.710892325
 40
1.0
 40
1.0
 40
1.0
 40
1.0
 10
86.8373551374
 20
41.0957267127
 30
0.0
 10
86.7960782229
 20
41.1207404771
 30
0.0
 10
86.7190561173
 20
41.1878813524
 30
0.0
 10
86.6372559748
 20
41.325016076
 30
0.0
 10
86.5887468538
 20
41.4930705722
 30
0.0
 10
86.5790872546
 20
41.6151335216
 30
0.0
 10
86.5790872546
 20
41.6792301779
 30
0.0
  0
SPLINE
  5
588
100
AcDbEntity
  8
0
100
AcDbSpline
 62
7
  6
CONTINUOUS
 70
0
 71
3
 72
11
 73
7
 74
0
 42
0.0000001
 43
0.0000001
 44
0.0000000001
 40
0.0
 40
0.0
 40
0.0
 40
0.0
 40
0.2177793802
 40
0.4509223191
 40
0.7102594916
 40
1.0
 40
1.0
 40
1.0
 40
1.0
 10
17.4407667705
 20
34.0243378794
 30
0.0
 10
17.3226647527
 20
33.9561793004
 30
0.0
 10
17.1017302975
 20
33.7703952923
 30
0.0
 10
16.8665111602
 20
33.385831002
 30
0.0
 10
16.7267590957
 20
32.9118655634
 30
0.0
 10
16.69929546
 20
32.5668981512
 30
0.0
 10
16.69929546
 20
32.3854823468
 30
0.0
  0
SPLINE
  5
589
100
AcDbEntity
  8
0
100
AcDbSpline
 62
7
  6
CONTINUOUS
 70
0
 71
3
 72
9
 73
5
 74
0
 42
0.0000001
 43
0.0000001
 44
0.0000000001
 40
0.0
 40
0.0
 40
0.0
 40
0.0
 40
0.261375588
 40
1.0
 40
1.0
 40
1.0
 40
1.0
 10
87.8058488647
 20
86.8868788294
 30
0.0
 10
87.8058488647
 20
86.9045441585
 30
0.0
 10
87.8042583547
 20
86.9721069074
 30
0.0
 10
87.7961076847
 20
87.0396213677
 30
0.0
 10
87.7855039994
 20
87.0884028674
 30
0.0
  0
SPLINE
  5
58A
100
AcDbEntity
  8
0
100
AcDbSpline
 62
7
  6
CONTINUOUS
 70
0
 71
3
 72
10
 73
6
 74
0
 42
0.0000001
 43
0.0000001
 44
0.0000000001
 40
0.0
 40
0.0
 40
0.0
 40
0.0
 40
0.5242951814
 40
0.7720594991
 40
1.0
 40
1.0
 40
1.0
 40
1.0
 10
87.4876521379
 20
85.9383105661
 30
0.0
 10
87.5856824688
 20
86.0855381643
 30
0.0
 10
87.70378736
 20
86.3222328356
 30
0.0
 10
87.7896172218
 20
86.6492893986
 30
0.0
 10
87.8058488647
 20
86.8099799453
 30
0.0
 10
87.8058488647
 20
86.8868788294
 30
0.0
  0
SPLINE
  5
58B
100
AcDbEntity
  8
0
100
AcDbSpline
 62
7
  6
CONTINUOUS
 70
0
 71
3
 72
17
 73
13
 74
0
 42
0.0000001
 43
0.0000001
 44
0.0000000001
 40
0.0
 40
0.0
 40
0.0
 40
0.0
 40
0.1284292916
 40
0.2697403254
 40
0.4166239214
 40
0.5608519181
 40
0.6946176213
 40
0.812196254
 40
0.8643632372
 40
0.9123780706
 40
0.9571322796
 40
1.0
 40
1.0
 40
1.0
 40
1.0
 10
59.7091414405
 20
26.1659523307
 30
0.0
 10
59.7091414405
 20
26.2751693569
 30
0.0
 10
59.7395563585
 20
26.5048155964
 30
0.0
 10
59.8530724355
 20
26.8421925791
 30
0.0
 10
60.0282170098
 20
27.1675099092
 30
0.0
 10
60.2508901841
 20
27.4543765634
 30
0.0
 10
60.5031594453
 20
27.6798499187
 30
0.0
 10
60.7317438409
 20
27.8069197873
 30
0.0
 10
60.910957542
 20
27.8567986602
 30
0.0
 10
61.0345687854
 20
27.8675826809
 30
0.0
 10
61.1499557017
 20
27.8528431423
 30
0.0
 10
61.2201924398
 20
27.8252763392
 30
0.0
 10
61.2521441981
 20
27.8077250032
 30
0.0
  0
SPLINE
  5
58C
100
AcDbEntity
  8
0
100
AcDbSpline
 62
7
  6
CONTINUOUS
 70
0
 71
3
 72
11
 73
7
 74
0
 42
0.0000001
 43
0.0000001
 44
0.0000000001
 40
0.0
 40
0.0
 40
0.0
 40
0.0
 40
0.2891155323
 40
0.5488051895
 40
0.7822816644
 40
1.0
 40
1.0
 40
1.0
 40
1.0
 10
60.6177063238
 20
94.692839811
 30
0.0
 10
60.6732148105
 20
94.7248874594
 30
0.0
 10
60.7837476573
 20
94.7775514595
 30
0.0
 10
60.9535284876
 20
94.8195599355
 30
0.0
 10
61.1131853828
 20
94.8173041375
 30
0.0
 10
61.2098325503
 20
94.784149732
 30
0.0
 10
61.2521366334
 20
94.760910053
 30
0.0
  0
SPLINE
  5
58D
100
AcDbEntity
  8
0
100
AcDbSpline
 62
7
  6
CONTINUOUS
 70
0
 71
3
 72
11
 73
7
 74
0
 42
0.0000001
 43
0.0000001
 44
0.0000000001
 40
0.0
 40
0.0
 40
0.0
 40
0.0
 40
0.2372542275
 40
0.5000017852
 40
0.7627483734
 40
1.0
 40
1.0
 40
1.0
 40
1.0
 10
59.7091414405
 20
93.1191505354
 30
0.0
 10
59.7091414405
 20
93.2681049567
 30
0.0
 10
59.764988656
 20
93.5822309629
 30
0.0
 10
59.959786672
 20
94.0235678876
 30
0.0
 10
60.2445937473
 20
94.4129364735
 30
0.0
 10
60.4887092325
 20
94.6183637502
 30
0.0
 10
60.6177063238
 20
94.692839811
 30
0.0
  0
SPLINE
  5
58E
100
AcDbEntity
  8
0
100
AcDbSpline
 62
7
  6
CONTINUOUS
 70
0
 71
3
 72
17
 73
13
 74
0
 42
0.0000001
 43
0.0000001
 44
0.0000000001
 40
0.0
 40
0.0
 40
0.0
 40
0.0
 40
0.1284280287
 40
0.2697371067
 40
0.4166118522
 40
0.5608351562
 40
0.6946077548
 40
0.8121948025
 40
0.8643637626
 40
0.9123789903
 40
0.9571326025
 40
1.0
 40
1.0
 40
1.0
 40
1.0
 10
86.5790872546
 20
108.6324283825
 30
0.0
 10
86.5790872546
 20
108.7416443592
 30
0.0
 10
86.6095001132
 20
108.9712882127
 30
0.0
 10
86.7230145836
 20
109.3086548239
 30
0.0
 10
86.8981456932
 20
109.6339640578
 30
0.0
 10
87.1208117678
 20
109.9208293376
 30
0.0
 10
87.373084351
 20
110.1463126056
 30
0.0
 10
87.6016806822
 20
110.2733925734
 30
0.0
 10
87.7809031442
 20
110.3232741762
 30
0.0
 10
87.9045159713
 20
110.3340594288
 30
0.0
 10
88.0199022521
 20
110.3193175713
 30
0.0
 10
88.0901380826
 20
110.2917514374
 30
0.0
 10
88.1220901083
 20
110.2742011416
 30
0.0
  0
SPLINE
  5
58F
100
AcDbEntity
  8
0
100
AcDbSpline
 62
7
  6
CONTINUOUS
 70
0
 71
3
 72
17
 73
13
 74
0
 42
0.0000001
 43
0.0000001
 44
0.0000000001
 40
0.0
 40
0.0
 40
0.0
 40
0.0
 40
0.1284280287
 40
0.2697371067
 40
0.4166118522
 40
0.5608351562
 40
0.6946077548
 40
0.8121948025
 40
0.8643637626
 40
0.9123789903
 40
0.9571326025
 40
1.0
 40
1.0
 40
1.0
 40
1.0
 10
86.5790872546
 20
41.6792301779
 30
0.0
 10
86.5790872546
 20
41.7884461545
 30
0.0
 10
86.6095001132
 20
42.0180900081
 30
0.0
 10
86.7230145836
 20
42.3554566193
 30
0.0
 10
86.8981456932
 20
42.6807658532
 30
0.0
 10
87.1208117678
 20
42.9676311329
 30
0.0
 10
87.373084351
 20
43.193114401
 30
0.0
 10
87.6016806822
 20
43.3201943688
 30
0.0
 10
87.7809031442
 20
43.3700759715
 30
0.0
 10
87.9045159713
 20
43.3808612241
 30
0.0
 10
88.0199022521
 20
43.3661193666
 30
0.0
 10
88.0901380826
 20
43.3385532328
 30
0.0
 10
88.1220901083
 20
43.321002937
 30
0.0
  0
SPLINE
  5
590
100
AcDbEntity
  8
0
100
AcDbSpline
 62
7
  6
CONTINUOUS
 70
0
 71
3
 72
11
 73
7
 74
0
 42
0.0000001
 43
0.0000001
 44
0.0000000001
 40
0.0
 40
0.0
 40
0.0
 40
0.0
 40
0.2889316009
 40
0.5486580409
 40
0.7822798457
 40
1.0
 40
1.0
 40
1.0
 40
1.0
 10
79.9183591555
 20
118.1588366342
 30
0.0
 10
79.948405528
 20
118.1761824911
 30
0.0
 10
80.0030413061
 20
118.2137268741
 30
0.0
 10
80.0688580651
 20
118.2818401264
 30
0.0
 10
80.1113848011
 20
118.3571431595
 30
0.0
 10
80.1224293112
 20
118.4113700371
 30
0.0
 10
80.1232147645
 20
118.4375012753
 30
0.0
  0
SPLINE
  5
591
100
AcDbEntity
  8
0
100
AcDbSpline
 62
7
  6
CONTINUOUS
 70
0
 71
3
 72
11
 73
7
 74
0
 42
0.0000001
 43
0.0000001
 44
0.0000000001
 40
0.0
 40
0.0
 40
0.0
 40
0.0
 40
0.2372371654
 40
0.4999986564
 40
0.7627609488
 40
1.0
 40
1.0
 40
1.0
 40
1.0
 10
89.9625244324
 20
114.2600852752
 30
0.0
 10
90.0127175482
 20
114.2311069218
 30
0.0
 10
90.1077132375
 20
114.1511791259
 30
0.0
 10
90.2185712887
 20
113.9996817337
 30
0.0
 10
90.2943444246
 20
113.8279273716
 30
0.0
 10
90.3160674868
 20
113.7056943692
 30
0.0
 10
90.3160674868
 20
113.6477362184
 30
0.0
  0
SPLINE
  5
592
100
AcDbEntity
  8
0
100
AcDbSpline
 62
7
  6
CONTINUOUS
 70
0
 71
3
 72
11
 73
7
 74
0
 42
0.0000001
 43
0.0000001
 44
0.0000000001
 40
0.0
 40
0.0
 40
0.0
 40
0.0
 40
0.289288523
 40
0.5487855064
 40
0.7822418317
 40
1.0
 40
1.0
 40
1.0
 40
1.0
 10
36.7745995171
 20
67.4151720394
 30
0.0
 10
36.7745995171
 20
67.3046717392
 30
0.0
 10
36.7580941014
 20
67.0943650752
 30
0.0
 10
36.6743662557
 20
66.8048819635
 30
0.0
 10
36.5334664376
 20
66.5687073394
 30
0.0
 10
36.4008369198
 20
66.4529318481
 30
0.0
 10
36.3297131171
 20
66.409804964
 30
0.0
  0
SPLINE
  5
593
100
AcDbEntity
  8
0
100
AcDbSpline
 62
7
  6
CONTINUOUS
 70
0
 71
3
 72
13
 73
9
 74
0
 42
0.0000001
 43
0.0000001
 44
0.0000000001
 40
0.0
 40
0.0
 40
0.0
 40
0.0
 40
0.1142237797
 40
0.2375576004
 40
0.5000044069
 40
0.7624476819
 40
0.8857778776
 40
1.0
 40
1.0
 40
1.0
 40
1.0
 10
35.2092953089
 20
84.4972740727
 30
0.0
 10
35.3164284261
 20
84.4354221379
 30
0.0
 10
35.5281265549
 20
84.2870216071
 30
0.0
 10
35.9244696532
 20
83.9161352416
 30
0.0
 10
36.3430541753
 20
83.3442829729
 30
0.0
 10
36.6289589326
 20
82.6958374255
 30
0.0
 10
36.7519434415
 20
82.1671510886
 30
0.0
 10
36.7745995171
 20
81.9096205848
 30
0.0
 10
36.7745995171
 20
81.7859164111
 30
0.0
  0
SPLINE
  5
594
100
AcDbEntity
  8
0
100
AcDbSpline
 62
7
  6
CONTINUOUS
 70
0
 71
3
 72
9
 73
5
 74
0
 42
0.0000001
 43
0.0000001
 44
0.0000000001
 40
0.0
 40
0.0
 40
0.0
 40
0.0
 40
0.5497147045
 40
1.0
 40
1.0
 40
1.0
 40
1.0
 10
41.1269100658
 20
118.3457865253
 30
0.0
 10
41.1269095989
 20
118.3646663949
 30
0.0
 10
41.1222135845
 20
118.3997196558
 30
0.0
 10
41.0996381497
 20
118.4289051241
 30
0.0
 10
41.0863633926
 20
118.4368390055
 30
0.0
  0
LINE
  5
595
100
AcDbEntity
  8
0
100
AcDbLine
 62
7
  6
CONTINUOUS
 10
45.2281123217
 20
120.5632657217
 11
45.1672747096
 21
120.6719260877
  0
SPLINE
  5
596
100
AcDbEntity
  8
0
100
AcDbSpline
 62
7
  6
CONTINUOUS
 70
0
 71
3
 72
11
 73
7
 74
0
 42
0.0000001
 43
0.0000001
 44
0.0000000001
 40
0.0
 40
0.0
 40
0.0
 40
0.0
 40
0.3582787007
 40
0.657198844
 40
0.872552628
 40
1.0
 40
1.0
 40
1.0
 40
1.0
 10
39.3936151112
 20
119.3506654347
 30
0.0
 10
39.4049230844
 20
119.353718696
 30
0.0
 10
39.4257563146
 20
119.3588953016
 30
0.0
 10
39.4539342732
 20
119.3640961269
 30
0.0
 10
39.4746776226
 20
119.3657525438
 30
0.0
 10
39.4862885458
 20
119.3645448836
 30
0.0
 10
39.4899584821
 20
119.3625721683
 30
0.0
  0
SPLINE
  5
597
100
AcDbEntity
  8
0
100
AcDbSpline
 62
7
  6
CONTINUOUS
 70
0
 71
3
 72
9
 73
5
 74
0
 42
0.0000001
 43
0.0000001
 44
0.0000000001
 40
0.0
 40
0.0
 40
0.0
 40
0.0
 40
0.7547906042
 40
1.0
 40
1.0
 40
1.0
 40
1.0
 10
38.7478613959
 20
119.1481688392
 30
0.0
 10
38.8894911553
 20
119.200151723
 30
0.0
 10
39.079152412
 20
119.2638668663
 30
0.0
 10
39.2715692007
 20
119.318048306
 30
0.0
 10
39.3189344453
 20
119.3306488844
 30
0.0
  0
SPLINE
  5
598
100
AcDbEntity
  8
0
100
AcDbSpline
 62
7
  6
CONTINUOUS
 70
0
 71
3
 72
9
 73
5
 74
0
 42
0.0000001
 43
0.0000001
 44
0.0000000001
 40
0.0
 40
0.0
 40
0.0
 40
0.0
 40
0.2436139898
 40
1.0
 40
1.0
 40
1.0
 40
1.0
 10
42.2097663391
 20
120.4177228547
 30
0.0
 10
42.3096846307
 20
120.4822068977
 30
0.0
 10
42.7154752236
 20
120.7536305913
 30
0.0
 10
43.1036738022
 20
121.0511005832
 30
0.0
 10
43.3871577756
 20
121.287672053
 30
0.0
  0
SPLINE
  5
599
100
AcDbEntity
  8
0
100
AcDbSpline
 62
7
  6
CONTINUOUS
 70
0
 71
3
 72
10
 73
6
 74
0
 42
0.0000001
 43
0.0000001
 44
0.0000000001
 40
0.0
 40
0.0
 40
0.0
 40
0.0
 40
0.2522880373
 40
0.6227612647
 40
1.0
 40
1.0
 40
1.0
 40
1.0
 10
38.826635496
 20
117.9821219183
 30
0.0
 10
38.8187286218
 20
117.986953077
 30
0.0
 10
38.7997146104
 20
117.9996970155
 30
0.0
 10
38.7673269545
 20
118.017112874
 30
0.0
 10
38.7444450784
 20
118.0323341726
 30
0.0
 10
38.7326225662
 20
118.0395587133
 30
0.0
  0
SPLINE
  5
59A
100
AcDbEntity
  8
0
100
AcDbSpline
 62
7
  6
CONTINUOUS
 70
0
 71
3
 72
9
 73
5
 74
0
 42
0.0000001
 43
0.0000001
 44
0.0000000001
 40
0.0
 40
0.0
 40
0.0
 40
0.0
 40
0.2529475618
 40
1.0
 40
1.0
 40
1.0
 40
1.0
 10
38.7326225662
 20
118.0395587133
 30
0.0
 10
38.7052475161
 20
118.0912938369
 30
0.0
 10
38.6035652244
 20
118.2992220549
 30
0.0
 10
38.5257152104
 20
118.5187720696
 30
0.0
 10
38.4821982638
 20
118.6860707393
 30
0.0
  0
LINE
  5
59B
100
AcDbEntity
  8
0
100
AcDbLine
 62
7
  6
CONTINUOUS
 10
41.2050277668
 20
117.9555849678
 11
41.0601576506
 21
118.2214468165
  0
SPLINE
  5
59C
100
AcDbEntity
  8
0
100
AcDbSpline
 62
7
  6
CONTINUOUS
 70
0
 71
3
 72
9
 73
5
 74
0
 42
0.0000001
 43
0.0000001
 44
0.0000000001
 40
0.0
 40
0.0
 40
0.0
 40
0.0
 40
0.241216473
 40
1.0
 40
1.0
 40
1.0
 40
1.0
 10
40.5003774781
 20
119.6329738702
 30
0.0
 10
40.5992176447
 20
119.6632005176
 30
0.0
 10
41.0059489468
 20
119.7983318079
 30
0.0
 10
41.3998993908
 20
119.970864072
 30
0.0
 10
41.6898921908
 20
120.1178818305
 30
0.0
  0
SPLINE
  5
59D
100
AcDbEntity
  8
0
100
AcDbSpline
 62
7
  6
CONTINUOUS
 70
0
 71
3
 72
9
 73
5
 74
0
 42
0.0000001
 43
0.0000001
 44
0.0000000001
 40
0.0
 40
0.0
 40
0.0
 40
0.0
 40
0.2575827214
 40
1.0
 40
1.0
 40
1.0
 40
1.0
 10
18.7933118466
 20
104.4872316458
 30
0.0
 10
18.7951761817
 20
104.4911452647
 30
0.0
 10
18.8028110763
 20
104.5061443356
 30
0.0
 10
18.8120869164
 20
104.5203253227
 30
0.0
 10
18.8198717723
 20
104.5300981993
 30
0.0
  0
SPLINE
  5
59E
100
AcDbEntity
  8
0
100
AcDbSpline
 62
7
  6
CONTINUOUS
 70
0
 71
3
 72
9
 73
5
 74
0
 42
0.0000001
 43
0.0000001
 44
0.0000000001
 40
0.0
 40
0.0
 40
0.0
 40
0.0
 40
0.256077921
 40
1.0
 40
1.0
 40
1.0
 40
1.0
 10
18.8198717723
 20
104.5300981993
 30
0.0
 10
18.8234891825
 20
104.5346393883
 30
0.0
 10
18.8383654393
 20
104.5517568018
 30
0.0
 10
18.8564133052
 20
104.5661616015
 30
0.0
 10
18.8710193936
 20
104.5745958956
 30
0.0
  0
SPLINE
  5
59F
100
AcDbEntity
  8
0
100
AcDbSpline
 62
7
  6
CONTINUOUS
 70
0
 71
3
 72
11
 73
7
 74
0
 42
0.0000001
 43
0.0000001
 44
0.0000000001
 40
0.0
 40
0.0
 40
0.0
 40
0.0
 40
0.2817445226
 40
0.5385288791
 40
0.7749403536
 40
1.0
 40
1.0
 40
1.0
 40
1.0
 10
23.2117637817
 20
29.9462467561
 30
0.0
 10
23.1947253943
 20
29.8050679464
 30
0.0
 10
23.1411636791
 20
29.536925367
 30
0.0
 10
22.9906711869
 20
29.1727030839
 30
0.0
 10
22.7755473492
 20
28.876194073
 30
0.0
 10
22.5898593206
 20
28.7296033792
 30
0.0
 10
22.4914980451
 20
28.6727840656
 30
0.0
  0
SPLINE
  5
5A0
100
AcDbEntity
  8
0
100
AcDbSpline
 62
7
  6
CONTINUOUS
 70
0
 71
3
 72
11
 73
7
 74
0
 42
0.0000001
 43
0.0000001
 44
0.0000000001
 40
0.0
 40
0.0
 40
0.0
 40
0.0
 40
0.218657326
 40
0.454794561
 40
0.71452235
 40
1.0
 40
1.0
 40
1.0
 40
1.0
 10
29.0708927959
 20
64.3376641703
 30
0.0
 10
29.1056741403
 20
64.3677066725
 30
0.0
 10
29.1689328642
 20
64.4412559966
 30
0.0
 10
29.2354042966
 20
64.5773615554
 30
0.0
 10
29.2750525302
 20
64.7377574647
 30
0.0
 10
29.2830257141
 20
64.8526233479
 30
0.0
 10
29.2830257141
 20
64.912628045
 30
0.0
  0
SPLINE
  5
5A1
100
AcDbEntity
  8
0
100
AcDbSpline
 62
7
  6
CONTINUOUS
 70
0
 71
3
 72
9
 73
5
 74
0
 42
0.0000001
 43
0.0000001
 44
0.0000000001
 40
0.0
 40
0.0
 40
0.0
 40
0.0
 40
0.4749749655
 40
1.0
 40
1.0
 40
1.0
 40
1.0
 10
29.2830257141
 20
64.912628045
 30
0.0
 10
29.2830257141
 20
65.0475624306
 30
0.0
 10
29.2396134243
 20
65.3318628607
 30
0.0
 10
29.1371075066
 20
65.5988867663
 30
0.0
 10
29.0708927878
 20
65.7325363895
 30
0.0
  0
SPLINE
  5
5A2
100
AcDbEntity
  8
0
100
AcDbSpline
 62
7
  6
CONTINUOUS
 70
0
 71
3
 72
11
 73
7
 74
0
 42
0.0000001
 43
0.0000001
 44
0.0000000001
 40
0.0
 40
0.0
 40
0.0
 40
0.0
 40
0.2901142569
 40
0.5493734177
 40
0.7821644065
 40
1.0
 40
1.0
 40
1.0
 40
1.0
 10
39.6638558431
 20
68.4413730996
 30
0.0
 10
39.6638558431
 20
68.2871283507
 30
0.0
 10
39.6401918406
 20
67.9940121492
 30
0.0
 10
39.5194984016
 20
67.5920198572
 30
0.0
 10
39.3160963194
 20
67.2676702443
 30
0.0
 10
39.1255123178
 20
67.1134441885
 30
0.0
 10
39.023989215
 20
67.0577081663
 30
0.0
  0
SPLINE
  5
5A3
100
AcDbEntity
  8
0
100
AcDbSpline
 62
7
  6
CONTINUOUS
 70
0
 71
3
 72
15
 73
11
 74
0
 42
0.0000001
 43
0.0000001
 44
0.0000000001
 40
0.0
 40
0.0
 40
0.0
 40
0.0
 40
0.1141221257
 40
0.2373463033
 40
0.3669753968
 40
0.5000048944
 40
0.6330334522
 40
0.7626596135
 40
0.8858797668
 40
1.0
 40
1.0
 40
1.0
 40
1.0
 10
37.5428356772
 20
86.486223623
 30
0.0
 10
37.6880040973
 20
86.4024124927
 30
0.0
 10
37.9748217674
 20
86.2013175178
 30
0.0
 10
38.3695302931
 20
85.8321687802
 30
0.0
 10
38.7331773509
 20
85.3956218636
 30
0.0
 10
39.0522348817
 20
84.9083650143
 30
0.0
 10
39.314645805
 20
84.3884106151
 30
0.0
 10
39.5108388482
 20
83.8552055851
 30
0.0
 10
39.6331316234
 20
83.3288062602
 30
0.0
 10
39.6638558431
 20
82.9798760187
 30
0.0
 10
39.6638558431
 20
82.8122536936
 30
0.0
  0
SPLINE
  5
5A4
100
AcDbEntity
  8
0
100
AcDbSpline
 62
7
  6
CONTINUOUS
 70
0
 71
3
 72
9
 73
5
 74
0
 42
0.0000001
 43
0.0000001
 44
0.0000000001
 40
0.0
 40
0.0
 40
0.0
 40
0.0
 40
0.4496661138
 40
1.0
 40
1.0
 40
1.0
 40
1.0
 10
41.0863633926
 20
118.4368390055
 30
0.0
 10
41.0728601244
 20
118.4449094603
 30
0.0
 10
41.0355742501
 20
118.4507710136
 30
0.0
 10
41.00216851
 20
118.4370611
 30
0.0
 10
40.9854946833
 20
118.4274350689
 30
0.0
  0
SPLINE
  5
5A5
100
AcDbEntity
  8
0
100
AcDbSpline
 62
7
  6
CONTINUOUS
 70
0
 71
3
 72
11
 73
7
 74
0
 42
0.0000001
 43
0.0000001
 44
0.0000000001
 40
0.0
 40
0.0
 40
0.0
 40
0.0
 40
0.2178048882
 40
0.4506040217
 40
0.7100524202
 40
1.0
 40
1.0
 40
1.0
 40
1.0
 10
61.2521366334
 20
94.760910053
 30
0.0
 10
61.2956112748
 20
94.7370273296
 30
0.0
 10
61.3773246821
 20
94.6710782034
 30
0.0
 10
61.4644423381
 20
94.5320597014
 30
0.0
 10
61.5160565768
 20
94.3598495222
 30
0.0
 10
61.5262712071
 20
94.2342970625
 30
0.0
 10
61.5262712071
 20
94.1682646329
 30
0.0
  0
SPLINE
  5
5A6
100
AcDbEntity
  8
0
100
AcDbSpline
 62
7
  6
CONTINUOUS
 70
0
 71
3
 72
9
 73
5
 74
0
 42
0.0000001
 43
0.0000001
 44
0.0000000001
 40
0.0
 40
0.0
 40
0.0
 40
0.0
 40
0.2454029031
 40
1.0
 40
1.0
 40
1.0
 40
1.0
 10
59.7181012282
 20
93.0319177214
 30
0.0
 10
59.7256141674
 20
93.0353761802
 30
0.0
 10
59.7560570615
 20
93.0498404882
 30
0.0
 10
59.7858079214
 20
93.06575297
 30
0.0
 10
59.8078326845
 20
93.078468897
 30
0.0
  0
SPLINE
  5
5A7
100
AcDbEntity
  8
0
100
AcDbSpline
 62
7
  6
CONTINUOUS
 70
0
 71
3
 72
11
 73
7
 74
0
 42
0.0000001
 43
0.0000001
 44
0.0000000001
 40
0.0
 40
0.0
 40
0.0
 40
0.0
 40
0.2177880171
 40
0.4505886599
 40
0.7100525356
 40
1.0
 40
1.0
 40
1.0
 40
1.0
 10
61.2521441981
 20
27.8077250032
 30
0.0
 10
61.2956164277
 20
27.7838453875
 30
0.0
 10
61.3773149301
 20
27.7178826039
 30
0.0
 10
61.4644423022
 20
27.5788726244
 30
0.0
 10
61.5160542365
 20
27.4066547867
 30
0.0
 10
61.5262712071
 20
27.2810991407
 30
0.0
 10
61.5262712071
 20
27.2150664283
 30
0.0
  0
SPLINE
  5
5A8
100
AcDbEntity
  8
0
100
AcDbSpline
 62
7
  6
CONTINUOUS
 70
0
 71
3
 72
13
 73
9
 74
0
 42
0.0000001
 43
0.0000001
 44
0.0000000001
 40
0.0
 40
0.0
 40
0.0
 40
0.0
 40
0.1106128157
 40
0.2317008816
 40
0.493899286
 40
0.7594514985
 40
0.8845641417
 40
1.0
 40
1.0
 40
1.0
 40
1.0
 10
59.7256390794
 20
26.0822165387
 30
0.0
 10
59.7906499101
 20
26.1128041971
 30
0.0
 10
59.9203337858
 20
26.1910625996
 30
0.0
 10
60.1660620684
 20
26.3987813627
 30
0.0
 10
60.4284594224
 20
26.7345282472
 30
0.0
 10
60.6091646459
 20
27.1229731509
 30
0.0
 10
60.6876076034
 20
27.4430919243
 30
0.0
 10
60.7022612885
 20
27.5994951821
 30
0.0
 10
60.7022612885
 20
27.6744750782
 30
0.0
  0
SPLINE
  5
5A9
100
AcDbEntity
  8
0
100
AcDbSpline
 62
7
  6
CONTINUOUS
 70
0
 71
3
 72
11
 73
7
 74
0
 42
0.0000001
 43
0.0000001
 44
0.0000000001
 40
0.0
 40
0.0
 40
0.0
 40
0.0
 40
0.2177827366
 40
0.4505927254
 40
0.7100602381
 40
1.0
 40
1.0
 40
1.0
 40
1.0
 10
88.1220901083
 20
110.2742011416
 30
0.0
 10
88.165561912
 20
110.2503233749
 30
0.0
 10
88.247258851
 20
110.1843568181
 30
0.0
 10
88.3343877064
 20
110.045346755
 30
0.0
 10
88.3860012983
 20
109.8731279834
 30
0.0
 10
88.3962170212
 20
109.7475733571
 30
0.0
 10
88.3962170212
 20
109.68154248
 30
0.0
  0
SPLINE
  5
5AA
100
AcDbEntity
  8
0
100
AcDbSpline
 62
7
  6
CONTINUOUS
 70
0
 71
3
 72
11
 73
7
 74
0
 42
0.0000001
 43
0.0000001
 44
0.0000000001
 40
0.0
 40
0.0
 40
0.0
 40
0.0
 40
0.2177827366
 40
0.4505927254
 40
0.7100602381
 40
1.0
 40
1.0
 40
1.0
 40
1.0
 10
88.1220901083
 20
43.321002937
 30
0.0
 10
88.165561912
 20
43.2971251703
 30
0.0
 10
88.247258851
 20
43.2311586135
 30
0.0
 10
88.3343877064
 20
43.0921485504
 30
0.0
 10
88.3860012983
 20
42.9199297788
 30
0.0
 10
88.3962170212
 20
42.7943751525
 30
0.0
 10
88.3962170212
 20
42.7283442754
 30
0.0
  0
SPLINE
  5
5AB
100
AcDbEntity
  8
0
100
AcDbSpline
 62
7
  6
CONTINUOUS
 70
0
 71
3
 72
11
 73
7
 74
0
 42
0.0000001
 43
0.0000001
 44
0.0000000001
 40
0.0
 40
0.0
 40
0.0
 40
0.0
 40
0.2366867589
 40
0.4988407014
 40
0.7616412523
 40
1.0
 40
1.0
 40
1.0
 40
1.0
 10
40.313697352
 20
85.1878003299
 30
0.0
 10
40.3632914712
 20
85.1591677996
 30
0.0
 10
40.4785060124
 20
85.1171725173
 30
0.0
 10
40.6629604158
 20
85.0964272663
 30
0.0
 10
40.8480188494
 20
85.1153878925
 30
0.0
 10
40.9642036706
 20
85.1561971411
 30
0.0
 10
41.0145799533
 20
85.1842706966
 30
0.0
  0
SPLINE
  5
5AC
100
AcDbEntity
  8
0
100
AcDbSpline
 62
7
  6
CONTINUOUS
 70
0
 71
3
 72
17
 73
13
 74
0
 42
0.0000001
 43
0.0000001
 44
0.0000000001
 40
0.0
 40
0.0
 40
0.0
 40
0.0
 40
0.1289416858
 40
0.2708705275
 40
0.4182818654
 40
0.5627345819
 40
0.6962829639
 40
0.8132107122
 40
0.8649732198
 40
0.9126201856
 40
0.9571348517
 40
1.0
 40
1.0
 40
1.0
 40
1.0
 10
61.5262712071
 20
27.2150664283
 30
0.0
 10
61.5262712071
 20
27.1046349868
 30
0.0
 10
61.4951857875
 20
26.8723891017
 30
0.0
 10
61.3793988549
 20
26.5315789285
 30
0.0
 10
61.2010139911
 20
26.2036537231
 30
0.0
 10
60.9746475688
 20
25.9157473997
 30
0.0
 10
60.7188942717
 20
25.6913217441
 30
0.0
 10
60.4876637211
 20
25.5670926119
 30
0.0
 10
60.3072349334
 20
25.5211729204
 30
0.0
 10
60.1833016786
 20
25.5138924095
 30
0.0
 10
60.0681565303
 20
25.5328024248
 30
0.0
 10
59.9988057018
 20
25.5634223384
 30
0.0
 10
59.9674096119
 20
25.5824494162
 30
0.0
  0
SPLINE
  5
5AD
100
AcDbEntity
  8
0
100
AcDbSpline
 62
7
  6
CONTINUOUS
 70
0
 71
3
 72
9
 73
5
 74
0
 42
0.0000001
 43
0.0000001
 44
0.0000000001
 40
0.0
 40
0.0
 40
0.0
 40
0.0
 40
0.5255599949
 40
1.0
 40
1.0
 40
1.0
 40
1.0
 10
40.4150782058
 20
85.532479298
 30
0.0
 10
40.3836351059
 20
85.4773786637
 30
0.0
 10
40.3349113444
 20
85.3658281372
 30
0.0
 10
40.313697352
 20
85.2450704867
 30
0.0
 10
40.313697352
 20
85.1878003299
 30
0.0
  0
SPLINE
  5
5AE
100
AcDbEntity
  8
0
100
AcDbSpline
 62
7
  6
CONTINUOUS
 70
0
 71
3
 72
11
 73
7
 74
0
 42
0.0000001
 43
0.0000001
 44
0.0000000001
 40
0.0
 40
0.0
 40
0.0
 40
0.0
 40
0.289946049
 40
0.5493941175
 40
0.7821938379
 40
1.0
 40
1.0
 40
1.0
 40
1.0
 10
60.6177063238
 20
92.5945753573
 30
0.0
 10
60.5605230146
 20
92.5615607554
 30
0.0
 10
60.4466887788
 20
92.5076332807
 30
0.0
 10
60.2717504346
 20
92.4662290877
 30
0.0
 10
60.1078041969
 20
92.4721651303
 30
0.0
 10
60.0098369113
 20
92.50995372
 30
0.0
 10
59.9674174725
 20
92.5356608499
 30
0.0
  0
SPLINE
  5
5AF
100
AcDbEntity
  8
0
100
AcDbSpline
 62
7
  6
CONTINUOUS
 70
0
 71
3
 72
11
 73
7
 74
0
 42
0.0000001
 43
0.0000001
 44
0.0000000001
 40
0.0
 40
0.0
 40
0.0
 40
0.0
 40
0.2372542275
 40
0.5000017852
 40
0.7627483734
 40
1.0
 40
1.0
 40
1.0
 40
1.0
 10
61.5262712071
 20
94.1682646329
 30
0.0
 10
61.5262712071
 20
94.0193102116
 30
0.0
 10
61.4704239916
 20
93.7051842054
 30
0.0
 10
61.2756259756
 20
93.2638472807
 30
0.0
 10
60.9908189003
 20
92.8744786948
 30
0.0
 10
60.746703415
 20
92.6690514181
 30
0.0
 10
60.6177063238
 20
92.5945753573
 30
0.0
  0
SPLINE
  5
5B0
100
AcDbEntity
  8
0
100
AcDbSpline
 62
7
  6
CONTINUOUS
 70
0
 71
3
 72
17
 73
13
 74
0
 42
0.0000001
 43
0.0000001
 44
0.0000000001
 40
0.0
 40
0.0
 40
0.0
 40
0.0
 40
0.128940408
 40
0.2708672515
 40
0.4182695421
 40
0.5627179784
 40
0.6962737428
 40
0.8132097117
 40
0.8649738921
 40
0.9126211057
 40
0.9571351169
 40
1.0
 40
1.0
 40
1.0
 40
1.0
 10
88.3962170212
 20
109.68154248
 30
0.0
 10
88.3962170212
 20
109.5711121098
 30
0.0
 10
88.3651336056
 20
109.3388686987
 30
0.0
 10
88.2493486169
 20
108.9980690908
 30
0.0
 10
88.0709770588
 20
108.670151996
 30
0.0
 10
87.8446177045
 20
108.382246303
 30
0.0
 10
87.5888606171
 20
108.1578103027
 30
0.0
 10
87.3576178262
 20
108.0335708299
 30
0.0
 10
87.1771805463
 20
107.9876498443
 30
0.0
 10
87.0532460214
 20
107.9803672646
 30
0.0
 10
86.9381021348
 20
107.9992811606
 30
0.0
 10
86.8687515193
 20
108.0298987447
 30
0.0
 10
86.8373551374
 20
108.0489249174
 30
0.0
  0
SPLINE
  5
5B1
100
AcDbEntity
  8
0
100
AcDbSpline
 62
7
  6
CONTINUOUS
 70
0
 71
3
 72
17
 73
13
 74
0
 42
0.0000001
 43
0.0000001
 44
0.0000000001
 40
0.0
 40
0.0
 40
0.0
 40
0.0
 40
0.128940408
 40
0.2708672515
 40
0.4182695421
 40
0.5627179784
 40
0.6962737428
 40
0.8132097117
 40
0.8649738921
 40
0.9126211057
 40
0.9571351169
 40
1.0
 40
1.0
 40
1.0
 40
1.0
 10
88.3962170212
 20
42.7283442754
 30
0.0
 10
88.3962170212
 20
42.6179139051
 30
0.0
 10
88.3651336056
 20
42.3856704941
 30
0.0
 10
88.2493486169
 20
42.0448708862
 30
0.0
 10
88.0709770588
 20
41.7169537913
 30
0.0
 10
87.8446177045
 20
41.4290480984
 30
0.0
 10
87.5888606171
 20
41.2046120981
 30
0.0
 10
87.3576178262
 20
41.0803726253
 30
0.0
 10
87.1771805463
 20
41.0344516396
 30
0.0
 10
87.0532460214
 20
41.02716906
 30
0.0
 10
86.9381021348
 20
41.0460829559
 30
0.0
 10
86.8687515193
 20
41.0767005401
 30
0.0
 10
86.8373551374
 20
41.0957267127
 30
0.0
  0
SPLINE
  5
5B2
100
AcDbEntity
  8
0
100
AcDbSpline
 62
7
  6
CONTINUOUS
 70
0
 71
3
 72
11
 73
7
 74
0
 42
0.0000001
 43
0.0000001
 44
0.0000000001
 40
0.0
 40
0.0
 40
0.0
 40
0.0
 40
0.217857086
 40
0.4505288972
 40
0.709904458
 40
1.0
 40
1.0
 40
1.0
 40
1.0
 10
80.1232147645
 20
118.4375012753
 30
0.0
 10
80.1240308228
 20
118.4646507112
 30
0.0
 10
80.1155758673
 20
118.5215235612
 30
0.0
 10
80.0738749348
 20
118.6010783664
 30
0.0
 10
80.0065246869
 20
118.6728552494
 30
0.0
 10
79.9498058615
 20
118.7121118431
 30
0.0
 10
79.918483149
 20
118.7301956104
 30
0.0
  0
SPLINE
  5
5B3
100
AcDbEntity
  8
0
100
AcDbSpline
 62
7
  6
CONTINUOUS
 70
0
 71
3
 72
9
 73
5
 74
0
 42
0.0000001
 43
0.0000001
 44
0.0000000001
 40
0.0
 40
0.0
 40
0.0
 40
0.0
 40
0.4755450739
 40
1.0
 40
1.0
 40
1.0
 40
1.0
 10
40.6610789388
 20
85.7965490153
 30
0.0
 10
40.6115862587
 20
85.766977019
 30
0.0
 10
40.5181854676
 20
85.6868082522
 30
0.0
 10
40.4465923
 20
85.5877043419
 30
0.0
 10
40.4150782058
 20
85.532479298
 30
0.0
  0
SPLINE
  5
5B4
100
AcDbEntity
  8
0
100
AcDbSpline
 62
7
  6
CONTINUOUS
 70
0
 71
3
 72
11
 73
7
 74
0
 42
0.0000001
 43
0.0000001
 44
0.0000000001
 40
0.0
 40
0.0
 40
0.0
 40
0.0
 40
0.2369611858
 40
0.4994497169
 40
0.7622377432
 40
1.0
 40
1.0
 40
1.0
 40
1.0
 10
62.1067090745
 20
128.1427533092
 30
0.0
 10
62.1765603705
 20
128.183081733
 30
0.0
 10
62.3389181159
 20
128.2421102922
 30
0.0
 10
62.5986953854
 20
128.2708125203
 30
0.0
 10
62.8588828957
 20
128.2433604141
 30
0.0
 10
63.0219106667
 20
128.1851818673
 30
0.0
 10
63.0923008851
 20
128.1452461392
 30
0.0
  0
SPLINE
  5
5B5
100
AcDbEntity
  8
0
100
AcDbSpline
 62
7
  6
CONTINUOUS
 70
0
 71
3
 72
11
 73
7
 74
0
 42
0.0000001
 43
0.0000001
 44
0.0000000001
 40
0.0
 40
0.0
 40
0.0
 40
0.0
 40
0.2368489906
 40
0.5000932545
 40
0.7633136688
 40
1.0
 40
1.0
 40
1.0
 40
1.0
 10
41.0145799533
 20
85.1842706966
 30
0.0
 10
41.0132550049
 20
85.2419729237
 30
0.0
 10
40.9907060258
 20
85.3635488819
 30
0.0
 10
40.9141817973
 20
85.5346007872
 30
0.0
 10
40.804257299
 20
85.6861261658
 30
0.0
 10
40.7105764678
 20
85.7669395058
 30
0.0
 10
40.6610789388
 20
85.7965490153
 30
0.0
  0
SPLINE
  5
5B6
100
AcDbEntity
  8
0
100
AcDbSpline
 62
7
  6
CONTINUOUS
 70
0
 71
3
 72
9
 73
5
 74
0
 42
0.0000001
 43
0.0000001
 44
0.0000000001
 40
0.0
 40
0.0
 40
0.0
 40
0.0
 40
0.4755451457
 40
1.0
 40
1.0
 40
1.0
 40
1.0
 10
41.0145799533
 20
12.7294614889
 30
0.0
 10
40.9642233172
 20
12.7013857835
 30
0.0
 10
40.8480946087
 20
12.6605829079
 30
0.0
 10
40.7264714792
 20
12.6481329676
 30
0.0
 10
40.6628880845
 20
12.6484531726
 30
0.0
  0
SPLINE
  5
5B7
100
AcDbEntity
  8
0
100
AcDbSpline
 62
7
  6
CONTINUOUS
 70
0
 71
3
 72
11
 73
7
 74
0
 42
0.0000001
 43
0.0000001
 44
0.0000000001
 40
0.0
 40
0.0
 40
0.0
 40
0.0
 40
0.218657326
 40
0.454794561
 40
0.7145223499
 40
1.0
 40
1.0
 40
1.0
 40
1.0
 10
18.0399810836
 20
73.8701668072
 30
0.0
 10
18.0747624281
 20
73.9002093094
 30
0.0
 10
18.1380211524
 20
73.9737586335
 30
0.0
 10
18.2044925851
 20
74.1098641926
 30
0.0
 10
18.2441408189
 20
74.2702601022
 30
0.0
 10
18.2521140028
 20
74.3851259857
 30
0.0
 10
18.2521140028
 20
74.445130683
 30
0.0
  0
SPLINE
  5
5B8
100
AcDbEntity
  8
0
100
AcDbSpline
 62
7
  6
CONTINUOUS
 70
0
 71
3
 72
9
 73
5
 74
0
 42
0.0000001
 43
0.0000001
 44
0.0000000001
 40
0.0
 40
0.0
 40
0.0
 40
0.0
 40
0.4749749656
 40
1.0
 40
1.0
 40
1.0
 40
1.0
 10
18.2521140028
 20
74.445130683
 30
0.0
 10
18.2521140028
 20
74.580065066
 30
0.0
 10
18.2087017147
 20
74.8643654905
 30
0.0
 10
18.1061958006
 20
75.1313893913
 30
0.0
 10
18.0399810841
 20
75.2650390124
 30
0.0
  0
SPLINE
  5
5B9
100
AcDbEntity
  8
0
100
AcDbSpline
 62
7
  6
CONTINUOUS
 70
0
 71
3
 72
11
 73
7
 74
0
 42
0.0000001
 43
0.0000001
 44
0.0000000001
 40
0.0
 40
0.0
 40
0.0
 40
0.0
 40
0.218657326
 40
0.454794561
 40
0.7145223499
 40
1.0
 40
1.0
 40
1.0
 40
1.0
 10
18.0399810836
 20
39.6505505053
 30
0.0
 10
18.0747624281
 20
39.6805930075
 30
0.0
 10
18.1380211524
 20
39.7541423316
 30
0.0
 10
18.2044925851
 20
39.8902478907
 30
0.0
 10
18.2441408189
 20
40.0506438003
 30
0.0
 10
18.2521140028
 20
40.1655096838
 30
0.0
 10
18.2521140028
 20
40.2255143811
 30
0.0
  0
SPLINE
  5
5BA
100
AcDbEntity
  8
0
100
AcDbSpline
 62
7
  6
CONTINUOUS
 70
0
 71
3
 72
9
 73
5
 74
0
 42
0.0000001
 43
0.0000001
 44
0.0000000001
 40
0.0
 40
0.0
 40
0.0
 40
0.0
 40
0.4749749656
 40
1.0
 40
1.0
 40
1.0
 40
1.0
 10
18.2521140028
 20
40.2255143811
 30
0.0
 10
18.2521140028
 20
40.3604487641
 30
0.0
 10
18.2087017147
 20
40.6447491886
 30
0.0
 10
18.1061958006
 20
40.9117730894
 30
0.0
 10
18.0399810841
 20
41.0454227105
 30
0.0
  0
SPLINE
  5
5BB
100
AcDbEntity
  8
0
100
AcDbSpline
 62
7
  6
CONTINUOUS
 70
0
 71
3
 72
11
 73
7
 74
0
 42
0.0000001
 43
0.0000001
 44
0.0000000001
 40
0.0
 40
0.0
 40
0.0
 40
0.0
 40
0.2178316977
 40
0.4506234999
 40
0.7098871602
 40
1.0
 40
1.0
 40
1.0
 40
1.0
 10
14.4571856958
 20
99.075602507
 30
0.0
 10
14.5562301486
 20
99.1356592774
 30
0.0
 10
14.7851219589
 20
99.2235950512
 30
0.0
 10
15.1677731422
 20
99.2375352364
 30
0.0
 10
15.576302777
 20
99.1410092648
 30
0.0
 10
15.8420116159
 20
99.0149167995
 30
0.0
 10
15.9756097862
 20
98.9377856049
 30
0.0
  0
SPLINE
  5
5BC
100
AcDbEntity
  8
0
100
AcDbSpline
 62
7
  6
CONTINUOUS
 70
0
 71
3
 72
11
 73
7
 74
0
 42
0.0000001
 43
0.0000001
 44
0.0000000001
 40
0.0
 40
0.0
 40
0.0
 40
0.0
 40
0.2372401585
 40
0.4999855225
 40
0.7627369629
 40
1.0
 40
1.0
 40
1.0
 40
1.0
 10
70.7644009441
 20
124.0151878732
 30
0.0
 10
70.6941512963
 20
124.0557456087
 30
0.0
 10
70.5307979479
 20
124.1149464919
 30
0.0
 10
70.2696039671
 20
124.1432749206
 30
0.0
 10
70.0084073097
 20
124.1149715929
 30
0.0
 10
69.8450194723
 20
124.0558227716
 30
0.0
 10
69.7747640112
 20
124.01525946
 30
0.0
  0
SPLINE
  5
5BD
100
AcDbEntity
  8
0
100
AcDbSpline
 62
7
  6
CONTINUOUS
 70
0
 71
3
 72
11
 73
7
 74
0
 42
0.0000001
 43
0.0000001
 44
0.0000000001
 40
0.0
 40
0.0
 40
0.0
 40
0.0
 40
0.218657326
 40
0.454794561
 40
0.7145223499
 40
1.0
 40
1.0
 40
1.0
 40
1.0
 10
18.0399810836
 20
42.7614247146
 30
0.0
 10
18.0747624281
 20
42.7914672167
 30
0.0
 10
18.1380211524
 20
42.8650165409
 30
0.0
 10
18.2044925851
 20
43.0011221
 30
0.0
 10
18.2441408189
 20
43.1615180096
 30
0.0
 10
18.2521140028
 20
43.2763838931
 30
0.0
 10
18.2521140028
 20
43.3363885904
 30
0.0
  0
SPLINE
  5
5BE
100
AcDbEntity
  8
0
100
AcDbSpline
 62
7
  6
CONTINUOUS
 70
0
 71
3
 72
9
 73
5
 74
0
 42
0.0000001
 43
0.0000001
 44
0.0000000001
 40
0.0
 40
0.0
 40
0.0
 40
0.0
 40
0.4749749656
 40
1.0
 40
1.0
 40
1.0
 40
1.0
 10
18.2521140028
 20
43.3363885904
 30
0.0
 10
18.2521140028
 20
43.4713229733
 30
0.0
 10
18.2087017147
 20
43.7556233978
 30
0.0
 10
18.1061958006
 20
44.0226472987
 30
0.0
 10
18.0399810841
 20
44.1562969198
 30
0.0
  0
SPLINE
  5
5BF
100
AcDbEntity
  8
0
100
AcDbSpline
 62
7
  6
CONTINUOUS
 70
0
 71
3
 72
11
 73
7
 74
0
 42
0.0000001
 43
0.0000001
 44
0.0000000001
 40
0.0
 40
0.0
 40
0.0
 40
0.0
 40
0.218657326
 40
0.454794561
 40
0.7145223499
 40
1.0
 40
1.0
 40
1.0
 40
1.0
 10
18.0399810836
 20
45.8722989238
 30
0.0
 10
18.0747624281
 20
45.902341426
 30
0.0
 10
18.1380211524
 20
45.9758907501
 30
0.0
 10
18.2044925851
 20
46.1119963092
 30
0.0
 10
18.2441408189
 20
46.2723922188
 30
0.0
 10
18.2521140028
 20
46.3872581024
 30
0.0
 10
18.2521140028
 20
46.4472627996
 30
0.0
  0
SPLINE
  5
5C0
100
AcDbEntity
  8
0
100
AcDbSpline
 62
7
  6
CONTINUOUS
 70
0
 71
3
 72
9
 73
5
 74
0
 42
0.0000001
 43
0.0000001
 44
0.0000000001
 40
0.0
 40
0.0
 40
0.0
 40
0.0
 40
0.4749749656
 40
1.0
 40
1.0
 40
1.0
 40
1.0
 10
18.2521140028
 20
46.4472627996
 30
0.0
 10
18.2521140028
 20
46.5821971826
 30
0.0
 10
18.2087017147
 20
46.8664976071
 30
0.0
 10
18.1061958006
 20
47.133521508
 30
0.0
 10
18.0399810841
 20
47.267171129
 30
0.0
  0
SPLINE
  5
5C1
100
AcDbEntity
  8
0
100
AcDbSpline
 62
7
  6
CONTINUOUS
 70
0
 71
3
 72
11
 73
7
 74
0
 42
0.0000001
 43
0.0000001
 44
0.0000000001
 40
0.0
 40
0.0
 40
0.0
 40
0.0
 40
0.218657326
 40
0.454794561
 40
0.7145223499
 40
1.0
 40
1.0
 40
1.0
 40
1.0
 10
18.0399810836
 20
48.9831731331
 30
0.0
 10
18.0747624281
 20
49.0132156353
 30
0.0
 10
18.1380211524
 20
49.0867649594
 30
0.0
 10
18.2044925851
 20
49.2228705185
 30
0.0
 10
18.2441408189
 20
49.3832664281
 30
0.0
 10
18.2521140028
 20
49.4981323116
 30
0.0
 10
18.2521140028
 20
49.5581370089
 30
0.0
  0
SPLINE
  5
5C2
100
AcDbEntity
  8
0
100
AcDbSpline
 62
7
  6
CONTINUOUS
 70
0
 71
3
 72
9
 73
5
 74
0
 42
0.0000001
 43
0.0000001
 44
0.0000000001
 40
0.0
 40
0.0
 40
0.0
 40
0.0
 40
0.4749749656
 40
1.0
 40
1.0
 40
1.0
 40
1.0
 10
18.2521140028
 20
49.5581370089
 30
0.0
 10
18.2521140028
 20
49.6930713919
 30
0.0
 10
18.2087017147
 20
49.9773718164
 30
0.0
 10
18.1061958006
 20
50.2443957172
 30
0.0
 10
18.0399810841
 20
50.3780453383
 30
0.0
  0
SPLINE
  5
5C3
100
AcDbEntity
  8
0
100
AcDbSpline
 62
7
  6
CONTINUOUS
 70
0
 71
3
 72
11
 73
7
 74
0
 42
0.0000001
 43
0.0000001
 44
0.0000000001
 40
0.0
 40
0.0
 40
0.0
 40
0.0
 40
0.218657326
 40
0.454794561
 40
0.7145223499
 40
1.0
 40
1.0
 40
1.0
 40
1.0
 10
18.0399810836
 20
52.0940473424
 30
0.0
 10
18.0747624281
 20
52.1240898445
 30
0.0
 10
18.1380211524
 20
52.1976391687
 30
0.0
 10
18.2044925851
 20
52.3337447278
 30
0.0
 10
18.2441408189
 20
52.4941406374
 30
0.0
 10
18.2521140028
 20
52.6090065209
 30
0.0
 10
18.2521140028
 20
52.6690112182
 30
0.0
  0
SPLINE
  5
5C4
100
AcDbEntity
  8
0
100
AcDbSpline
 62
7
  6
CONTINUOUS
 70
0
 71
3
 72
9
 73
5
 74
0
 42
0.0000001
 43
0.0000001
 44
0.0000000001
 40
0.0
 40
0.0
 40
0.0
 40
0.0
 40
0.4749749656
 40
1.0
 40
1.0
 40
1.0
 40
1.0
 10
18.2521140028
 20
52.6690112182
 30
0.0
 10
18.2521140028
 20
52.8039456011
 30
0.0
 10
18.2087017147
 20
53.0882460256
 30
0.0
 10
18.1061958006
 20
53.3552699265
 30
0.0
 10
18.0399810841
 20
53.4889195476
 30
0.0
  0
SPLINE
  5
5C5
100
AcDbEntity
  8
0
100
AcDbSpline
 62
7
  6
CONTINUOUS
 70
0
 71
3
 72
11
 73
7
 74
0
 42
0.0000001
 43
0.0000001
 44
0.0000000001
 40
0.0
 40
0.0
 40
0.0
 40
0.0
 40
0.218657326
 40
0.454794561
 40
0.7145223499
 40
1.0
 40
1.0
 40
1.0
 40
1.0
 10
18.0399810836
 20
55.2049215516
 30
0.0
 10
18.0747624281
 20
55.2349640538
 30
0.0
 10
18.1380211524
 20
55.3085133779
 30
0.0
 10
18.2044925851
 20
55.444618937
 30
0.0
 10
18.2441408189
 20
55.6050148466
 30
0.0
 10
18.2521140028
 20
55.7198807302
 30
0.0
 10
18.2521140028
 20
55.7798854274
 30
0.0
  0
SPLINE
  5
5C6
100
AcDbEntity
  8
0
100
AcDbSpline
 62
7
  6
CONTINUOUS
 70
0
 71
3
 72
9
 73
5
 74
0
 42
0.0000001
 43
0.0000001
 44
0.0000000001
 40
0.0
 40
0.0
 40
0.0
 40
0.0
 40
0.4749749656
 40
1.0
 40
1.0
 40
1.0
 40
1.0
 10
18.2521140028
 20
55.7798854274
 30
0.0
 10
18.2521140028
 20
55.9148198104
 30
0.0
 10
18.2087017147
 20
56.1991202349
 30
0.0
 10
18.1061958006
 20
56.4661441358
 30
0.0
 10
18.0399810841
 20
56.5997937568
 30
0.0
  0
SPLINE
  5
5C7
100
AcDbEntity
  8
0
100
AcDbSpline
 62
7
  6
CONTINUOUS
 70
0
 71
3
 72
9
 73
5
 74
0
 42
0.0000001
 43
0.0000001
 44
0.0000000001
 40
0.0
 40
0.0
 40
0.0
 40
0.0
 40
0.5255610448
 40
1.0
 40
1.0
 40
1.0
 40
1.0
 10
40.6628880845
 20
12.6484531726
 30
0.0
 10
40.5994480732
 20
12.6487726554
 30
0.0
 10
40.4784809615
 20
12.6623510157
 30
0.0
 10
40.3632947645
 20
12.7043566905
 30
0.0
 10
40.313697352
 20
12.7329911221
 30
0.0
  0
SPLINE
  5
5C8
100
AcDbEntity
  8
0
100
AcDbSpline
 62
7
  6
CONTINUOUS
 70
0
 71
3
 72
11
 73
7
 74
0
 42
0.0000001
 43
0.0000001
 44
0.0000000001
 40
0.0
 40
0.0
 40
0.0
 40
0.0
 40
0.218657326
 40
0.454794561
 40
0.7145223499
 40
1.0
 40
1.0
 40
1.0
 40
1.0
 10
18.0399810836
 20
58.3157957609
 30
0.0
 10
18.0747624281
 20
58.3458382631
 30
0.0
 10
18.1380211524
 20
58.4193875872
 30
0.0
 10
18.2044925851
 20
58.5554931463
 30
0.0
 10
18.2441408189
 20
58.7158890559
 30
0.0
 10
18.2521140028
 20
58.8307549394
 30
0.0
 10
18.2521140028
 20
58.8907596367
 30
0.0
  0
SPLINE
  5
5C9
100
AcDbEntity
  8
0
100
AcDbSpline
 62
7
  6
CONTINUOUS
 70
0
 71
3
 72
9
 73
5
 74
0
 42
0.0000001
 43
0.0000001
 44
0.0000000001
 40
0.0
 40
0.0
 40
0.0
 40
0.0
 40
0.4749749656
 40
1.0
 40
1.0
 40
1.0
 40
1.0
 10
18.2521140028
 20
58.8907596367
 30
0.0
 10
18.2521140028
 20
59.0256940197
 30
0.0
 10
18.2087017147
 20
59.3099944442
 30
0.0
 10
18.1061958006
 20
59.577018345
 30
0.0
 10
18.0399810841
 20
59.7106679661
 30
0.0
  0
SPLINE
  5
5CA
100
AcDbEntity
  8
0
100
AcDbSpline
 62
7
  6
CONTINUOUS
 70
0
 71
3
 72
11
 73
7
 74
0
 42
0.0000001
 43
0.0000001
 44
0.0000000001
 40
0.0
 40
0.0
 40
0.0
 40
0.0
 40
0.218657326
 40
0.454794561
 40
0.7145223499
 40
1.0
 40
1.0
 40
1.0
 40
1.0
 10
18.0399810836
 20
61.4266699702
 30
0.0
 10
18.0747624281
 20
61.4567124723
 30
0.0
 10
18.1380211524
 20
61.5302617965
 30
0.0
 10
18.2044925851
 20
61.6663673555
 30
0.0
 10
18.2441408189
 20
61.8267632651
 30
0.0
 10
18.2521140028
 20
61.9416291487
 30
0.0
 10
18.2521140028
 20
62.0016338459
 30
0.0
  0
SPLINE
  5
5CB
100
AcDbEntity
  8
0
100
AcDbSpline
 62
7
  6
CONTINUOUS
 70
0
 71
3
 72
9
 73
5
 74
0
 42
0.0000001
 43
0.0000001
 44
0.0000000001
 40
0.0
 40
0.0
 40
0.0
 40
0.0
 40
0.4749749656
 40
1.0
 40
1.0
 40
1.0
 40
1.0
 10
18.2521140028
 20
62.0016338459
 30
0.0
 10
18.2521140028
 20
62.1365682289
 30
0.0
 10
18.2087017147
 20
62.4208686534
 30
0.0
 10
18.1061958006
 20
62.6878925543
 30
0.0
 10
18.0399810841
 20
62.8215421754
 30
0.0
  0
SPLINE
  5
5CC
100
AcDbEntity
  8
0
100
AcDbSpline
 62
7
  6
CONTINUOUS
 70
0
 71
3
 72
11
 73
7
 74
0
 42
0.0000001
 43
0.0000001
 44
0.0000000001
 40
0.0
 40
0.0
 40
0.0
 40
0.0
 40
0.218657326
 40
0.454794561
 40
0.7145223499
 40
1.0
 40
1.0
 40
1.0
 40
1.0
 10
18.0399810836
 20
64.5375441794
 30
0.0
 10
18.0747624281
 20
64.5675866816
 30
0.0
 10
18.1380211524
 20
64.6411360057
 30
0.0
 10
18.2044925851
 20
64.7772415648
 30
0.0
 10
18.2441408189
 20
64.9376374744
 30
0.0
 10
18.2521140028
 20
65.0525033579
 30
0.0
 10
18.2521140028
 20
65.1125080552
 30
0.0
  0
SPLINE
  5
5CD
100
AcDbEntity
  8
0
100
AcDbSpline
 62
7
  6
CONTINUOUS
 70
0
 71
3
 72
9
 73
5
 74
0
 42
0.0000001
 43
0.0000001
 44
0.0000000001
 40
0.0
 40
0.0
 40
0.0
 40
0.0
 40
0.4749749656
 40
1.0
 40
1.0
 40
1.0
 40
1.0
 10
18.2521140028
 20
65.1125080552
 30
0.0
 10
18.2521140028
 20
65.2474424382
 30
0.0
 10
18.2087017147
 20
65.5317428627
 30
0.0
 10
18.1061958006
 20
65.7987667636
 30
0.0
 10
18.0399810841
 20
65.9324163846
 30
0.0
  0
SPLINE
  5
5CE
100
AcDbEntity
  8
0
100
AcDbSpline
 62
7
  6
CONTINUOUS
 70
0
 71
3
 72
11
 73
7
 74
0
 42
0.0000001
 43
0.0000001
 44
0.0000000001
 40
0.0
 40
0.0
 40
0.0
 40
0.0
 40
0.218657326
 40
0.454794561
 40
0.7145223499
 40
1.0
 40
1.0
 40
1.0
 40
1.0
 10
18.0399810836
 20
67.6484183887
 30
0.0
 10
18.0747624281
 20
67.6784608908
 30
0.0
 10
18.1380211524
 20
67.752010215
 30
0.0
 10
18.2044925851
 20
67.8881157741
 30
0.0
 10
18.2441408189
 20
68.0485116837
 30
0.0
 10
18.2521140028
 20
68.1633775672
 30
0.0
 10
18.2521140028
 20
68.2233822645
 30
0.0
  0
SPLINE
  5
5CF
100
AcDbEntity
  8
0
100
AcDbSpline
 62
7
  6
CONTINUOUS
 70
0
 71
3
 72
9
 73
5
 74
0
 42
0.0000001
 43
0.0000001
 44
0.0000000001
 40
0.0
 40
0.0
 40
0.0
 40
0.0
 40
0.4749749656
 40
1.0
 40
1.0
 40
1.0
 40
1.0
 10
18.2521140028
 20
68.2233822645
 30
0.0
 10
18.2521140028
 20
68.3583166474
 30
0.0
 10
18.2087017147
 20
68.6426170719
 30
0.0
 10
18.1061958006
 20
68.9096409728
 30
0.0
 10
18.0399810841
 20
69.0432905939
 30
0.0
  0
SPLINE
  5
5D0
100
AcDbEntity
  8
0
100
AcDbSpline
 62
7
  6
CONTINUOUS
 70
0
 71
3
 72
11
 73
7
 74
0
 42
0.0000001
 43
0.0000001
 44
0.0000000001
 40
0.0
 40
0.0
 40
0.0
 40
0.0
 40
0.218657326
 40
0.454794561
 40
0.7145223499
 40
1.0
 40
1.0
 40
1.0
 40
1.0
 10
18.0399810836
 20
70.759292598
 30
0.0
 10
18.0747624281
 20
70.7893351001
 30
0.0
 10
18.1380211524
 20
70.8628844243
 30
0.0
 10
18.2044925851
 20
70.9989899833
 30
0.0
 10
18.2441408189
 20
71.1593858929
 30
0.0
 10
18.2521140028
 20
71.2742517765
 30
0.0
 10
18.2521140028
 20
71.3342564737
 30
0.0
  0
SPLINE
  5
5D1
100
AcDbEntity
  8
0
100
AcDbSpline
 62
7
  6
CONTINUOUS
 70
0
 71
3
 72
9
 73
5
 74
0
 42
0.0000001
 43
0.0000001
 44
0.0000000001
 40
0.0
 40
0.0
 40
0.0
 40
0.0
 40
0.4749749656
 40
1.0
 40
1.0
 40
1.0
 40
1.0
 10
18.2521140028
 20
71.3342564737
 30
0.0
 10
18.2521140028
 20
71.4691908567
 30
0.0
 10
18.2087017147
 20
71.7534912812
 30
0.0
 10
18.1061958006
 20
72.0205151821
 30
0.0
 10
18.0399810841
 20
72.1541648031
 30
0.0
  0
SPLINE
  5
5D2
100
AcDbEntity
  8
0
100
AcDbSpline
 62
7
  6
CONTINUOUS
 70
0
 71
3
 72
10
 73
6
 74
0
 42
0.0000001
 43
0.0000001
 44
0.0000000001
 40
0.0
 40
0.0
 40
0.0
 40
0.0
 40
0.2790096636
 40
0.5385569339
 40
1.0
 40
1.0
 40
1.0
 40
1.0
 10
35.7749766418
 20
66.8494155395
 30
0.0
 10
35.841993147
 20
66.8107244175
 30
0.0
 10
35.9758719562
 20
66.743205554
 30
0.0
 10
36.2378217582
 20
66.6515616015
 30
0.0
 10
36.4422471947
 20
66.6288132786
 30
0.0
 10
36.5694757389
 20
66.6426765347
 30
0.0
  0
SPLINE
  5
5D3
100
AcDbEntity
  8
0
100
AcDbSpline
 62
7
  6
CONTINUOUS
 70
0
 71
3
 72
11
 73
7
 74
0
 42
0.0000001
 43
0.0000001
 44
0.0000000001
 40
0.0
 40
0.0
 40
0.0
 40
0.0
 40
0.2279686454
 40
0.4775332827
 40
0.7387573556
 40
1.0
 40
1.0
 40
1.0
 40
1.0
 10
12.6522790623
 20
81.9950724925
 30
0.0
 10
12.6522790623
 20
81.8290728155
 30
0.0
 10
12.693310491
 20
81.4809549397
 30
0.0
 10
12.850093454
 20
80.964095881
 30
0.0
 10
13.0950787913
 20
80.4558202843
 30
0.0
 10
13.3101048018
 20
80.1398809788
 30
0.0
 10
13.4292289464
 20
79.9915690695
 30
0.0
  0
SPLINE
  5
5D4
100
AcDbEntity
  8
0
100
AcDbSpline
 62
7
  6
CONTINUOUS
 70
0
 71
3
 72
9
 73
5
 74
0
 42
0.0000001
 43
0.0000001
 44
0.0000000001
 40
0.0
 40
0.0
 40
0.0
 40
0.0
 40
0.25433387
 40
1.0
 40
1.0
 40
1.0
 40
1.0
 10
13.5335612393
 20
79.8676586085
 30
0.0
 10
13.553367648
 20
79.845225169
 30
0.0
 10
13.6324024132
 20
79.7580543842
 30
0.0
 10
13.7160977242
 20
79.6750800328
 30
0.0
 10
13.7811024504
 20
79.6161540089
 30
0.0
  0
SPLINE
  5
5D5
100
AcDbEntity
  8
0
100
AcDbSpline
 62
7
  6
CONTINUOUS
 70
0
 71
3
 72
9
 73
5
 74
0
 42
0.0000001
 43
0.0000001
 44
0.0000000001
 40
0.0
 40
0.0
 40
0.0
 40
0.0
 40
0.2610949218
 40
1.0
 40
1.0
 40
1.0
 40
1.0
 10
13.7811024504
 20
79.6161540089
 30
0.0
 10
13.8153497509
 20
79.5851092316
 30
0.0
 10
13.9493049905
 20
79.4693732884
 30
0.0
 10
14.0945811392
 20
79.366314549
 30
0.0
 10
14.2078708834
 20
79.3009081644
 30
0.0
  0
SPLINE
  5
5D6
100
AcDbEntity
  8
0
100
AcDbSpline
 62
7
  6
CONTINUOUS
 70
0
 71
3
 72
11
 73
7
 74
0
 42
0.0000001
 43
0.0000001
 44
0.0000000001
 40
0.0
 40
0.0
 40
0.0
 40
0.0
 40
0.2364496704
 40
0.498827116
 40
0.7618792023
 40
1.0
 40
1.0
 40
1.0
 40
1.0
 10
37.1507074897
 20
81.5687175809
 30
0.0
 10
37.170524142
 20
81.5572766902
 30
0.0
 10
37.2166232878
 20
81.5405496205
 30
0.0
 10
37.2904112858
 20
81.53210104
 30
0.0
 10
37.3644388237
 20
81.5398432469
 30
0.0
 10
37.4109335013
 20
81.5560841573
 30
0.0
 10
37.4310605301
 20
81.5673057276
 30
0.0
  0
SPLINE
  5
5D7
100
AcDbEntity
  8
0
100
AcDbSpline
 62
7
  6
CONTINUOUS
 70
0
 71
3
 72
15
 73
11
 74
0
 42
0.0000001
 43
0.0000001
 44
0.0000000001
 40
0.0
 40
0.0
 40
0.0
 40
0.0
 40
0.1141235142
 40
0.2373243666
 40
0.3669245542
 40
0.4999422768
 40
0.6329738472
 40
0.7626088761
 40
0.8858600269
 40
1.0
 40
1.0
 40
1.0
 40
1.0
 10
37.4310605016
 20
81.5673057155
 30
0.0
 10
37.4310605016
 20
81.7319192002
 30
0.0
 10
37.4008362791
 20
82.0745500554
 30
0.0
 10
37.2807389912
 20
82.5914191006
 30
0.0
 10
37.0880882167
 20
83.114957429
 30
0.0
 10
36.8304221975
 20
83.6255203558
 30
0.0
 10
36.5171171836
 20
84.1040227657
 30
0.0
 10
36.1599767413
 20
84.5327636095
 30
0.0
 10
35.7723021888
 20
84.8953116914
 30
0.0
 10
35.4906174375
 20
85.0928716823
 30
0.0
 10
35.3480366116
 20
85.1751888983
 30
0.0
  0
SPLINE
  5
5D8
100
AcDbEntity
  8
0
100
AcDbSpline
 62
7
  6
CONTINUOUS
 70
0
 71
3
 72
11
 73
7
 74
0
 42
0.0000001
 43
0.0000001
 44
0.0000000001
 40
0.0
 40
0.0
 40
0.0
 40
0.0
 40
0.2378691437
 40
0.5007028546
 40
0.7633109146
 40
1.0
 40
1.0
 40
1.0
 40
1.0
 10
35.3480366395
 20
85.175188915
 30
0.0
 10
35.328275811
 20
85.163381772
 30
0.0
 10
35.2909793379
 20
85.131291617
 30
0.0
 10
35.2472696867
 20
85.0710695876
 30
0.0
 10
35.2176898971
 20
85.0029221468
 30
0.0
 10
35.2090840049
 20
84.9545947765
 30
0.0
 10
35.2090840049
 20
84.9316894409
 30
0.0
  0
SPLINE
  5
5D9
100
AcDbEntity
  8
0
100
AcDbSpline
 62
7
  6
CONTINUOUS
 70
0
 71
3
 72
11
 73
7
 74
0
 42
0.0000001
 43
0.0000001
 44
0.0000000001
 40
0.0
 40
0.0
 40
0.0
 40
0.0
 40
0.2364507148
 40
0.4988282197
 40
0.7618797623
 40
1.0
 40
1.0
 40
1.0
 40
1.0
 10
13.6422373912
 20
97.3830324518
 30
0.0
 10
13.6422373912
 20
97.4059147499
 30
0.0
 10
13.6508004485
 20
97.4542015734
 30
0.0
 10
13.6803773545
 20
97.5223285005
 30
0.0
 10
13.7240958885
 20
97.5825672679
 30
0.0
 10
13.7614083114
 20
97.6147123037
 30
0.0
 10
13.7811900258
 20
97.626531926
 30
0.0
  0
SPLINE
  5
5DA
100
AcDbEntity
  8
0
100
AcDbSpline
 62
7
  6
CONTINUOUS
 70
0
 71
3
 72
11
 73
7
 74
0
 42
0.0000001
 43
0.0000001
 44
0.0000000001
 40
0.0
 40
0.0
 40
0.0
 40
0.0
 40
0.2901078178
 40
0.5493582318
 40
0.7821558547
 40
1.0
 40
1.0
 40
1.0
 40
1.0
 10
13.7811899946
 20
97.6265319111
 30
0.0
 10
13.6501246755
 20
97.7022007965
 30
0.0
 10
13.3894454868
 20
97.8258697295
 30
0.0
 10
12.9886939817
 20
97.9206584892
 30
0.0
 10
12.6133020832
 20
97.9072170312
 30
0.0
 10
12.3886376459
 20
97.8212345982
 30
0.0
 10
12.2913893401
 20
97.7624348739
 30
0.0
  0
SPLINE
  5
5DB
100
AcDbEntity
  8
0
100
AcDbSpline
 62
7
  6
CONTINUOUS
 70
0
 71
3
 72
9
 73
5
 74
0
 42
0.0000001
 43
0.0000001
 44
0.0000000001
 40
0.0
 40
0.0
 40
0.0
 40
0.0
 40
0.5500712849
 40
1.0
 40
1.0
 40
1.0
 40
1.0
 10
11.7006151628
 20
81.8915602925
 30
0.0
 10
11.6840982631
 20
81.9010959434
 30
0.0
 10
11.6557722947
 20
81.9229085428
 30
0.0
 10
11.6420139954
 20
81.9576100782
 30
0.0
 10
11.6420128087
 20
81.97320985
 30
0.0
  0
SPLINE
  5
5DC
100
AcDbEntity
  8
0
100
AcDbSpline
 62
7
  6
CONTINUOUS
 70
0
 71
3
 72
9
 73
5
 74
0
 42
0.0000001
 43
0.0000001
 44
0.0000000001
 40
0.0
 40
0.0
 40
0.0
 40
0.0
 40
0.2422036883
 40
1.0
 40
1.0
 40
1.0
 40
1.0
 10
13.6420260848
 20
78.9630045312
 30
0.0
 10
13.6190724533
 20
78.9762565167
 30
0.0
 10
13.5253601834
 20
79.0327939376
 30
0.0
 10
13.4358458393
 20
79.0961972608
 30
0.0
 10
13.3704719024
 20
79.1472163629
 30
0.0
  0
SPLINE
  5
5DD
100
AcDbEntity
  8
0
100
AcDbSpline
 62
7
  6
CONTINUOUS
 70
0
 71
3
 72
11
 73
7
 74
0
 42
0.0000001
 43
0.0000001
 44
0.0000000001
 40
0.0
 40
0.0
 40
0.0
 40
0.0
 40
0.247222529
 40
0.5099111145
 40
0.7672931429
 40
1.0
 40
1.0
 40
1.0
 40
1.0
 10
13.3704719024
 20
79.1472163629
 30
0.0
 10
13.1807967945
 20
79.2952425361
 30
0.0
 10
12.8297513773
 20
79.6532674833
 30
0.0
 10
12.4232357176
 20
80.2850137074
 30
0.0
 10
12.15207843
 20
80.9704639865
 30
0.0
 10
12.0767218756
 20
81.4478889579
 30
0.0
 10
12.0767218756
 20
81.6743621954
 30
0.0
  0
SPLINE
  5
5DE
100
AcDbEntity
  8
0
100
AcDbSpline
 62
7
  6
CONTINUOUS
 70
0
 71
3
 72
11
 73
7
 74
0
 42
0.0000001
 43
0.0000001
 44
0.0000000001
 40
0.0
 40
0.0
 40
0.0
 40
0.0
 40
0.2901141549
 40
0.5493736895
 40
0.782164731
 40
1.0
 40
1.0
 40
1.0
 40
1.0
 10
12.0767218756
 20
96.0451065145
 30
0.0
 10
12.0767218756
 20
96.158938831
 30
0.0
 10
12.0941853759
 20
96.3752581362
 30
0.0
 10
12.1832547488
 20
96.671928444
 30
0.0
 10
12.333363239
 20
96.9112992188
 30
0.0
 10
12.474013544
 20
97.0251182219
 30
0.0
 10
12.5489372441
 20
97.0662513603
 30
0.0
  0
SPLINE
  5
5DF
100
AcDbEntity
  8
0
100
AcDbSpline
 62
7
  6
CONTINUOUS
 70
0
 71
3
 72
15
 73
11
 74
0
 42
0.0000001
 43
0.0000001
 44
0.0000000001
 40
0.0
 40
0.0
 40
0.0
 40
0.0
 40
0.1141241794
 40
0.2373484163
 40
0.3669737125
 40
0.5000011043
 40
0.6330283369
 40
0.7626531571
 40
0.8858766964
 40
1.0
 40
1.0
 40
1.0
 40
1.0
 10
11.7006151628
 20
81.8915602925
 30
0.0
 10
11.7006151628
 20
81.7381202388
 30
0.0
 10
11.7287889771
 20
81.4187149132
 30
0.0
 10
11.8407711224
 20
80.9368724707
 30
0.0
 10
12.0203766965
 20
80.4488015003
 30
0.0
 10
12.2605977107
 20
79.9728732191
 30
0.0
 10
12.5526554338
 20
79.5268738081
 30
0.0
 10
12.8855359955
 20
79.1272988812
 30
0.0
 10
13.2468333354
 20
78.7894029539
 30
0.0
 10
13.5093594419
 20
78.6053045459
 30
0.0
 10
13.6422421583
 20
78.5285864095
 30
0.0
  0
SPLINE
  5
5E0
100
AcDbEntity
  8
0
100
AcDbSpline
 62
7
  6
CONTINUOUS
 70
0
 71
3
 72
12
 73
8
 74
0
 42
0.0000001
 43
0.0000001
 44
0.0000000001
 40
0.0
 40
0.0
 40
0.0
 40
0.0
 40
0.2900791896
 40
0.5471315698
 40
0.7784269194
 40
0.8893759934
 40
1.0
 40
1.0
 40
1.0
 40
1.0
 10
35.2710998569
 20
66.0425965531
 30
0.0
 10
35.4000284401
 20
65.9729569478
 30
0.0
 10
35.6558587015
 20
65.8623953202
 30
0.0
 10
36.0475597626
 20
65.7938597003
 30
0.0
 10
36.3539060367
 20
65.8347650351
 30
0.0
 10
36.5650222101
 20
65.9257923079
 30
0.0
 10
36.6585374674
 20
65.9886568288
 30
0.0
 10
36.7019278214
 20
66.0238714655
 30
0.0
  0
SPLINE
  5
5E1
100
AcDbEntity
  8
0
100
AcDbSpline
 62
7
  6
CONTINUOUS
 70
0
 71
3
 72
11
 73
7
 74
0
 42
0.0000001
 43
0.0000001
 44
0.0000000001
 40
0.0
 40
0.0
 40
0.0
 40
0.0
 40
0.2183664393
 40
0.4539526546
 40
0.7138163052
 40
1.0
 40
1.0
 40
1.0
 40
1.0
 10
36.7019278214
 20
66.0238714655
 30
0.0
 10
36.7751979473
 20
66.083335854
 30
0.0
 10
36.909131079
 20
66.2309291527
 30
0.0
 10
37.0498947464
 20
66.5086366329
 30
0.0
 10
37.1338507557
 20
66.8380481046
 30
0.0
 10
37.1507066079
 20
67.07460555
 30
0.0
 10
37.1507066079
 20
67.1982755523
 30
0.0
  0
SPLINE
  5
5E2
100
AcDbEntity
  8
0
100
AcDbSpline
 62
7
  6
CONTINUOUS
 70
0
 71
3
 72
15
 73
11
 74
0
 42
0.0000001
 43
0.0000001
 44
0.0000000001
 40
0.0
 40
0.0
 40
0.0
 40
0.0
 40
0.1141241747
 40
0.2373483974
 40
0.3669736605
 40
0.5000010255
 40
0.6330282472
 40
0.7626530916
 40
0.8858766767
 40
1.0
 40
1.0
 40
1.0
 40
1.0
 10
37.1507069858
 20
81.5687178756
 30
0.0
 10
37.150706986
 20
81.7221577139
 30
0.0
 10
37.1225330811
 20
82.0415625709
 30
0.0
 10
37.0105511073
 20
82.5234042762
 30
0.0
 10
36.8309459664
 20
83.0114745412
 30
0.0
 10
36.5907255374
 20
83.4874021944
 30
0.0
 10
36.2986685061
 20
83.9334011611
 30
0.0
 10
35.965788759
 20
84.3329759387
 30
0.0
 10
35.6044922455
 20
84.6708719357
 30
0.0
 10
35.341966563
 20
84.8549703775
 30
0.0
 10
35.2090840049
 20
84.9316884227
 30
0.0
  0
SPLINE
  5
5E3
100
AcDbEntity
  8
0
100
AcDbSpline
 62
7
  6
CONTINUOUS
 70
0
 71
3
 72
11
 73
7
 74
0
 42
0.0000001
 43
0.0000001
 44
0.0000000001
 40
0.0
 40
0.0
 40
0.0
 40
0.0
 40
0.2861828315
 40
0.5460460636
 40
0.7816326153
 40
1.0
 40
1.0
 40
1.0
 40
1.0
 10
13.6422373879
 20
97.3830318719
 30
0.0
 10
13.5351387815
 20
97.4448638825
 30
0.0
 10
13.3218516869
 20
97.5485398137
 30
0.0
 10
12.9946039212
 20
97.6405320042
 30
0.0
 10
12.6837287925
 20
97.6574785865
 30
0.0
 10
12.4889478215
 20
97.6152866706
 30
0.0
 10
12.4008171186
 20
97.5815661178
 30
0.0
  0
SPLINE
  5
5E4
100
AcDbEntity
  8
0
100
AcDbSpline
 62
7
  6
CONTINUOUS
 70
0
 71
3
 72
12
 73
8
 74
0
 42
0.0000001
 43
0.0000001
 44
0.0000000001
 40
0.0
 40
0.0
 40
0.0
 40
0.0
 40
0.1106250647
 40
0.2215751118
 40
0.4528714816
 40
0.7099229731
 40
1.0
 40
1.0
 40
1.0
 40
1.0
 10
12.4008171186
 20
97.5815661178
 30
0.0
 10
12.3486276196
 20
97.5615973816
 30
0.0
 10
12.2474323408
 20
97.5120461492
 30
0.0
 10
12.0630496275
 20
97.3747377435
 30
0.0
 10
11.8744552415
 20
97.1299061378
 30
0.0
 10
11.7379527386
 20
96.7564428491
 30
0.0
 10
11.705778391
 20
96.4796252089
 30
0.0
 10
11.7016183612
 20
96.3331596497
 30
0.0
  0
SPLINE
  5
5E5
100
AcDbEntity
  8
0
100
AcDbSpline
 62
7
  6
CONTINUOUS
 70
0
 71
3
 72
9
 73
5
 74
0
 42
0.0000001
 43
0.0000001
 44
0.0000000001
 40
0.0
 40
0.0
 40
0.0
 40
0.0
 40
0.5500692867
 40
1.0
 40
1.0
 40
1.0
 40
1.0
 10
35.2090840016
 20
66.0772461526
 30
0.0
 10
35.2090840016
 20
66.0581741393
 30
0.0
 10
35.213812052
 20
66.0227365321
 30
0.0
 10
35.2369860505
 20
65.993470894
 30
0.0
 10
35.2504955349
 20
65.985669994
 30
0.0
  0
SPLINE
  5
5E6
100
AcDbEntity
  8
0
100
AcDbSpline
 62
7
  6
CONTINUOUS
 70
0
 71
3
 72
11
 73
7
 74
0
 42
0.0000001
 43
0.0000001
 44
0.0000000001
 40
0.0
 40
0.0
 40
0.0
 40
0.0
 40
0.2378700948
 40
0.5007044955
 40
0.7633121422
 40
1.0
 40
1.0
 40
1.0
 40
1.0
 10
37.4310605301
 20
67.1968631899
 30
0.0
 10
37.4109547187
 20
67.1856534491
 30
0.0
 10
37.3645154756
 20
67.1693989437
 30
0.0
 10
37.2905068649
 20
67.1616560325
 30
0.0
 10
37.2166996952
 20
67.1701123935
 30
0.0
 10
37.1705440778
 20
67.1868226428
 30
0.0
 10
37.1507074897
 20
67.1982750432
 30
0.0
  0
SPLINE
  5
5E7
100
AcDbEntity
  8
0
100
AcDbSpline
 62
7
  6
CONTINUOUS
 70
0
 71
3
 72
11
 73
7
 74
0
 42
0.0000001
 43
0.0000001
 44
0.0000000001
 40
0.0
 40
0.0
 40
0.0
 40
0.0
 40
0.2367450603
 40
0.4989418551
 40
0.7617230554
 40
1.0
 40
1.0
 40
1.0
 40
1.0
 10
13.558064229
 20
100.6348228575
 30
0.0
 10
13.558064229
 20
100.6921038182
 30
0.0
 10
13.5792310002
 20
100.812917658
 30
0.0
 10
13.6535371228
 20
100.9830512257
 30
0.0
 10
13.7624925953
 20
101.133803291
 30
0.0
 10
13.8558780657
 20
101.2140456948
 30
0.0
 10
13.9053683561
 20
101.2436162632
 30
0.0
  0
SPLINE
  5
5E8
100
AcDbEntity
  8
0
100
AcDbSpline
 62
7
  6
CONTINUOUS
 70
0
 71
3
 72
11
 73
7
 74
0
 42
0.0000001
 43
0.0000001
 44
0.0000000001
 40
0.0
 40
0.0
 40
0.0
 40
0.0
 40
0.2901073501
 40
0.549973466
 40
0.7832690011
 40
1.0
 40
1.0
 40
1.0
 40
1.0
 10
13.9054458158
 20
101.2435715429
 30
0.0
 10
13.8831139294
 20
101.256014609
 30
0.0
 10
13.8387834708
 20
101.2763440008
 30
0.0
 10
13.7709635793
 20
101.2920444372
 30
0.0
 10
13.7076127266
 20
101.290140812
 30
0.0
 10
13.6695060771
 20
101.276337366
 30
0.0
 10
13.6529664038
 20
101.2667879081
 30
0.0
  0
SPLINE
  5
5E9
100
AcDbEntity
  8
0
100
AcDbSpline
 62
7
  6
CONTINUOUS
 70
0
 71
3
 72
11
 73
7
 74
0
 42
0.0000001
 43
0.0000001
 44
0.0000000001
 40
0.0
 40
0.0
 40
0.0
 40
0.0
 40
0.2176993754
 40
0.451157504
 40
0.7105829253
 40
1.0
 40
1.0
 40
1.0
 40
1.0
 10
13.6594450828
 20
27.9523985093
 30
0.0
 10
13.6432593265
 20
27.9620727079
 30
0.0
 10
13.613048048
 20
27.9881762546
 30
0.0
 10
13.580905227
 20
28.0416168328
 30
0.0
 10
13.5618335584
 20
28.1072506328
 30
0.0
 10
13.558064229
 20
28.1549451233
 30
0.0
 10
13.558064229
 20
28.1800136497
 30
0.0
  0
SPLINE
  5
5EA
100
AcDbEntity
  8
0
100
AcDbSpline
 62
7
  6
CONTINUOUS
 70
0
 71
3
 72
17
 73
13
 74
0
 42
0.0000001
 43
0.0000001
 44
0.0000000001
 40
0.0
 40
0.0
 40
0.0
 40
0.0
 40
0.243185133
 40
0.4535459945
 40
0.6289387633
 40
0.7682082536
 40
0.8729131825
 40
0.9450524202
 40
0.9695372342
 40
0.9866630413
 40
0.9967204232
 40
1.0
 40
1.0
 40
1.0
 40
1.0
 10
13.558064229
 20
30.9093809607
 30
0.0
 10
13.546316877
 20
30.9162199649
 30
0.0
 10
13.5242878419
 20
30.9287668564
 30
0.0
 10
13.4934837121
 20
30.9457204859
 30
0.0
 10
13.4677029746
 20
30.9597083747
 30
0.0
 10
13.4471260189
 20
30.971023765
 30
0.0
 10
13.4318151669
 20
30.9796379335
 30
0.0
 10
13.4217965534
 20
30.9851935547
 30
0.0
 10
13.4165564095
 20
30.9883114412
 30
0.0
 10
13.4135813307
 20
30.9897592233
 30
0.0
 10
13.4128935899
 20
30.9905528217
 30
0.0
 10
13.4114380005
 20
30.9909652589
 30
0.0
 10
13.4116061003
 20
30.9910383823
 30
0.0
  0
SPLINE
  5
5EB
100
AcDbEntity
  8
0
100
AcDbSpline
 62
7
  6
CONTINUOUS
 70
0
 71
3
 72
18
 73
14
 74
0
 42
0.0000001
 43
0.0000001
 44
0.0000000001
 40
0.0
 40
0.0
 40
0.0
 40
0.0
 40
0.2408506185
 40
0.4518115052
 40
0.6286489877
 40
0.768633739
 40
0.873381112
 40
0.9132882391
 40
0.9452828915
 40
0.969663571
 40
0.9867210065
 40
0.9967387138
 40
1.0
 40
1.0
 40
1.0
 40
1.0
 10
14.6032427666
 20
31.5521116717
 30
0.0
 10
14.591288134
 20
31.5588951724
 30
0.0
 10
14.5688142552
 20
31.5715363798
 30
0.0
 10
14.5374493761
 20
31.588950681
 30
0.0
 10
14.5110724988
 20
31.6035024585
 30
0.0
 10
14.4900458684
 20
31.6151699381
 30
0.0
 10
14.4758281889
 20
31.6230801365
 30
0.0
 10
14.4670726415
 20
31.6280001708
 30
0.0
 10
14.4621944372
 20
31.6306917628
 30
0.0
 10
14.4587538763
 20
31.6327314023
 30
0.0
 10
14.4557226481
 20
31.6341944686
 30
0.0
 10
14.4550188125
 20
31.6350002412
 30
0.0
 10
14.4535426161
 20
31.6354169557
 30
0.0
 10
14.4537124432
 20
31.635493107
 30
0.0
  0
SPLINE
  5
5EC
100
AcDbEntity
  8
0
100
AcDbSpline
 62
7
  6
CONTINUOUS
 70
0
 71
3
 72
11
 73
7
 74
0
 42
0.0000001
 43
0.0000001
 44
0.0000000001
 40
0.0
 40
0.0
 40
0.0
 40
0.0
 40
0.218657326
 40
0.454794561
 40
0.71452235
 40
1.0
 40
1.0
 40
1.0
 40
1.0
 10
29.0708927959
 20
67.4485383796
 30
0.0
 10
29.1056741403
 20
67.4785808817
 30
0.0
 10
29.1689328642
 20
67.5521302059
 30
0.0
 10
29.2354042966
 20
67.6882357647
 30
0.0
 10
29.2750525302
 20
67.8486316739
 30
0.0
 10
29.2830257141
 20
67.9634975572
 30
0.0
 10
29.2830257141
 20
68.0235022543
 30
0.0
  0
SPLINE
  5
5ED
100
AcDbEntity
  8
0
100
AcDbSpline
 62
7
  6
CONTINUOUS
 70
0
 71
3
 72
9
 73
5
 74
0
 42
0.0000001
 43
0.0000001
 44
0.0000000001
 40
0.0
 40
0.0
 40
0.0
 40
0.0
 40
0.2553895935
 40
1.0
 40
1.0
 40
1.0
 40
1.0
 10
16.76031495
 20
32.3502535248
 30
0.0
 10
16.76031495
 20
32.3759827044
 30
0.0
 10
16.7614953806
 20
32.4767219863
 30
0.0
 10
16.7674892426
 20
32.5774211726
 30
0.0
 10
16.774971369
 20
32.6520627473
 30
0.0
  0
SPLINE
  5
5EE
100
AcDbEntity
  8
0
100
AcDbSpline
 62
7
  6
CONTINUOUS
 70
0
 71
3
 72
9
 73
5
 74
0
 42
0.0000001
 43
0.0000001
 44
0.0000000001
 40
0.0
 40
0.0
 40
0.0
 40
0.0
 40
0.4749749655
 40
1.0
 40
1.0
 40
1.0
 40
1.0
 10
29.2830257141
 20
68.0235022543
 30
0.0
 10
29.2830257141
 20
68.1584366399
 30
0.0
 10
29.2396134243
 20
68.44273707
 30
0.0
 10
29.1371075066
 20
68.7097609755
 30
0.0
 10
29.0708927878
 20
68.8434105988
 30
0.0
  0
SPLINE
  5
5EF
100
AcDbEntity
  8
0
100
AcDbSpline
 62
7
  6
CONTINUOUS
 70
0
 71
3
 72
9
 73
5
 74
0
 42
0.0000001
 43
0.0000001
 44
0.0000000001
 40
0.0
 40
0.0
 40
0.0
 40
0.0
 40
0.2548138197
 40
1.0
 40
1.0
 40
1.0
 40
1.0
 10
16.774971369
 20
32.0315209102
 30
0.0
 10
16.7725458711
 20
32.0585182996
 30
0.0
 10
16.764148875
 20
32.164563959
 30
0.0
 10
16.76031495
 20
32.2709834499
 30
0.0
 10
16.76031495
 20
32.3502535248
 30
0.0
  0
SPLINE
  5
5F0
100
AcDbEntity
  8
0
100
AcDbSpline
 62
7
  6
CONTINUOUS
 70
0
 71
3
 72
13
 73
9
 74
0
 42
0.0000001
 43
0.0000001
 44
0.0000000001
 40
0.0
 40
0.0
 40
0.0
 40
0.0
 40
0.1154269493
 40
0.2405204945
 40
0.5060363762
 40
0.7682412844
 40
0.8893541975
 40
1.0
 40
1.0
 40
1.0
 40
1.0
 10
59.8078326845
 20
93.078468897
 30
0.0
 10
59.8727398836
 20
93.1159428622
 30
0.0
 10
60.0008067927
 20
93.2067870035
 30
0.0
 10
60.2387223853
 20
93.4346522863
 30
0.0
 10
60.4847244419
 20
93.785181395
 30
0.0
 10
60.6443236406
 20
94.1801159322
 30
0.0
 10
60.7014649673
 20
94.4966901484
 30
0.0
 10
60.704472819
 20
94.648110807
 30
0.0
 10
60.6985056316
 20
94.7197063707
 30
0.0
  0
SPLINE
  5
5F1
100
AcDbEntity
  8
0
100
AcDbSpline
 62
7
  6
CONTINUOUS
 70
0
 71
3
 72
11
 73
7
 74
0
 42
0.0000001
 43
0.0000001
 44
0.0000000001
 40
0.0
 40
0.0
 40
0.0
 40
0.0
 40
0.218657326
 40
0.454794561
 40
0.71452235
 40
1.0
 40
1.0
 40
1.0
 40
1.0
 10
29.0708927959
 20
39.4506704962
 30
0.0
 10
29.1056741403
 20
39.4807129984
 30
0.0
 10
29.1689328642
 20
39.5542623225
 30
0.0
 10
29.2354042966
 20
39.6903678813
 30
0.0
 10
29.2750525302
 20
39.8507637905
 30
0.0
 10
29.2830257141
 20
39.9656296738
 30
0.0
 10
29.2830257141
 20
40.0256343709
 30
0.0
  0
SPLINE
  5
5F2
100
AcDbEntity
  8
0
100
AcDbSpline
 62
7
  6
CONTINUOUS
 70
0
 71
3
 72
9
 73
5
 74
0
 42
0.0000001
 43
0.0000001
 44
0.0000000001
 40
0.0
 40
0.0
 40
0.0
 40
0.0
 40
0.4749749655
 40
1.0
 40
1.0
 40
1.0
 40
1.0
 10
29.2830257141
 20
40.0256343709
 30
0.0
 10
29.2830257141
 20
40.1605687565
 30
0.0
 10
29.2396134243
 20
40.4448691866
 30
0.0
 10
29.1371075066
 20
40.7118930922
 30
0.0
 10
29.0708927878
 20
40.8455427154
 30
0.0
  0
SPLINE
  5
5F3
100
AcDbEntity
  8
0
100
AcDbSpline
 62
7
  6
CONTINUOUS
 70
0
 71
3
 72
9
 73
5
 74
0
 42
0.0000001
 43
0.0000001
 44
0.0000000001
 40
0.0
 40
0.0
 40
0.0
 40
0.0
 40
0.2451608812
 40
1.0
 40
1.0
 40
1.0
 40
1.0
 10
12.8704750228
 20
97.1574158783
 30
0.0
 10
12.8630622548
 20
97.147292989
 30
0.0
 10
12.8337228533
 20
97.1053494106
 30
0.0
 10
12.807977154
 20
97.0609195404
 30
0.0
 10
12.7905283806
 20
97.0264536943
 30
0.0
  0
SPLINE
  5
5F4
100
AcDbEntity
  8
0
100
AcDbSpline
 62
7
  6
CONTINUOUS
 70
0
 71
3
 72
9
 73
5
 74
0
 42
0.0000001
 43
0.0000001
 44
0.0000000001
 40
0.0
 40
0.0
 40
0.0
 40
0.0
 40
0.2285691091
 40
1.0
 40
1.0
 40
1.0
 40
1.0
 10
12.7905283806
 20
97.0264536943
 30
0.0
 10
12.7671758315
 20
96.9803263621
 30
0.0
 10
12.680310533
 20
96.7707146473
 30
0.0
 10
12.6522790623
 20
96.5403100905
 30
0.0
 10
12.6522790623
 20
96.3658143438
 30
0.0
  0
SPLINE
  5
5F5
100
AcDbEntity
  8
0
100
AcDbSpline
 62
7
  6
CONTINUOUS
 70
0
 71
3
 72
11
 73
7
 74
0
 42
0.0000001
 43
0.0000001
 44
0.0000000001
 40
0.0
 40
0.0
 40
0.0
 40
0.0
 40
0.218657326
 40
0.454794561
 40
0.71452235
 40
1.0
 40
1.0
 40
1.0
 40
1.0
 10
29.0708927959
 20
42.5615447055
 30
0.0
 10
29.1056741403
 20
42.5915872076
 30
0.0
 10
29.1689328642
 20
42.6651365317
 30
0.0
 10
29.2354042966
 20
42.8012420906
 30
0.0
 10
29.2750525302
 20
42.9616379998
 30
0.0
 10
29.2830257141
 20
43.076503883
 30
0.0
 10
29.2830257141
 20
43.1365085802
 30
0.0
  0
SPLINE
  5
5F6
100
AcDbEntity
  8
0
100
AcDbSpline
 62
7
  6
CONTINUOUS
 70
0
 71
3
 72
9
 73
5
 74
0
 42
0.0000001
 43
0.0000001
 44
0.0000000001
 40
0.0
 40
0.0
 40
0.0
 40
0.0
 40
0.4749749655
 40
1.0
 40
1.0
 40
1.0
 40
1.0
 10
29.2830257141
 20
43.1365085802
 30
0.0
 10
29.2830257141
 20
43.2714429658
 30
0.0
 10
29.2396134243
 20
43.5557433959
 30
0.0
 10
29.1371075066
 20
43.8227673014
 30
0.0
 10
29.0708927878
 20
43.9564169247
 30
0.0
  0
SPLINE
  5
5F7
100
AcDbEntity
  8
0
100
AcDbSpline
 62
7
  6
CONTINUOUS
 70
0
 71
3
 72
9
 73
5
 74
0
 42
0.0000001
 43
0.0000001
 44
0.0000000001
 40
0.0
 40
0.0
 40
0.0
 40
0.0
 40
0.4500052123
 40
1.0
 40
1.0
 40
1.0
 40
1.0
 10
11.6420122029
 20
96.343652394
 30
0.0
 10
11.6420081287
 20
96.3280516874
 30
0.0
 10
11.6558154462
 20
96.2933724811
 30
0.0
 10
11.6841023774
 20
96.2715361095
 30
0.0
 10
11.7006151628
 20
96.262002834
 30
0.0
  0
SPLINE
  5
5F8
100
AcDbEntity
  8
0
100
AcDbSpline
 62
7
  6
CONTINUOUS
 70
0
 71
3
 72
18
 73
14
 74
0
 42
0.0000001
 43
0.0000001
 44
0.0000000001
 40
0.0
 40
0.0
 40
0.0
 40
0.0
 40
0.1286617873
 40
0.2702093511
 40
0.4173254079
 40
0.5616295315
 40
0.6952644509
 40
0.75627021
 40
0.8127610373
 40
0.8647134537
 40
0.912533241
 40
0.9571511917
 40
1.0
 40
1.0
 40
1.0
 40
1.0
 10
21.762201092
 20
29.4624785444
 30
0.0
 10
21.762201092
 20
29.7684965965
 30
0.0
 10
21.6765925416
 20
30.4119229568
 30
0.0
 10
21.357070739
 20
31.3565984254
 30
0.0
 10
20.8646108577
 20
32.2667631111
 30
0.0
 10
20.2394561719
 20
33.0671424158
 30
0.0
 10
19.6311311727
 20
33.6059181132
 30
0.0
 10
19.1204633674
 20
33.9184663962
 30
0.0
 10
18.7505334575
 20
34.0819181954
 30
0.0
 10
18.3896192091
 20
34.1778675329
 30
0.0
 10
18.044743776
 20
34.2031797874
 30
0.0
 10
17.7235778989
 20
34.1561800956
 30
0.0
 10
17.5290363125
 20
34.0752796556
 30
0.0
 10
17.4407667705
 20
34.0243378794
 30
0.0
  0
SPLINE
  5
5F9
100
AcDbEntity
  8
0
100
AcDbSpline
 62
7
  6
CONTINUOUS
 70
0
 71
3
 72
11
 73
7
 74
0
 42
0.0000001
 43
0.0000001
 44
0.0000000001
 40
0.0
 40
0.0
 40
0.0
 40
0.0
 40
0.218657326
 40
0.454794561
 40
0.71452235
 40
1.0
 40
1.0
 40
1.0
 40
1.0
 10
29.0708927959
 20
45.6724189147
 30
0.0
 10
29.1056741403
 20
45.7024614169
 30
0.0
 10
29.1689328642
 20
45.776010741
 30
0.0
 10
29.2354042966
 20
45.9121162998
 30
0.0
 10
29.2750525302
 20
46.0725122091
 30
0.0
 10
29.2830257141
 20
46.1873780923
 30
0.0
 10
29.2830257141
 20
46.2473827894
 30
0.0
  0
SPLINE
  5
5FA
100
AcDbEntity
  8
0
100
AcDbSpline
 62
7
  6
CONTINUOUS
 70
0
 71
3
 72
9
 73
5
 74
0
 42
0.0000001
 43
0.0000001
 44
0.0000000001
 40
0.0
 40
0.0
 40
0.0
 40
0.0
 40
0.4749749655
 40
1.0
 40
1.0
 40
1.0
 40
1.0
 10
29.2830257141
 20
46.2473827894
 30
0.0
 10
29.2830257141
 20
46.382317175
 30
0.0
 10
29.2396134243
 20
46.6666176051
 30
0.0
 10
29.1371075066
 20
46.9336415107
 30
0.0
 10
29.0708927878
 20
47.0672911339
 30
0.0
  0
LINE
  5
5FB
100
AcDbEntity
  8
0
100
AcDbLine
 62
7
  6
CONTINUOUS
 10
46.3628650187
 20
121.4577866495
 11
46.583953571
 21
121.0610906916
  0
SPLINE
  5
5FC
100
AcDbEntity
  8
0
100
AcDbSpline
 62
7
  6
CONTINUOUS
 70
0
 71
3
 72
9
 73
5
 74
0
 42
0.0000001
 43
0.0000001
 44
0.0000000001
 40
0.0
 40
0.0
 40
0.0
 40
0.0
 40
0.2540322674
 40
1.0
 40
1.0
 40
1.0
 40
1.0
 10
46.9197467849
 20
121.4166933224
 30
0.0
 10
46.8745579127
 20
121.4315923564
 30
0.0
 10
46.6943767512
 20
121.4813319809
 30
0.0
 10
46.498814346
 20
121.4900444859
 30
0.0
 10
46.3628650374
 20
121.4577866692
 30
0.0
  0
SPLINE
  5
5FD
100
AcDbEntity
  8
0
100
AcDbSpline
 62
7
  6
CONTINUOUS
 70
0
 71
3
 72
11
 73
7
 74
0
 42
0.0000001
 43
0.0000001
 44
0.0000000001
 40
0.0
 40
0.0
 40
0.0
 40
0.0
 40
0.2370464936
 40
0.4999961479
 40
0.7629497482
 40
1.0
 40
1.0
 40
1.0
 40
1.0
 10
46.2377988744
 20
121.4598362065
 30
0.0
 10
46.2177401088
 20
121.4482546805
 30
0.0
 10
46.1798189725
 20
121.4162124168
 30
0.0
 10
46.1353271601
 20
121.3557059294
 30
0.0
 10
46.1051732537
 20
121.2869213068
 30
0.0
 10
46.0963834918
 20
121.2380587499
 30
0.0
 10
46.0963834918
 20
121.2148962192
 30
0.0
  0
SPLINE
  5
5FE
100
AcDbEntity
  8
0
100
AcDbSpline
 62
7
  6
CONTINUOUS
 70
0
 71
3
 72
9
 73
5
 74
0
 42
0.0000001
 43
0.0000001
 44
0.0000000001
 40
0.0
 40
0.0
 40
0.0
 40
0.0
 40
0.2566886434
 40
1.0
 40
1.0
 40
1.0
 40
1.0
 10
41.9951812359
 20
118.3501041087
 30
0.0
 10
41.922293852
 20
118.3267710156
 30
0.0
 10
41.6368687125
 20
118.2405887425
 30
0.0
 10
41.3454682047
 20
118.1737797103
 30
0.0
 10
41.1269100658
 20
118.1370896107
 30
0.0
  0
SPLINE
  5
5FF
100
AcDbEntity
  8
0
100
AcDbSpline
 62
7
  6
CONTINUOUS
 70
0
 71
3
 72
9
 73
5
 74
0
 42
0.0000001
 43
0.0000001
 44
0.0000000001
 40
0.0
 40
0.0
 40
0.0
 40
0.0
 40
0.2588696988
 40
1.0
 40
1.0
 40
1.0
 40
1.0
 10
43.1775111938
 20
119.1805931516
 30
0.0
 10
43.0791267643
 20
119.1307099276
 30
0.0
 10
42.6954575875
 20
118.9453236743
 30
0.0
 10
42.2969084218
 20
118.7899845337
 30
0.0
 10
41.9951812359
 20
118.6967432306
 30
0.0
  0
SPLINE
  5
600
100
AcDbEntity
  8
0
100
AcDbSpline
 62
7
  6
CONTINUOUS
 70
0
 71
3
 72
9
 73
5
 74
0
 42
0.0000001
 43
0.0000001
 44
0.0000000001
 40
0.0
 40
0.0
 40
0.0
 40
0.0
 40
0.2554849502
 40
1.0
 40
1.0
 40
1.0
 40
1.0
 10
44.0457823639
 20
119.3432834604
 30
0.0
 10
43.9740100582
 20
119.2969981035
 30
0.0
 10
43.6909464378
 20
119.1191818215
 30
0.0
 10
43.3992345065
 20
118.9550248578
 30
0.0
 10
43.1775111938
 20
118.8419898589
 30
0.0
  0
SPLINE
  5
601
100
AcDbEntity
  8
0
100
AcDbSpline
 62
7
  6
CONTINUOUS
 70
0
 71
3
 72
9
 73
5
 74
0
 42
0.0000001
 43
0.0000001
 44
0.0000000001
 40
0.0
 40
0.0
 40
0.0
 40
0.0
 40
0.2565443366
 40
1.0
 40
1.0
 40
1.0
 40
1.0
 10
45.2281123217
 20
120.5632657217
 30
0.0
 10
45.1317840694
 20
120.481803958
 30
0.0
 10
44.7516404801
 20
120.1698532202
 30
0.0
 10
44.3526378675
 20
119.8806278825
 30
0.0
 10
44.0457823639
 20
119.6818867531
 30
0.0
  0
SPLINE
  5
602
100
AcDbEntity
  8
0
100
AcDbSpline
 62
7
  6
CONTINUOUS
 70
0
 71
3
 72
9
 73
5
 74
0
 42
0.0000001
 43
0.0000001
 44
0.0000000001
 40
0.0
 40
0.0
 40
0.0
 40
0.0
 40
0.2556762906
 40
1.0
 40
1.0
 40
1.0
 40
1.0
 10
44.9815128135
 20
120.5173910848
 30
0.0
 10
44.8998725295
 20
120.4507986244
 30
0.0
 10
44.5772581593
 20
120.1944359374
 30
0.0
 10
44.2412441441
 20
119.9547990072
 30
0.0
 10
43.9838735691
 20
119.7879729208
 30
0.0
  0
SPLINE
  5
603
100
AcDbEntity
  8
0
100
AcDbSpline
 62
7
  6
CONTINUOUS
 70
0
 71
3
 72
9
 73
5
 74
0
 42
0.0000001
 43
0.0000001
 44
0.0000000001
 40
0.0
 40
0.0
 40
0.0
 40
0.0
 40
0.2589686321
 40
1.0
 40
1.0
 40
1.0
 40
1.0
 10
43.1166735817
 20
119.2872977632
 30
0.0
 10
43.0181918027
 20
119.2374167862
 30
0.0
 10
42.6342689971
 20
119.0521690968
 30
0.0
 10
42.2352949658
 20
118.8973482369
 30
0.0
 10
41.9332724412
 20
118.8047851526
 30
0.0
  0
LINE
  5
604
100
AcDbEntity
  8
0
100
AcDbLine
 62
7
  6
CONTINUOUS
 10
41.9332724412
 20
118.8047851526
 11
41.9951812359
 21
118.6967432306
  0
LINE
  5
605
100
AcDbEntity
  8
0
100
AcDbLine
 62
7
  6
CONTINUOUS
 10
41.9951812359
 20
118.3501041087
 11
41.277387308
 21
118.7662937965
  0
SPLINE
  5
606
100
AcDbEntity
  8
0
100
AcDbSpline
 62
7
  6
CONTINUOUS
 70
0
 71
3
 72
11
 73
7
 74
0
 42
0.0000001
 43
0.0000001
 44
0.0000000001
 40
0.0
 40
0.0
 40
0.0
 40
0.0
 40
0.218657326
 40
0.454794561
 40
0.71452235
 40
1.0
 40
1.0
 40
1.0
 40
1.0
 10
29.0708927959
 20
48.783293124
 30
0.0
 10
29.1056741403
 20
48.8133356262
 30
0.0
 10
29.1689328642
 20
48.8868849503
 30
0.0
 10
29.2354042966
 20
49.0229905091
 30
0.0
 10
29.2750525302
 20
49.1833864183
 30
0.0
 10
29.2830257141
 20
49.2982523016
 30
0.0
 10
29.2830257141
 20
49.3582569987
 30
0.0
  0
SPLINE
  5
607
100
AcDbEntity
  8
0
100
AcDbSpline
 62
7
  6
CONTINUOUS
 70
0
 71
3
 72
9
 73
5
 74
0
 42
0.0000001
 43
0.0000001
 44
0.0000000001
 40
0.0
 40
0.0
 40
0.0
 40
0.0
 40
0.4749749655
 40
1.0
 40
1.0
 40
1.0
 40
1.0
 10
29.2830257141
 20
49.3582569987
 30
0.0
 10
29.2830257141
 20
49.4931913843
 30
0.0
 10
29.2396134243
 20
49.7774918144
 30
0.0
 10
29.1371075066
 20
50.04451572
 30
0.0
 10
29.0708927878
 20
50.1781653432
 30
0.0
  0
SPLINE
  5
608
100
AcDbEntity
  8
0
100
AcDbSpline
 62
7
  6
CONTINUOUS
 70
0
 71
3
 72
9
 73
5
 74
0
 42
0.0000001
 43
0.0000001
 44
0.0000000001
 40
0.0
 40
0.0
 40
0.0
 40
0.0
 40
0.5493463103
 40
1.0
 40
1.0
 40
1.0
 40
1.0
 10
39.8640044961
 20
119.0977284067
 30
0.0
 10
39.8801426001
 20
119.1070862478
 30
0.0
 10
39.9123932215
 20
119.1205187888
 30
0.0
 10
39.9485394818
 20
119.1160136547
 30
0.0
 10
39.9620178332
 20
119.1087657934
 30
0.0
  0
SPLINE
  5
609
100
AcDbEntity
  8
0
100
AcDbSpline
 62
7
  6
CONTINUOUS
 70
0
 71
3
 72
11
 73
7
 74
0
 42
0.0000001
 43
0.0000001
 44
0.0000000001
 40
0.0
 40
0.0
 40
0.0
 40
0.0
 40
0.2177793802
 40
0.4509223191
 40
0.7102594916
 40
1.0
 40
1.0
 40
1.0
 40
1.0
 10
21.0207297815
 20
27.8236230117
 30
0.0
 10
21.1388317993
 20
27.8917815908
 30
0.0
 10
21.3597662546
 20
28.0775655989
 30
0.0
 10
21.5949853918
 20
28.4621298891
 30
0.0
 10
21.7347374563
 20
28.9360953277
 30
0.0
 10
21.762201092
 20
29.2810627399
 30
0.0
 10
21.762201092
 20
29.4624785444
 30
0.0
  0
SPLINE
  5
60A
100
AcDbEntity
  8
0
100
AcDbSpline
 62
7
  6
CONTINUOUS
 70
0
 71
3
 72
10
 73
6
 74
0
 42
0.0000001
 43
0.0000001
 44
0.0000000001
 40
0.0
 40
0.0
 40
0.0
 40
0.0
 40
0.6396217103
 40
0.8498430731
 40
1.0
 40
1.0
 40
1.0
 40
1.0
 10
44.6762471745
 20
122.4236767637
 30
0.0
 10
44.7095005817
 20
122.4658175183
 30
0.0
 10
44.7516906749
 20
122.5240259478
 30
0.0
 10
44.7885199696
 20
122.5995523414
 30
0.0
 10
44.7971073733
 20
122.6289345544
 30
0.0
 10
44.7984615908
 20
122.6414636384
 30
0.0
  0
SPLINE
  5
60B
100
AcDbEntity
  8
0
100
AcDbSpline
 62
7
  6
CONTINUOUS
 70
0
 71
3
 72
10
 73
6
 74
0
 42
0.0000001
 43
0.0000001
 44
0.0000000001
 40
0.0
 40
0.0
 40
0.0
 40
0.0
 40
0.454479182
 40
0.7489680068
 40
1.0
 40
1.0
 40
1.0
 40
1.0
 10
44.4182264332
 20
122.1837773935
 30
0.0
 10
44.4563240185
 20
122.2083626468
 30
0.0
 10
44.5154339437
 20
122.2545613256
 30
0.0
 10
44.5891737025
 20
122.3217281022
 30
0.0
 10
44.6266286523
 20
122.3614249772
 30
0.0
 10
44.6422880108
 20
122.3809700581
 30
0.0
  0
SPLINE
  5
60C
100
AcDbEntity
  8
0
100
AcDbSpline
 62
7
  6
CONTINUOUS
 70
0
 71
3
 72
11
 73
7
 74
0
 42
0.0000001
 43
0.0000001
 44
0.0000000001
 40
0.0
 40
0.0
 40
0.0
 40
0.0
 40
0.218657326
 40
0.454794561
 40
0.71452235
 40
1.0
 40
1.0
 40
1.0
 40
1.0
 10
29.0708927959
 20
51.8941673333
 30
0.0
 10
29.1056741403
 20
51.9242098354
 30
0.0
 10
29.1689328642
 20
51.9977591595
 30
0.0
 10
29.2354042966
 20
52.1338647184
 30
0.0
 10
29.2750525302
 20
52.2942606276
 30
0.0
 10
29.2830257141
 20
52.4091265108
 30
0.0
 10
29.2830257141
 20
52.469131208
 30
0.0
  0
SPLINE
  5
60D
100
AcDbEntity
  8
0
100
AcDbSpline
 62
7
  6
CONTINUOUS
 70
0
 71
3
 72
10
 73
6
 74
0
 42
0.0000001
 43
0.0000001
 44
0.0000000001
 40
0.0
 40
0.0
 40
0.0
 40
0.0
 40
0.2839341081
 40
0.5444189397
 40
1.0
 40
1.0
 40
1.0
 40
1.0
 10
45.1673532093
 20
122.1596000118
 30
0.0
 10
45.2027927999
 20
122.1801501373
 30
0.0
 10
45.2735514445
 20
122.2152171527
 30
0.0
 10
45.4112745411
 20
122.2586107197
 30
0.0
 10
45.5192917254
 20
122.2608020064
 30
0.0
 10
45.5828320284
 20
122.2439682739
 30
0.0
  0
SPLINE
  5
60E
100
AcDbEntity
  8
0
100
AcDbSpline
 62
7
  6
CONTINUOUS
 70
0
 71
3
 72
8
 73
4
 74
0
 42
0.0000001
 43
0.0000001
 44
0.0000000001
 40
0.0
 40
0.0
 40
0.0
 40
0.0
 40
1.0
 40
1.0
 40
1.0
 40
1.0
 10
45.5828320284
 20
122.2439682739
 30
0.0
 10
45.6086469753
 20
122.23712912
 30
0.0
 10
45.6338553733
 20
122.2272555186
 30
0.0
 10
45.6573716531
 20
122.2145996862
 30
0.0
  0
SPLINE
  5
60F
100
AcDbEntity
  8
0
100
AcDbSpline
 62
7
  6
CONTINUOUS
 70
0
 71
3
 72
9
 73
5
 74
0
 42
0.0000001
 43
0.0000001
 44
0.0000000001
 40
0.0
 40
0.0
 40
0.0
 40
0.0
 40
0.4749749655
 40
1.0
 40
1.0
 40
1.0
 40
1.0
 10
29.2830257141
 20
52.469131208
 30
0.0
 10
29.2830257141
 20
52.6040655936
 30
0.0
 10
29.2396134243
 20
52.8883660236
 30
0.0
 10
29.1371075066
 20
53.1553899292
 30
0.0
 10
29.0708927878
 20
53.2890395525
 30
0.0
  0
SPLINE
  5
610
100
AcDbEntity
  8
0
100
AcDbSpline
 62
7
  6
CONTINUOUS
 70
0
 71
3
 72
17
 73
13
 74
0
 42
0.0000001
 43
0.0000001
 44
0.0000000001
 40
0.0
 40
0.0
 40
0.0
 40
0.0
 40
0.0428181852
 40
0.0872219659
 40
0.1345291049
 40
0.18562787
 40
0.3003788752
 40
0.4312215828
 40
0.5735841497
 40
0.7207623492
 40
0.8652444384
 40
1.0
 40
1.0
 40
1.0
 40
1.0
 10
18.9115504698
 20
34.8734725056
 30
0.0
 10
18.9949091191
 20
34.9216254115
 30
0.0
 10
19.1775048481
 20
34.999069061
 30
0.0
 10
19.4781739561
 20
35.0494189987
 30
0.0
 10
19.8010232187
 20
35.0350198529
 30
0.0
 10
20.2701847927
 20
34.9273173865
 30
0.0
 10
20.8752649036
 20
34.626004105
 30
0.0
 10
21.5548546068
 20
34.0712903985
 30
0.0
 10
22.1715994741
 20
33.3490450003
 30
0.0
 10
22.6804545934
 20
32.5116004856
 30
0.0
 10
23.0446263744
 20
31.6205807296
 30
0.0
 10
23.1798503026
 20
31.0027828479
 30
0.0
 10
23.2117637817
 20
30.7015004581
 30
0.0
  0
SPLINE
  5
611
100
AcDbEntity
  8
0
100
AcDbSpline
 62
7
  6
CONTINUOUS
 70
0
 71
3
 72
11
 73
7
 74
0
 42
0.0000001
 43
0.0000001
 44
0.0000000001
 40
0.0
 40
0.0
 40
0.0
 40
0.0
 40
0.2367304478
 40
0.4993669664
 40
0.7623262769
 40
1.0
 40
1.0
 40
1.0
 40
1.0
 10
39.0862216616
 20
117.8235305138
 30
0.0
 10
39.0852334552
 20
117.9399250284
 30
0.0
 10
39.1258997521
 20
118.186198721
 30
0.0
 10
39.2774825628
 20
118.5322500714
 30
0.0
 10
39.4998996802
 20
118.8380515177
 30
0.0
 10
39.6918741129
 20
118.9986032035
 30
0.0
 10
39.7931898204
 20
119.0568438594
 30
0.0
  0
SPLINE
  5
612
100
AcDbEntity
  8
0
100
AcDbSpline
 62
7
  6
CONTINUOUS
 70
0
 71
3
 72
11
 73
7
 74
0
 42
0.0000001
 43
0.0000001
 44
0.0000000001
 40
0.0
 40
0.0
 40
0.0
 40
0.0
 40
0.217814113
 40
0.4506166622
 40
0.7099167105
 40
1.0
 40
1.0
 40
1.0
 40
1.0
 10
36.8038471259
 20
65.8386602166
 30
0.0
 10
36.9033667754
 20
65.8935026481
 30
0.0
 10
37.0901896928
 20
66.0450173919
 30
0.0
 10
37.2895267403
 20
66.3634402163
 30
0.0
 10
37.407807832
 20
66.757920367
 30
0.0
 10
37.4310605016
 20
67.0455311011
 30
0.0
 10
37.4310605016
 20
67.196863174
 30
0.0
  0
SPLINE
  5
613
100
AcDbEntity
  8
0
100
AcDbSpline
 62
7
  6
CONTINUOUS
 70
0
 71
3
 72
9
 73
5
 74
0
 42
0.0000001
 43
0.0000001
 44
0.0000000001
 40
0.0
 40
0.0
 40
0.0
 40
0.0
 40
0.4694230983
 40
1.0
 40
1.0
 40
1.0
 40
1.0
 10
40.9877646015
 20
118.3544895261
 30
0.0
 10
40.9457582863
 20
118.2976412703
 30
0.0
 10
40.8885085024
 20
118.1535775192
 30
0.0
 10
40.8718769467
 20
118.0032981274
 30
0.0
 10
40.8692345526
 20
117.9234493081
 30
0.0
  0
SPLINE
  5
614
100
AcDbEntity
  8
0
100
AcDbSpline
 62
7
  6
CONTINUOUS
 70
0
 71
3
 72
11
 73
7
 74
0
 42
0.0000001
 43
0.0000001
 44
0.0000000001
 40
0.0
 40
0.0
 40
0.0
 40
0.0
 40
0.2371004542
 40
0.4999984593
 40
0.7628871985
 40
1.0
 40
1.0
 40
1.0
 40
1.0
 10
44.9551345656
 20
121.8738006334
 30
0.0
 10
44.9551345656
 20
121.8969774656
 30
0.0
 10
44.9637348006
 20
121.9458782315
 30
0.0
 10
44.9938019402
 20
122.0147556477
 30
0.0
 10
45.0384098483
 20
122.0752266956
 30
0.0
 10
45.0764433835
 20
122.1071636868
 30
0.0
 10
45.0965379223
 20
122.118714921
 30
0.0
  0
SPLINE
  5
615
100
AcDbEntity
  8
0
100
AcDbSpline
 62
7
  6
CONTINUOUS
 70
0
 71
3
 72
9
 73
5
 74
0
 42
0.0000001
 43
0.0000001
 44
0.0000000001
 40
0.0
 40
0.0
 40
0.0
 40
0.0
 40
0.2432195889
 40
1.0
 40
1.0
 40
1.0
 40
1.0
 10
42.9045335209
 20
120.4104814015
 30
0.0
 10
43.0067289391
 20
120.4765767671
 30
0.0
 10
43.4220663114
 20
120.7557773519
 30
0.0
 10
43.8181053235
 20
121.06338499
 30
0.0
 10
44.1066100442
 20
121.3086853322
 30
0.0
  0
SPLINE
  5
616
100
AcDbEntity
  8
0
100
AcDbSpline
 62
7
  6
CONTINUOUS
 70
0
 71
3
 72
9
 73
5
 74
0
 42
0.0000001
 43
0.0000001
 44
0.0000000001
 40
0.0
 40
0.0
 40
0.0
 40
0.0
 40
0.2453528419
 40
1.0
 40
1.0
 40
1.0
 40
1.0
 10
42.550978606
 20
120.6150273366
 30
0.0
 10
42.6181647711
 20
120.6585453792
 30
0.0
 10
42.8899269508
 20
120.839101949
 30
0.0
 10
43.1534281813
 20
121.0320302116
 30
0.0
 10
43.3475063611
 20
121.1835342976
 30
0.0
  0
SPLINE
  5
617
100
AcDbEntity
  8
0
100
AcDbSpline
 62
7
  6
CONTINUOUS
 70
0
 71
3
 72
9
 73
5
 74
0
 42
0.0000001
 43
0.0000001
 44
0.0000000001
 40
0.0
 40
0.0
 40
0.0
 40
0.0
 40
0.241116637
 40
1.0
 40
1.0
 40
1.0
 40
1.0
 10
40.853932393
 20
119.4307622243
 30
0.0
 10
40.9538089265
 20
119.461169276
 30
0.0
 10
41.3649492644
 20
119.5973365417
 30
0.0
 10
41.763041945
 20
119.7717790781
 30
0.0
 10
42.0560089162
 20
119.9205884169
 30
0.0
  0
SPLINE
  5
618
100
AcDbEntity
  8
0
100
AcDbSpline
 62
7
  6
CONTINUOUS
 70
0
 71
3
 72
11
 73
7
 74
0
 42
0.0000001
 43
0.0000001
 44
0.0000000001
 40
0.0
 40
0.0
 40
0.0
 40
0.0
 40
0.218657326
 40
0.454794561
 40
0.71452235
 40
1.0
 40
1.0
 40
1.0
 40
1.0
 10
29.0708927959
 20
55.0050415425
 30
0.0
 10
29.1056741403
 20
55.0350840447
 30
0.0
 10
29.1689328642
 20
55.1086333688
 30
0.0
 10
29.2354042966
 20
55.2447389276
 30
0.0
 10
29.2750525302
 20
55.4051348369
 30
0.0
 10
29.2830257141
 20
55.5200007201
 30
0.0
 10
29.2830257141
 20
55.5800054172
 30
0.0
  0
SPLINE
  5
619
100
AcDbEntity
  8
0
100
AcDbSpline
 62
7
  6
CONTINUOUS
 70
0
 71
3
 72
9
 73
5
 74
0
 42
0.0000001
 43
0.0000001
 44
0.0000000001
 40
0.0
 40
0.0
 40
0.0
 40
0.0
 40
0.4749749655
 40
1.0
 40
1.0
 40
1.0
 40
1.0
 10
29.2830257141
 20
55.5800054172
 30
0.0
 10
29.2830257141
 20
55.7149398028
 30
0.0
 10
29.2396134243
 20
55.9992402329
 30
0.0
 10
29.1371075066
 20
56.2662641385
 30
0.0
 10
29.0708927878
 20
56.3999137617
 30
0.0
  0
SPLINE
  5
61A
100
AcDbEntity
  8
0
100
AcDbSpline
 62
7
  6
CONTINUOUS
 70
0
 71
3
 72
11
 73
7
 74
0
 42
0.0000001
 43
0.0000001
 44
0.0000000001
 40
0.0
 40
0.0
 40
0.0
 40
0.0
 40
0.218657326
 40
0.454794561
 40
0.71452235
 40
1.0
 40
1.0
 40
1.0
 40
1.0
 10
29.0708927959
 20
58.1159157518
 30
0.0
 10
29.1056741403
 20
58.145958254
 30
0.0
 10
29.1689328642
 20
58.2195075781
 30
0.0
 10
29.2354042966
 20
58.3556131369
 30
0.0
 10
29.2750525302
 20
58.5160090461
 30
0.0
 10
29.2830257141
 20
58.6308749294
 30
0.0
 10
29.2830257141
 20
58.6908796265
 30
0.0
  0
SPLINE
  5
61B
100
AcDbEntity
  8
0
100
AcDbSpline
 62
7
  6
CONTINUOUS
 70
0
 71
3
 72
9
 73
5
 74
0
 42
0.0000001
 43
0.0000001
 44
0.0000000001
 40
0.0
 40
0.0
 40
0.0
 40
0.0
 40
0.4749749655
 40
1.0
 40
1.0
 40
1.0
 40
1.0
 10
29.2830257141
 20
58.6908796265
 30
0.0
 10
29.2830257141
 20
58.8258140121
 30
0.0
 10
29.2396134243
 20
59.1101144422
 30
0.0
 10
29.1371075066
 20
59.3771383478
 30
0.0
 10
29.0708927878
 20
59.510787971
 30
0.0
  0
SPLINE
  5
61C
100
AcDbEntity
  8
0
100
AcDbSpline
 62
7
  6
CONTINUOUS
 70
0
 71
3
 72
11
 73
7
 74
0
 42
0.0000001
 43
0.0000001
 44
0.0000000001
 40
0.0
 40
0.0
 40
0.0
 40
0.0
 40
0.2178317754
 40
0.4506235942
 40
0.7098872281
 40
1.0
 40
1.0
 40
1.0
 40
1.0
 10
36.3297131171
 20
66.409804964
 30
0.0
 10
36.2566195085
 20
66.3654836612
 30
0.0
 10
36.0877001153
 20
66.3005877764
 30
0.0
 10
35.8053080082
 20
66.2902999001
 30
0.0
 10
35.5038179038
 20
66.3615344662
 30
0.0
 10
35.3077277306
 20
66.454588832
 30
0.0
 10
35.2091338753
 20
66.5115107331
 30
0.0
  0
SPLINE
  5
61D
100
AcDbEntity
  8
0
100
AcDbSpline
 62
7
  6
CONTINUOUS
 70
0
 71
3
 72
9
 73
5
 74
0
 42
0.0000001
 43
0.0000001
 44
0.0000000001
 40
0.0
 40
0.0
 40
0.0
 40
0.0
 40
0.4500069856
 40
1.0
 40
1.0
 40
1.0
 40
1.0
 10
13.6836486156
 20
78.4370124676
 30
0.0
 10
13.6701356991
 20
78.4448092817
 30
0.0
 10
13.6470055173
 20
78.4741061865
 30
0.0
 10
13.6422373879
 20
78.5095218904
 30
0.0
 10
13.6422373879
 20
78.5285891636
 30
0.0
  0
SPLINE
  5
61E
100
AcDbEntity
  8
0
100
AcDbSpline
 62
7
  6
CONTINUOUS
 70
0
 71
3
 72
11
 73
7
 74
0
 42
0.0000001
 43
0.0000001
 44
0.0000000001
 40
0.0
 40
0.0
 40
0.0
 40
0.0
 40
0.218657326
 40
0.454794561
 40
0.71452235
 40
1.0
 40
1.0
 40
1.0
 40
1.0
 10
29.0708927959
 20
61.2267899611
 30
0.0
 10
29.1056741403
 20
61.2568324632
 30
0.0
 10
29.1689328642
 20
61.3303817873
 30
0.0
 10
29.2354042966
 20
61.4664873462
 30
0.0
 10
29.2750525302
 20
61.6268832554
 30
0.0
 10
29.2830257141
 20
61.7417491386
 30
0.0
 10
29.2830257141
 20
61.8017538357
 30
0.0
  0
SPLINE
  5
61F
100
AcDbEntity
  8
0
100
AcDbSpline
 62
7
  6
CONTINUOUS
 70
0
 71
3
 72
9
 73
5
 74
0
 42
0.0000001
 43
0.0000001
 44
0.0000000001
 40
0.0
 40
0.0
 40
0.0
 40
0.0
 40
0.4749749655
 40
1.0
 40
1.0
 40
1.0
 40
1.0
 10
29.2830257141
 20
61.8017538357
 30
0.0
 10
29.2830257141
 20
61.9366882213
 30
0.0
 10
29.2396134243
 20
62.2209886514
 30
0.0
 10
29.1371075066
 20
62.488012557
 30
0.0
 10
29.0708927878
 20
62.6216621802
 30
0.0
  0
ELLIPSE
  5
620
100
AcDbEntity
  8
0
100
AcDbEllipse
 62
7
  6
CONTINUOUS
 10
46.0630978959
 20
15.8386095663
 30
0.0
 11
-0.2500750406
 21
0.433145257
 31
0.0
 40
0.5771809715
 41
-3.1590408744
 42
-2.3563381485
  0
ELLIPSE
  5
621
100
AcDbEntity
  8
0
100
AcDbEllipse
 62
7
  6
CONTINUOUS
 10
46.0630978959
 20
88.5072003146
 30
0.0
 11
-0.2499988788
 21
0.4330133492
 31
0.0
 40
0.5775326816
 41
-2.3560335515
 42
-0.7855418112
  0
ELLIPSE
  5
622
100
AcDbEntity
  8
0
100
AcDbEllipse
 62
7
  6
CONTINUOUS
 10
46.1282459886
 20
15.8755511835
 30
0.0
 11
-0.2564237362
 21
0.4292834758
 31
0.0
 40
0.5671943254
 41
-3.3782870896
 42
-3.1500115138
  0
ELLIPSE
  5
623
100
AcDbEntity
  8
0
100
AcDbEllipse
 62
7
  6
CONTINUOUS
 10
46.5691167215
 20
120.5051424781
 30
0.0
 11
0.500029595
 21
0.8660962537
 31
0.0
 40
0.5773080272
 41
-0.7853728888
 42
-0.0087264893
  0
ELLIPSE
  5
624
100
AcDbEntity
  8
0
100
AcDbEllipse
 62
7
  6
CONTINUOUS
 10
44.4477058197
 20
121.7297231867
 30
0.0
 11
0.5001438362
 21
0.8662941196
 31
0.0
 40
0.5771761654
 41
0.0174481314
 42
0.2665860144
  0
ELLIPSE
  5
625
100
AcDbEntity
  8
0
100
AcDbEllipse
 62
7
  6
CONTINUOUS
 10
39.0986171671
 20
118.6414438478
 30
0.0
 11
0.4999915106
 21
0.8660303051
 31
0.0
 40
0.5775278727
 41
1.3041847055
 42
1.8437282393
  0
ELLIPSE
  5
626
100
AcDbEntity
  8
0
100
AcDbEllipse
 62
7
  6
CONTINUOUS
 10
46.1282459886
 20
15.8755511835
 30
0.0
 11
-0.2566508169
 21
0.4291493002
 31
0.0
 40
0.5873434459
 41
3.1325645753
 42
3.9179627387
  0
ELLIPSE
  5
627
100
AcDbEntity
  8
0
100
AcDbEllipse
 62
7
  6
CONTINUOUS
 10
46.1282459886
 20
88.544266308
 30
0.0
 11
-0.243326416
 21
0.4368421
 31
0.0
 40
0.5873432686
 41
4.7214344896
 42
5.506832653
  0
ELLIPSE
  5
628
100
AcDbEntity
  8
0
100
AcDbEllipse
 62
7
  6
CONTINUOUS
 10
46.1282459886
 20
88.544266308
 30
0.0
 11
-0.2566508169
 21
0.4291493002
 31
0.0
 40
0.5873434459
 41
-2.3652225685
 42
-1.5798244051
  0
ELLIPSE
  5
629
100
AcDbEntity
  8
0
100
AcDbEllipse
 62
7
  6
CONTINUOUS
 10
41.2198646162
 20
117.4167687703
 30
0.0
 11
0.499991515
 21
0.8660303025
 31
0.0
 40
0.5773959607
 41
1.3041594617
 42
2.3561436084
  0
ELLIPSE
  5
62A
100
AcDbEntity
  8
0
100
AcDbEllipse
 62
7
  6
CONTINUOUS
 10
40.9345524055
 20
117.5814901984
 30
0.0
 11
0.499991515
 21
0.8660303025
 31
0.0
 40
0.5773959607
 41
0.7854234345
 42
0.7993482728
  0
ENDSEC
  0
SECTION
  2
OBJECTS
  0
DICTIONARY
  5
C
100
AcDbDictionary
280
0
281
1
  3
ACAD_GROUP
350
D
  3
ACAD_MLINESTYLE
350
17
  3
ACAD_LAYOUT
350
1A
  3
ACAD_PLOTSETTINGS
350
19
  3
ACAD_PLOTSTYLENAME
350
E
  0
DICTIONARY
  5
D
102
{ACAD_REACTORS
330
C
102
}
100
AcDbDictionary
280
0
281
1
  0
ACDBDICTIONARYWDFLT
  5
E
102
{ACAD_REACTORS
330
C
102
}
100
AcDbDictionary
281
1
  3
Normal
350
F
100
AcDbDictionaryWithDefault
340
F
  0
DICTIONARY
  5
17
102
{ACAD_REACTORS
330
C
102
}
100
AcDbDictionary
280
0
281
1
  3
Standard
350
18
  0
DICTIONARY
  5
19
102
{ACAD_REACTORS
330
C
102
}
100
AcDbDictionary
281
1
  0
DICTIONARY
  5
1A
102
{ACAD_REACTORS
330
C
102
}
100
AcDbDictionary
281
1
  3
Model
350
62B
  3
Layout1
350
62C
  0
ACDBPLACEHOLDER
  5
F
102
{ACAD_REACTORS
330
E
102
}
  0
MLINESTYLE
  5
18
102
{ACAD_REACTORS
330
17
102
}
100
AcDbMlineStyle
  2
STANDARD
 70
0
  3

 62
256
 51
90.0
 52
90.0
 71
2
 49
0.5
 62
256
  6
BYLAYER
 49
-0.5
 62
256
  6
BYLAYER
  0
LAYOUT
  5
62B
102
{ACAD_REACTORS
330
1A
102
}
100
AcDbPlotSettings
  1

  2
none_device
  4

  6

 40
0.0
 41
0.0
 42
0.0
 43
0.0
 44
210.0
 45
297.0
 46
0.0
 47
0.0
 48
0.0
 49
0.0
140
0.0
141
0.0
142
1.0
143
1.0
 70
1024
 72
1
 73
0
 74
0
  7

 75
0
147
1.0
148
0.0
149
0.0
100
AcDbLayout
  1
Model
 70
0
 71
0
 10
0.0
 20
0.0
 11
210.0
 21
297.0
 12
0.0
 22
0.0
 32
0.0
 14
0.0
 24
0.0
 34
0.0
 15
0.0
 25
0.0
 35
0.0
146
0.0
 13
0.0
 23
0.0
 33
0.0
 16
1.0
 26
0.0
 36
0.0
 17
0.0
 27
1.0
 37
0.0
 76
0
330
210
345
0
346
0
  0
LAYOUT
  5
62C
102
{ACAD_REACTORS
330
1A
102
}
100
AcDbPlotSettings
  1

  2
none_device
  4

  6

 40
0.0
 41
0.0
 42
0.0
 43
0.0
 44
210.0
 45
297.0
 46
0.0
 47
0.0
 48
0.0
 49
0.0
140
0.0
141
0.0
142
1.0
143
1.0
 70
0
 72
1
 73
0
 74
0
  7

 75
0
147
1.0
148
0.0
149
0.0
100
AcDbLayout
  1
Layout1
 70
0
 71
1
 10
0.0
 20
0.0
 11
210.0
 21
297.0
 12
0.0
 22
0.0
 32
0.0
 14
0.0
 24
0.0
 34
0.0
 15
0.0
 25
0.0
 35
0.0
146
0.0
 13
0.0
 23
0.0
 33
0.0
 16
1.0
 26
0.0
 36
0.0
 17
0.0
 27
1.0
 37
0.0
 76
0
330
211
345
0
346
0
  0
ENDSEC
  0
EOF
