999
DXF file: C:\Users\sesa63760\Dev\_Creo\CAD\MCADID0001830_3D-CAD\drw0001_1.dxf
999
Pro/ENGINEER 2019471 by Parametric Technology Corporation
  0
SECTION
  2
HEADER
  9
$ACADVER
  1
AC1024
  9
$DWGCODEPAGE
  3
ANSI_1252
  9
$EXTMAX
 10
116.9080527876
 20
165.3413889425
 30
0.0
  9
$EXTMIN
 10
0.0
 20
0.0
 30
0.0
  9
$LIMMIN
 10
0.0
 20
0.0
  9
$LIMMAX
 10
116.9080527876
 20
165.3413889425
  9
$VIEWCTR
 10
58.4540263938
 20
82.6706944712
  9
$VIEWSIZE
 40
165.3413889425
  9
$CLAYER
  8
0
  9
$LTSCALE
 40
10.777809057
  9
$CELTYPE
  6
BYLAYER
  9
$DIMSCALE
 40
1.0
  9
$DIMASZ
 40
1.3917625332
  9
$DIMEXO
 40
1.0
  9
$DIMDLI
 40
7.4464862576
  9
$DIMEXE
 40
1.0
  9
$DIMCEN
 40
1.7636414821
  9
$DIMLFAC
 40
1.0
  9
$DIMBLK
  1
_FILLED
  9
$DIMALT
 70
0
  9
$DIMALTF
 40
0.0393700787
  9
$DIMTXT
 40
1.9484675465
  9
$DIMTOL
 70
1
  9
$DIMLIM
 70
0
  9
$DIMTFAC
 40
1.0
  9
$DIMTP
 40
0.01
  9
$DIMTM
 40
0.01
  9
$DIMGAP
 40
0.625
  9
$DIMDSEP
 70
46
  9
$AUNITS
 70
0
  9
$PDMODE
 70
3
  9
$PDSIZE
 40
0.3125
  9
$HANDSEED
  5
2E2
  9
$TILEMODE
 70
1
  9
$MEASUREMENT
 70
1
  9
$INSUNITS
 70
4
  0
ENDSEC
  0
SECTION
  2
CLASSES
  0
CLASS
  1
ACDBDICTIONARYWDFLT
  2
AcDbDictionaryWithDefault
  3
AutoCAD 2000
 90
0
 91
1
280
0
281
0
  0
CLASS
  1
ACDBPLACEHOLDER
  2
AcDbPlaceHolder
  3
AutoCAD 2000
 90
0
 91
1
280
0
281
0
  0
CLASS
  1
LAYOUT
  2
AcDbLayout
  3
AutoCAD 2000
 90
0
 91
0
280
0
281
0
  0
ENDSEC
  0
SECTION
  2
TABLES
  0
TABLE
  2
VPORT
  5
8
100
AcDbSymbolTable
 70
2
  0
VPORT
  5
1F4
100
AcDbSymbolTableRecord
100
AcDbViewportTableRecord
  2
*ACTIVE
 70
0
 10
0.0
 20
0.0
 11
1.0
 21
1.0
 12
58.4540263938
 22
82.6706944712
 13
0.0
 23
0.0
 14
1.0
 24
1.0
 15
0.0
 25
0.0
 16
0.0
 26
0.0
 36
1.0
 17
0.0
 27
0.0
 37
0.0
 40
165.3413889425
 41
0.7070707071
 42
50.0
 43
0.0
 44
0.0
 50
0.0
 51
0.0
 71
0
 72
100
 73
1
 74
1
 75
0
 76
0
 77
0
 78
0
  0
ENDTAB
  0
TABLE
  2
LTYPE
  5
5
100
AcDbSymbolTable
 70
6
  0
LTYPE
  5
14
100
AcDbSymbolTableRecord
100
AcDbLinetypeTableRecord
  2
BYBLOCK
 70
0
  3

 72
65
 73
0
 40
0.0
  0
LTYPE
  5
15
100
AcDbSymbolTableRecord
100
AcDbLinetypeTableRecord
  2
BYLAYER
 70
0
  3

 72
65
 73
0
 40
0.0
  0
LTYPE
  5
16
100
AcDbSymbolTableRecord
100
AcDbLinetypeTableRecord
  2
CONTINUOUS
 70
64
  3
Solid line
 72
65
 73
0
 40
0.0
  0
LTYPE
  5
1F5
100
AcDbSymbolTableRecord
100
AcDbLinetypeTableRecord
  2
CENTER
 70
64
  3
____ _ ____ _ ____ _ ____ _ ____ _ ____ _ ____
 72
65
 73
4
 40
0.6
 49
0.375
 74
0
 49
-0.075
 74
0
 49
0.075
 74
0
 49
-0.075
 74
0
  0
LTYPE
  5
1F6
100
AcDbSymbolTableRecord
100
AcDbLinetypeTableRecord
  2
HIDDEN
 70
64
  3
- - - - - - - - - - - - - - - - - - - -
 72
65
 73
2
 40
0.2
 49
0.1
 74
0
 49
-0.1
 74
0
  0
LTYPE
  5
1F7
100
AcDbSymbolTableRecord
100
AcDbLinetypeTableRecord
  2
PHANTOM
 70
64
  3
_____ _ _ _____ _ _ _____ _ _ _____
 72
65
 73
6
 40
0.8
 49
0.45
 74
0
 49
-0.05
 74
0
 49
0.1
 74
0
 49
-0.05
 74
0
 49
0.1
 74
0
 49
-0.05
 74
0
  0
LTYPE
  5
1F8
100
AcDbSymbolTableRecord
100
AcDbLinetypeTableRecord
  2
DOT
 70
64
  3
. . . . . . . . . . . . . . . . . . . .
 72
65
 73
2
 40
0.2
 49
0.1
 74
0
 49
-0.1
 74
0
  0
LTYPE
  5
1F9
100
AcDbSymbolTableRecord
100
AcDbLinetypeTableRecord
  2
DASHED
 70
64
  3
- - - - - - - - - - - - - - - - - - - -
 72
65
 73
2
 40
0.2
 49
0.1
 74
0
 49
-0.1
 74
0
  0
ENDTAB
  0
TABLE
  2
LAYER
  5
2
100
AcDbSymbolTable
 70
36
  0
LAYER
  5
10
100
AcDbSymbolTableRecord
100
AcDbLayerTableRecord
  2
0
 70
0
 62
7
  6
CONTINUOUS
370
-3
390
F
  0
LAYER
  5
1FA
100
AcDbSymbolTableRecord
100
AcDbLayerTableRecord
  2
DEFAULT_1
 70
0
 62
7
  6
CENTER
370
-3
390
F
  0
LAYER
  5
1FB
100
AcDbSymbolTableRecord
100
AcDbLayerTableRecord
  2
DEFAULT_2
 70
0
 62
8
  6
HIDDEN
370
-3
390
F
  0
LAYER
  5
1FC
100
AcDbSymbolTableRecord
100
AcDbLayerTableRecord
  2
DEFAULT_3
 70
0
 62
7
  6
PHANTOM
370
-3
390
F
  0
LAYER
  5
1FD
100
AcDbSymbolTableRecord
100
AcDbLayerTableRecord
  2
00_COMPONENTS
 70
0
 62
7
  6
CONTINUOUS
370
-3
390
F
  0
LAYER
  5
1FE
100
AcDbSymbolTableRecord
100
AcDbLayerTableRecord
  2
01_1_DEFAULT_DATUMS
 70
0
 62
7
  6
CONTINUOUS
370
-3
390
F
  0
LAYER
  5
1FF
100
AcDbSymbolTableRecord
100
AcDbLayerTableRecord
  2
01_PLANES
 70
0
 62
7
  6
CONTINUOUS
370
-3
390
F
  0
LAYER
  5
200
100
AcDbSymbolTableRecord
100
AcDbLayerTableRecord
  2
02_COORD_SYS
 70
0
 62
7
  6
CONTINUOUS
370
-3
390
F
  0
LAYER
  5
201
100
AcDbSymbolTableRecord
100
AcDbLayerTableRecord
  2
03_AXES
 70
0
 62
7
  6
CONTINUOUS
370
-3
390
F
  0
LAYER
  5
202
100
AcDbSymbolTableRecord
100
AcDbLayerTableRecord
  2
04_POINTS
 70
0
 62
7
  6
CONTINUOUS
370
-3
390
F
  0
LAYER
  5
203
100
AcDbSymbolTableRecord
100
AcDbLayerTableRecord
  2
05_CURVES
 70
0
 62
7
  6
CONTINUOUS
370
-3
390
F
  0
LAYER
  5
204
100
AcDbSymbolTableRecord
100
AcDbLayerTableRecord
  2
06_SURFS
 70
0
 62
7
  6
CONTINUOUS
370
-3
390
F
  0
LAYER
  5
205
100
AcDbSymbolTableRecord
100
AcDbLayerTableRecord
  2
07_COSMETICS
 70
0
 62
7
  6
CONTINUOUS
370
-3
390
F
  0
LAYER
  5
206
100
AcDbSymbolTableRecord
100
AcDbLayerTableRecord
  2
10_NOTES
 70
0
 62
7
  6
CONTINUOUS
370
-3
390
F
  0
LAYER
  5
207
100
AcDbSymbolTableRecord
100
AcDbLayerTableRecord
  2
11_NOTES_PUB
 70
0
 62
7
  6
CONTINUOUS
370
-3
390
F
  0
LAYER
  5
208
100
AcDbSymbolTableRecord
100
AcDbLayerTableRecord
  2
13_REF_GTOL
 70
0
 62
7
  6
CONTINUOUS
370
-3
390
F
  0
LAYER
  5
209
100
AcDbSymbolTableRecord
100
AcDbLayerTableRecord
  2
16_MISC
 70
0
 62
7
  6
CONTINUOUS
370
-3
390
F
  0
LAYER
  5
20A
100
AcDbSymbolTableRecord
100
AcDbLayerTableRecord
  2
17_NO_PRINT
 70
0
 62
7
  6
CONTINUOUS
370
-3
390
F
  0
LAYER
  5
20B
100
AcDbSymbolTableRecord
100
AcDbLayerTableRecord
  2
18_DATUM_CAMS_JOINTS
 70
0
 62
7
  6
CONTINUOUS
370
-3
390
F
  0
LAYER
  5
20C
100
AcDbSymbolTableRecord
100
AcDbLayerTableRecord
  2
19_DATUM_FUNCTIONAL
 70
0
 62
7
  6
CONTINUOUS
370
-3
390
F
  0
LAYER
  5
20D
100
AcDbSymbolTableRecord
100
AcDbLayerTableRecord
  2
20_DATUM_KINEMATIC_SCHEME
 70
0
 62
7
  6
CONTINUOUS
370
-3
390
F
  0
ENDTAB
  0
TABLE
  2
STYLE
  5
3
100
AcDbSymbolTable
 70
1
  0
STYLE
  5
11
100
AcDbSymbolTableRecord
100
AcDbTextStyleTableRecord
  2
STANDARD
 70
0
 40
0.0
 41
0.8
 50
0.0
 71
0
 42
0.2
  3
txt
  4

  0
STYLE
  5
20E
100
AcDbSymbolTableRecord
100
AcDbTextStyleTableRecord
  2
TEXTSTYLE_1
 70
0
 40
0.0
 41
0.8
 50
0.0
 71
0
 42
0.2
  3
gdt
  4

  0
ENDTAB
  0
TABLE
  2
VIEW
  5
6
100
AcDbSymbolTable
 70
0
  0
ENDTAB
  0
TABLE
  2
UCS
  5
7
100
AcDbSymbolTable
 70
0
  0
ENDTAB
  0
TABLE
  2
APPID
  5
9
100
AcDbSymbolTable
 70
1
  0
APPID
  5
20F
100
AcDbSymbolTableRecord
100
AcDbRegAppTableRecord
  2
ACAD
 70
0
  0
ENDTAB
  0
TABLE
  2
BLOCK_RECORD
  5
1
100
AcDbSymbolTable
 70
0
  0
BLOCK_RECORD
  5
210
100
AcDbSymbolTableRecord
100
AcDbBlockTableRecord
  2
*Model_Space
  0
BLOCK_RECORD
  5
211
100
AcDbSymbolTableRecord
100
AcDbBlockTableRecord
  2
*Paper_Space
  0
BLOCK_RECORD
  5
212
100
AcDbSymbolTableRecord
100
AcDbBlockTableRecord
  2
_FILLED
  0
ENDTAB
  0
TABLE
  2
DIMSTYLE
  5
A
100
AcDbSymbolTable
 70
1
100
AcDbDimStyleTable
 71
0
  0
DIMSTYLE
105
213
100
AcDbSymbolTableRecord
100
AcDbDimStyleTableRecord
  2
STANDARD
 70
0
  3

  4

 40
1.0
 41
1.3917625332
 42
1.0
 43
0.38
 44
1.0
 45
0.0
 46
0.0
 47
0.01
 48
0.01
140
1.9484675465
141
0.09
142
0.0
143
25.4
144
1.0
145
0.0
146
1.0
147
0.625
 71
1
 72
0
 73
0
 74
0
 75
0
 76
0
 77
1
 78
8
 79
2
170
0
171
1
172
0
173
0
174
0
175
0
176
0
177
0
178
0
270
2
179
2
271
2
272
2
273
2
274
2
275
0
280
0
281
0
282
0
283
1
284
8
285
0
286
0
287
3
288
0
340
11
278
46
341
212
342
212
343
212
344
212
  0
ENDTAB
  0
ENDSEC
  0
SECTION
  2
BLOCKS
  0
BLOCK
  5
20
100
AcDbEntity
  8
0
100
AcDbBlockBegin
  2
*Model_Space
 70
0
 10
0.0
 20
0.0
 30
0.0
  3
*Model_Space
  1

  0
ENDBLK
  5
21
100
AcDbEntity
  8
0
100
AcDbBlockEnd
  0
BLOCK
  5
1C
100
AcDbEntity
  8
0
100
AcDbBlockBegin
  2
*Paper_Space
 70
0
 10
0.0
 20
0.0
 30
0.0
  3
*Paper_Space
  1

  0
ENDBLK
  5
1D
100
AcDbEntity
  8
0
100
AcDbBlockEnd
  0
BLOCK
  5
214
100
AcDbEntity
  8
0
100
AcDbBlockBegin
  2
_FILLED
 70
64
 10
0.0
 20
0.0
  3
_FILLED
  1

  0
SOLID
  5
215
100
AcDbEntity
  8
0
  6
BYBLOCK
 62
0
100
AcDbTrace
 10
0.0
 20
0.0
 11
-1.0
 21
0.25
 12
-1.0
 22
-0.25
 13
-1.0
 23
-0.25
  0
ENDBLK
  5
216
100
AcDbEntity
  8
0
  6
BYBLOCK
 62
0
100
AcDbBlockEnd
  0
ENDSEC
  0
SECTION
  2
ENTITIES
  0
LINE
  5
217
100
AcDbEntity
  8
0
100
AcDbLine
 62
7
  6
CONTINUOUS
 10
13.5626791825
 20
79.2875305338
 11
13.5626791825
 21
86.5462370221
  0
LINE
  5
218
100
AcDbEntity
  8
0
100
AcDbLine
 62
7
  6
CONTINUOUS
 10
20.5673081198
 20
68.8143576028
 11
20.5673081198
 21
75.2434976195
  0
LINE
  5
219
100
AcDbEntity
  8
0
100
AcDbLine
 62
7
  6
CONTINUOUS
 10
21.5371798188
 20
73.8954664676
 11
21.5371798188
 21
68.2544145839
  0
LINE
  5
21A
100
AcDbEntity
  8
0
100
AcDbLine
 62
7
  6
CONTINUOUS
 10
22.2555973174
 20
73.4806973147
 11
22.2555973174
 21
67.2323393821
  0
LINE
  5
21B
100
AcDbEntity
  8
0
100
AcDbLine
 62
7
  6
CONTINUOUS
 10
23.39424543
 20
71.6493763763
 11
23.39424543
 21
72.8233133924
  0
LINE
  5
21C
100
AcDbEntity
  8
0
100
AcDbLine
 62
7
  6
CONTINUOUS
 10
27.2845676648
 20
64.9362337312
 11
27.2845676648
 21
70.5772856149
  0
LINE
  5
21D
100
AcDbEntity
  8
0
100
AcDbLine
 62
7
  6
CONTINUOUS
 10
28.3981240599
 20
69.9343880747
 11
28.3981240599
 21
64.293336191
  0
LINE
  5
21E
100
AcDbEntity
  8
0
100
AcDbLine
 62
7
  6
CONTINUOUS
 10
49.9046465926
 20
50.5671857917
 11
50.2022094016
 21
50.4753278078
  0
LINE
  5
21F
100
AcDbEntity
  8
0
100
AcDbLine
 62
7
  6
CONTINUOUS
 10
43.0437023514
 20
54.5282641846
 11
43.3412651604
 21
54.4364062007
  0
LINE
  5
220
100
AcDbEntity
  8
0
100
AcDbLine
 62
7
  6
CONTINUOUS
 10
42.5408672318
 20
55.4409621871
 11
42.8384300409
 21
55.3491042032
  0
LINE
  5
221
100
AcDbEntity
  8
0
100
AcDbLine
 62
7
  6
CONTINUOUS
 10
56.5500613374
 20
46.7305349336
 11
55.6520319865
 21
47.2490006919
  0
LINE
  5
222
100
AcDbEntity
  8
0
100
AcDbLine
 62
7
  6
CONTINUOUS
 10
49.9046441405
 20
50.5671815446
 11
48.7910877453
 21
51.2100790848
  0
LINE
  5
223
100
AcDbEntity
  8
0
100
AcDbLine
 62
7
  6
CONTINUOUS
 10
43.0436998993
 20
54.5282599376
 11
41.9301435042
 21
55.1711574778
  0
LINE
  5
224
100
AcDbEntity
  8
0
100
AcDbLine
 62
7
  6
CONTINUOUS
 10
36.1827556582
 20
58.4893383305
 11
35.069199263
 21
59.1322358707
  0
LINE
  5
225
100
AcDbEntity
  8
0
100
AcDbLine
 62
7
  6
CONTINUOUS
 10
29.321811417
 20
62.4504167235
 11
28.351939718
 21
63.0103597424
  0
LINE
  5
226
100
AcDbEntity
  8
0
100
AcDbLine
 62
7
  6
CONTINUOUS
 10
55.4237566631
 20
47.46073429
 11
50.2022094016
 21
50.4753278078
  0
LINE
  5
227
100
AcDbEntity
  8
0
100
AcDbLine
 62
7
  6
CONTINUOUS
 10
48.5628124219
 20
51.4218126829
 11
43.3412651604
 21
54.4364062007
  0
LINE
  5
228
100
AcDbEntity
  8
0
100
AcDbLine
 62
7
  6
CONTINUOUS
 10
41.7018681808
 20
55.3828910759
 11
36.4803209193
 21
58.3974845937
  0
LINE
  5
229
100
AcDbEntity
  8
0
100
AcDbLine
 62
7
  6
CONTINUOUS
 10
34.8409239396
 20
59.3439694688
 11
29.6193766781
 21
62.3585629866
  0
LINE
  5
22A
100
AcDbEntity
  8
0
100
AcDbLine
 62
7
  6
CONTINUOUS
 10
49.1862819767
 20
51.604311329
 11
48.2882526258
 21
52.1227770873
  0
LINE
  5
22B
100
AcDbEntity
  8
0
100
AcDbLine
 62
7
  6
CONTINUOUS
 10
42.5408647798
 20
55.44095794
 11
41.4273083846
 21
56.0838554802
  0
LINE
  5
22C
100
AcDbEntity
  8
0
100
AcDbLine
 62
7
  6
CONTINUOUS
 10
35.6799205386
 20
59.402036333
 11
34.5663641434
 21
60.0449338732
  0
LINE
  5
22D
100
AcDbEntity
  8
0
100
AcDbLine
 62
7
  6
CONTINUOUS
 10
28.8189762974
 20
63.3631147259
 11
27.7054199023
 21
64.0060122662
  0
LINE
  5
22E
100
AcDbEntity
  8
0
100
AcDbLine
 62
7
  6
CONTINUOUS
 10
21.9580320563
 20
67.3241931189
 11
20.9881603573
 21
67.8841361378
  0
LINE
  5
22F
100
AcDbEntity
  8
0
100
AcDbLine
 62
7
  6
CONTINUOUS
 10
56.1292090999
 20
47.6607563829
 11
55.231179749
 21
48.1792221411
  0
LINE
  5
230
100
AcDbEntity
  8
0
100
AcDbLine
 62
7
  6
CONTINUOUS
 10
48.0599773024
 20
52.3345106854
 11
42.8384300409
 21
55.3491042032
  0
LINE
  5
231
100
AcDbEntity
  8
0
100
AcDbLine
 62
7
  6
CONTINUOUS
 10
41.1990330612
 20
56.2955890783
 11
35.9774857997
 21
59.3101825961
  0
LINE
  5
232
100
AcDbEntity
  8
0
100
AcDbLine
 62
7
  6
CONTINUOUS
 10
34.33808882
 20
60.2566674713
 11
29.1165415585
 21
63.2712609891
  0
LINE
  5
233
100
AcDbEntity
  8
0
100
AcDbLine
 62
7
  6
CONTINUOUS
 10
27.4771445789
 20
64.2177458643
 11
22.2555973174
 21
67.2323393821
  0
LINE
  5
234
100
AcDbEntity
  8
0
100
AcDbLine
 62
7
  6
CONTINUOUS
 10
48.7654297392
 20
52.5345327783
 11
47.8674003882
 21
53.0529985365
  0
LINE
  5
235
100
AcDbEntity
  8
0
100
AcDbLine
 62
7
  6
CONTINUOUS
 10
42.1200125422
 20
56.3711793893
 11
41.0064561471
 21
57.0140769295
  0
LINE
  5
236
100
AcDbEntity
  8
0
100
AcDbLine
 62
7
  6
CONTINUOUS
 10
35.2590683011
 20
60.3322577822
 11
34.1455119059
 21
60.9751553225
  0
LINE
  5
237
100
AcDbEntity
  8
0
100
AcDbLine
 62
7
  6
CONTINUOUS
 10
28.3981240599
 20
64.2933361752
 11
27.2845676648
 21
64.9362337154
  0
LINE
  5
238
100
AcDbEntity
  8
0
100
AcDbLine
 62
7
  6
CONTINUOUS
 10
21.5371798188
 20
68.2544145682
 11
20.5673081198
 21
68.8143575871
  0
LINE
  5
239
100
AcDbEntity
  8
0
100
AcDbLine
 62
7
  6
CONTINUOUS
 10
29.1165415585
 20
69.5196189218
 11
29.1165415585
 21
63.2712609891
  0
LINE
  5
23A
100
AcDbEntity
  8
0
100
AcDbLine
 62
7
  6
CONTINUOUS
 10
29.6193766781
 20
62.980955565
 11
29.6193766781
 21
62.3585629866
  0
LINE
  5
23B
100
AcDbEntity
  8
0
100
AcDbLine
 62
7
  6
CONTINUOUS
 10
30.2551896712
 20
67.6882979834
 11
30.2551896712
 21
68.8622349995
  0
LINE
  5
23C
100
AcDbEntity
  8
0
100
AcDbLine
 62
7
  6
CONTINUOUS
 10
36.1827581103
 20
58.4893425776
 11
36.4803209193
 21
58.3974845937
  0
LINE
  5
23D
100
AcDbEntity
  8
0
100
AcDbLine
 62
7
  6
CONTINUOUS
 10
35.6799229907
 20
59.40204058
 11
35.9774857997
 21
59.3101825961
  0
LINE
  5
23E
100
AcDbEntity
  8
0
100
AcDbLine
 62
7
  6
CONTINUOUS
 10
29.3218138691
 20
62.4504209705
 11
29.6193766781
 21
62.3585629866
  0
LINE
  5
23F
100
AcDbEntity
  8
0
100
AcDbLine
 62
7
  6
CONTINUOUS
 10
28.8189787495
 20
63.363118973
 11
29.1165415585
 21
63.2712609891
  0
LINE
  5
240
100
AcDbEntity
  8
0
100
AcDbLine
 62
7
  6
CONTINUOUS
 10
52.3933240465
 20
52.9699531188
 11
55.231179749
 21
51.3315534306
  0
LINE
  5
241
100
AcDbEntity
  8
0
100
AcDbLine
 62
7
  6
CONTINUOUS
 10
22.2555973174
 20
70.9919767047
 11
27.2845676648
 21
68.0885650049
  0
LINE
  5
242
100
AcDbEntity
  8
0
100
AcDbLine
 62
7
  6
CONTINUOUS
 10
29.1165415585
 20
67.0308983118
 11
34.1455119059
 21
64.1274866119
  0
LINE
  5
243
100
AcDbEntity
  8
0
100
AcDbLine
 62
7
  6
CONTINUOUS
 10
35.9774857997
 20
63.0698199188
 11
41.0064561471
 21
60.166408219
  0
LINE
  5
244
100
AcDbEntity
  8
0
100
AcDbLine
 62
7
  6
CONTINUOUS
 10
42.8384300409
 20
59.1087415259
 11
47.8674003882
 21
56.205329826
  0
LINE
  5
245
100
AcDbEntity
  8
0
100
AcDbLine
 62
7
  6
CONTINUOUS
 10
55.231179749
 20
52.6463370245
 11
53.5319763172
 21
53.6273503897
  0
LINE
  5
246
100
AcDbEntity
  8
0
100
AcDbLine
 62
7
  6
CONTINUOUS
 10
47.8674003882
 20
57.5201134199
 11
43.9770781535
 21
59.7661411974
  0
LINE
  5
247
100
AcDbEntity
  8
0
100
AcDbLine
 62
7
  6
CONTINUOUS
 10
41.0064561471
 20
61.4811918129
 11
37.1161339123
 21
63.7272195904
  0
LINE
  5
248
100
AcDbEntity
  8
0
100
AcDbLine
 62
7
  6
CONTINUOUS
 10
34.1455119059
 20
65.4422702058
 11
30.2551896712
 21
67.6882979834
  0
LINE
  5
249
100
AcDbEntity
  8
0
100
AcDbLine
 62
7
  6
CONTINUOUS
 10
27.2845676648
 20
69.4033485988
 11
23.39424543
 21
71.6493763763
  0
LINE
  5
24A
100
AcDbEntity
  8
0
100
AcDbLine
 62
7
  6
CONTINUOUS
 10
55.231179749
 20
53.8202740406
 11
54.5486501298
 21
54.2143237853
  0
LINE
  5
24B
100
AcDbEntity
  8
0
100
AcDbLine
 62
7
  6
CONTINUOUS
 10
34.1455119059
 20
60.9751553382
 11
34.1455119059
 21
66.6162072219
  0
LINE
  5
24C
100
AcDbEntity
  8
0
100
AcDbLine
 62
7
  6
CONTINUOUS
 10
35.2590683011
 20
65.9733096817
 11
35.2590683011
 21
60.332257798
  0
LINE
  5
24D
100
AcDbEntity
  8
0
100
AcDbLine
 62
7
  6
CONTINUOUS
 10
35.9774857997
 20
65.5585405288
 11
35.9774857997
 21
59.3101825961
  0
LINE
  5
24E
100
AcDbEntity
  8
0
100
AcDbLine
 62
7
  6
CONTINUOUS
 10
36.4803209193
 20
59.0198771721
 11
36.4803209193
 21
58.3974845937
  0
LINE
  5
24F
100
AcDbEntity
  8
0
100
AcDbLine
 62
7
  6
CONTINUOUS
 10
13.5626791825
 20
86.5462370221
 11
28.6494466533
 21
95.2565342891
  0
LINE
  5
250
100
AcDbEntity
  8
0
100
AcDbLine
 62
7
  6
CONTINUOUS
 10
39.2461047577
 20
101.374481179
 11
40.3237310057
 21
101.9966452695
  0
LINE
  5
251
100
AcDbEntity
  8
0
100
AcDbLine
 62
7
  6
CONTINUOUS
 10
43.1974010001
 20
103.6557495109
 11
44.275027248
 21
104.2779136014
  0
LINE
  5
252
100
AcDbEntity
  8
0
100
AcDbLine
 62
7
  6
CONTINUOUS
 10
54.8716853525
 20
110.3958604913
 11
69.9584528233
 21
119.1061577583
  0
LINE
  5
253
100
AcDbEntity
  8
0
100
AcDbLine
 62
7
  6
CONTINUOUS
 10
54.8716853525
 20
107.0775946681
 11
47.14877083
 21
102.618794505
  0
LINE
  5
254
100
AcDbEntity
  8
0
100
AcDbLine
 62
7
  6
CONTINUOUS
 10
39.2461047577
 20
98.0562153558
 11
31.5231902352
 21
93.5974151928
  0
LINE
  5
255
100
AcDbEntity
  8
0
100
AcDbLine
 62
7
  6
CONTINUOUS
 10
21.9580345084
 20
67.324197366
 11
22.2555973174
 21
67.2323393821
  0
LINE
  5
256
100
AcDbEntity
  8
0
100
AcDbLine
 62
7
  6
CONTINUOUS
 10
47.8674003882
 20
58.694050436
 11
42.1200125422
 21
62.0122312887
  0
LINE
  5
257
100
AcDbEntity
  8
0
100
AcDbLine
 62
7
  6
CONTINUOUS
 10
41.0064561471
 20
62.655128829
 11
35.2590683011
 21
65.9733096817
  0
LINE
  5
258
100
AcDbEntity
  8
0
100
AcDbLine
 62
7
  6
CONTINUOUS
 10
34.1455119059
 20
66.6162072219
 11
28.3981240599
 21
69.9343880747
  0
LINE
  5
259
100
AcDbEntity
  8
0
100
AcDbLine
 62
7
  6
CONTINUOUS
 10
27.2845676648
 20
70.5772856149
 11
21.5371798188
 21
73.8954664676
  0
LINE
  5
25A
100
AcDbEntity
  8
0
100
AcDbLine
 62
7
  6
CONTINUOUS
 10
20.5673081198
 20
75.2434976195
 11
13.5626791825
 21
79.2875305338
  0
LINE
  5
25B
100
AcDbEntity
  8
0
100
AcDbLine
 62
7
  6
CONTINUOUS
 10
37.1161339123
 20
63.7272195904
 11
37.1161339123
 21
64.9011566065
  0
LINE
  5
25C
100
AcDbEntity
  8
0
100
AcDbLine
 62
7
  6
CONTINUOUS
 10
39.2461047577
 20
101.374481179
 11
39.2461047577
 21
98.0562153558
  0
LINE
  5
25D
100
AcDbEntity
  8
0
100
AcDbLine
 62
7
  6
CONTINUOUS
 10
48.7654297392
 20
66.2223792991
 11
13.5626791825
 21
86.5462370221
  0
LINE
  5
25E
100
AcDbEntity
  8
0
100
AcDbLine
 62
7
  6
CONTINUOUS
 10
41.0064561471
 20
57.0140769453
 11
41.0064561471
 21
62.655128829
  0
LINE
  5
25F
100
AcDbEntity
  8
0
100
AcDbLine
 62
7
  6
CONTINUOUS
 10
42.1200125422
 20
62.0122312887
 11
42.1200125422
 21
56.371179405
  0
LINE
  5
260
100
AcDbEntity
  8
0
100
AcDbLine
 62
7
  6
CONTINUOUS
 10
42.8384300409
 20
61.5974621359
 11
42.8384300409
 21
55.3491042032
  0
LINE
  5
261
100
AcDbEntity
  8
0
100
AcDbLine
 62
7
  6
CONTINUOUS
 10
43.1974010001
 20
103.6557495109
 11
43.1974010001
 21
101.0706835247
  0
LINE
  5
262
100
AcDbEntity
  8
0
100
AcDbLine
 62
7
  6
CONTINUOUS
 10
43.3412651604
 20
55.0587987791
 11
43.3412651604
 21
54.4364062007
  0
LINE
  5
263
100
AcDbEntity
  8
0
100
AcDbLine
 62
7
  6
CONTINUOUS
 10
43.9770781535
 20
59.7661411974
 11
43.9770781535
 21
60.9400782135
  0
LINE
  5
264
100
AcDbEntity
  8
0
100
AcDbLine
 62
7
  6
CONTINUOUS
 10
44.2750362212
 20
103.033590601
 11
44.2750362212
 21
101.3744932681
  0
LINE
  5
265
100
AcDbEntity
  8
0
100
AcDbLine
 62
7
  6
CONTINUOUS
 10
47.8674003882
 20
53.0529985523
 11
47.8674003882
 21
58.694050436
  0
LINE
  5
266
100
AcDbEntity
  8
0
100
AcDbLine
 62
7
  6
CONTINUOUS
 10
82.8002598296
 20
113.4548883326
 11
81.2736226451
 21
112.5734892044
  0
LINE
  5
267
100
AcDbEntity
  8
0
100
AcDbLine
 62
7
  6
CONTINUOUS
 10
84.5065283085
 20
110.7070124748
 11
85.763758931
 21
111.4328705804
  0
LINE
  5
268
100
AcDbEntity
  8
0
100
AcDbLine
 62
7
  6
CONTINUOUS
 10
48.7654297392
 20
66.2223792991
 11
48.7654297392
 21
52.534532794
  0
LINE
  5
269
100
AcDbEntity
  8
0
100
AcDbLine
 62
7
  6
CONTINUOUS
 10
50.2022094016
 20
51.7049519952
 11
50.2022094016
 21
50.4753278078
  0
LINE
  5
26A
100
AcDbEntity
  8
0
100
AcDbLine
 62
7
  6
CONTINUOUS
 10
23.39424543
 20
71.6493763763
 11
22.2555973174
 21
70.9919767047
  0
LINE
  5
26B
100
AcDbEntity
  8
0
100
AcDbLine
 62
7
  6
CONTINUOUS
 10
54.15346676
 20
81.0276483407
 11
54.15346676
 21
81.5282165752
  0
LINE
  5
26C
100
AcDbEntity
  8
0
100
AcDbLine
 62
7
  6
CONTINUOUS
 10
54.8716853525
 20
110.3958604913
 11
54.8716853525
 21
107.0775946681
  0
LINE
  5
26D
100
AcDbEntity
  8
0
100
AcDbLine
 62
7
  6
CONTINUOUS
 10
55.231179749
 20
48.1792221569
 11
55.231179749
 21
53.8202740406
  0
LINE
  5
26E
100
AcDbEntity
  8
0
100
AcDbLine
 62
7
  6
CONTINUOUS
 10
91.8703585174
 20
107.9073034243
 11
90.6131278948
 21
107.1814453187
  0
LINE
  5
26F
100
AcDbEntity
  8
0
100
AcDbLine
 62
7
  6
CONTINUOUS
 10
79.5675508291
 20
63.5777421909
 11
83.0698652978
 21
61.5557257338
  0
LINE
  5
270
100
AcDbEntity
  8
0
100
AcDbLine
 62
7
  6
CONTINUOUS
 10
78.4001515568
 20
65.9109962159
 11
77.3225163493
 21
66.533155118
  0
LINE
  5
271
100
AcDbEntity
  8
0
100
AcDbLine
 62
7
  6
CONTINUOUS
 10
28.6494466533
 20
95.2565342891
 11
63.85219721
 21
74.9326765661
  0
LINE
  5
272
100
AcDbEntity
  8
0
100
AcDbLine
 62
7
  6
CONTINUOUS
 10
54.15346676
 20
81.5282165752
 11
41.5810558469
 21
88.7867371906
  0
LINE
  5
273
100
AcDbEntity
  8
0
100
AcDbLine
 62
7
  6
CONTINUOUS
 10
56.1292090999
 20
55.1268544851
 11
56.1292090999
 21
47.6607563986
  0
LINE
  5
274
100
AcDbEntity
  8
0
100
AcDbLine
 62
7
  6
CONTINUOUS
 10
64.6440518388
 20
100.5046384942
 11
66.1868551743
 21
103.7594961305
  0
LINE
  5
275
100
AcDbEntity
  8
0
100
AcDbLine
 62
7
  6
CONTINUOUS
 10
53.8650094071
 20
80.6986516887
 11
54.15346676
 21
81.0276483407
  0
LINE
  5
276
100
AcDbEntity
  8
0
100
AcDbLine
 62
7
  6
CONTINUOUS
 10
93.8460335582
 20
105.3149685891
 11
95.3726707427
 21
106.1963677173
  0
LINE
  5
277
100
AcDbEntity
  8
0
100
AcDbLine
 62
7
  6
CONTINUOUS
 10
30.2551896712
 20
67.6882979834
 11
29.1165415585
 21
67.0308983118
  0
LINE
  5
278
100
AcDbEntity
  8
0
100
AcDbLine
 62
7
  6
CONTINUOUS
 10
77.2164627519
 20
93.2461178789
 11
78.7592660874
 21
94.0122761477
  0
LINE
  5
279
100
AcDbEntity
  8
0
100
AcDbLine
 62
7
  6
CONTINUOUS
 10
54.15346676
 20
81.5282165752
 11
52.5370273882
 21
81.4653451199
  0
LINE
  5
27A
100
AcDbEntity
  8
0
100
AcDbLine
 62
7
  6
CONTINUOUS
 10
39.2461047577
 20
98.0562153558
 11
74.4488553145
 21
77.7323576328
  0
LINE
  5
27B
100
AcDbEntity
  8
0
100
AcDbLine
 62
7
  6
CONTINUOUS
 10
63.85219721
 20
74.9326765661
 11
63.85219721
 21
71.6144107428
  0
LINE
  5
27C
100
AcDbEntity
  8
0
100
AcDbLine
 62
7
  6
CONTINUOUS
 10
63.85219721
 20
57.5117809942
 11
63.85219721
 21
50.4604661199
  0
LINE
  5
27D
100
AcDbEntity
  8
0
100
AcDbLine
 62
7
  6
CONTINUOUS
 10
37.1161339123
 20
63.7272195904
 11
35.9774857997
 21
63.0698199188
  0
LINE
  5
27E
100
AcDbEntity
  8
0
100
AcDbLine
 62
7
  6
CONTINUOUS
 10
39.9646164751
 20
88.7238657353
 11
41.5810558469
 21
88.7867371906
  0
LINE
  5
27F
100
AcDbEntity
  8
0
100
AcDbLine
 62
7
  6
CONTINUOUS
 10
74.4488553145
 20
81.050623456
 11
39.2461047577
 21
101.374481179
  0
LINE
  5
280
100
AcDbEntity
  8
0
100
AcDbLine
 62
7
  6
CONTINUOUS
 10
40.3237310057
 20
101.9966452695
 11
41.4013662268
 21
101.3744863596
  0
LINE
  5
281
100
AcDbEntity
  8
0
100
AcDbLine
 62
7
  6
CONTINUOUS
 10
74.4488463412
 20
82.2949464564
 11
75.5264815624
 21
81.6727875465
  0
LINE
  5
282
100
AcDbEntity
  8
0
100
AcDbLine
 62
7
  6
CONTINUOUS
 10
78.7592660874
 20
96.5009755151
 11
77.2164627519
 21
93.2461178789
  0
LINE
  5
283
100
AcDbEntity
  8
0
100
AcDbLine
 62
7
  6
CONTINUOUS
 10
105.16120338
 20
98.7823000352
 11
90.0744359092
 21
90.0720027682
  0
LINE
  5
284
100
AcDbEntity
  8
0
100
AcDbLine
 62
7
  6
CONTINUOUS
 10
79.4777778047
 20
83.9540558783
 11
78.4001515568
 21
83.3318917878
  0
LINE
  5
285
100
AcDbEntity
  8
0
100
AcDbLine
 62
7
  6
CONTINUOUS
 10
75.5264815624
 20
81.6727875465
 11
74.4488553145
 21
81.050623456
  0
LINE
  5
286
100
AcDbEntity
  8
0
100
AcDbLine
 62
7
  6
CONTINUOUS
 10
63.85219721
 20
74.9326765661
 11
48.7654297392
 21
66.2223792991
  0
LINE
  5
287
100
AcDbEntity
  8
0
100
AcDbLine
 62
7
  6
CONTINUOUS
 10
63.85219721
 20
71.6144107428
 11
74.4488553145
 21
77.7323576328
  0
LINE
  5
288
100
AcDbEntity
  8
0
100
AcDbLine
 62
7
  6
CONTINUOUS
 10
79.4777778047
 20
80.6357900551
 11
90.0744359092
 21
86.753736945
  0
LINE
  5
289
100
AcDbEntity
  8
0
100
AcDbLine
 62
7
  6
CONTINUOUS
 10
78.4001515568
 20
83.3318917878
 11
77.3225163357
 21
83.9540506977
  0
LINE
  5
28A
100
AcDbEntity
  8
0
100
AcDbLine
 62
7
  6
CONTINUOUS
 10
44.2750362212
 20
103.033590601
 11
43.1974010001
 21
103.6557495109
  0
LINE
  5
28B
100
AcDbEntity
  8
0
100
AcDbLine
 62
7
  6
CONTINUOUS
 10
44.275027248
 20
104.2779136014
 11
79.4777778047
 21
83.9540558783
  0
LINE
  5
28C
100
AcDbEntity
  8
0
100
AcDbLine
 62
7
  6
CONTINUOUS
 10
72.1658565267
 20
62.3116457873
 11
72.1658565267
 21
59.3043975014
  0
LINE
  5
28D
100
AcDbEntity
  8
0
100
AcDbLine
 62
7
  6
CONTINUOUS
 10
74.4488553145
 20
77.7323576328
 11
74.4488553145
 21
81.050623456
  0
LINE
  5
28E
100
AcDbEntity
  8
0
100
AcDbLine
 62
7
  6
CONTINUOUS
 10
74.7561476551
 20
60.7998938548
 11
74.7561476551
 21
63.8071421407
  0
LINE
  5
28F
100
AcDbEntity
  8
0
100
AcDbLine
 62
7
  6
CONTINUOUS
 10
43.9770781535
 20
59.7661411974
 11
42.8384300409
 21
59.1087415259
  0
LINE
  5
290
100
AcDbEntity
  8
0
100
AcDbLine
 62
7
  6
CONTINUOUS
 10
105.16120338
 20
91.523593547
 11
92.0500840304
 21
83.9539304459
  0
LINE
  5
291
100
AcDbEntity
  8
0
100
AcDbLine
 62
7
  6
CONTINUOUS
 10
92.0500840304
 20
83.5804922243
 11
97.0430299982
 21
86.4631537157
  0
LINE
  5
292
100
AcDbEntity
  8
0
100
AcDbLine
 62
7
  6
CONTINUOUS
 10
75.5264815624
 20
81.6727875465
 11
75.5264815624
 21
64.2518919746
  0
LINE
  5
293
100
AcDbEntity
  8
0
100
AcDbLine
 62
7
  6
CONTINUOUS
 10
77.3225163357
 20
66.5331551258
 11
77.3225163357
 21
83.9540506977
  0
LINE
  5
294
100
AcDbEntity
  8
0
100
AcDbLine
 62
7
  6
CONTINUOUS
 10
78.4001515568
 20
65.9109962159
 11
78.4001515568
 21
83.3318917878
  0
LINE
  5
295
100
AcDbEntity
  8
0
100
AcDbLine
 62
7
  6
CONTINUOUS
 10
78.7592660874
 20
94.0122761477
 11
78.7592660874
 21
96.5009755151
  0
LINE
  5
296
100
AcDbEntity
  8
0
100
AcDbLine
 62
7
  6
CONTINUOUS
 10
77.2164627519
 20
93.2461178789
 11
64.6440518388
 21
100.5046384942
  0
LINE
  5
297
100
AcDbEntity
  8
0
100
AcDbLine
 62
7
  6
CONTINUOUS
 10
54.8716853525
 20
107.0775946681
 11
64.990531659
 21
101.2356081925
  0
LINE
  5
298
100
AcDbEntity
  8
0
100
AcDbLine
 62
7
  6
CONTINUOUS
 10
78.0833702257
 20
93.6766253286
 11
90.0744359092
 21
86.753736945
  0
LINE
  5
299
100
AcDbEntity
  8
0
100
AcDbLine
 62
7
  6
CONTINUOUS
 10
79.4777778047
 20
83.9540558783
 11
79.4777778047
 21
80.6357900551
  0
LINE
  5
29A
100
AcDbEntity
  8
0
100
AcDbLine
 62
7
  6
CONTINUOUS
 10
79.5675508291
 20
66.5849904769
 11
79.5675508291
 21
63.5777421909
  0
LINE
  5
29B
100
AcDbEntity
  8
0
100
AcDbLine
 62
7
  6
CONTINUOUS
 10
83.0698652978
 20
61.5557257338
 11
83.0698652978
 21
68.6070406081
  0
LINE
  5
29C
100
AcDbEntity
  8
0
100
AcDbLine
 62
7
  6
CONTINUOUS
 10
50.20226475
 20
51.7049519952
 11
56.1292090999
 21
55.1268544851
  0
LINE
  5
29D
100
AcDbEntity
  8
0
100
AcDbLine
 62
7
  6
CONTINUOUS
 10
78.7592660874
 20
96.5009755151
 11
66.1868551743
 21
103.7594961305
  0
LINE
  5
29E
100
AcDbEntity
  8
0
100
AcDbLine
 62
7
  6
CONTINUOUS
 10
90.0744359092
 20
90.0720027682
 11
54.8716853525
 21
110.3958604913
  0
LINE
  5
29F
100
AcDbEntity
  8
0
100
AcDbLine
 62
7
  6
CONTINUOUS
 10
85.763758931
 20
111.4328705804
 11
85.763758931
 21
109.9811664572
  0
LINE
  5
2A0
100
AcDbEntity
  8
0
100
AcDbLine
 62
7
  6
CONTINUOUS
 10
86.6938316903
 20
110.8959049702
 11
86.6938316903
 21
109.4442008471
  0
LINE
  5
2A1
100
AcDbEntity
  8
0
100
AcDbLine
 62
7
  6
CONTINUOUS
 10
91.0260206845
 20
108.89238189
 11
90.9402857581
 21
108.4442690344
  0
LINE
  5
2A2
100
AcDbEntity
  8
0
100
AcDbLine
 62
7
  6
CONTINUOUS
 10
93.4229602322
 20
108.3589396565
 11
93.6663992728
 21
109.3590179086
  0
LINE
  5
2A3
100
AcDbEntity
  8
0
100
AcDbLine
 62
7
  6
CONTINUOUS
 10
83.0698652978
 20
68.6070406081
 11
78.4001515568
 21
65.9109962159
  0
LINE
  5
2A4
100
AcDbEntity
  8
0
100
AcDbLine
 62
7
  6
CONTINUOUS
 10
75.5264815624
 20
64.2518919746
 11
63.85219721
 21
57.5117809942
  0
LINE
  5
2A5
100
AcDbEntity
  8
0
100
AcDbLine
 62
7
  6
CONTINUOUS
 10
63.85219721
 20
54.5045327082
 11
72.1658565267
 21
59.3043975014
  0
LINE
  5
2A6
100
AcDbEntity
  8
0
100
AcDbLine
 62
7
  6
CONTINUOUS
 10
74.7561476551
 20
60.7998938548
 11
79.5675508291
 21
63.5777421909
  0
LINE
  5
2A7
100
AcDbEntity
  8
0
100
AcDbLine
 62
7
  6
CONTINUOUS
 10
88.2782231672
 20
112.4698124581
 11
86.5460140867
 21
112.3292565443
  0
LINE
  5
2A8
100
AcDbEntity
  8
0
100
AcDbLine
 62
7
  6
CONTINUOUS
 10
90.0744359092
 20
86.753736945
 11
90.0744359092
 21
90.0720027682
  0
LINE
  5
2A9
100
AcDbEntity
  8
0
100
AcDbLine
 62
7
  6
CONTINUOUS
 10
90.9402857581
 20
107.3703288717
 11
90.9402857581
 21
108.4442690344
  0
LINE
  5
2AA
100
AcDbEntity
  8
0
100
AcDbLine
 62
7
  6
CONTINUOUS
 10
57.5660441107
 20
46.8311755998
 11
63.85219721
 21
50.4604661199
  0
LINE
  5
2AB
100
AcDbEntity
  8
0
100
AcDbLine
 62
7
  6
CONTINUOUS
 10
83.0698652978
 20
61.5557257338
 11
92.0500840304
 21
66.7404264879
  0
LINE
  5
2AC
100
AcDbEntity
  8
0
100
AcDbLine
 62
7
  6
CONTINUOUS
 10
92.0500840304
 20
83.9539304459
 11
92.0500840304
 21
66.7404264879
  0
LINE
  5
2AD
100
AcDbEntity
  8
0
100
AcDbLine
 62
7
  6
CONTINUOUS
 10
93.6663992728
 20
109.3590179086
 11
93.6663992728
 21
108.2183932404
  0
LINE
  5
2AE
100
AcDbEntity
  8
0
100
AcDbLine
 62
7
  6
CONTINUOUS
 10
84.9808005304
 20
113.2329125689
 11
82.8002598296
 21
113.4548883326
  0
LINE
  5
2AF
100
AcDbEntity
  8
0
100
AcDbLine
 62
7
  6
CONTINUOUS
 10
95.3726707427
 20
106.1963677173
 11
95.3726707427
 21
104.4335841392
  0
LINE
  5
2B0
100
AcDbEntity
  8
0
100
AcDbLine
 62
7
  6
CONTINUOUS
 10
105.16120338
 20
98.7823000352
 11
93.8460335582
 21
105.3149685891
  0
LINE
  5
2B1
100
AcDbEntity
  8
0
100
AcDbLine
 62
7
  6
CONTINUOUS
 10
90.6131278948
 20
107.1814453187
 11
84.5065283085
 21
110.7070124748
  0
LINE
  5
2B2
100
AcDbEntity
  8
0
100
AcDbLine
 62
7
  6
CONTINUOUS
 10
81.2736226451
 20
112.5734892044
 11
69.9584528233
 21
119.1061577583
  0
LINE
  5
2B3
100
AcDbEntity
  8
0
100
AcDbLine
 62
7
  6
CONTINUOUS
 10
85.763758931
 20
111.4328705804
 11
86.6938316903
 21
110.8959049702
  0
LINE
  5
2B4
100
AcDbEntity
  8
0
100
AcDbLine
 62
7
  6
CONTINUOUS
 10
90.9402857581
 20
108.4442690344
 11
91.8703585174
 21
107.9073034243
  0
LINE
  5
2B5
100
AcDbEntity
  8
0
100
AcDbLine
 62
7
  6
CONTINUOUS
 10
94.9881737885
 20
107.4552836319
 11
93.4229602322
 21
108.3589396565
  0
LINE
  5
2B6
100
AcDbEntity
  8
0
100
AcDbLine
 62
7
  6
CONTINUOUS
 10
86.5460140867
 20
112.3292565443
 11
84.9808005304
 21
113.2329125689
  0
LINE
  5
2B7
100
AcDbEntity
  8
0
100
AcDbLine
 62
7
  6
CONTINUOUS
 10
93.6663992728
 20
109.3590179086
 11
88.2782231672
 21
112.4698124581
  0
LINE
  5
2B8
100
AcDbEntity
  8
0
100
AcDbLine
 62
7
  6
CONTINUOUS
 10
95.3726707427
 20
106.1963677173
 11
94.9881737885
 21
107.4552836319
  0
LINE
  5
2B9
100
AcDbEntity
  8
0
100
AcDbLine
 62
7
  6
CONTINUOUS
 10
105.16120338
 20
91.523593547
 11
105.16120338
 21
98.7823000352
  0
ARC
  5
2BA
100
AcDbEntity
  8
0
100
AcDbCircle
 62
7
  6
CONTINUOUS
 10
30.6322937555
 20
63.3764737907
 40
1.7312712354
100
AcDbArc
 50
181.6465311485
 51
185.801426658
  0
ARC
  5
2BB
100
AcDbEntity
  8
0
100
AcDbCircle
 62
7
  6
CONTINUOUS
 10
37.4932379967
 20
59.4153953977
 40
1.7312712354
100
AcDbArc
 50
181.6465311485
 51
185.801426658
  0
ARC
  5
2BC
100
AcDbEntity
  8
0
100
AcDbCircle
 62
7
  6
CONTINUOUS
 10
44.3541822379
 20
55.4543170047
 40
1.7312712354
100
AcDbArc
 50
181.6465311485
 51
185.801426658
  0
ARC
  5
2BD
100
AcDbEntity
  8
0
100
AcDbCircle
 62
7
  6
CONTINUOUS
 10
36.3241989063
 20
60.0541379239
 40
1.6756533674
100
AcDbArc
 50
182.7437119379
 51
185.8518449796
  0
ARC
  5
2BE
100
AcDbEntity
  8
0
100
AcDbCircle
 62
7
  6
CONTINUOUS
 10
43.1851431475
 20
56.0930595309
 40
1.6756533674
100
AcDbArc
 50
182.7437119378
 51
185.8518449796
  0
ARC
  5
2BF
100
AcDbEntity
  8
0
100
AcDbCircle
 62
7
  6
CONTINUOUS
 10
50.0460873887
 20
52.131981138
 40
1.6756533674
100
AcDbArc
 50
182.7437119379
 51
185.8518449796
  0
SPLINE
  5
2C0
100
AcDbEntity
  8
0
100
AcDbSpline
 62
7
  6
CONTINUOUS
 70
0
 71
3
 72
11
 73
7
 74
0
 42
0.0000001
 43
0.0000001
 44
0.0000000001
 40
0.0
 40
0.0
 40
0.0
 40
0.0
 40
0.2207720849
 40
0.4551652279
 40
0.713308089
 40
1.0
 40
1.0
 40
1.0
 40
1.0
 10
28.3519447877
 20
63.0103685234
 30
0.0
 10
28.2896105202
 20
63.0463564226
 30
0.0
 10
28.1725799831
 20
63.1422303637
 30
0.0
 10
28.0432304976
 20
63.3389308434
 30
0.0
 10
27.9602667579
 20
63.5813159561
 30
0.0
 10
27.9377405799
 20
63.7586516362
 30
0.0
 10
27.9332094332
 20
63.8520101988
 30
0.0
  0
SPLINE
  5
2C1
100
AcDbEntity
  8
0
100
AcDbSpline
 62
7
  6
CONTINUOUS
 70
0
 71
3
 72
11
 73
7
 74
0
 42
0.0000001
 43
0.0000001
 44
0.0000000001
 40
0.0
 40
0.0
 40
0.0
 40
0.0
 40
0.2240229567
 40
0.4598540642
 40
0.7167836277
 40
1.0
 40
1.0
 40
1.0
 40
1.0
 10
35.0692017129
 20
59.132240114
 30
0.0
 10
35.0117858188
 20
59.1653688562
 30
0.0
 10
34.9036197086
 20
59.2516114293
 30
0.0
 10
34.779662636
 20
59.4265401717
 30
0.0
 10
34.6944546442
 20
59.6416880891
 30
0.0
 10
34.6658385471
 20
59.7999293861
 30
0.0
 10
34.6572776046
 20
59.8832941897
 30
0.0
  0
SPLINE
  5
2C2
100
AcDbEntity
  8
0
100
AcDbSpline
 62
7
  6
CONTINUOUS
 70
0
 71
3
 72
11
 73
7
 74
0
 42
0.0000001
 43
0.0000001
 44
0.0000000001
 40
0.0
 40
0.0
 40
0.0
 40
0.0
 40
0.2240229567
 40
0.4598540642
 40
0.7167836277
 40
1.0
 40
1.0
 40
1.0
 40
1.0
 10
41.9301459541
 20
55.1711617211
 30
0.0
 10
41.8727300599
 20
55.2042904632
 30
0.0
 10
41.7645639497
 20
55.2905330363
 30
0.0
 10
41.6406068772
 20
55.4654617788
 30
0.0
 10
41.5553988854
 20
55.6806096961
 30
0.0
 10
41.5267827883
 20
55.8388509931
 30
0.0
 10
41.5182218458
 20
55.9222157968
 30
0.0
  0
SPLINE
  5
2C3
100
AcDbEntity
  8
0
100
AcDbSpline
 62
7
  6
CONTINUOUS
 70
0
 71
3
 72
11
 73
7
 74
0
 42
0.0000001
 43
0.0000001
 44
0.0000000001
 40
0.0
 40
0.0
 40
0.0
 40
0.0
 40
0.2240229567
 40
0.4598540642
 40
0.7167836277
 40
1.0
 40
1.0
 40
1.0
 40
1.0
 10
48.7910901953
 20
51.2100833281
 30
0.0
 10
48.7336743011
 20
51.2432120703
 30
0.0
 10
48.6255081909
 20
51.3294546434
 30
0.0
 10
48.5015511183
 20
51.5043833858
 30
0.0
 10
48.4163431265
 20
51.7195313031
 30
0.0
 10
48.3877270295
 20
51.8777726002
 30
0.0
 10
48.3791660869
 20
51.9611374038
 30
0.0
  0
SPLINE
  5
2C4
100
AcDbEntity
  8
0
100
AcDbSpline
 62
7
  6
CONTINUOUS
 70
0
 71
3
 72
11
 73
7
 74
0
 42
0.0000001
 43
0.0000001
 44
0.0000000001
 40
0.0
 40
0.0
 40
0.0
 40
0.0
 40
0.2178009662
 40
0.4509128375
 40
0.7103003795
 40
1.0
 40
1.0
 40
1.0
 40
1.0
 10
55.6520344364
 20
47.2490049352
 30
0.0
 10
55.5849898257
 20
47.2876894084
 30
0.0
 10
55.4595808121
 20
47.3931345286
 30
0.0
 10
55.3261056957
 20
47.6114504009
 30
0.0
 10
55.2467792757
 20
47.8804590306
 30
0.0
 10
55.2311797491
 20
48.076265423
 30
0.0
 10
55.231179749
 20
48.1792221569
 30
0.0
  0
SPLINE
  5
2C5
100
AcDbEntity
  8
0
100
AcDbSpline
 62
7
  6
CONTINUOUS
 70
0
 71
3
 72
11
 73
7
 74
0
 42
0.0000001
 43
0.0000001
 44
0.0000000001
 40
0.0
 40
0.0
 40
0.0
 40
0.0
 40
0.2177839235
 40
0.4509111715
 40
0.7102971902
 40
1.0
 40
1.0
 40
1.0
 40
1.0
 10
56.550066407
 20
46.7305437147
 30
0.0
 10
56.6170930608
 20
46.6918467674
 30
0.0
 10
56.7710970996
 20
46.6359587966
 30
0.0
 10
57.0268946567
 20
46.6294842396
 30
0.0
 10
57.2995145951
 20
46.6953195127
 30
0.0
 10
57.4768836046
 20
46.7796990649
 30
0.0
 10
57.5660441107
 20
46.8311755998
 30
0.0
  0
SPLINE
  5
2C6
100
AcDbEntity
  8
0
100
AcDbSpline
 62
7
  6
CONTINUOUS
 70
0
 71
3
 72
11
 73
7
 74
0
 42
0.0000001
 43
0.0000001
 44
0.0000000001
 40
0.0
 40
0.0
 40
0.0
 40
0.0
 40
0.21778251
 40
0.4509091638
 40
0.7102957097
 40
1.0
 40
1.0
 40
1.0
 40
1.0
 10
20.9881654269
 20
67.8841449188
 30
0.0
 10
20.921136571
 20
67.9228431791
 30
0.0
 10
20.7957281632
 20
68.0282727961
 30
0.0
 10
20.662216228
 20
68.2465704482
 30
0.0
 10
20.5829180362
 20
68.5155950992
 30
0.0
 10
20.5673081199
 20
68.7113994674
 30
0.0
 10
20.5673081198
 20
68.8143576028
 30
0.0
  0
SPLINE
  5
2C7
100
AcDbEntity
  8
0
100
AcDbSpline
 62
7
  6
CONTINUOUS
 70
0
 71
3
 72
11
 73
7
 74
0
 42
0.0000001
 43
0.0000001
 44
0.0000000001
 40
0.0
 40
0.0
 40
0.0
 40
0.0
 40
0.2178009662
 40
0.4509128375
 40
0.7103003795
 40
1.0
 40
1.0
 40
1.0
 40
1.0
 10
27.7054223522
 20
64.0060165095
 30
0.0
 10
27.6383777415
 20
64.0447009827
 30
0.0
 10
27.5129687279
 20
64.1501461029
 30
0.0
 10
27.3794936115
 20
64.3684619752
 30
0.0
 10
27.3001671915
 20
64.6374706049
 30
0.0
 10
27.2845676649
 20
64.8332769973
 30
0.0
 10
27.2845676648
 20
64.9362337312
 30
0.0
  0
SPLINE
  5
2C8
100
AcDbEntity
  8
0
100
AcDbSpline
 62
7
  6
CONTINUOUS
 70
0
 71
3
 72
11
 73
7
 74
0
 42
0.0000001
 43
0.0000001
 44
0.0000000001
 40
0.0
 40
0.0
 40
0.0
 40
0.0
 40
0.2178009662
 40
0.4509128375
 40
0.7103003795
 40
1.0
 40
1.0
 40
1.0
 40
1.0
 10
34.5663665934
 20
60.0449381165
 30
0.0
 10
34.4993219827
 20
60.0836225897
 30
0.0
 10
34.3739129691
 20
60.18906771
 30
0.0
 10
34.2404378526
 20
60.4073835822
 30
0.0
 10
34.1611114327
 20
60.6763922119
 30
0.0
 10
34.145511906
 20
60.8721986044
 30
0.0
 10
34.1455119059
 20
60.9751553382
 30
0.0
  0
SPLINE
  5
2C9
100
AcDbEntity
  8
0
100
AcDbSpline
 62
7
  6
CONTINUOUS
 70
0
 71
3
 72
11
 73
7
 74
0
 42
0.0000001
 43
0.0000001
 44
0.0000000001
 40
0.0
 40
0.0
 40
0.0
 40
0.0
 40
0.2178009662
 40
0.4509128375
 40
0.7103003795
 40
1.0
 40
1.0
 40
1.0
 40
1.0
 10
41.4273108345
 20
56.0838597235
 30
0.0
 10
41.3602662238
 20
56.1225441968
 30
0.0
 10
41.2348572102
 20
56.227989317
 30
0.0
 10
41.1013820938
 20
56.4463051893
 30
0.0
 10
41.0220556738
 20
56.715313819
 30
0.0
 10
41.0064561472
 20
56.9111202114
 30
0.0
 10
41.0064561471
 20
57.0140769453
 30
0.0
  0
SPLINE
  5
2CA
100
AcDbEntity
  8
0
100
AcDbSpline
 62
7
  6
CONTINUOUS
 70
0
 71
3
 72
11
 73
7
 74
0
 42
0.0000001
 43
0.0000001
 44
0.0000000001
 40
0.0
 40
0.0
 40
0.0
 40
0.0
 40
0.2178009662
 40
0.4509128375
 40
0.7103003795
 40
1.0
 40
1.0
 40
1.0
 40
1.0
 10
48.2882550757
 20
52.1227813306
 30
0.0
 10
48.221210465
 20
52.1614658038
 30
0.0
 10
48.0958014514
 20
52.2669109241
 30
0.0
 10
47.9623263349
 20
52.4852267963
 30
0.0
 10
47.882999915
 20
52.754235426
 30
0.0
 10
47.8674003883
 20
52.9500418184
 30
0.0
 10
47.8674003882
 20
53.0529985523
 30
0.0
  0
SPLINE
  5
2CB
100
AcDbEntity
  8
0
100
AcDbSpline
 62
7
  6
CONTINUOUS
 70
0
 71
3
 72
11
 73
7
 74
0
 42
0.0000001
 43
0.0000001
 44
0.0000000001
 40
0.0
 40
0.0
 40
0.0
 40
0.0
 40
0.2277044235
 40
0.476056826
 40
0.736737422
 40
1.0
 40
1.0
 40
1.0
 40
1.0
 10
77.3225163493
 20
66.533155118
 30
0.0
 10
77.2003850108
 20
66.6036660838
 30
0.0
 10
76.9287157899
 20
66.7234290538
 30
0.0
 10
76.4849118507
 20
66.8362623698
 30
0.0
 10
76.007628837
 20
66.8858432216
 30
0.0
 10
75.6820977967
 20
66.8746987236
 30
0.0
 10
75.5199520559
 20
66.8575830679
 30
0.0
  0
SPLINE
  5
2CC
100
AcDbEntity
  8
0
100
AcDbSpline
 62
7
  6
CONTINUOUS
 70
0
 71
3
 72
11
 73
7
 74
0
 42
0.0000001
 43
0.0000001
 44
0.0000000001
 40
0.0
 40
0.0
 40
0.0
 40
0.0
 40
0.2177839235
 40
0.4509111715
 40
0.7102971902
 40
1.0
 40
1.0
 40
1.0
 40
1.0
 10
49.1862870463
 20
51.6043201101
 30
0.0
 10
49.2533137001
 20
51.5656231628
 30
0.0
 10
49.4073177389
 20
51.509735192
 30
0.0
 10
49.663115296
 20
51.503260635
 30
0.0
 10
49.9357352344
 20
51.5690959081
 30
0.0
 10
50.1131042438
 20
51.6534754604
 30
0.0
 10
50.20226475
 20
51.7049519952
 30
0.0
  0
SPLINE
  5
2CD
100
AcDbEntity
  8
0
100
AcDbSpline
 62
7
  6
CONTINUOUS
 70
0
 71
3
 72
11
 73
7
 74
0
 42
0.0000001
 43
0.0000001
 44
0.0000000001
 40
0.0
 40
0.0
 40
0.0
 40
0.0
 40
0.2177821606
 40
0.4509085883
 40
0.710295195
 40
1.0
 40
1.0
 40
1.0
 40
1.0
 10
44.870191081
 20
102.2040384803
 30
0.0
 10
44.8701910593
 20
102.1266436573
 30
0.0
 10
44.841590203
 20
101.9653284703
 30
0.0
 10
44.7192978038
 20
101.7405643858
 30
0.0
 10
44.5259706723
 20
101.5373864134
 30
0.0
 10
44.3642095238
 20
101.4259702847
 30
0.0
 10
44.2750481837
 20
101.3744932681
 30
0.0
  0
SPLINE
  5
2CE
100
AcDbEntity
  8
0
100
AcDbSpline
 62
7
  6
CONTINUOUS
 70
0
 71
3
 72
12
 73
8
 74
0
 42
0.0000001
 43
0.0000001
 44
0.0000000001
 40
0.0
 40
0.0
 40
0.0
 40
0.0
 40
0.2945601106
 40
0.5631810811
 40
0.6852912525
 40
0.7985638015
 40
1.0
 40
1.0
 40
1.0
 40
1.0
 10
74.7561476551
 20
60.7998938548
 30
0.0
 10
74.4545051802
 20
60.7564811734
 30
0.0
 10
73.8830110248
 20
60.6283743036
 30
0.0
 10
73.225557215
 20
60.3489338281
 30
0.0
 10
72.7879444848
 20
60.0624201638
 30
0.0
 10
72.4458722845
 20
59.7665013444
 30
0.0
 10
72.2484663535
 20
59.49573026
 30
0.0
 10
72.1658565267
 20
59.3043975014
 30
0.0
  0
SPLINE
  5
2CF
100
AcDbEntity
  8
0
100
AcDbSpline
 62
7
  6
CONTINUOUS
 70
0
 71
3
 72
9
 73
5
 74
0
 42
0.0000001
 43
0.0000001
 44
0.0000000001
 40
0.0
 40
0.0
 40
0.0
 40
0.0
 40
0.4752771917
 40
1.0
 40
1.0
 40
1.0
 40
1.0
 10
97.0430299982
 20
86.4631537157
 30
0.0
 10
97.210426487
 20
86.5597995469
 30
0.0
 10
97.5329437404
 20
86.8152336796
 30
0.0
 10
97.7939554551
 20
87.1305382623
 30
0.0
 10
97.9146335943
 20
87.3065414032
 30
0.0
  0
SPLINE
  5
2D0
100
AcDbEntity
  8
0
100
AcDbSpline
 62
7
  6
CONTINUOUS
 70
0
 71
3
 72
11
 73
7
 74
0
 42
0.0000001
 43
0.0000001
 44
0.0000000001
 40
0.0
 40
0.0
 40
0.0
 40
0.0
 40
0.2897052856
 40
0.5490919935
 40
0.7822182546
 40
1.0
 40
1.0
 40
1.0
 40
1.0
 10
74.4488463548
 20
82.2949464485
 30
0.0
 10
74.3596833456
 20
82.3464235715
 30
0.0
 10
74.197919126
 20
82.457840085
 30
0.0
 10
74.0045880864
 20
82.6610195742
 30
0.0
 10
73.8822930588
 20
82.8857858281
 30
0.0
 10
73.8536914598
 20
83.0471029033
 30
0.0
 10
73.8536914815
 20
83.124498577
 30
0.0
  0
SPLINE
  5
2D1
100
AcDbEntity
  8
0
100
AcDbSpline
 62
7
  6
CONTINUOUS
 70
0
 71
3
 72
13
 73
9
 74
0
 42
0.0000001
 43
0.0000001
 44
0.0000000001
 40
0.0
 40
0.0
 40
0.0
 40
0.0
 40
0.1142249339
 40
0.2375584471
 40
0.4999994092
 40
0.7624406905
 40
0.8857746031
 40
1.0
 40
1.0
 40
1.0
 40
1.0
 10
44.2750481837
 20
101.3744932681
 30
0.0
 10
44.1767126422
 20
101.3177195558
 30
0.0
 10
43.9615804929
 20
101.2175684048
 30
0.0
 10
43.4848709901
 20
101.0727309535
 30
0.0
 10
42.8382096244
 20
101.0024190076
 30
0.0
 10
42.1915475546
 20
101.0727278933
 30
0.0
 10
41.7148361381
 20
101.2175630453
 30
0.0
 10
41.4997025627
 20
101.3177131342
 30
0.0
 10
41.4013662132
 20
101.3744863675
 30
0.0
  0
SPLINE
  5
2D2
100
AcDbEntity
  8
0
100
AcDbSpline
 62
7
  6
CONTINUOUS
 70
0
 71
3
 72
11
 73
7
 74
0
 42
0.0000001
 43
0.0000001
 44
0.0000000001
 40
0.0
 40
0.0
 40
0.0
 40
0.0
 40
0.2896996205
 40
0.5490871625
 40
0.7821990338
 40
1.0
 40
1.0
 40
1.0
 40
1.0
 10
21.5371798188
 20
68.2544145839
 30
0.0
 10
21.5371798189
 20
68.1514578501
 30
0.0
 10
21.5527793455
 20
67.9556514576
 30
0.0
 10
21.6321057655
 20
67.6866428279
 30
0.0
 10
21.7655808819
 20
67.4683269557
 30
0.0
 10
21.8909898955
 20
67.3628818354
 30
0.0
 10
21.9580345062
 20
67.3241973622
 30
0.0
  0
SPLINE
  5
2D3
100
AcDbEntity
  8
0
100
AcDbSpline
 62
7
  6
CONTINUOUS
 70
0
 71
3
 72
11
 73
7
 74
0
 42
0.0000001
 43
0.0000001
 44
0.0000000001
 40
0.0
 40
0.0
 40
0.0
 40
0.0
 40
0.2897042894
 40
0.5490907649
 40
0.7822174452
 40
1.0
 40
1.0
 40
1.0
 40
1.0
 10
56.1292090999
 20
47.6607563986
 30
0.0
 10
56.1292091
 20
47.5577982632
 30
0.0
 10
56.1448189812
 20
47.361993917
 30
0.0
 10
56.2241171932
 20
47.0929692817
 30
0.0
 10
56.3576291238
 20
46.8746716426
 30
0.0
 10
56.4830375191
 20
46.7692419518
 30
0.0
 10
56.550066407
 20
46.7305437147
 30
0.0
  0
SPLINE
  5
2D4
100
AcDbEntity
  8
0
100
AcDbSpline
 62
7
  6
CONTINUOUS
 70
0
 71
3
 72
11
 73
7
 74
0
 42
0.0000001
 43
0.0000001
 44
0.0000000001
 40
0.0
 40
0.0
 40
0.0
 40
0.0
 40
0.2896996205
 40
0.5490871625
 40
0.7821990338
 40
1.0
 40
1.0
 40
1.0
 40
1.0
 10
28.3981240599
 20
64.293336191
 30
0.0
 10
28.39812406
 20
64.1903794571
 30
0.0
 10
28.4137235867
 20
63.9945730647
 30
0.0
 10
28.4930500066
 20
63.725564435
 30
0.0
 10
28.6265251231
 20
63.5072485627
 30
0.0
 10
28.7519341367
 20
63.4018034425
 30
0.0
 10
28.8189787474
 20
63.3631189692
 30
0.0
  0
SPLINE
  5
2D5
100
AcDbEntity
  8
0
100
AcDbSpline
 62
7
  6
CONTINUOUS
 70
0
 71
3
 72
11
 73
7
 74
0
 42
0.0000001
 43
0.0000001
 44
0.0000000001
 40
0.0
 40
0.0
 40
0.0
 40
0.0
 40
0.2897042894
 40
0.5490907649
 40
0.7822174452
 40
1.0
 40
1.0
 40
1.0
 40
1.0
 10
48.7654297392
 20
52.534532794
 30
0.0
 10
48.7654297393
 20
52.4315746587
 30
0.0
 10
48.7810396205
 20
52.2357703124
 30
0.0
 10
48.8603378325
 20
51.9667456771
 30
0.0
 10
48.993849763
 20
51.7484480381
 30
0.0
 10
49.1192581584
 20
51.6430183473
 30
0.0
 10
49.1862870463
 20
51.6043201101
 30
0.0
  0
SPLINE
  5
2D6
100
AcDbEntity
  8
0
100
AcDbSpline
 62
7
  6
CONTINUOUS
 70
0
 71
3
 72
11
 73
7
 74
0
 42
0.0000001
 43
0.0000001
 44
0.0000000001
 40
0.0
 40
0.0
 40
0.0
 40
0.0
 40
0.2896996205
 40
0.5490871625
 40
0.7821990338
 40
1.0
 40
1.0
 40
1.0
 40
1.0
 10
35.2590683011
 20
60.332257798
 30
0.0
 10
35.2590683012
 20
60.2293010641
 30
0.0
 10
35.2746678278
 20
60.0334946717
 30
0.0
 10
35.3539942478
 20
59.764486042
 30
0.0
 10
35.4874693642
 20
59.5461701698
 30
0.0
 10
35.6128783778
 20
59.4407250495
 30
0.0
 10
35.6799229885
 20
59.4020405763
 30
0.0
  0
SPLINE
  5
2D7
100
AcDbEntity
  8
0
100
AcDbSpline
 62
7
  6
CONTINUOUS
 70
0
 71
3
 72
13
 73
9
 74
0
 42
0.0000001
 43
0.0000001
 44
0.0000000001
 40
0.0
 40
0.0
 40
0.0
 40
0.0
 40
0.1142249339
 40
0.2375584471
 40
0.4999994092
 40
0.7624406905
 40
0.8857746031
 40
1.0
 40
1.0
 40
1.0
 40
1.0
 10
74.4488343788
 20
83.9540437892
 30
0.0
 10
74.5471699202
 20
84.0108175015
 30
0.0
 10
74.7623020695
 20
84.1109686525
 30
0.0
 10
75.2390115724
 20
84.2558061038
 30
0.0
 10
75.8856729381
 20
84.3261180497
 30
0.0
 10
76.5323350079
 20
84.255809164
 30
0.0
 10
77.0090464243
 20
84.1109740121
 30
0.0
 10
77.2241799998
 20
84.0108239232
 30
0.0
 10
77.3225163493
 20
83.9540506898
 30
0.0
  0
SPLINE
  5
2D8
100
AcDbEntity
  8
0
100
AcDbSpline
 62
7
  6
CONTINUOUS
 70
0
 71
3
 72
11
 73
7
 74
0
 42
0.0000001
 43
0.0000001
 44
0.0000000001
 40
0.0
 40
0.0
 40
0.0
 40
0.0
 40
0.2896996205
 40
0.5490871625
 40
0.7821990338
 40
1.0
 40
1.0
 40
1.0
 40
1.0
 10
42.1200125422
 20
56.371179405
 30
0.0
 10
42.1200125424
 20
56.2682226712
 30
0.0
 10
42.135612069
 20
56.0724162788
 30
0.0
 10
42.2149384889
 20
55.8034076491
 30
0.0
 10
42.3484136054
 20
55.5850917768
 30
0.0
 10
42.473822619
 20
55.4796466565
 30
0.0
 10
42.5408672297
 20
55.4409621833
 30
0.0
  0
SPLINE
  5
2D9
100
AcDbEntity
  8
0
100
AcDbSpline
 62
7
  6
CONTINUOUS
 70
0
 71
3
 72
11
 73
7
 74
0
 42
0.0000001
 43
0.0000001
 44
0.0000000001
 40
0.0
 40
0.0
 40
0.0
 40
0.0
 40
0.2897052856
 40
0.5490919935
 40
0.7822182546
 40
1.0
 40
1.0
 40
1.0
 40
1.0
 10
44.2750362076
 20
103.0335906088
 30
0.0
 10
44.3641992169
 20
102.9821134859
 30
0.0
 10
44.5259634364
 20
102.8706969724
 30
0.0
 10
44.719294476
 20
102.6675174831
 30
0.0
 10
44.8415895037
 20
102.4427512292
 30
0.0
 10
44.8701911027
 20
102.2814341541
 30
0.0
 10
44.870191081
 20
102.2040384803
 30
0.0
  0
SPLINE
  5
2DA
100
AcDbEntity
  8
0
100
AcDbSpline
 62
7
  6
CONTINUOUS
 70
0
 71
3
 72
16
 73
12
 74
0
 42
0.0000001
 43
0.0000001
 44
0.0000000001
 40
0.0
 40
0.0
 40
0.0
 40
0.0
 40
0.1505716991
 40
0.3010566405
 40
0.4465158479
 40
0.5825417607
 40
0.7058427782
 40
0.8149711953
 40
0.9112515422
 40
0.9561516169
 40
1.0
 40
1.0
 40
1.0
 40
1.0
 10
86.6938316903
 20
110.8959049702
 30
0.0
 10
86.9554220944
 20
110.929685324
 30
0.0
 10
87.4835489969
 20
110.9622431638
 30
0.0
 10
88.2660693676
 20
110.9105743177
 30
0.0
 10
89.0103915522
 20
110.7614490515
 30
0.0
 10
89.6808360385
 20
110.5219148632
 30
0.0
 10
90.24608263
 20
110.2022791953
 30
0.0
 10
90.6799874449
 20
109.8156949772
 30
0.0
 10
90.9179627003
 20
109.4373939615
 30
0.0
 10
91.0106910282
 20
109.1250645428
 30
0.0
 10
91.0260407929
 20
108.9691928611
 30
0.0
 10
91.0260222899
 20
108.8923818899
 30
0.0
  0
SPLINE
  5
2DB
100
AcDbEntity
  8
0
100
AcDbSpline
 62
7
  6
CONTINUOUS
 70
0
 71
3
 72
11
 73
7
 74
0
 42
0.0000001
 43
0.0000001
 44
0.0000000001
 40
0.0
 40
0.0
 40
0.0
 40
0.0
 40
0.2177821606
 40
0.4509085883
 40
0.710295195
 40
1.0
 40
1.0
 40
1.0
 40
1.0
 10
73.8536914815
 20
83.124498577
 30
0.0
 10
73.8536915032
 20
83.2018934
 30
0.0
 10
73.8822923594
 20
83.363208587
 30
0.0
 10
74.0045847586
 20
83.5879726715
 30
0.0
 10
74.1979118902
 20
83.7911506439
 30
0.0
 10
74.3596730386
 20
83.9025667726
 30
0.0
 10
74.4488343788
 20
83.9540437892
 30
0.0
  0
SPLINE
  5
2DC
100
AcDbEntity
  8
0
100
AcDbSpline
 62
7
  6
CONTINUOUS
 70
0
 71
3
 72
11
 73
7
 74
0
 42
0.0000001
 43
0.0000001
 44
0.0000000001
 40
0.0
 40
0.0
 40
0.0
 40
0.0
 40
0.2832163723
 40
0.5401459358
 40
0.7759770433
 40
1.0
 40
1.0
 40
1.0
 40
1.0
 10
28.9098897586
 20
63.2014750425
 30
0.0
 10
28.9184507012
 20
63.1181102388
 30
0.0
 10
28.9470667982
 20
62.9598689418
 30
0.0
 10
29.03227479
 20
62.7447210245
 30
0.0
 10
29.1562318626
 20
62.569792282
 30
0.0
 10
29.2643979728
 20
62.4835497089
 30
0.0
 10
29.321813867
 20
62.4504209668
 30
0.0
  0
SPLINE
  5
2DD
100
AcDbEntity
  8
0
100
AcDbSpline
 62
7
  6
CONTINUOUS
 70
0
 71
3
 72
11
 73
7
 74
0
 42
0.0000001
 43
0.0000001
 44
0.0000000001
 40
0.0
 40
0.0
 40
0.0
 40
0.0
 40
0.2832163723
 40
0.5401459358
 40
0.7759770433
 40
1.0
 40
1.0
 40
1.0
 40
1.0
 10
35.7708339998
 20
59.2403966495
 30
0.0
 10
35.7793949423
 20
59.1570318459
 30
0.0
 10
35.8080110394
 20
58.9987905488
 30
0.0
 10
35.8932190312
 20
58.7836426315
 30
0.0
 10
36.0171761038
 20
58.6087138891
 30
0.0
 10
36.1253422139
 20
58.522471316
 30
0.0
 10
36.1827581081
 20
58.4893425738
 30
0.0
  0
SPLINE
  5
2DE
100
AcDbEntity
  8
0
100
AcDbSpline
 62
7
  6
CONTINUOUS
 70
0
 71
3
 72
11
 73
7
 74
0
 42
0.0000001
 43
0.0000001
 44
0.0000000001
 40
0.0
 40
0.0
 40
0.0
 40
0.0
 40
0.2896996205
 40
0.5490871625
 40
0.7821990338
 40
1.0
 40
1.0
 40
1.0
 40
1.0
 10
49.483791903
 20
51.4974030096
 30
0.0
 10
49.4837919031
 20
51.3944462758
 30
0.0
 10
49.4993914297
 20
51.1986398833
 30
0.0
 10
49.5787178497
 20
50.9296312536
 30
0.0
 10
49.7121929661
 20
50.7113153814
 30
0.0
 10
49.8376019797
 20
50.6058702611
 30
0.0
 10
49.9046465904
 20
50.5671857879
 30
0.0
  0
SPLINE
  5
2DF
100
AcDbEntity
  8
0
100
AcDbSpline
 62
7
  6
CONTINUOUS
 70
0
 71
3
 72
11
 73
7
 74
0
 42
0.0000001
 43
0.0000001
 44
0.0000000001
 40
0.0
 40
0.0
 40
0.0
 40
0.0
 40
0.2832163723
 40
0.5401459358
 40
0.7759770433
 40
1.0
 40
1.0
 40
1.0
 40
1.0
 10
42.6317782409
 20
55.2793182566
 30
0.0
 10
42.6403391835
 20
55.1959534529
 30
0.0
 10
42.6689552805
 20
55.0377121559
 30
0.0
 10
42.7541632723
 20
54.8225642385
 30
0.0
 10
42.8781203449
 20
54.6476354961
 30
0.0
 10
42.9862864551
 20
54.561392923
 30
0.0
 10
43.0437023493
 20
54.5282641809
 30
0.0
  0
ENDSEC
  0
SECTION
  2
OBJECTS
  0
DICTIONARY
  5
C
100
AcDbDictionary
280
0
281
1
  3
ACAD_GROUP
350
D
  3
ACAD_MLINESTYLE
350
17
  3
ACAD_LAYOUT
350
1A
  3
ACAD_PLOTSETTINGS
350
19
  3
ACAD_PLOTSTYLENAME
350
E
  0
DICTIONARY
  5
D
102
{ACAD_REACTORS
330
C
102
}
100
AcDbDictionary
280
0
281
1
  0
ACDBDICTIONARYWDFLT
  5
E
102
{ACAD_REACTORS
330
C
102
}
100
AcDbDictionary
281
1
  3
Normal
350
F
100
AcDbDictionaryWithDefault
340
F
  0
DICTIONARY
  5
17
102
{ACAD_REACTORS
330
C
102
}
100
AcDbDictionary
280
0
281
1
  3
Standard
350
18
  0
DICTIONARY
  5
19
102
{ACAD_REACTORS
330
C
102
}
100
AcDbDictionary
281
1
  0
DICTIONARY
  5
1A
102
{ACAD_REACTORS
330
C
102
}
100
AcDbDictionary
281
1
  3
Model
350
2E0
  3
Layout1
350
2E1
  0
ACDBPLACEHOLDER
  5
F
102
{ACAD_REACTORS
330
E
102
}
  0
MLINESTYLE
  5
18
102
{ACAD_REACTORS
330
17
102
}
100
AcDbMlineStyle
  2
STANDARD
 70
0
  3

 62
256
 51
90.0
 52
90.0
 71
2
 49
0.5
 62
256
  6
BYLAYER
 49
-0.5
 62
256
  6
BYLAYER
  0
LAYOUT
  5
2E0
102
{ACAD_REACTORS
330
1A
102
}
100
AcDbPlotSettings
  1

  2
none_device
  4

  6

 40
0.0
 41
0.0
 42
0.0
 43
0.0
 44
210.0
 45
297.0
 46
0.0
 47
0.0
 48
0.0
 49
0.0
140
0.0
141
0.0
142
1.0
143
1.0
 70
1024
 72
1
 73
0
 74
0
  7

 75
0
147
1.0
148
0.0
149
0.0
100
AcDbLayout
  1
Model
 70
0
 71
0
 10
0.0
 20
0.0
 11
210.0
 21
297.0
 12
0.0
 22
0.0
 32
0.0
 14
0.0
 24
0.0
 34
0.0
 15
0.0
 25
0.0
 35
0.0
146
0.0
 13
0.0
 23
0.0
 33
0.0
 16
1.0
 26
0.0
 36
0.0
 17
0.0
 27
1.0
 37
0.0
 76
0
330
210
345
0
346
0
  0
LAYOUT
  5
2E1
102
{ACAD_REACTORS
330
1A
102
}
100
AcDbPlotSettings
  1

  2
none_device
  4

  6

 40
0.0
 41
0.0
 42
0.0
 43
0.0
 44
210.0
 45
297.0
 46
0.0
 47
0.0
 48
0.0
 49
0.0
140
0.0
141
0.0
142
1.0
143
1.0
 70
0
 72
1
 73
0
 74
0
  7

 75
0
147
1.0
148
0.0
149
0.0
100
AcDbLayout
  1
Layout1
 70
0
 71
1
 10
0.0
 20
0.0
 11
210.0
 21
297.0
 12
0.0
 22
0.0
 32
0.0
 14
0.0
 24
0.0
 34
0.0
 15
0.0
 25
0.0
 35
0.0
146
0.0
 13
0.0
 23
0.0
 33
0.0
 16
1.0
 26
0.0
 36
0.0
 17
0.0
 27
1.0
 37
0.0
 76
0
330
211
345
0
346
0
  0
ENDSEC
  0
EOF
