  0
SECTION
  2
HEADER
  9
$ACADVER
  1
AC1009
  9
$DWGCODEPAGE
  3
ansi_1250
  9
$INSBASE
 10
0.0
 20
0.0
 30
0.0
  9
$EXTMIN
 10
-1.594488
 20
-3.110236
 30
0.0
  9
$EXTMAX
 10
1.594488
 20
3.116142
 30
0.0
  9
$LIMMIN
 10
0.0
 20
0.0
  9
$LIMMAX
 10
0.0
 20
0.0
  9
$ORTHOMODE
 70
     0
  9
$REGENMODE
 70
     1
  9
$FILLMODE
 70
     1
  9
$QTEXTMODE
 70
     0
  9
$MIRRTEXT
 70
     1
  9
$DRAGMODE
 70
     2
  9
$LTSCALE
 40
1.0
  9
$OSMODE
 70
     0
  9
$ATTMODE
 70
     1
  9
$TEXTSIZE
 40
0.2
  9
$TRACEWID
 40
0.05
  9
$TEXTSTYLE
  7
STANDARD
  9
$CLAYER
  8
0
  9
$CELTYPE
  6
CONTINUOUS
  9
$CECOLOR
 62
   256
  9
$DIMSCALE
 40
1.0
  9
$DIMASZ
 40
0.18
  9
$DIMEXO
 40
0.0625
  9
$DIMDLI
 40
0.38
  9
$DIMRND
 40
0.0
  9
$DIMDLE
 40
0.0
  9
$DIMEXE
 40
0.18
  9
$DIMTP
 40
0.0
  9
$DIMTM
 40
0.0
  9
$DIMTXT
 40
0.18
  9
$DIMCEN
 40
0.09
  9
$DIMTSZ
 40
0.0
  9
$DIMTOL
 70
     0
  9
$DIMLIM
 70
     0
  9
$DIMTIH
 70
     1
  9
$DIMTOH
 70
     1
  9
$DIMSE1
 70
     0
  9
$DIMSE2
 70
     0
  9
$DIMTAD
 70
     0
  9
$DIMZIN
 70
     0
  9
$DIMBLK
  1

  9
$DIMASO
 70
     1
  9
$DIMSHO
 70
     1
  9
$DIMPOST
  1

  9
$DIMAPOST
  1

  9
$DIMALT
 70
     0
  9
$DIMALTD
 70
     2
  9
$DIMALTF
 40
25.4
  9
$DIMLFAC
 40
1.0
  9
$DIMTOFL
 70
     0
  9
$DIMTVP
 40
0.0
  9
$DIMTIX
 70
     0
  9
$DIMSOXD
 70
     0
  9
$DIMSAH
 70
     0
  9
$DIMBLK1
  1

  9
$DIMBLK2
  1

  9
$DIMSTYLE
  2
STANDARD
  9
$DIMCLRD
 70
     0
  9
$DIMCLRE
 70
     0
  9
$DIMCLRT
 70
     0
  9
$DIMTFAC
 40
1.0
  9
$DIMGAP
 40
0.09
  9
$LUNITS
 70
     2
  9
$LUPREC
 70
     4
  9
$AXISMODE
 70
     0
  9
$AXISUNIT
 10
0.0
 20
0.0
  9
$SKETCHINC
 40
0.1
  9
$FILLETRAD
 40
0.0
  9
$AUNITS
 70
     0
  9
$AUPREC
 70
     0
  9
$MENU
  1
acad
  9
$ELEVATION
 40
0.0
  9
$PELEVATION
 40
0.0
  9
$THICKNESS
 40
0.0
  9
$LIMCHECK
 70
     0
  9
$BLIPMODE
 70
     1
  9
$CHAMFERA
 40
0.0
  9
$CHAMFERB
 40
0.0
  9
$SKPOLY
 70
     0
  9
$TDCREATE
 40
0.000000000
  9
$TDUPDATE
 40
0.000000000
  9
$TDINDWG
 40
0.0000000000
  9
$TDUSRTIMER
 40
0.0000000000
  9
$USRTIMER
 70
     1
  9
$ANGBASE
 50
0.0
  9
$ANGDIR
 70
     0
  9
$PDMODE
 70
     0
  9
$PDSIZE
 40
0.0
  9
$PLINEWID
 40
0.0
  9
$COORDS
 70
     0
  9
$SPLFRAME
 70
     0
  9
$SPLINETYPE
 70
     6
  9
$SPLINESEGS
 70
     8
  9
$ATTDIA
 70
     0
  9
$ATTREQ
 70
     1
  9
$HANDLING
 70
     1
  9
$HANDSEED
  5
313
  9
$SURFTAB1
 70
     6
  9
$SURFTAB2
 70
     6
  9
$SURFTYPE
 70
     6
  9
$SURFU
 70
     6
  9
$SURFV
 70
     6
  9
$UCSNAME
  2

  9
$UCSORG
 10
0.0
 20
0.0
 30
0.0
  9
$UCSXDIR
 10
1.0
 20
0.0
 30
0.0
  9
$UCSYDIR
 10
0.0
 20
1.0
 30
0.0
  9
$PUCSNAME
  2

  9
$PUCSORG
 10
0.0
 20
0.0
 30
0.0
  9
$PUCSXDIR
 10
1.0
 20
0.0
 30
0.0
  9
$PUCSYDIR
 10
0.0
 20
1.0
 30
0.0
  9
$USERI1
 70
     0
  9
$USERI2
 70
     0
  9
$USERI3
 70
     0
  9
$USERI4
 70
     0
  9
$USERI5
 70
     0
  9
$USERR1
 40
0.0
  9
$USERR2
 40
0.0
  9
$USERR3
 40
0.0
  9
$USERR4
 40
0.0
  9
$USERR5
 40
0.0
  9
$WORLDVIEW
 70
     1
  9
$SHADEDGE
 70
     3
  9
$SHADEDIF
 70
    70
  9
$TILEMODE
 70
     1
  9
$MAXACTVP
 70
    16
  9
$PINSBASE
 10
0.0
 20
0.0
 30
0.0
  9
$PLIMCHECK
 70
     0
  9
$PEXTMIN
 10
1.000000E+20
 20
1.000000E+20
 30
1.000000E+20
  9
$PEXTMAX
 10
-1.000000E+20
 20
-1.000000E+20
 30
-1.000000E+20
  9
$PLIMMIN
 10
0.0
 20
0.0
  9
$PLIMMAX
 10
12.0
 20
9.0
  9
$UNITMODE
 70
     0
  9
$VISRETAIN
 70
     0
  9
$PLINEGEN
 70
     1
  9
$PSLTSCALE
 70
     0
  9
$TREEDEPTH
 70
  3020
  0
ENDSEC
  0
SECTION
  2
TABLES
  0
TABLE
  2
VPORT
 70
     1
  0
VPORT
  2
*ACTIVE
 70
     0
 10
0.0
 20
0.0
 11
1.0
 21
1.0
 12
6.591288
 22
4.579184
 13
0.0
 23
0.0
 14
1.0
 24
1.0
 15
0.0
 25
0.0
 16
0.0
 26
0.0
 36
1.0
 17
0.0
 27
0.0
 37
0.0
 40
9.158369
 41
0.688564
 42
50.0
 43
0.0
 44
0.0
 50
0.0
 51
0.0
 71
     0
 72
   100
 73
     1
 74
     1
 75
     0
 76
     0
 77
     0
 78
     0
  0
ENDTAB
  0
TABLE
  2
LTYPE
 70
     5
  0
LTYPE
  2
CONTINUOUS
 70
    64
  3
Solid line
 72
    65
 73
     0
 40
0.0
  0
LTYPE
  2
CENTER
 70
    64
  3
Center ____ _ ____ _ ____ _ ____ _ ____ _ ____
 72
    65
 73
     4
 40
50.8
 49
31.75
 49
-6.35
 49
6.35
 49
-6.35
  0
LTYPE
  2
HIDDEN
 70
    64
  3
Hidden __ __ __ __ __ __ __ __ __ __ __ __ __ __
 72
    65
 73
     2
 40
9.525
 49
6.35
 49
-3.175
  0
LTYPE
  2
CENTER2
 70
    64
  3
Center (.5x) ___ _ ___ _ ___ _ ___ _ ___ _ ___
 72
    65
 73
     4
 40
28.575
 49
19.05
 49
-3.175
 49
3.175
 49
-3.175
  0
LTYPE
  2
HIDDEN2
 70
    64
  3
Hidden (.5x) _ _ _ _ _ _ _ _ _ _ _ _ _ _ _ _ _
 72
    65
 73
     2
 40
4.7625
 49
3.175
 49
-1.5875
  0
ENDTAB
  0
TABLE
  2
LAYER
 70
     1
  0
LAYER
  2
0
 70
     0
 62
     7
  6
CONTINUOUS
  0
ENDTAB
  0
TABLE
  2
STYLE
 70
     1
  0
STYLE
  2
STANDARD
 70
     0
 40
0.0
 41
1.0
 50
0.0
 71
     0
 42
0.0
  3
txt
  4

  0
ENDTAB
  0
TABLE
  2
VIEW
 70
     0
  0
ENDTAB
  0
TABLE
  2
UCS
 70
     0
  0
ENDTAB
  0
TABLE
  2
APPID
 70
     1
  0
APPID
  2
ACAD
 70
     0
  0
ENDTAB
  0
TABLE
  2
DIMSTYLE
 70
     1
  0
DIMSTYLE
  2
STANDARD
 70
     0
  3

  4

  5

  6

  7

 40
1.0
 41
0.18
 42
0.0625
 43
0.38
 44
0.18
 45
0.0
 46
0.0
 47
0.0
 48
0.0
 71
     0
 72
     0
 73
     1
 74
     1
 75
     0
 76
     0
 77
     0
 78
     0
140
0.18
141
0.09
142
0.0
143
25.4
144
1.0
145
0.0
146
1.0
147
0.09
170
     0
171
     2
172
     0
173
     0
174
     0
175
     0
176
     0
177
     0
178
     0
  0
ENDTAB
  0
ENDSEC
  0
SECTION
  2
BLOCKS
  0
BLOCK
  8
0
  5
1B5
  2
B14334140003042020_0000000
 70
     0
 10
0.0
 20
0.0
 30
0.0
  3
B14334140003042020_0000001B
  0
CIRCLE
  8
0
  6
CONTINUOUS
 62
     2
  5
1B6
 10
0.531496
 20
2.244094
 30
0.0
 40
0.082677
  0
ENDBLK
  8
0
  5
1B7
  0
BLOCK
  8
0
  5
1BA
  2
B14334140003042020_0000001
 70
     0
 10
0.0
 20
0.0
 30
0.0
  3
B14334140003042020_0000001C
  0
CIRCLE
  8
0
  6
CONTINUOUS
 62
     2
  5
1BB
 10
-0.531496
 20
-2.244094
 30
0.0
 40
0.082677
  0
ENDBLK
  8
0
  5
1BC
  0
ENDSEC
  0
SECTION
  2
ENTITIES
  0
LINE
  8
0
  6
CONTINUOUS
 62
     7
  5
1C6
 10
-1.334646
 20
-2.61811
 30
0.0
 11
-1.291339
 21
-2.61811
 31
0.0
  0
LINE
  8
0
  6
CONTINUOUS
 62
     7
  5
1C7
 10
-1.594488
 20
-1.086614
 30
0.0
 11
-1.594488
 21
-2.094488
 31
0.0
  0
LINE
  8
0
  6
CONTINUOUS
 62
     7
  5
1C8
 10
1.594488
 20
-2.094488
 30
0.0
 11
1.594488
 21
-1.086614
 31
0.0
  0
LINE
  8
0
  6
CONTINUOUS
 62
     7
  5
1C9
 10
-1.185039
 20
-2.384462
 30
0.0
 11
-1.185039
 21
-2.221837
 31
0.0
  0
LINE
  8
0
  6
CONTINUOUS
 62
     7
  5
1CA
 10
-1.14127
 20
-2.179134
 30
0.0
 11
-0.984715
 21
-2.179134
 31
0.0
  0
LINE
  8
0
  6
CONTINUOUS
 62
     7
  5
1CB
 10
-0.940945
 20
-2.221837
 30
0.0
 11
-0.940945
 21
-2.384462
 31
0.0
  0
LINE
  8
0
  6
CONTINUOUS
 62
     7
  5
1CC
 10
-0.9788
 20
-2.423228
 30
0.0
 11
-1.147185
 21
-2.423228
 31
0.0
  0
LINE
  8
0
  6
CONTINUOUS
 62
     7
  5
1CD
 10
-0.122047
 20
-2.384462
 30
0.0
 11
-0.122047
 21
-2.221837
 31
0.0
  0
LINE
  8
0
  6
CONTINUOUS
 62
     7
  5
1CE
 10
-0.078277
 20
-2.179134
 30
0.0
 11
0.078277
 21
-2.179134
 31
0.0
  0
LINE
  8
0
  6
CONTINUOUS
 62
     7
  5
1CF
 10
0.122047
 20
-2.221837
 30
0.0
 11
0.122047
 21
-2.384462
 31
0.0
  0
LINE
  8
0
  6
CONTINUOUS
 62
     7
  5
1D0
 10
0.084192
 20
-2.423228
 30
0.0
 11
-0.084192
 21
-2.423228
 31
0.0
  0
LINE
  8
0
  6
CONTINUOUS
 62
     7
  5
1D1
 10
0.940945
 20
-2.384462
 30
0.0
 11
0.940945
 21
-2.221837
 31
0.0
  0
LINE
  8
0
  6
CONTINUOUS
 62
     7
  5
1D2
 10
0.984715
 20
-2.179134
 30
0.0
 11
1.14127
 21
-2.179134
 31
0.0
  0
LINE
  8
0
  6
CONTINUOUS
 62
     7
  5
1D3
 10
1.185039
 20
-2.221837
 30
0.0
 11
1.185039
 21
-2.384462
 31
0.0
  0
LINE
  8
0
  6
CONTINUOUS
 62
     7
  5
1D4
 10
1.147185
 20
-2.423228
 30
0.0
 11
0.9788
 21
-2.423228
 31
0.0
  0
LINE
  8
0
  6
CONTINUOUS
 62
     7
  5
1D5
 10
-1.579134
 20
-2.688976
 30
0.0
 11
-1.476378
 21
-2.688976
 31
0.0
  0
LINE
  8
0
  6
CONTINUOUS
 62
     7
  5
1D6
 10
-1.590945
 20
-2.688976
 30
0.0
 11
-1.579134
 21
-2.688976
 31
0.0
  0
LINE
  8
0
  6
CONTINUOUS
 62
     7
  5
1D7
 10
1.579134
 20
-2.688976
 30
0.0
 11
1.590945
 21
-2.688976
 31
0.0
  0
LINE
  8
0
  6
CONTINUOUS
 62
     7
  5
1D8
 10
1.476378
 20
-2.688976
 30
0.0
 11
1.579134
 21
-2.688976
 31
0.0
  0
LINE
  8
0
  6
CONTINUOUS
 62
     7
  5
1D9
 10
-0.413386
 20
-2.760605
 30
0.0
 11
-0.413386
 21
-2.69685
 31
0.0
  0
LINE
  8
0
  6
CONTINUOUS
 62
     7
  5
1DA
 10
-0.413386
 20
-2.760605
 30
0.0
 11
-0.354331
 21
-2.760605
 31
0.0
  0
LINE
  8
0
  6
CONTINUOUS
 62
     7
  5
1DB
 10
-0.354331
 20
-2.760605
 30
0.0
 11
-0.354331
 21
-2.69685
 31
0.0
  0
LINE
  8
0
  6
CONTINUOUS
 62
     7
  5
1DC
 10
0.354331
 20
-2.69685
 30
0.0
 11
0.354331
 21
-2.760605
 31
0.0
  0
LINE
  8
0
  6
CONTINUOUS
 62
     7
  5
1DD
 10
0.413386
 20
-2.760605
 30
0.0
 11
0.354331
 21
-2.760605
 31
0.0
  0
LINE
  8
0
  6
CONTINUOUS
 62
     7
  5
1DE
 10
0.413386
 20
-2.760605
 30
0.0
 11
0.413386
 21
-2.69685
 31
0.0
  0
LINE
  8
0
  6
CONTINUOUS
 62
     7
  5
1DF
 10
-1.590945
 20
-2.614734
 30
0.0
 11
-1.590945
 21
-2.61811
 31
0.0
  0
LINE
  8
0
  6
CONTINUOUS
 62
     7
  5
1E0
 10
-1.590945
 20
-2.61811
 30
0.0
 11
-1.579134
 21
-2.61811
 31
0.0
  0
LINE
  8
0
  6
CONTINUOUS
 62
     7
  5
1E1
 10
-1.476378
 20
-2.760605
 30
0.0
 11
-1.476378
 21
-2.688976
 31
0.0
  0
LINE
  8
0
  6
CONTINUOUS
 62
     7
  5
1E2
 10
-1.476378
 20
-2.760605
 30
0.0
 11
-1.417323
 21
-2.760605
 31
0.0
  0
LINE
  8
0
  6
CONTINUOUS
 62
     7
  5
1E3
 10
-1.417323
 20
-2.760605
 30
0.0
 11
-1.417323
 21
-2.688976
 31
0.0
  0
LINE
  8
0
  6
CONTINUOUS
 62
     7
  5
1E4
 10
-1.417323
 20
-2.688976
 30
0.0
 11
-1.275591
 21
-2.688976
 31
0.0
  0
LINE
  8
0
  6
CONTINUOUS
 62
     7
  5
1E5
 10
-0.708661
 20
-2.69685
 30
0.0
 11
-0.708661
 21
-2.760605
 31
0.0
  0
LINE
  8
0
  6
CONTINUOUS
 62
     7
  5
1E6
 10
-0.649606
 20
-2.760605
 30
0.0
 11
-0.708661
 21
-2.760605
 31
0.0
  0
LINE
  8
0
  6
CONTINUOUS
 62
     7
  5
1E7
 10
-0.649606
 20
-2.760605
 30
0.0
 11
-0.649606
 21
-2.69685
 31
0.0
  0
LINE
  8
0
  6
CONTINUOUS
 62
     7
  5
1E8
 10
1.590945
 20
-2.61811
 30
0.0
 11
1.582677
 21
-2.61811
 31
0.0
  0
LINE
  8
0
  6
CONTINUOUS
 62
     7
  5
1E9
 10
1.417323
 20
-2.760605
 30
0.0
 11
1.417323
 21
-3.055118
 31
0.0
  0
LINE
  8
0
  6
CONTINUOUS
 62
     7
  5
1EA
 10
1.417323
 20
-2.688976
 30
0.0
 11
1.417323
 21
-2.760605
 31
0.0
  0
LINE
  8
0
  6
CONTINUOUS
 62
     7
  5
1EB
 10
1.476378
 20
-3.055118
 30
0.0
 11
1.417323
 21
-3.055118
 31
0.0
  0
LINE
  8
0
  6
CONTINUOUS
 62
     7
  5
1EC
 10
1.476378
 20
-3.055118
 30
0.0
 11
1.476378
 21
-2.760605
 31
0.0
  0
LINE
  8
0
  6
CONTINUOUS
 62
     7
  5
1ED
 10
1.476378
 20
-2.760605
 30
0.0
 11
1.417323
 21
-2.760605
 31
0.0
  0
LINE
  8
0
  6
CONTINUOUS
 62
     7
  5
1EE
 10
1.275591
 20
-2.688976
 30
0.0
 11
1.417323
 21
-2.688976
 31
0.0
  0
LINE
  8
0
  6
CONTINUOUS
 62
     7
  5
1EF
 10
1.476378
 20
-2.760605
 30
0.0
 11
1.476378
 21
-2.688976
 31
0.0
  0
LINE
  8
0
  6
CONTINUOUS
 62
     7
  5
1F0
 10
1.476378
 20
-3.055118
 30
0.0
 11
1.476378
 21
-3.110236
 31
0.0
  0
LINE
  8
0
  6
CONTINUOUS
 62
     7
  5
1F1
 10
0.354331
 20
-2.760605
 30
0.0
 11
0.354331
 21
-3.055118
 31
0.0
  0
LINE
  8
0
  6
CONTINUOUS
 62
     7
  5
1F2
 10
0.413386
 20
-3.055118
 30
0.0
 11
0.354331
 21
-3.055118
 31
0.0
  0
LINE
  8
0
  6
CONTINUOUS
 62
     7
  5
1F3
 10
0.413386
 20
-3.055118
 30
0.0
 11
0.413386
 21
-2.760605
 31
0.0
  0
LINE
  8
0
  6
CONTINUOUS
 62
     7
  5
1F4
 10
0.413386
 20
-3.055118
 30
0.0
 11
0.413386
 21
-3.110236
 31
0.0
  0
LINE
  8
0
  6
CONTINUOUS
 62
     7
  5
1F5
 10
-0.708661
 20
-2.760605
 30
0.0
 11
-0.708661
 21
-3.055118
 31
0.0
  0
LINE
  8
0
  6
CONTINUOUS
 62
     7
  5
1F6
 10
-0.649606
 20
-3.055118
 30
0.0
 11
-0.708661
 21
-3.055118
 31
0.0
  0
LINE
  8
0
  6
CONTINUOUS
 62
     7
  5
1F7
 10
-0.649606
 20
-3.055118
 30
0.0
 11
-0.649606
 21
-2.760605
 31
0.0
  0
LINE
  8
0
  6
CONTINUOUS
 62
     7
  5
1F8
 10
-0.649606
 20
-3.055118
 30
0.0
 11
-0.649606
 21
-3.110236
 31
0.0
  0
LINE
  8
0
  6
CONTINUOUS
 62
     7
  5
1F9
 10
0.708661
 20
-2.760605
 30
0.0
 11
0.708661
 21
-2.69685
 31
0.0
  0
LINE
  8
0
  6
CONTINUOUS
 62
     7
  5
1FA
 10
0.708661
 20
-3.055118
 30
0.0
 11
0.708661
 21
-2.760605
 31
0.0
  0
LINE
  8
0
  6
CONTINUOUS
 62
     7
  5
1FB
 10
0.649606
 20
-3.055118
 30
0.0
 11
0.708661
 21
-3.055118
 31
0.0
  0
LINE
  8
0
  6
CONTINUOUS
 62
     7
  5
1FC
 10
0.649606
 20
-2.760605
 30
0.0
 11
0.708661
 21
-2.760605
 31
0.0
  0
LINE
  8
0
  6
CONTINUOUS
 62
     7
  5
1FD
 10
0.649606
 20
-3.055118
 30
0.0
 11
0.649606
 21
-2.760605
 31
0.0
  0
LINE
  8
0
  6
CONTINUOUS
 62
     7
  5
1FE
 10
0.649606
 20
-3.055118
 30
0.0
 11
0.649606
 21
-3.110236
 31
0.0
  0
LINE
  8
0
  6
CONTINUOUS
 62
     7
  5
1FF
 10
0.649606
 20
-3.110236
 30
0.0
 11
0.775591
 21
-3.110236
 31
0.0
  0
LINE
  8
0
  6
CONTINUOUS
 62
     7
  5
200
 10
0.649606
 20
-2.760605
 30
0.0
 11
0.649606
 21
-2.69685
 31
0.0
  0
LINE
  8
0
  6
CONTINUOUS
 62
     7
  5
201
 10
-0.354331
 20
-3.055118
 30
0.0
 11
-0.354331
 21
-2.760605
 31
0.0
  0
LINE
  8
0
  6
CONTINUOUS
 62
     7
  5
202
 10
-0.413386
 20
-3.055118
 30
0.0
 11
-0.354331
 21
-3.055118
 31
0.0
  0
LINE
  8
0
  6
CONTINUOUS
 62
     7
  5
203
 10
-0.413386
 20
-3.055118
 30
0.0
 11
-0.413386
 21
-2.760605
 31
0.0
  0
LINE
  8
0
  6
CONTINUOUS
 62
     7
  5
204
 10
-0.413386
 20
-3.055118
 30
0.0
 11
-0.413386
 21
-3.110236
 31
0.0
  0
LINE
  8
0
  6
CONTINUOUS
 62
     7
  5
205
 10
-0.413386
 20
-3.110236
 30
0.0
 11
-0.287402
 21
-3.110236
 31
0.0
  0
LINE
  8
0
  6
CONTINUOUS
 62
     7
  5
206
 10
-1.417323
 20
-3.055118
 30
0.0
 11
-1.417323
 21
-2.760605
 31
0.0
  0
LINE
  8
0
  6
CONTINUOUS
 62
     7
  5
207
 10
-1.476378
 20
-3.055118
 30
0.0
 11
-1.417323
 21
-3.055118
 31
0.0
  0
LINE
  8
0
  6
CONTINUOUS
 62
     7
  5
208
 10
-1.476378
 20
-3.055118
 30
0.0
 11
-1.476378
 21
-2.760605
 31
0.0
  0
LINE
  8
0
  6
CONTINUOUS
 62
     7
  5
209
 10
-1.476378
 20
-3.055118
 30
0.0
 11
-1.476378
 21
-3.110236
 31
0.0
  0
LINE
  8
0
  6
CONTINUOUS
 62
     7
  5
20A
 10
0.775591
 20
-3.110236
 30
0.0
 11
1.350394
 21
-3.110236
 31
0.0
  0
LINE
  8
0
  6
CONTINUOUS
 62
     7
  5
20B
 10
1.350394
 20
-3.110236
 30
0.0
 11
1.476378
 21
-3.110236
 31
0.0
  0
LINE
  8
0
  6
CONTINUOUS
 62
     7
  5
20C
 10
-0.287402
 20
-3.110236
 30
0.0
 11
0.287402
 21
-3.110236
 31
0.0
  0
LINE
  8
0
  6
CONTINUOUS
 62
     7
  5
20D
 10
0.287402
 20
-3.110236
 30
0.0
 11
0.413386
 21
-3.110236
 31
0.0
  0
LINE
  8
0
  6
CONTINUOUS
 62
     7
  5
20E
 10
-1.476378
 20
-3.110236
 30
0.0
 11
-1.350394
 21
-3.110236
 31
0.0
  0
LINE
  8
0
  6
CONTINUOUS
 62
     7
  5
20F
 10
-1.350394
 20
-3.110236
 30
0.0
 11
-0.775591
 21
-3.110236
 31
0.0
  0
LINE
  8
0
  6
CONTINUOUS
 62
     7
  5
210
 10
-0.775591
 20
-3.110236
 30
0.0
 11
-0.649606
 21
-3.110236
 31
0.0
  0
LINE
  8
0
  6
CONTINUOUS
 62
     7
  5
211
 10
1.590945
 20
-2.61811
 30
0.0
 11
1.590945
 21
-2.688976
 31
0.0
  0
LINE
  8
0
  6
CONTINUOUS
 62
     7
  5
212
 10
1.590945
 20
-2.614734
 30
0.0
 11
1.590945
 21
-2.61811
 31
0.0
  0
LINE
  8
0
  6
CONTINUOUS
 62
     7
  5
213
 10
-1.590945
 20
-2.61811
 30
0.0
 11
-1.590945
 21
-2.688976
 31
0.0
  0
LINE
  8
0
  6
CONTINUOUS
 62
     7
  5
214
 10
1.594488
 20
-2.61811
 30
0.0
 11
1.590945
 21
-2.61811
 31
0.0
  0
LINE
  8
0
  6
CONTINUOUS
 62
     7
  5
215
 10
-1.590945
 20
-2.61811
 30
0.0
 11
-1.594488
 21
-2.61811
 31
0.0
  0
LINE
  8
0
  6
CONTINUOUS
 62
     7
  5
216
 10
-1.334646
 20
-2.61811
 30
0.0
 11
-1.541339
 21
-2.61811
 31
0.0
  0
ARC
  8
0
  6
CONTINUOUS
 62
     7
  5
217
 10
0.531496
 20
-2.662992
 30
0.0
 40
0.062992
 50
212.513615
 51
327.486385
  0
LINE
  8
0
  6
CONTINUOUS
 62
     7
  5
218
 10
0.649606
 20
-2.781102
 30
0.0
 11
0.413386
 21
-2.781102
 31
0.0
  0
LINE
  8
0
  6
CONTINUOUS
 62
     7
  5
219
 10
-1.594488
 20
-1.086614
 30
0.0
 11
-1.594488
 21
-1.066929
 31
0.0
  0
LINE
  8
0
  6
CONTINUOUS
 62
     7
  5
21A
 10
1.594488
 20
-2.275591
 30
0.0
 11
1.594488
 21
-2.61811
 31
0.0
  0
LINE
  8
0
  6
CONTINUOUS
 62
     7
  5
21B
 10
1.594488
 20
-1.066929
 30
0.0
 11
1.594488
 21
-1.086614
 31
0.0
  0
LINE
  8
0
  6
CONTINUOUS
 62
     7
  5
21C
 10
1.594488
 20
-2.094488
 30
0.0
 11
1.594488
 21
-2.275591
 31
0.0
  0
LINE
  8
0
  6
CONTINUOUS
 62
     7
  5
21D
 10
-1.594488
 20
-2.61811
 30
0.0
 11
-1.594488
 21
-2.275591
 31
0.0
  0
LINE
  8
0
  6
CONTINUOUS
 62
     7
  5
21E
 10
-1.594488
 20
-2.275591
 30
0.0
 11
-1.594488
 21
-2.094488
 31
0.0
  0
LINE
  8
0
  6
CONTINUOUS
 62
     7
  5
21F
 10
-0.866142
 20
3.031496
 30
0.0
 11
-0.866142
 21
2.69685
 31
0.0
  0
LINE
  8
0
  6
CONTINUOUS
 62
     7
  5
220
 10
-0.19685
 20
2.69685
 30
0.0
 11
-0.19685
 21
3.031496
 31
0.0
  0
LINE
  8
0
  6
CONTINUOUS
 62
     7
  5
221
 10
0.19685
 20
3.031496
 30
0.0
 11
0.19685
 21
2.69685
 31
0.0
  0
LINE
  8
0
  6
CONTINUOUS
 62
     7
  5
222
 10
0.866142
 20
2.69685
 30
0.0
 11
0.866142
 21
3.031496
 31
0.0
  0
LINE
  8
0
  6
CONTINUOUS
 62
     7
  5
223
 10
1.259843
 20
3.031496
 30
0.0
 11
1.259843
 21
2.69685
 31
0.0
  0
LINE
  8
0
  6
CONTINUOUS
 62
     7
  5
224
 10
-1.582677
 20
2.61811
 30
0.0
 11
-1.594488
 21
2.61811
 31
0.0
  0
LINE
  8
0
  6
CONTINUOUS
 62
     7
  5
225
 10
1.594488
 20
-1.066929
 30
0.0
 11
1.594488
 21
2.61811
 31
0.0
  0
LINE
  8
0
  6
CONTINUOUS
 62
     7
  5
226
 10
1.594488
 20
2.61811
 30
0.0
 11
1.291339
 21
2.61811
 31
0.0
  0
LINE
  8
0
  6
CONTINUOUS
 62
     7
  5
227
 10
-1.594488
 20
2.61811
 30
0.0
 11
-1.594488
 21
-1.066929
 31
0.0
  0
LINE
  8
0
  6
CONTINUOUS
 62
     7
  5
228
 10
-0.940945
 20
2.384462
 30
0.0
 11
-0.940945
 21
2.221837
 31
0.0
  0
LINE
  8
0
  6
CONTINUOUS
 62
     7
  5
229
 10
-0.984715
 20
2.179134
 30
0.0
 11
-1.14127
 21
2.179134
 31
0.0
  0
LINE
  8
0
  6
CONTINUOUS
 62
     7
  5
22A
 10
-1.185039
 20
2.221837
 30
0.0
 11
-1.185039
 21
2.384462
 31
0.0
  0
LINE
  8
0
  6
CONTINUOUS
 62
     7
  5
22B
 10
-1.147185
 20
2.423228
 30
0.0
 11
-0.9788
 21
2.423228
 31
0.0
  0
LINE
  8
0
  6
CONTINUOUS
 62
     7
  5
22C
 10
0.122047
 20
2.384462
 30
0.0
 11
0.122047
 21
2.221837
 31
0.0
  0
LINE
  8
0
  6
CONTINUOUS
 62
     7
  5
22D
 10
0.078277
 20
2.179134
 30
0.0
 11
-0.078277
 21
2.179134
 31
0.0
  0
LINE
  8
0
  6
CONTINUOUS
 62
     7
  5
22E
 10
-0.122047
 20
2.221837
 30
0.0
 11
-0.122047
 21
2.384462
 31
0.0
  0
LINE
  8
0
  6
CONTINUOUS
 62
     7
  5
22F
 10
-0.084192
 20
2.423228
 30
0.0
 11
0.084192
 21
2.423228
 31
0.0
  0
LINE
  8
0
  6
CONTINUOUS
 62
     7
  5
230
 10
1.185039
 20
2.384462
 30
0.0
 11
1.185039
 21
2.221837
 31
0.0
  0
LINE
  8
0
  6
CONTINUOUS
 62
     7
  5
231
 10
1.14127
 20
2.179134
 30
0.0
 11
0.984715
 21
2.179134
 31
0.0
  0
LINE
  8
0
  6
CONTINUOUS
 62
     7
  5
232
 10
0.940945
 20
2.221837
 30
0.0
 11
0.940945
 21
2.384462
 31
0.0
  0
LINE
  8
0
  6
CONTINUOUS
 62
     7
  5
233
 10
0.9788
 20
2.423228
 30
0.0
 11
1.147185
 21
2.423228
 31
0.0
  0
CIRCLE
  8
0
  6
CONTINUOUS
 62
     7
  5
234
 10
-1.062992
 20
2.872047
 30
0.0
 40
0.114173
  0
CIRCLE
  8
0
  6
CONTINUOUS
 62
     7
  5
235
 10
0.0
 20
2.872047
 30
0.0
 40
0.114173
  0
CIRCLE
  8
0
  6
CONTINUOUS
 62
     7
  5
236
 10
1.062992
 20
2.872047
 30
0.0
 40
0.114173
  0
CIRCLE
  8
0
  6
CONTINUOUS
 62
     7
  5
237
 10
-1.062992
 20
2.872047
 30
0.0
 40
0.137795
  0
CIRCLE
  8
0
  6
CONTINUOUS
 62
     7
  5
238
 10
0.0
 20
2.872047
 30
0.0
 40
0.137795
  0
CIRCLE
  8
0
  6
CONTINUOUS
 62
     7
  5
239
 10
1.062992
 20
2.872047
 30
0.0
 40
0.137795
  0
ARC
  8
0
  6
CONTINUOUS
 62
     7
  5
23A
 10
-0.877953
 20
2.718504
 30
0.0
 40
0.011811
 50
270.0
 51
360.0
  0
LINE
  8
0
  6
CONTINUOUS
 62
     7
  5
23B
 10
-0.866142
 20
2.718504
 30
0.0
 11
-0.866142
 21
3.037402
 31
0.0
  0
ARC
  8
0
  6
CONTINUOUS
 62
     7
  5
23C
 10
-0.944882
 20
3.037402
 30
0.0
 40
0.07874
 50
0.0
 51
90.0
  0
LINE
  8
0
  6
CONTINUOUS
 62
     7
  5
23D
 10
-0.944882
 20
3.116142
 30
0.0
 11
-1.181102
 21
3.116142
 31
0.0
  0
ARC
  8
0
  6
CONTINUOUS
 62
     7
  5
23E
 10
-1.181102
 20
3.037402
 30
0.0
 40
0.07874
 50
90.0
 51
180.0
  0
LINE
  8
0
  6
CONTINUOUS
 62
     7
  5
23F
 10
-1.259843
 20
3.037402
 30
0.0
 11
-1.259843
 21
2.718504
 31
0.0
  0
ARC
  8
0
  6
CONTINUOUS
 62
     7
  5
240
 10
-1.248031
 20
2.718504
 30
0.0
 40
0.011811
 50
180.0
 51
270.0
  0
LINE
  8
0
  6
CONTINUOUS
 62
     7
  5
241
 10
-1.248031
 20
2.706693
 30
0.0
 11
-0.877953
 21
2.706693
 31
0.0
  0
ARC
  8
0
  6
CONTINUOUS
 62
     7
  5
242
 10
0.185039
 20
2.718504
 30
0.0
 40
0.011811
 50
270.0
 51
360.0
  0
LINE
  8
0
  6
CONTINUOUS
 62
     7
  5
243
 10
0.19685
 20
2.718504
 30
0.0
 11
0.19685
 21
3.037402
 31
0.0
  0
ARC
  8
0
  6
CONTINUOUS
 62
     7
  5
244
 10
0.11811
 20
3.037402
 30
0.0
 40
0.07874
 50
0.0
 51
90.0
  0
LINE
  8
0
  6
CONTINUOUS
 62
     7
  5
245
 10
0.11811
 20
3.116142
 30
0.0
 11
-0.11811
 21
3.116142
 31
0.0
  0
ARC
  8
0
  6
CONTINUOUS
 62
     7
  5
246
 10
-0.11811
 20
3.037402
 30
0.0
 40
0.07874
 50
90.0
 51
180.0
  0
LINE
  8
0
  6
CONTINUOUS
 62
     7
  5
247
 10
-0.19685
 20
3.037402
 30
0.0
 11
-0.19685
 21
2.718504
 31
0.0
  0
ARC
  8
0
  6
CONTINUOUS
 62
     7
  5
248
 10
-0.185039
 20
2.718504
 30
0.0
 40
0.011811
 50
180.0
 51
270.0
  0
LINE
  8
0
  6
CONTINUOUS
 62
     7
  5
249
 10
-0.185039
 20
2.706693
 30
0.0
 11
0.185039
 21
2.706693
 31
0.0
  0
ARC
  8
0
  6
CONTINUOUS
 62
     7
  5
24A
 10
1.248031
 20
2.718504
 30
0.0
 40
0.011811
 50
270.0
 51
360.0
  0
LINE
  8
0
  6
CONTINUOUS
 62
     7
  5
24B
 10
1.259843
 20
2.718504
 30
0.0
 11
1.259843
 21
3.037402
 31
0.0
  0
ARC
  8
0
  6
CONTINUOUS
 62
     7
  5
24C
 10
1.181102
 20
3.037402
 30
0.0
 40
0.07874
 50
0.0
 51
90.0
  0
LINE
  8
0
  6
CONTINUOUS
 62
     7
  5
24D
 10
1.181102
 20
3.116142
 30
0.0
 11
0.944882
 21
3.116142
 31
0.0
  0
ARC
  8
0
  6
CONTINUOUS
 62
     7
  5
24E
 10
0.944882
 20
3.037402
 30
0.0
 40
0.07874
 50
90.0
 51
180.0
  0
LINE
  8
0
  6
CONTINUOUS
 62
     7
  5
24F
 10
0.866142
 20
3.037402
 30
0.0
 11
0.866142
 21
2.718504
 31
0.0
  0
ARC
  8
0
  6
CONTINUOUS
 62
     7
  5
250
 10
0.877953
 20
2.718504
 30
0.0
 40
0.011811
 50
180.0
 51
270.0
  0
LINE
  8
0
  6
CONTINUOUS
 62
     7
  5
251
 10
0.877953
 20
2.706693
 30
0.0
 11
1.248031
 21
2.706693
 31
0.0
  0
LINE
  8
0
  6
CONTINUOUS
 62
     7
  5
252
 10
-1.259843
 20
2.69685
 30
0.0
 11
-1.259843
 21
3.031496
 31
0.0
  0
LINE
  8
0
  6
CONTINUOUS
 62
     7
  5
253
 10
-0.775591
 20
3.110236
 30
0.0
 11
-0.914963
 21
3.110236
 31
0.0
  0
LINE
  8
0
  6
CONTINUOUS
 62
     7
  5
254
 10
-0.148029
 20
3.110236
 30
0.0
 11
-0.287402
 21
3.110236
 31
0.0
  0
LINE
  8
0
  6
CONTINUOUS
 62
     7
  5
255
 10
0.287402
 20
3.110236
 30
0.0
 11
0.148029
 21
3.110236
 31
0.0
  0
LINE
  8
0
  6
CONTINUOUS
 62
     7
  5
256
 10
0.914963
 20
3.110236
 30
0.0
 11
0.775591
 21
3.110236
 31
0.0
  0
LINE
  8
0
  6
CONTINUOUS
 62
     7
  5
257
 10
1.350394
 20
3.110236
 30
0.0
 11
1.211021
 21
3.110236
 31
0.0
  0
LINE
  8
0
  6
CONTINUOUS
 62
     7
  5
258
 10
1.417323
 20
2.688976
 30
0.0
 11
1.275591
 21
2.688976
 31
0.0
  0
LINE
  8
0
  6
CONTINUOUS
 62
     7
  5
259
 10
1.579134
 20
2.688976
 30
0.0
 11
1.476378
 21
2.688976
 31
0.0
  0
LINE
  8
0
  6
CONTINUOUS
 62
     7
  5
25A
 10
1.590945
 20
2.688976
 30
0.0
 11
1.579134
 21
2.688976
 31
0.0
  0
LINE
  8
0
  6
CONTINUOUS
 62
     7
  5
25B
 10
-1.579134
 20
2.688976
 30
0.0
 11
-1.590945
 21
2.688976
 31
0.0
  0
LINE
  8
0
  6
CONTINUOUS
 62
     7
  5
25C
 10
-1.476378
 20
2.688976
 30
0.0
 11
-1.579134
 21
2.688976
 31
0.0
  0
LINE
  8
0
  6
CONTINUOUS
 62
     7
  5
25D
 10
0.413386
 20
2.760605
 30
0.0
 11
0.413386
 21
2.69685
 31
0.0
  0
LINE
  8
0
  6
CONTINUOUS
 62
     7
  5
25E
 10
0.413386
 20
2.760605
 30
0.0
 11
0.354331
 21
2.760605
 31
0.0
  0
LINE
  8
0
  6
CONTINUOUS
 62
     7
  5
25F
 10
0.354331
 20
2.760605
 30
0.0
 11
0.354331
 21
2.69685
 31
0.0
  0
LINE
  8
0
  6
CONTINUOUS
 62
     7
  5
260
 10
-0.354331
 20
2.69685
 30
0.0
 11
-0.354331
 21
2.760605
 31
0.0
  0
LINE
  8
0
  6
CONTINUOUS
 62
     7
  5
261
 10
-0.413386
 20
2.760605
 30
0.0
 11
-0.354331
 21
2.760605
 31
0.0
  0
LINE
  8
0
  6
CONTINUOUS
 62
     7
  5
262
 10
-0.413386
 20
2.760605
 30
0.0
 11
-0.413386
 21
2.69685
 31
0.0
  0
LINE
  8
0
  6
CONTINUOUS
 62
     7
  5
263
 10
1.476378
 20
2.760605
 30
0.0
 11
1.476378
 21
2.688976
 31
0.0
  0
LINE
  8
0
  6
CONTINUOUS
 62
     7
  5
264
 10
1.476378
 20
2.760605
 30
0.0
 11
1.417323
 21
2.760605
 31
0.0
  0
LINE
  8
0
  6
CONTINUOUS
 62
     7
  5
265
 10
1.417323
 20
2.760605
 30
0.0
 11
1.417323
 21
2.688976
 31
0.0
  0
LINE
  8
0
  6
CONTINUOUS
 62
     7
  5
266
 10
0.708661
 20
2.69685
 30
0.0
 11
0.708661
 21
2.760605
 31
0.0
  0
LINE
  8
0
  6
CONTINUOUS
 62
     7
  5
267
 10
0.649606
 20
2.760605
 30
0.0
 11
0.708661
 21
2.760605
 31
0.0
  0
LINE
  8
0
  6
CONTINUOUS
 62
     7
  5
268
 10
0.649606
 20
2.760605
 30
0.0
 11
0.649606
 21
2.69685
 31
0.0
  0
LINE
  8
0
  6
CONTINUOUS
 62
     7
  5
269
 10
-1.417323
 20
2.760605
 30
0.0
 11
-1.417323
 21
3.055118
 31
0.0
  0
LINE
  8
0
  6
CONTINUOUS
 62
     7
  5
26A
 10
-1.417323
 20
2.688976
 30
0.0
 11
-1.417323
 21
2.760605
 31
0.0
  0
LINE
  8
0
  6
CONTINUOUS
 62
     7
  5
26B
 10
-1.476378
 20
3.055118
 30
0.0
 11
-1.417323
 21
3.055118
 31
0.0
  0
LINE
  8
0
  6
CONTINUOUS
 62
     7
  5
26C
 10
-1.476378
 20
3.055118
 30
0.0
 11
-1.476378
 21
2.760605
 31
0.0
  0
LINE
  8
0
  6
CONTINUOUS
 62
     7
  5
26D
 10
-1.476378
 20
2.760605
 30
0.0
 11
-1.417323
 21
2.760605
 31
0.0
  0
LINE
  8
0
  6
CONTINUOUS
 62
     7
  5
26E
 10
-1.275591
 20
2.688976
 30
0.0
 11
-1.417323
 21
2.688976
 31
0.0
  0
LINE
  8
0
  6
CONTINUOUS
 62
     7
  5
26F
 10
-1.476378
 20
2.760605
 30
0.0
 11
-1.476378
 21
2.688976
 31
0.0
  0
LINE
  8
0
  6
CONTINUOUS
 62
     7
  5
270
 10
-1.476378
 20
3.055118
 30
0.0
 11
-1.476378
 21
3.110236
 31
0.0
  0
LINE
  8
0
  6
CONTINUOUS
 62
     7
  5
271
 10
-0.354331
 20
2.760605
 30
0.0
 11
-0.354331
 21
3.055118
 31
0.0
  0
LINE
  8
0
  6
CONTINUOUS
 62
     7
  5
272
 10
-0.413386
 20
3.055118
 30
0.0
 11
-0.354331
 21
3.055118
 31
0.0
  0
LINE
  8
0
  6
CONTINUOUS
 62
     7
  5
273
 10
-0.413386
 20
3.055118
 30
0.0
 11
-0.413386
 21
2.760605
 31
0.0
  0
LINE
  8
0
  6
CONTINUOUS
 62
     7
  5
274
 10
-0.413386
 20
3.055118
 30
0.0
 11
-0.413386
 21
3.110236
 31
0.0
  0
LINE
  8
0
  6
CONTINUOUS
 62
     7
  5
275
 10
0.708661
 20
2.760605
 30
0.0
 11
0.708661
 21
3.055118
 31
0.0
  0
LINE
  8
0
  6
CONTINUOUS
 62
     7
  5
276
 10
0.649606
 20
3.055118
 30
0.0
 11
0.708661
 21
3.055118
 31
0.0
  0
LINE
  8
0
  6
CONTINUOUS
 62
     7
  5
277
 10
0.649606
 20
3.055118
 30
0.0
 11
0.649606
 21
2.760605
 31
0.0
  0
LINE
  8
0
  6
CONTINUOUS
 62
     7
  5
278
 10
0.649606
 20
3.055118
 30
0.0
 11
0.649606
 21
3.110236
 31
0.0
  0
LINE
  8
0
  6
CONTINUOUS
 62
     7
  5
279
 10
-0.708661
 20
2.760605
 30
0.0
 11
-0.708661
 21
2.69685
 31
0.0
  0
LINE
  8
0
  6
CONTINUOUS
 62
     7
  5
27A
 10
-0.708661
 20
3.055118
 30
0.0
 11
-0.708661
 21
2.760605
 31
0.0
  0
LINE
  8
0
  6
CONTINUOUS
 62
     7
  5
27B
 10
-0.649606
 20
3.055118
 30
0.0
 11
-0.708661
 21
3.055118
 31
0.0
  0
LINE
  8
0
  6
CONTINUOUS
 62
     7
  5
27C
 10
-0.649606
 20
2.760605
 30
0.0
 11
-0.708661
 21
2.760605
 31
0.0
  0
LINE
  8
0
  6
CONTINUOUS
 62
     7
  5
27D
 10
-0.649606
 20
3.055118
 30
0.0
 11
-0.649606
 21
2.760605
 31
0.0
  0
LINE
  8
0
  6
CONTINUOUS
 62
     7
  5
27E
 10
-0.649606
 20
3.055118
 30
0.0
 11
-0.649606
 21
3.110236
 31
0.0
  0
LINE
  8
0
  6
CONTINUOUS
 62
     7
  5
27F
 10
-0.649606
 20
3.110236
 30
0.0
 11
-0.775591
 21
3.110236
 31
0.0
  0
LINE
  8
0
  6
CONTINUOUS
 62
     7
  5
280
 10
-0.649606
 20
2.760605
 30
0.0
 11
-0.649606
 21
2.69685
 31
0.0
  0
LINE
  8
0
  6
CONTINUOUS
 62
     7
  5
281
 10
0.354331
 20
3.055118
 30
0.0
 11
0.354331
 21
2.760605
 31
0.0
  0
LINE
  8
0
  6
CONTINUOUS
 62
     7
  5
282
 10
0.413386
 20
3.055118
 30
0.0
 11
0.354331
 21
3.055118
 31
0.0
  0
LINE
  8
0
  6
CONTINUOUS
 62
     7
  5
283
 10
0.413386
 20
3.055118
 30
0.0
 11
0.413386
 21
2.760605
 31
0.0
  0
LINE
  8
0
  6
CONTINUOUS
 62
     7
  5
284
 10
0.413386
 20
3.055118
 30
0.0
 11
0.413386
 21
3.110236
 31
0.0
  0
LINE
  8
0
  6
CONTINUOUS
 62
     7
  5
285
 10
0.413386
 20
3.110236
 30
0.0
 11
0.287402
 21
3.110236
 31
0.0
  0
LINE
  8
0
  6
CONTINUOUS
 62
     7
  5
286
 10
1.417323
 20
3.055118
 30
0.0
 11
1.417323
 21
2.760605
 31
0.0
  0
LINE
  8
0
  6
CONTINUOUS
 62
     7
  5
287
 10
1.476378
 20
3.055118
 30
0.0
 11
1.417323
 21
3.055118
 31
0.0
  0
LINE
  8
0
  6
CONTINUOUS
 62
     7
  5
288
 10
1.476378
 20
3.055118
 30
0.0
 11
1.476378
 21
2.760605
 31
0.0
  0
LINE
  8
0
  6
CONTINUOUS
 62
     7
  5
289
 10
1.476378
 20
3.055118
 30
0.0
 11
1.476378
 21
3.110236
 31
0.0
  0
LINE
  8
0
  6
CONTINUOUS
 62
     7
  5
28A
 10
-1.211021
 20
3.110236
 30
0.0
 11
-1.350394
 21
3.110236
 31
0.0
  0
LINE
  8
0
  6
CONTINUOUS
 62
     7
  5
28B
 10
-1.350394
 20
3.110236
 30
0.0
 11
-1.476378
 21
3.110236
 31
0.0
  0
LINE
  8
0
  6
CONTINUOUS
 62
     7
  5
28C
 10
-0.287402
 20
3.110236
 30
0.0
 11
-0.413386
 21
3.110236
 31
0.0
  0
LINE
  8
0
  6
CONTINUOUS
 62
     7
  5
28D
 10
1.476378
 20
3.110236
 30
0.0
 11
1.350394
 21
3.110236
 31
0.0
  0
LINE
  8
0
  6
CONTINUOUS
 62
     7
  5
28E
 10
0.775591
 20
3.110236
 30
0.0
 11
0.649606
 21
3.110236
 31
0.0
  0
LINE
  8
0
  6
CONTINUOUS
 62
     7
  5
28F
 10
-1.590945
 20
2.61811
 30
0.0
 11
-1.590945
 21
2.688976
 31
0.0
  0
LINE
  8
0
  6
CONTINUOUS
 62
     7
  5
290
 10
1.590945
 20
2.61811
 30
0.0
 11
1.590945
 21
2.688976
 31
0.0
  0
LINE
  8
0
  6
CONTINUOUS
 62
     7
  5
291
 10
1.275591
 20
2.69685
 30
0.0
 11
-1.275591
 21
2.69685
 31
0.0
  0
LINE
  8
0
  6
CONTINUOUS
 62
     7
  5
292
 10
0.25
 20
0.758948
 30
0.0
 11
0.275591
 21
0.758948
 31
0.0
  0
LINE
  8
0
  6
CONTINUOUS
 62
     7
  5
293
 10
-0.275591
 20
0.758948
 30
0.0
 11
-0.25
 21
0.758948
 31
0.0
  0
LINE
  8
0
  6
CONTINUOUS
 62
     7
  5
294
 10
-0.25
 20
-0.500596
 30
0.0
 11
-0.275591
 21
-0.500596
 31
0.0
  0
LINE
  8
0
  6
CONTINUOUS
 62
     7
  5
295
 10
0.275591
 20
-0.500596
 30
0.0
 11
0.25
 21
-0.500596
 31
0.0
  0
LINE
  8
0
  6
CONTINUOUS
 62
     7
  5
296
 10
-0.25
 20
-0.223018
 30
0.0
 11
0.25
 21
-0.223018
 31
0.0
  0
LINE
  8
0
  6
CONTINUOUS
 62
     7
  5
297
 10
0.25
 20
0.501125
 30
0.0
 11
-0.25
 21
0.501125
 31
0.0
  0
LINE
  8
0
  6
CONTINUOUS
 62
     7
  5
298
 10
-0.25
 20
-0.545564
 30
0.0
 11
-0.25
 21
-0.568101
 31
0.0
  0
LINE
  8
0
  6
CONTINUOUS
 62
     7
  5
299
 10
-0.25
 20
-0.49977
 30
0.0
 11
-0.25
 21
-0.545564
 31
0.0
  0
LINE
  8
0
  6
CONTINUOUS
 62
     7
  5
29A
 10
-0.25
 20
-0.462308
 30
0.0
 11
-0.25
 21
-0.49977
 31
0.0
  0
LINE
  8
0
  6
CONTINUOUS
 62
     7
  5
29B
 10
-0.25
 20
-0.223018
 30
0.0
 11
-0.25
 21
-0.462308
 31
0.0
  0
LINE
  8
0
  6
CONTINUOUS
 62
     7
  5
29C
 10
0.25
 20
-0.223018
 30
0.0
 11
0.25
 21
-0.462308
 31
0.0
  0
LINE
  8
0
  6
CONTINUOUS
 62
     7
  5
29D
 10
0.25
 20
-0.462308
 30
0.0
 11
0.25
 21
-0.49977
 31
0.0
  0
LINE
  8
0
  6
CONTINUOUS
 62
     7
  5
29E
 10
0.25
 20
-0.49977
 30
0.0
 11
0.25
 21
-0.545564
 31
0.0
  0
LINE
  8
0
  6
CONTINUOUS
 62
     7
  5
29F
 10
0.25
 20
-0.545564
 30
0.0
 11
0.25
 21
-0.568101
 31
0.0
  0
LINE
  8
0
  6
CONTINUOUS
 62
     7
  5
2A0
 10
0.25
 20
0.633265
 30
0.0
 11
0.25
 21
0.501125
 31
0.0
  0
LINE
  8
0
  6
CONTINUOUS
 62
     7
  5
2A1
 10
-0.25
 20
0.633265
 30
0.0
 11
-0.25
 21
0.501125
 31
0.0
  0
LINE
  8
0
  6
CONTINUOUS
 62
     7
  5
2A2
 10
-0.25
 20
0.644554
 30
0.0
 11
-0.25
 21
0.633265
 31
0.0
  0
LINE
  8
0
  6
CONTINUOUS
 62
     7
  5
2A3
 10
-0.25
 20
0.793988
 30
0.0
 11
-0.25
 21
0.644554
 31
0.0
  0
LINE
  8
0
  6
CONTINUOUS
 62
     7
  5
2A4
 10
-0.25
 20
0.830401
 30
0.0
 11
-0.25
 21
0.793988
 31
0.0
  0
LINE
  8
0
  6
CONTINUOUS
 62
     7
  5
2A5
 10
-0.25
 20
0.874571
 30
0.0
 11
-0.25
 21
0.830401
 31
0.0
  0
LINE
  8
0
  6
CONTINUOUS
 62
     7
  5
2A6
 10
-0.25
 20
0.893984
 30
0.0
 11
-0.25
 21
0.874571
 31
0.0
  0
LINE
  8
0
  6
CONTINUOUS
 62
     7
  5
2A7
 10
0.25
 20
0.893984
 30
0.0
 11
0.25
 21
0.874571
 31
0.0
  0
LINE
  8
0
  6
CONTINUOUS
 62
     7
  5
2A8
 10
0.25
 20
0.874571
 30
0.0
 11
0.25
 21
0.830401
 31
0.0
  0
LINE
  8
0
  6
CONTINUOUS
 62
     7
  5
2A9
 10
0.25
 20
0.830401
 30
0.0
 11
0.25
 21
0.793988
 31
0.0
  0
LINE
  8
0
  6
CONTINUOUS
 62
     7
  5
2AA
 10
0.25
 20
0.793988
 30
0.0
 11
0.25
 21
0.644554
 31
0.0
  0
LINE
  8
0
  6
CONTINUOUS
 62
     7
  5
2AB
 10
0.25
 20
0.644554
 30
0.0
 11
0.25
 21
0.633265
 31
0.0
  0
LINE
  8
0
  6
CONTINUOUS
 62
     7
  5
2AC
 10
0.275591
 20
0.839764
 30
0.0
 11
0.275591
 21
-0.570866
 31
0.0
  0
LINE
  8
0
  6
CONTINUOUS
 62
     7
  5
2AD
 10
0.275591
 20
-0.570866
 30
0.0
 11
-0.275591
 21
-0.570866
 31
0.0
  0
CIRCLE
  8
0
  6
CONTINUOUS
 62
     7
  5
2AE
 10
1.062992
 20
-2.30315
 30
0.0
 40
0.14685
  0
CIRCLE
  8
0
  6
CONTINUOUS
 62
     7
  5
2AF
 10
0.0
 20
-2.30315
 30
0.0
 40
0.14685
  0
CIRCLE
  8
0
  6
CONTINUOUS
 62
     7
  5
2B0
 10
-1.062992
 20
-2.30315
 30
0.0
 40
0.14685
  0
LINE
  8
0
  6
CONTINUOUS
 62
     7
  5
2B1
 10
-1.275591
 20
-2.69685
 30
0.0
 11
1.275591
 21
-2.69685
 31
0.0
  0
LINE
  8
0
  6
CONTINUOUS
 62
     7
  5
2B2
 10
-1.275591
 20
-2.69685
 30
0.0
 11
-1.275591
 21
-2.30315
 31
0.0
  0
ARC
  8
0
  6
CONTINUOUS
 62
     7
  5
2B3
 10
-1.062992
 20
-2.30315
 30
0.0
 40
0.212598
 50
90.0
 51
180.0
  0
LINE
  8
0
  6
CONTINUOUS
 62
     7
  5
2B4
 10
-1.062992
 20
-2.090551
 30
0.0
 11
1.062992
 21
-2.090551
 31
0.0
  0
ARC
  8
0
  6
CONTINUOUS
 62
     7
  5
2B5
 10
1.062992
 20
-2.30315
 30
0.0
 40
0.212598
 50
0.0
 51
90.0
  0
LINE
  8
0
  6
CONTINUOUS
 62
     7
  5
2B6
 10
1.275591
 20
-2.30315
 30
0.0
 11
1.275591
 21
-2.69685
 31
0.0
  0
LINE
  8
0
  6
CONTINUOUS
 62
     7
  5
2B7
 10
-1.275591
 20
-2.61811
 30
0.0
 11
-1.291339
 21
-2.61811
 31
0.0
  0
LINE
  8
0
  6
CONTINUOUS
 62
     7
  5
2B8
 10
-1.291339
 20
-2.61811
 30
0.0
 11
-1.582677
 21
-2.61811
 31
0.0
  0
LINE
  8
0
  6
CONTINUOUS
 62
     7
  5
2B9
 10
1.582677
 20
-2.61811
 30
0.0
 11
1.291339
 21
-2.61811
 31
0.0
  0
LINE
  8
0
  6
CONTINUOUS
 62
     7
  5
2BA
 10
1.291339
 20
-2.61811
 30
0.0
 11
1.275591
 21
-2.61811
 31
0.0
  0
CIRCLE
  8
0
  6
CONTINUOUS
 62
     7
  5
2BB
 10
-1.062992
 20
-2.30315
 30
0.0
 40
0.146654
  0
CIRCLE
  8
0
  6
CONTINUOUS
 62
     7
  5
2BC
 10
0.0
 20
-2.30315
 30
0.0
 40
0.146654
  0
CIRCLE
  8
0
  6
CONTINUOUS
 62
     7
  5
2BD
 10
1.062992
 20
-2.30315
 30
0.0
 40
0.146654
  0
CIRCLE
  8
0
  6
CONTINUOUS
 62
     7
  5
2BE
 10
-1.062992
 20
2.30315
 30
0.0
 40
0.14685
  0
CIRCLE
  8
0
  6
CONTINUOUS
 62
     7
  5
2BF
 10
0.0
 20
2.30315
 30
0.0
 40
0.14685
  0
CIRCLE
  8
0
  6
CONTINUOUS
 62
     7
  5
2C0
 10
1.062992
 20
2.30315
 30
0.0
 40
0.14685
  0
LINE
  8
0
  6
CONTINUOUS
 62
     7
  5
2C1
 10
1.275591
 20
2.69685
 30
0.0
 11
1.275591
 21
2.30315
 31
0.0
  0
ARC
  8
0
  6
CONTINUOUS
 62
     7
  5
2C2
 10
1.062992
 20
2.30315
 30
0.0
 40
0.212598
 50
270.0
 51
360.0
  0
LINE
  8
0
  6
CONTINUOUS
 62
     7
  5
2C3
 10
1.062992
 20
2.090551
 30
0.0
 11
-1.062992
 21
2.090551
 31
0.0
  0
ARC
  8
0
  6
CONTINUOUS
 62
     7
  5
2C4
 10
-1.062992
 20
2.30315
 30
0.0
 40
0.212598
 50
180.0
 51
270.0
  0
LINE
  8
0
  6
CONTINUOUS
 62
     7
  5
2C5
 10
-1.275591
 20
2.30315
 30
0.0
 11
-1.275591
 21
2.69685
 31
0.0
  0
LINE
  8
0
  6
CONTINUOUS
 62
     7
  5
2C6
 10
1.275591
 20
2.61811
 30
0.0
 11
1.291339
 21
2.61811
 31
0.0
  0
LINE
  8
0
  6
CONTINUOUS
 62
     7
  5
2C7
 10
1.291339
 20
2.61811
 30
0.0
 11
1.582677
 21
2.61811
 31
0.0
  0
LINE
  8
0
  6
CONTINUOUS
 62
     7
  5
2C8
 10
-1.582677
 20
2.61811
 30
0.0
 11
-1.291339
 21
2.61811
 31
0.0
  0
LINE
  8
0
  6
CONTINUOUS
 62
     7
  5
2C9
 10
-1.291339
 20
2.61811
 30
0.0
 11
-1.275591
 21
2.61811
 31
0.0
  0
CIRCLE
  8
0
  6
CONTINUOUS
 62
     7
  5
2CA
 10
1.062992
 20
2.30315
 30
0.0
 40
0.146654
  0
CIRCLE
  8
0
  6
CONTINUOUS
 62
     7
  5
2CB
 10
0.0
 20
2.30315
 30
0.0
 40
0.146654
  0
CIRCLE
  8
0
  6
CONTINUOUS
 62
     7
  5
2CC
 10
-1.062992
 20
2.30315
 30
0.0
 40
0.146654
  0
LINE
  8
0
  6
CONTINUOUS
 62
     7
  5
2CD
 10
0.25
 20
0.839764
 30
0.0
 11
0.275591
 21
0.839764
 31
0.0
  0
LINE
  8
0
  6
CONTINUOUS
 62
     7
  5
2CE
 10
-0.275591
 20
0.839764
 30
0.0
 11
-0.25
 21
0.839764
 31
0.0
  0
LINE
  8
0
  6
CONTINUOUS
 62
     7
  5
2CF
 10
-0.275591
 20
-0.570866
 30
0.0
 11
-0.275591
 21
0.839764
 31
0.0
  0
LINE
  8
0
  6
CONTINUOUS
 62
     7
  5
2D0
 10
1.53937
 20
0.722441
 30
0.0
 11
1.53937
 21
-0.722441
 31
0.0
  0
ARC
  8
0
  6
CONTINUOUS
 62
     7
  5
2D1
 10
1.375984
 20
-0.722441
 30
0.0
 40
0.163386
 50
270.0
 51
360.0
  0
LINE
  8
0
  6
CONTINUOUS
 62
     7
  5
2D2
 10
1.375984
 20
-0.885827
 30
0.0
 11
-1.375984
 21
-0.885827
 31
0.0
  0
ARC
  8
0
  6
CONTINUOUS
 62
     7
  5
2D3
 10
-1.375984
 20
-0.722441
 30
0.0
 40
0.163386
 50
180.0
 51
270.0
  0
LINE
  8
0
  6
CONTINUOUS
 62
     7
  5
2D4
 10
-1.53937
 20
-0.722441
 30
0.0
 11
-1.53937
 21
0.722441
 31
0.0
  0
ARC
  8
0
  6
CONTINUOUS
 62
     7
  5
2D5
 10
-1.375984
 20
0.722441
 30
0.0
 40
0.163386
 50
90.0
 51
180.0
  0
LINE
  8
0
  6
CONTINUOUS
 62
     7
  5
2D6
 10
0.25
 20
0.885827
 30
0.0
 11
1.375984
 21
0.885827
 31
0.0
  0
LINE
  8
0
  6
CONTINUOUS
 62
     7
  5
2D7
 10
-1.375984
 20
0.885827
 30
0.0
 11
-0.25
 21
0.885827
 31
0.0
  0
ARC
  8
0
  6
CONTINUOUS
 62
     7
  5
2D8
 10
1.375984
 20
0.722441
 30
0.0
 40
0.163386
 50
0.0
 51
90.0
  0
ARC
  8
0
  6
CONTINUOUS
 62
     7
  5
2D9
 10
1.257874
 20
1.653543
 30
0.0
 40
0.019685
 50
180.0
 51
270.0
  0
LINE
  8
0
  6
CONTINUOUS
 62
     7
  5
2DA
 10
1.297244
 20
1.633858
 30
0.0
 11
1.257874
 21
1.633858
 31
0.0
  0
ARC
  8
0
  6
CONTINUOUS
 62
     7
  5
2DB
 10
1.297244
 20
1.653543
 30
0.0
 40
0.019685
 50
270.0
 51
360.0
  0
LINE
  8
0
  6
CONTINUOUS
 62
     7
  5
2DC
 10
1.316929
 20
1.811024
 30
0.0
 11
1.316929
 21
1.653543
 31
0.0
  0
ARC
  8
0
  6
CONTINUOUS
 62
     7
  5
2DD
 10
1.297244
 20
1.811024
 30
0.0
 40
0.019685
 50
0.0
 51
90.0
  0
LINE
  8
0
  6
CONTINUOUS
 62
     7
  5
2DE
 10
1.257874
 20
1.830709
 30
0.0
 11
1.297244
 21
1.830709
 31
0.0
  0
ARC
  8
0
  6
CONTINUOUS
 62
     7
  5
2DF
 10
1.257874
 20
1.811024
 30
0.0
 40
0.019685
 50
90.0
 51
180.0
  0
LINE
  8
0
  6
CONTINUOUS
 62
     7
  5
2E0
 10
1.238189
 20
1.653543
 30
0.0
 11
1.238189
 21
1.811024
 31
0.0
  0
ARC
  8
0
  6
CONTINUOUS
 62
     7
  5
2E1
 10
-1.297244
 20
1.653543
 30
0.0
 40
0.019685
 50
180.0
 51
270.0
  0
LINE
  8
0
  6
CONTINUOUS
 62
     7
  5
2E2
 10
-1.257874
 20
1.633858
 30
0.0
 11
-1.297244
 21
1.633858
 31
0.0
  0
ARC
  8
0
  6
CONTINUOUS
 62
     7
  5
2E3
 10
-1.257874
 20
1.653543
 30
0.0
 40
0.019685
 50
270.0
 51
360.0
  0
LINE
  8
0
  6
CONTINUOUS
 62
     7
  5
2E4
 10
-1.238189
 20
1.811024
 30
0.0
 11
-1.238189
 21
1.653543
 31
0.0
  0
ARC
  8
0
  6
CONTINUOUS
 62
     7
  5
2E5
 10
-1.257874
 20
1.811024
 30
0.0
 40
0.019685
 50
0.0
 51
90.0
  0
LINE
  8
0
  6
CONTINUOUS
 62
     7
  5
2E6
 10
-1.297244
 20
1.830709
 30
0.0
 11
-1.257874
 21
1.830709
 31
0.0
  0
ARC
  8
0
  6
CONTINUOUS
 62
     7
  5
2E7
 10
-1.297244
 20
1.811024
 30
0.0
 40
0.019685
 50
90.0
 51
180.0
  0
LINE
  8
0
  6
CONTINUOUS
 62
     7
  5
2E8
 10
-1.316929
 20
1.653543
 30
0.0
 11
-1.316929
 21
1.811024
 31
0.0
  0
LINE
  8
0
  6
CONTINUOUS
 62
     7
  5
2E9
 10
-1.358268
 20
1.946457
 30
0.0
 11
-1.358268
 21
2.014173
 31
0.0
  0
LINE
  8
0
  6
CONTINUOUS
 62
     7
  5
2EA
 10
-1.456693
 20
2.014173
 30
0.0
 11
-1.456693
 21
1.946457
 31
0.0
  0
LINE
  8
0
  6
CONTINUOUS
 62
     7
  5
2EB
 10
-1.358268
 20
1.946457
 30
0.0
 11
-1.358268
 21
1.901575
 31
0.0
  0
LINE
  8
0
  6
CONTINUOUS
 62
     7
  5
2EC
 10
-1.358268
 20
1.901575
 30
0.0
 11
-1.456693
 21
1.901575
 31
0.0
  0
LINE
  8
0
  6
CONTINUOUS
 62
     7
  5
2ED
 10
-1.456693
 20
1.901575
 30
0.0
 11
-1.456693
 21
1.946457
 31
0.0
  0
LINE
  8
0
  6
CONTINUOUS
 62
     7
  5
2EE
 10
-1.358268
 20
2.059055
 30
0.0
 11
-1.358268
 21
2.014173
 31
0.0
  0
LINE
  8
0
  6
CONTINUOUS
 62
     7
  5
2EF
 10
-1.456693
 20
2.014173
 30
0.0
 11
-1.456693
 21
2.059055
 31
0.0
  0
LINE
  8
0
  6
CONTINUOUS
 62
     7
  5
2F0
 10
-1.456693
 20
2.059055
 30
0.0
 11
-1.358268
 21
2.059055
 31
0.0
  0
LINE
  8
0
  6
CONTINUOUS
 62
     7
  5
2F1
 10
-1.291339
 20
2.304331
 30
0.0
 11
-1.291339
 21
2.61811
 31
0.0
  0
ARC
  8
0
  6
CONTINUOUS
 62
     7
  5
2F2
 10
-1.582677
 20
2.606299
 30
0.0
 40
0.011811
 50
90.0
 51
180.0
  0
LINE
  8
0
  6
CONTINUOUS
 62
     7
  5
2F3
 10
-1.594488
 20
-2.606299
 30
0.0
 11
-1.594488
 21
2.606299
 31
0.0
  0
ARC
  8
0
  6
CONTINUOUS
 62
     7
  5
2F4
 10
-1.582677
 20
-2.606299
 30
0.0
 40
0.011811
 50
180.0
 51
270.0
  0
LINE
  8
0
  6
CONTINUOUS
 62
     7
  5
2F5
 10
-1.291339
 20
-2.61811
 30
0.0
 11
-1.291339
 21
-2.304331
 31
0.0
  0
ARC
  8
0
  6
CONTINUOUS
 62
     7
  5
2F6
 10
-1.061811
 20
-2.304331
 30
0.0
 40
0.229528
 50
90.0
 51
180.0
  0
LINE
  8
0
  6
CONTINUOUS
 62
     7
  5
2F7
 10
-1.061811
 20
-2.074803
 30
0.0
 11
1.061811
 21
-2.074803
 31
0.0
  0
ARC
  8
0
  6
CONTINUOUS
 62
     7
  5
2F8
 10
1.061811
 20
-2.304331
 30
0.0
 40
0.229528
 50
0.0
 51
90.0
  0
LINE
  8
0
  6
CONTINUOUS
 62
     7
  5
2F9
 10
1.291339
 20
-2.304331
 30
0.0
 11
1.291339
 21
-2.61811
 31
0.0
  0
ARC
  8
0
  6
CONTINUOUS
 62
     7
  5
2FA
 10
1.582677
 20
-2.606299
 30
0.0
 40
0.011811
 50
270.0
 51
360.0
  0
LINE
  8
0
  6
CONTINUOUS
 62
     7
  5
2FB
 10
1.594488
 20
2.606299
 30
0.0
 11
1.594488
 21
-2.606299
 31
0.0
  0
ARC
  8
0
  6
CONTINUOUS
 62
     7
  5
2FC
 10
1.582677
 20
2.606299
 30
0.0
 40
0.011811
 50
0.0
 51
90.0
  0
LINE
  8
0
  6
CONTINUOUS
 62
     7
  5
2FD
 10
1.291339
 20
2.61811
 30
0.0
 11
1.291339
 21
2.304331
 31
0.0
  0
ARC
  8
0
  6
CONTINUOUS
 62
     7
  5
2FE
 10
1.061811
 20
2.304331
 30
0.0
 40
0.229528
 50
270.0
 51
360.0
  0
LINE
  8
0
  6
CONTINUOUS
 62
     7
  5
2FF
 10
1.061811
 20
2.074803
 30
0.0
 11
-1.061811
 21
2.074803
 31
0.0
  0
ARC
  8
0
  6
CONTINUOUS
 62
     7
  5
300
 10
-1.061811
 20
2.304331
 30
0.0
 40
0.229528
 50
180.0
 51
270.0
  0
CIRCLE
  8
0
  6
CONTINUOUS
 62
     7
  5
301
 10
-1.062992
 20
1.732283
 30
0.0
 40
0.127953
  0
CIRCLE
  8
0
  6
CONTINUOUS
 62
     7
  5
302
 10
1.062992
 20
1.732283
 30
0.0
 40
0.127953
  0
LINE
  8
0
  6
CONTINUOUS
 62
     7
  5
303
 10
-1.358268
 20
2.014173
 30
0.0
 11
-1.236811
 21
2.014173
 31
0.0
  0
LINE
  8
0
  6
CONTINUOUS
 62
     7
  5
304
 10
-1.236811
 20
2.014173
 30
0.0
 11
-1.236811
 21
1.946457
 31
0.0
  0
LINE
  8
0
  6
CONTINUOUS
 62
     7
  5
305
 10
-1.236811
 20
1.946457
 30
0.0
 11
-1.358268
 21
1.946457
 31
0.0
  0
LINE
  8
0
  6
CONTINUOUS
 62
     7
  5
306
 10
-1.456693
 20
1.946457
 30
0.0
 11
-1.57815
 21
1.946457
 31
0.0
  0
LINE
  8
0
  6
CONTINUOUS
 62
     7
  5
307
 10
-1.57815
 20
1.946457
 30
0.0
 11
-1.57815
 21
2.014173
 31
0.0
  0
LINE
  8
0
  6
CONTINUOUS
 62
     7
  5
308
 10
-1.57815
 20
2.014173
 30
0.0
 11
-1.456693
 21
2.014173
 31
0.0
  0
LINE
  8
0
  6
CONTINUOUS
 62
     7
  5
309
 10
-0.25
 20
-0.568101
 30
0.0
 11
0.25
 21
-0.568101
 31
0.0
  0
LINE
  8
0
  6
CONTINUOUS
 62
     7
  5
30A
 10
0.25
 20
0.893984
 30
0.0
 11
-0.25
 21
0.893984
 31
0.0
  0
LINE
  8
0
  6
CONTINUOUS
 62
     3
  5
30B
 10
-0.531496
 20
-2.326772
 30
0.0
 11
-0.531496
 21
-2.161417
 31
0.0
  0
LINE
  8
0
  6
CONTINUOUS
 62
     3
  5
30C
 10
-0.614173
 20
-2.244094
 30
0.0
 11
-0.448819
 21
-2.244094
 31
0.0
  0
LINE
  8
0
  6
CONTINUOUS
 62
     3
  5
30D
 10
0.531496
 20
2.161417
 30
0.0
 11
0.531496
 21
2.326772
 31
0.0
  0
LINE
  8
0
  6
CONTINUOUS
 62
     3
  5
30E
 10
0.448819
 20
2.244094
 30
0.0
 11
0.614173
 21
2.244094
 31
0.0
  0
INSERT
  8
0
  5
30F
  2
B14334140003042020_0000000
 10
0.0
 20
0.0
 30
0.0
  0
INSERT
  8
0
  5
310
  2
B14334140003042020_0000001
 10
0.0
 20
0.0
 30
0.0
  0
ENDSEC
  0
EOF
