  0
SECTION
  2
HEADER
  9
$ACADVER
  1
AC1009
  9
$DWGCODEPAGE
  3
ansi_1250
  9
$INSBASE
 10
0.0
 20
0.0
 30
0.0
  9
$EXTMIN
 10
-2.241142
 20
-4.5549
 30
0.0
  9
$EXTMAX
 10
2.241142
 20
5.148425
 30
0.0
  9
$LIMMIN
 10
0.0
 20
0.0
  9
$LIMMAX
 10
0.0
 20
0.0
  9
$ORTHOMODE
 70
     0
  9
$REGENMODE
 70
     1
  9
$FILLMODE
 70
     1
  9
$QTEXTMODE
 70
     0
  9
$MIRRTEXT
 70
     1
  9
$DRAGMODE
 70
     2
  9
$LTSCALE
 40
1.0
  9
$OSMODE
 70
     0
  9
$ATTMODE
 70
     1
  9
$TEXTSIZE
 40
0.2
  9
$TRACEWID
 40
0.05
  9
$TEXTSTYLE
  7
STANDARD
  9
$CLAYER
  8
0
  9
$CELTYPE
  6
CONTINUOUS
  9
$CECOLOR
 62
   256
  9
$DIMSCALE
 40
1.0
  9
$DIMASZ
 40
0.18
  9
$DIMEXO
 40
0.0625
  9
$DIMDLI
 40
0.38
  9
$DIMRND
 40
0.0
  9
$DIMDLE
 40
0.0
  9
$DIMEXE
 40
0.18
  9
$DIMTP
 40
0.0
  9
$DIMTM
 40
0.0
  9
$DIMTXT
 40
0.18
  9
$DIMCEN
 40
0.09
  9
$DIMTSZ
 40
0.0
  9
$DIMTOL
 70
     0
  9
$DIMLIM
 70
     0
  9
$DIMTIH
 70
     1
  9
$DIMTOH
 70
     1
  9
$DIMSE1
 70
     0
  9
$DIMSE2
 70
     0
  9
$DIMTAD
 70
     0
  9
$DIMZIN
 70
     0
  9
$DIMBLK
  1

  9
$DIMASO
 70
     1
  9
$DIMSHO
 70
     1
  9
$DIMPOST
  1

  9
$DIMAPOST
  1

  9
$DIMALT
 70
     0
  9
$DIMALTD
 70
     2
  9
$DIMALTF
 40
25.4
  9
$DIMLFAC
 40
1.0
  9
$DIMTOFL
 70
     0
  9
$DIMTVP
 40
0.0
  9
$DIMTIX
 70
     0
  9
$DIMSOXD
 70
     0
  9
$DIMSAH
 70
     0
  9
$DIMBLK1
  1

  9
$DIMBLK2
  1

  9
$DIMSTYLE
  2
STANDARD
  9
$DIMCLRD
 70
     0
  9
$DIMCLRE
 70
     0
  9
$DIMCLRT
 70
     0
  9
$DIMTFAC
 40
1.0
  9
$DIMGAP
 40
0.09
  9
$LUNITS
 70
     2
  9
$LUPREC
 70
     4
  9
$AXISMODE
 70
     0
  9
$AXISUNIT
 10
0.0
 20
0.0
  9
$SKETCHINC
 40
0.1
  9
$FILLETRAD
 40
0.0
  9
$AUNITS
 70
     0
  9
$AUPREC
 70
     0
  9
$MENU
  1
acad
  9
$ELEVATION
 40
0.0
  9
$PELEVATION
 40
0.0
  9
$THICKNESS
 40
0.0
  9
$LIMCHECK
 70
     0
  9
$BLIPMODE
 70
     1
  9
$CHAMFERA
 40
0.0
  9
$CHAMFERB
 40
0.0
  9
$SKPOLY
 70
     0
  9
$TDCREATE
 40
0.000000000
  9
$TDUPDATE
 40
0.000000000
  9
$TDINDWG
 40
0.0000000000
  9
$TDUSRTIMER
 40
0.0000000000
  9
$USRTIMER
 70
     1
  9
$ANGBASE
 50
0.0
  9
$ANGDIR
 70
     0
  9
$PDMODE
 70
     0
  9
$PDSIZE
 40
0.0
  9
$PLINEWID
 40
0.0
  9
$COORDS
 70
     0
  9
$SPLFRAME
 70
     0
  9
$SPLINETYPE
 70
     6
  9
$SPLINESEGS
 70
     8
  9
$ATTDIA
 70
     0
  9
$ATTREQ
 70
     1
  9
$HANDLING
 70
     1
  9
$HANDSEED
  5
1C0
  9
$SURFTAB1
 70
     6
  9
$SURFTAB2
 70
     6
  9
$SURFTYPE
 70
     6
  9
$SURFU
 70
     6
  9
$SURFV
 70
     6
  9
$UCSNAME
  2

  9
$UCSORG
 10
0.0
 20
0.0
 30
0.0
  9
$UCSXDIR
 10
1.0
 20
0.0
 30
0.0
  9
$UCSYDIR
 10
0.0
 20
1.0
 30
0.0
  9
$PUCSNAME
  2

  9
$PUCSORG
 10
0.0
 20
0.0
 30
0.0
  9
$PUCSXDIR
 10
1.0
 20
0.0
 30
0.0
  9
$PUCSYDIR
 10
0.0
 20
1.0
 30
0.0
  9
$USERI1
 70
     0
  9
$USERI2
 70
     0
  9
$USERI3
 70
     0
  9
$USERI4
 70
     0
  9
$USERI5
 70
     0
  9
$USERR1
 40
0.0
  9
$USERR2
 40
0.0
  9
$USERR3
 40
0.0
  9
$USERR4
 40
0.0
  9
$USERR5
 40
0.0
  9
$WORLDVIEW
 70
     1
  9
$SHADEDGE
 70
     3
  9
$SHADEDIF
 70
    70
  9
$TILEMODE
 70
     1
  9
$MAXACTVP
 70
    16
  9
$PINSBASE
 10
0.0
 20
0.0
 30
0.0
  9
$PLIMCHECK
 70
     0
  9
$PEXTMIN
 10
1.000000E+20
 20
1.000000E+20
 30
1.000000E+20
  9
$PEXTMAX
 10
-1.000000E+20
 20
-1.000000E+20
 30
-1.000000E+20
  9
$PLIMMIN
 10
0.0
 20
0.0
  9
$PLIMMAX
 10
12.0
 20
9.0
  9
$UNITMODE
 70
     0
  9
$VISRETAIN
 70
     0
  9
$PLINEGEN
 70
     1
  9
$PSLTSCALE
 70
     0
  9
$TREEDEPTH
 70
  3020
  0
ENDSEC
  0
SECTION
  2
TABLES
  0
TABLE
  2
VPORT
 70
     1
  0
VPORT
  2
*ACTIVE
 70
     0
 10
0.0
 20
0.0
 11
1.0
 21
1.0
 12
6.591288
 22
4.579184
 13
0.0
 23
0.0
 14
1.0
 24
1.0
 15
0.0
 25
0.0
 16
0.0
 26
0.0
 36
1.0
 17
0.0
 27
0.0
 37
0.0
 40
9.158369
 41
0.688564
 42
50.0
 43
0.0
 44
0.0
 50
0.0
 51
0.0
 71
     0
 72
   100
 73
     1
 74
     1
 75
     0
 76
     0
 77
     0
 78
     0
  0
ENDTAB
  0
TABLE
  2
LTYPE
 70
     5
  0
LTYPE
  2
CONTINUOUS
 70
    64
  3
Solid line
 72
    65
 73
     0
 40
0.0
  0
LTYPE
  2
CENTER
 70
    64
  3
Center ____ _ ____ _ ____ _ ____ _ ____ _ ____
 72
    65
 73
     4
 40
50.8
 49
31.75
 49
-6.35
 49
6.35
 49
-6.35
  0
LTYPE
  2
HIDDEN
 70
    64
  3
Hidden __ __ __ __ __ __ __ __ __ __ __ __ __ __
 72
    65
 73
     2
 40
9.525
 49
6.35
 49
-3.175
  0
LTYPE
  2
CENTER2
 70
    64
  3
Center (.5x) ___ _ ___ _ ___ _ ___ _ ___ _ ___
 72
    65
 73
     4
 40
28.575
 49
19.05
 49
-3.175
 49
3.175
 49
-3.175
  0
LTYPE
  2
HIDDEN2
 70
    64
  3
Hidden (.5x) _ _ _ _ _ _ _ _ _ _ _ _ _ _ _ _ _
 72
    65
 73
     2
 40
4.7625
 49
3.175
 49
-1.5875
  0
ENDTAB
  0
TABLE
  2
LAYER
 70
     1
  0
LAYER
  2
0
 70
     0
 62
     7
  6
CONTINUOUS
  0
ENDTAB
  0
TABLE
  2
STYLE
 70
     1
  0
STYLE
  2
STANDARD
 70
     0
 40
0.0
 41
1.0
 50
0.0
 71
     0
 42
0.0
  3
txt
  4

  0
ENDTAB
  0
TABLE
  2
VIEW
 70
     0
  0
ENDTAB
  0
TABLE
  2
UCS
 70
     0
  0
ENDTAB
  0
TABLE
  2
APPID
 70
     1
  0
APPID
  2
ACAD
 70
     0
  0
ENDTAB
  0
TABLE
  2
DIMSTYLE
 70
     1
  0
DIMSTYLE
  2
STANDARD
 70
     0
  3

  4

  5

  6

  7

 40
1.0
 41
0.18
 42
0.0625
 43
0.38
 44
0.18
 45
0.0
 46
0.0
 47
0.0
 48
0.0
 71
     0
 72
     0
 73
     1
 74
     1
 75
     0
 76
     0
 77
     0
 78
     0
140
0.18
141
0.09
142
0.0
143
25.4
144
1.0
145
0.0
146
1.0
147
0.09
170
     0
171
     2
172
     0
173
     0
174
     0
175
     0
176
     0
177
     0
178
     0
  0
ENDTAB
  0
ENDSEC
  0
SECTION
  2
BLOCKS
  0
ENDSEC
  0
SECTION
  2
ENTITIES
  0
LINE
  8
0
  6
CONTINUOUS
 62
     7
  5
117
 10
-1.334646
 20
-2.61811
 30
0.0
 11
-1.291339
 21
-2.61811
 31
0.0
  0
LINE
  8
0
  6
CONTINUOUS
 62
     7
  5
118
 10
-1.476378
 20
-2.688976
 30
0.0
 11
-1.476378
 21
-2.944882
 31
0.0
  0
LINE
  8
0
  6
CONTINUOUS
 62
     7
  5
119
 10
-1.476378
 20
-2.944882
 30
0.0
 11
-1.350394
 21
-2.944882
 31
0.0
  0
LINE
  8
0
  6
CONTINUOUS
 62
     7
  5
11A
 10
-1.350394
 20
-2.944882
 30
0.0
 11
-0.775591
 21
-2.944882
 31
0.0
  0
LINE
  8
0
  6
CONTINUOUS
 62
     7
  5
11B
 10
-0.775591
 20
-2.944882
 30
0.0
 11
-0.649606
 21
-2.944882
 31
0.0
  0
LINE
  8
0
  6
CONTINUOUS
 62
     7
  5
11C
 10
-0.649606
 20
-2.69685
 30
0.0
 11
-0.649606
 21
-2.944882
 31
0.0
  0
LINE
  8
0
  6
CONTINUOUS
 62
     7
  5
11D
 10
-1.515748
 20
-2.61811
 30
0.0
 11
-1.515748
 21
-2.688976
 31
0.0
  0
LINE
  8
0
  6
CONTINUOUS
 62
     7
  5
11E
 10
-1.515748
 20
-2.688976
 30
0.0
 11
-1.503937
 21
-2.688976
 31
0.0
  0
LINE
  8
0
  6
CONTINUOUS
 62
     7
  5
11F
 10
-1.503937
 20
-2.688976
 30
0.0
 11
-1.275591
 21
-2.688976
 31
0.0
  0
LINE
  8
0
  6
CONTINUOUS
 62
     7
  5
120
 10
-1.334646
 20
-2.61811
 30
0.0
 11
-1.541339
 21
-2.61811
 31
0.0
  0
LINE
  8
0
  6
CONTINUOUS
 62
     7
  5
121
 10
-1.541339
 20
-2.61811
 30
0.0
 11
-1.594488
 21
-2.61811
 31
0.0
  0
LINE
  8
0
  6
CONTINUOUS
 62
     7
  5
122
 10
-0.413386
 20
-2.69685
 30
0.0
 11
-0.413386
 21
-2.944882
 31
0.0
  0
LINE
  8
0
  6
CONTINUOUS
 62
     7
  5
123
 10
-0.413386
 20
-2.944882
 30
0.0
 11
-0.287402
 21
-2.944882
 31
0.0
  0
LINE
  8
0
  6
CONTINUOUS
 62
     7
  5
124
 10
-0.287402
 20
-2.944882
 30
0.0
 11
0.287402
 21
-2.944882
 31
0.0
  0
LINE
  8
0
  6
CONTINUOUS
 62
     7
  5
125
 10
0.287402
 20
-2.944882
 30
0.0
 11
0.413386
 21
-2.944882
 31
0.0
  0
LINE
  8
0
  6
CONTINUOUS
 62
     7
  5
126
 10
0.413386
 20
-2.69685
 30
0.0
 11
0.413386
 21
-2.944882
 31
0.0
  0
LINE
  8
0
  6
CONTINUOUS
 62
     7
  5
127
 10
0.649606
 20
-2.69685
 30
0.0
 11
0.649606
 21
-2.944882
 31
0.0
  0
LINE
  8
0
  6
CONTINUOUS
 62
     7
  5
128
 10
0.649606
 20
-2.944882
 30
0.0
 11
0.775591
 21
-2.944882
 31
0.0
  0
LINE
  8
0
  6
CONTINUOUS
 62
     7
  5
129
 10
0.775591
 20
-2.944882
 30
0.0
 11
1.350394
 21
-2.944882
 31
0.0
  0
LINE
  8
0
  6
CONTINUOUS
 62
     7
  5
12A
 10
1.350394
 20
-2.944882
 30
0.0
 11
1.476378
 21
-2.944882
 31
0.0
  0
LINE
  8
0
  6
CONTINUOUS
 62
     7
  5
12B
 10
1.476378
 20
-2.688976
 30
0.0
 11
1.476378
 21
-2.944882
 31
0.0
  0
LINE
  8
0
  6
CONTINUOUS
 62
     7
  5
12C
 10
1.275591
 20
-2.688976
 30
0.0
 11
1.503937
 21
-2.688976
 31
0.0
  0
LINE
  8
0
  6
CONTINUOUS
 62
     7
  5
12D
 10
1.503937
 20
-2.688976
 30
0.0
 11
1.515748
 21
-2.688976
 31
0.0
  0
LINE
  8
0
  6
CONTINUOUS
 62
     7
  5
12E
 10
1.515748
 20
-2.61811
 30
0.0
 11
1.515748
 21
-2.688976
 31
0.0
  0
ARC
  8
0
  6
CONTINUOUS
 62
     7
  5
12F
 10
-2.22815
 20
2.468504
 30
0.0
 40
0.011811
 50
90.0
 51
180.0
  0
LINE
  8
0
  6
CONTINUOUS
 62
     7
  5
130
 10
-2.239961
 20
-2.606299
 30
0.0
 11
-2.239961
 21
-1.523622
 31
0.0
  0
LINE
  8
0
  6
CONTINUOUS
 62
     7
  5
131
 10
-2.239961
 20
-1.523622
 30
0.0
 11
-2.239961
 21
2.468504
 31
0.0
  0
LINE
  8
0
  6
CONTINUOUS
 62
     7
  5
132
 10
0.25
 20
0.758948
 30
0.0
 11
0.275591
 21
0.758948
 31
0.0
  0
LINE
  8
0
  6
CONTINUOUS
 62
     7
  5
133
 10
-0.275591
 20
0.758948
 30
0.0
 11
-0.25
 21
0.758948
 31
0.0
  0
LINE
  8
0
  6
CONTINUOUS
 62
     7
  5
134
 10
-0.25
 20
-0.500596
 30
0.0
 11
-0.275591
 21
-0.500596
 31
0.0
  0
LINE
  8
0
  6
CONTINUOUS
 62
     7
  5
135
 10
0.275591
 20
-0.500596
 30
0.0
 11
0.25
 21
-0.500596
 31
0.0
  0
LINE
  8
0
  6
CONTINUOUS
 62
     7
  5
136
 10
-0.25
 20
-0.223018
 30
0.0
 11
0.25
 21
-0.223018
 31
0.0
  0
LINE
  8
0
  6
CONTINUOUS
 62
     7
  5
137
 10
0.25
 20
0.501125
 30
0.0
 11
-0.25
 21
0.501125
 31
0.0
  0
LINE
  8
0
  6
CONTINUOUS
 62
     7
  5
138
 10
-0.25
 20
-0.545564
 30
0.0
 11
-0.25
 21
-0.568101
 31
0.0
  0
LINE
  8
0
  6
CONTINUOUS
 62
     7
  5
139
 10
-0.25
 20
-0.49977
 30
0.0
 11
-0.25
 21
-0.545564
 31
0.0
  0
LINE
  8
0
  6
CONTINUOUS
 62
     7
  5
13A
 10
-0.25
 20
-0.462308
 30
0.0
 11
-0.25
 21
-0.49977
 31
0.0
  0
LINE
  8
0
  6
CONTINUOUS
 62
     7
  5
13B
 10
-0.25
 20
-0.223018
 30
0.0
 11
-0.25
 21
-0.462308
 31
0.0
  0
LINE
  8
0
  6
CONTINUOUS
 62
     7
  5
13C
 10
0.25
 20
-0.223018
 30
0.0
 11
0.25
 21
-0.462308
 31
0.0
  0
LINE
  8
0
  6
CONTINUOUS
 62
     7
  5
13D
 10
0.25
 20
-0.462308
 30
0.0
 11
0.25
 21
-0.49977
 31
0.0
  0
LINE
  8
0
  6
CONTINUOUS
 62
     7
  5
13E
 10
0.25
 20
-0.49977
 30
0.0
 11
0.25
 21
-0.545564
 31
0.0
  0
LINE
  8
0
  6
CONTINUOUS
 62
     7
  5
13F
 10
0.25
 20
-0.545564
 30
0.0
 11
0.25
 21
-0.568101
 31
0.0
  0
LINE
  8
0
  6
CONTINUOUS
 62
     7
  5
140
 10
0.25
 20
0.633265
 30
0.0
 11
0.25
 21
0.501125
 31
0.0
  0
LINE
  8
0
  6
CONTINUOUS
 62
     7
  5
141
 10
-0.25
 20
0.633265
 30
0.0
 11
-0.25
 21
0.501125
 31
0.0
  0
LINE
  8
0
  6
CONTINUOUS
 62
     7
  5
142
 10
-0.25
 20
0.644554
 30
0.0
 11
-0.25
 21
0.633265
 31
0.0
  0
LINE
  8
0
  6
CONTINUOUS
 62
     7
  5
143
 10
-0.25
 20
0.793988
 30
0.0
 11
-0.25
 21
0.644554
 31
0.0
  0
LINE
  8
0
  6
CONTINUOUS
 62
     7
  5
144
 10
-0.25
 20
0.830401
 30
0.0
 11
-0.25
 21
0.793988
 31
0.0
  0
LINE
  8
0
  6
CONTINUOUS
 62
     7
  5
145
 10
-0.25
 20
0.874571
 30
0.0
 11
-0.25
 21
0.830401
 31
0.0
  0
LINE
  8
0
  6
CONTINUOUS
 62
     7
  5
146
 10
-0.25
 20
0.893984
 30
0.0
 11
-0.25
 21
0.874571
 31
0.0
  0
LINE
  8
0
  6
CONTINUOUS
 62
     7
  5
147
 10
0.25
 20
0.893984
 30
0.0
 11
0.25
 21
0.874571
 31
0.0
  0
LINE
  8
0
  6
CONTINUOUS
 62
     7
  5
148
 10
0.25
 20
0.874571
 30
0.0
 11
0.25
 21
0.830401
 31
0.0
  0
LINE
  8
0
  6
CONTINUOUS
 62
     7
  5
149
 10
0.25
 20
0.830401
 30
0.0
 11
0.25
 21
0.793988
 31
0.0
  0
LINE
  8
0
  6
CONTINUOUS
 62
     7
  5
14A
 10
0.25
 20
0.793988
 30
0.0
 11
0.25
 21
0.644554
 31
0.0
  0
LINE
  8
0
  6
CONTINUOUS
 62
     7
  5
14B
 10
0.25
 20
0.644554
 30
0.0
 11
0.25
 21
0.633265
 31
0.0
  0
LINE
  8
0
  6
CONTINUOUS
 62
     7
  5
14C
 10
0.275591
 20
0.839764
 30
0.0
 11
0.275591
 21
-0.570866
 31
0.0
  0
LINE
  8
0
  6
CONTINUOUS
 62
     7
  5
14D
 10
0.275591
 20
-0.570866
 30
0.0
 11
-0.275591
 21
-0.570866
 31
0.0
  0
CIRCLE
  8
0
  6
CONTINUOUS
 62
     7
  5
14E
 10
1.062992
 20
-2.30315
 30
0.0
 40
0.14685
  0
CIRCLE
  8
0
  6
CONTINUOUS
 62
     7
  5
14F
 10
0.0
 20
-2.30315
 30
0.0
 40
0.14685
  0
CIRCLE
  8
0
  6
CONTINUOUS
 62
     7
  5
150
 10
-1.062992
 20
-2.30315
 30
0.0
 40
0.14685
  0
LINE
  8
0
  6
CONTINUOUS
 62
     7
  5
151
 10
-1.275591
 20
-2.69685
 30
0.0
 11
1.275591
 21
-2.69685
 31
0.0
  0
LINE
  8
0
  6
CONTINUOUS
 62
     7
  5
152
 10
-1.275591
 20
-2.69685
 30
0.0
 11
-1.275591
 21
-2.30315
 31
0.0
  0
ARC
  8
0
  6
CONTINUOUS
 62
     7
  5
153
 10
-1.062992
 20
-2.30315
 30
0.0
 40
0.212598
 50
90.0
 51
180.0
  0
LINE
  8
0
  6
CONTINUOUS
 62
     7
  5
154
 10
-1.062992
 20
-2.090551
 30
0.0
 11
1.062992
 21
-2.090551
 31
0.0
  0
ARC
  8
0
  6
CONTINUOUS
 62
     7
  5
155
 10
1.062992
 20
-2.30315
 30
0.0
 40
0.212598
 50
0.0
 51
90.0
  0
LINE
  8
0
  6
CONTINUOUS
 62
     7
  5
156
 10
1.275591
 20
-2.30315
 30
0.0
 11
1.275591
 21
-2.69685
 31
0.0
  0
LINE
  8
0
  6
CONTINUOUS
 62
     7
  5
157
 10
-1.275591
 20
-2.61811
 30
0.0
 11
-1.291339
 21
-2.61811
 31
0.0
  0
LINE
  8
0
  6
CONTINUOUS
 62
     7
  5
158
 10
-1.291339
 20
-2.61811
 30
0.0
 11
-2.22815
 21
-2.61811
 31
0.0
  0
LINE
  8
0
  6
CONTINUOUS
 62
     7
  5
159
 10
2.22815
 20
-2.61811
 30
0.0
 11
1.291339
 21
-2.61811
 31
0.0
  0
LINE
  8
0
  6
CONTINUOUS
 62
     7
  5
15A
 10
1.291339
 20
-2.61811
 30
0.0
 11
1.275591
 21
-2.61811
 31
0.0
  0
CIRCLE
  8
0
  6
CONTINUOUS
 62
     7
  5
15B
 10
-1.062992
 20
-2.30315
 30
0.0
 40
0.146654
  0
CIRCLE
  8
0
  6
CONTINUOUS
 62
     7
  5
15C
 10
0.0
 20
-2.30315
 30
0.0
 40
0.146654
  0
CIRCLE
  8
0
  6
CONTINUOUS
 62
     7
  5
15D
 10
1.062992
 20
-2.30315
 30
0.0
 40
0.146654
  0
LINE
  8
0
  6
CONTINUOUS
 62
     7
  5
15E
 10
0.25
 20
0.839764
 30
0.0
 11
0.275591
 21
0.839764
 31
0.0
  0
LINE
  8
0
  6
CONTINUOUS
 62
     7
  5
15F
 10
-0.275591
 20
0.839764
 30
0.0
 11
-0.25
 21
0.839764
 31
0.0
  0
LINE
  8
0
  6
CONTINUOUS
 62
     7
  5
160
 10
-0.275591
 20
-0.570866
 30
0.0
 11
-0.275591
 21
0.839764
 31
0.0
  0
LINE
  8
0
  6
CONTINUOUS
 62
     7
  5
161
 10
1.53937
 20
0.806693
 30
0.0
 11
1.53937
 21
-1.327559
 31
0.0
  0
ARC
  8
0
  6
CONTINUOUS
 62
     7
  5
162
 10
1.375984
 20
-1.327559
 30
0.0
 40
0.163386
 50
270.0
 51
360.0
  0
LINE
  8
0
  6
CONTINUOUS
 62
     7
  5
163
 10
1.375984
 20
-1.490945
 30
0.0
 11
-1.375984
 21
-1.490945
 31
0.0
  0
ARC
  8
0
  6
CONTINUOUS
 62
     7
  5
164
 10
-1.375984
 20
-1.327559
 30
0.0
 40
0.163386
 50
180.0
 51
270.0
  0
LINE
  8
0
  6
CONTINUOUS
 62
     7
  5
165
 10
-1.53937
 20
-1.327559
 30
0.0
 11
-1.53937
 21
0.806693
 31
0.0
  0
ARC
  8
0
  6
CONTINUOUS
 62
     7
  5
166
 10
-1.375984
 20
0.806693
 30
0.0
 40
0.163386
 50
90.0
 51
180.0
  0
LINE
  8
0
  6
CONTINUOUS
 62
     7
  5
167
 10
-1.375984
 20
0.970079
 30
0.0
 11
1.375984
 21
0.970079
 31
0.0
  0
ARC
  8
0
  6
CONTINUOUS
 62
     7
  5
168
 10
1.375984
 20
0.806693
 30
0.0
 40
0.163386
 50
0.0
 51
90.0
  0
ARC
  8
0
  6
CONTINUOUS
 62
     7
  5
169
 10
1.257874
 20
1.653543
 30
0.0
 40
0.019685
 50
180.0
 51
270.0
  0
LINE
  8
0
  6
CONTINUOUS
 62
     7
  5
16A
 10
1.297244
 20
1.633858
 30
0.0
 11
1.257874
 21
1.633858
 31
0.0
  0
ARC
  8
0
  6
CONTINUOUS
 62
     7
  5
16B
 10
1.297244
 20
1.653543
 30
0.0
 40
0.019685
 50
270.0
 51
360.0
  0
LINE
  8
0
  6
CONTINUOUS
 62
     7
  5
16C
 10
1.316929
 20
1.811024
 30
0.0
 11
1.316929
 21
1.653543
 31
0.0
  0
ARC
  8
0
  6
CONTINUOUS
 62
     7
  5
16D
 10
1.297244
 20
1.811024
 30
0.0
 40
0.019685
 50
0.0
 51
90.0
  0
LINE
  8
0
  6
CONTINUOUS
 62
     7
  5
16E
 10
1.257874
 20
1.830709
 30
0.0
 11
1.297244
 21
1.830709
 31
0.0
  0
ARC
  8
0
  6
CONTINUOUS
 62
     7
  5
16F
 10
1.257874
 20
1.811024
 30
0.0
 40
0.019685
 50
90.0
 51
180.0
  0
LINE
  8
0
  6
CONTINUOUS
 62
     7
  5
170
 10
1.238189
 20
1.653543
 30
0.0
 11
1.238189
 21
1.811024
 31
0.0
  0
ARC
  8
0
  6
CONTINUOUS
 62
     7
  5
171
 10
-1.297244
 20
1.653543
 30
0.0
 40
0.019685
 50
180.0
 51
270.0
  0
LINE
  8
0
  6
CONTINUOUS
 62
     7
  5
172
 10
-1.257874
 20
1.633858
 30
0.0
 11
-1.297244
 21
1.633858
 31
0.0
  0
ARC
  8
0
  6
CONTINUOUS
 62
     7
  5
173
 10
-1.257874
 20
1.653543
 30
0.0
 40
0.019685
 50
270.0
 51
360.0
  0
LINE
  8
0
  6
CONTINUOUS
 62
     7
  5
174
 10
-1.238189
 20
1.811024
 30
0.0
 11
-1.238189
 21
1.653543
 31
0.0
  0
ARC
  8
0
  6
CONTINUOUS
 62
     7
  5
175
 10
-1.257874
 20
1.811024
 30
0.0
 40
0.019685
 50
0.0
 51
90.0
  0
LINE
  8
0
  6
CONTINUOUS
 62
     7
  5
176
 10
-1.297244
 20
1.830709
 30
0.0
 11
-1.257874
 21
1.830709
 31
0.0
  0
ARC
  8
0
  6
CONTINUOUS
 62
     7
  5
177
 10
-1.297244
 20
1.811024
 30
0.0
 40
0.019685
 50
90.0
 51
180.0
  0
LINE
  8
0
  6
CONTINUOUS
 62
     7
  5
178
 10
-1.316929
 20
1.653543
 30
0.0
 11
-1.316929
 21
1.811024
 31
0.0
  0
CIRCLE
  8
0
  6
CONTINUOUS
 62
     7
  5
179
 10
1.062992
 20
1.732283
 30
0.0
 40
0.127953
  0
CIRCLE
  8
0
  6
CONTINUOUS
 62
     7
  5
17A
 10
-1.062992
 20
1.732283
 30
0.0
 40
0.127953
  0
LINE
  8
0
  6
CONTINUOUS
 62
     7
  5
17B
 10
1.291339
 20
-2.304331
 30
0.0
 11
1.291339
 21
-2.61811
 31
0.0
  0
ARC
  8
0
  6
CONTINUOUS
 62
     7
  5
17C
 10
1.061811
 20
-2.304331
 30
0.0
 40
0.229528
 50
0.0
 51
90.0
  0
LINE
  8
0
  6
CONTINUOUS
 62
     7
  5
17D
 10
-1.061811
 20
-2.074803
 30
0.0
 11
1.061811
 21
-2.074803
 31
0.0
  0
ARC
  8
0
  6
CONTINUOUS
 62
     7
  5
17E
 10
-1.061811
 20
-2.304331
 30
0.0
 40
0.229528
 50
90.0
 51
180.0
  0
LINE
  8
0
  6
CONTINUOUS
 62
     7
  5
17F
 10
-1.291339
 20
-2.61811
 30
0.0
 11
-1.291339
 21
-2.304331
 31
0.0
  0
LINE
  8
0
  6
CONTINUOUS
 62
     7
  5
180
 10
2.22815
 20
-1.535433
 30
0.0
 11
-2.22815
 21
-1.535433
 31
0.0
  0
ARC
  8
0
  6
CONTINUOUS
 62
     7
  5
181
 10
-2.22815
 20
-1.523622
 30
0.0
 40
0.011811
 50
180.0
 51
270.0
  0
LINE
  8
0
  6
CONTINUOUS
 62
     7
  5
182
 10
-2.22815
 20
2.480315
 30
0.0
 11
2.22815
 21
2.480315
 31
0.0
  0
ARC
  8
0
  6
CONTINUOUS
 62
     7
  5
183
 10
2.22815
 20
2.468504
 30
0.0
 40
0.011811
 50
0.0
 51
90.0
  0
ARC
  8
0
  6
CONTINUOUS
 62
     7
  5
184
 10
2.22815
 20
-1.523622
 30
0.0
 40
0.011811
 50
270.0
 51
360.0
  0
LINE
  8
0
  6
CONTINUOUS
 62
     7
  5
185
 10
2.239961
 20
2.468504
 30
0.0
 11
2.239961
 21
-1.523622
 31
0.0
  0
ARC
  8
0
  6
CONTINUOUS
 62
     7
  5
186
 10
-2.22815
 20
-2.606299
 30
0.0
 40
0.011811
 50
180.0
 51
270.0
  0
LINE
  8
0
  6
CONTINUOUS
 62
     7
  5
187
 10
2.239961
 20
-1.523622
 30
0.0
 11
2.239961
 21
-2.606299
 31
0.0
  0
ARC
  8
0
  6
CONTINUOUS
 62
     7
  5
188
 10
2.22815
 20
-2.606299
 30
0.0
 40
0.011811
 50
270.0
 51
360.0
  0
LINE
  8
0
  6
CONTINUOUS
 62
     7
  5
189
 10
2.241142
 20
2.322835
 30
0.0
 11
2.239961
 21
2.322835
 31
0.0
  0
LINE
  8
0
  6
CONTINUOUS
 62
     7
  5
18A
 10
2.241142
 20
2.61811
 30
0.0
 11
2.241142
 21
2.322835
 31
0.0
  0
LINE
  8
0
  6
CONTINUOUS
 62
     7
  5
18B
 10
-2.241142
 20
2.61811
 30
0.0
 11
-2.241142
 21
2.322835
 31
0.0
  0
LINE
  8
0
  6
CONTINUOUS
 62
     7
  5
18C
 10
-2.239961
 20
2.322835
 30
0.0
 11
-2.241142
 21
2.322835
 31
0.0
  0
LINE
  8
0
  6
CONTINUOUS
 62
     7
  5
18D
 10
-0.48189
 20
5.148425
 30
0.0
 11
-0.581102
 21
5.148425
 31
0.0
  0
LINE
  8
0
  6
CONTINUOUS
 62
     7
  5
18E
 10
0.581102
 20
5.148425
 30
0.0
 11
0.48189
 21
5.148425
 31
0.0
  0
LINE
  8
0
  6
CONTINUOUS
 62
     7
  5
18F
 10
2.241142
 20
5.148425
 30
0.0
 11
-2.241142
 21
5.148425
 31
0.0
  0
LINE
  8
0
  6
CONTINUOUS
 62
     7
  5
190
 10
-2.241142
 20
3.116535
 30
0.0
 11
-2.241142
 21
2.61811
 31
0.0
  0
LINE
  8
0
  6
CONTINUOUS
 62
     7
  5
191
 10
-2.241142
 20
5.123705
 30
0.0
 11
-2.241142
 21
3.116535
 31
0.0
  0
LINE
  8
0
  6
CONTINUOUS
 62
     7
  5
192
 10
-2.241142
 20
5.148425
 30
0.0
 11
-2.241142
 21
5.123705
 31
0.0
  0
LINE
  8
0
  6
CONTINUOUS
 62
     7
  5
193
 10
2.241142
 20
5.148425
 30
0.0
 11
2.241142
 21
5.123705
 31
0.0
  0
LINE
  8
0
  6
CONTINUOUS
 62
     7
  5
194
 10
2.241142
 20
3.116535
 30
0.0
 11
-2.241142
 21
3.116535
 31
0.0
  0
LINE
  8
0
  6
CONTINUOUS
 62
     7
  5
195
 10
2.241142
 20
5.123705
 30
0.0
 11
2.241142
 21
3.116535
 31
0.0
  0
LINE
  8
0
  6
CONTINUOUS
 62
     7
  5
196
 10
2.241142
 20
2.61811
 30
0.0
 11
-2.241142
 21
2.61811
 31
0.0
  0
LINE
  8
0
  6
CONTINUOUS
 62
     7
  5
197
 10
2.241142
 20
3.116535
 30
0.0
 11
2.241142
 21
2.61811
 31
0.0
  0
LINE
  8
0
  6
CONTINUOUS
 62
     7
  5
198
 10
0.174306
 20
-4.491745
 30
0.0
 11
-0.045798
 21
-4.337627
 31
0.0
  0
ARC
  8
0
  6
CONTINUOUS
 62
     7
  5
199
 10
0.374606
 20
-4.205687
 30
0.0
 40
0.349213
 50
234.999985
 51
359.999991
  0
LINE
  8
0
  6
CONTINUOUS
 62
     7
  5
19A
 10
0.723818
 20
-3.835729
 30
0.0
 11
0.723818
 21
-4.205687
 31
0.0
  0
ARC
  8
0
  6
CONTINUOUS
 62
     7
  5
19B
 10
0.473818
 20
-3.835729
 30
0.0
 40
0.25
 50
359.999991
 51
89.999991
  0
LINE
  8
0
  6
CONTINUOUS
 62
     7
  5
19C
 10
0.331177
 20
-3.585729
 30
0.0
 11
0.473818
 21
-3.585729
 31
0.0
  0
ARC
  8
0
  6
CONTINUOUS
 62
     7
  5
19D
 10
0.331177
 20
-3.61565
 30
0.0
 40
0.029921
 50
89.999991
 51
209.999958
  0
LINE
  8
0
  6
CONTINUOUS
 62
     7
  5
19E
 10
0.367013
 20
-3.737563
 30
0.0
 11
0.305264
 21
-3.630611
 31
0.0
  0
ARC
  8
0
  6
CONTINUOUS
 62
     7
  5
19F
 10
0.339736
 20
-3.753311
 30
0.0
 40
0.031496
 50
325.000208
 51
29.999958
  0
LINE
  8
0
  6
CONTINUOUS
 62
     7
  5
1A0
 10
0.360786
 20
-3.77816
 30
0.0
 11
0.365536
 21
-3.771376
 31
0.0
  0
ARC
  8
0
  6
CONTINUOUS
 62
     7
  5
1A1
 10
0.334986
 20
-3.760094
 30
0.0
 40
0.031496
 50
272.8792
 51
325.000208
  0
LINE
  8
0
  6
CONTINUOUS
 62
     7
  5
1A2
 10
0.332672
 20
-3.797116
 30
0.0
 11
0.336568
 21
-3.791551
 31
0.0
  0
LINE
  8
0
  6
CONTINUOUS
 62
     7
  5
1A3
 10
0.332672
 20
-3.797116
 30
0.0
 11
0.26801
 21
-3.751839
 31
0.0
  0
LINE
  8
0
  6
CONTINUOUS
 62
     7
  5
1A4
 10
-0.11046
 20
-4.29235
 30
0.0
 11
-0.045798
 21
-4.337627
 31
0.0
  0
LINE
  8
0
  6
CONTINUOUS
 62
     7
  5
1A5
 10
-0.11046
 20
-4.29235
 30
0.0
 11
0.26801
 21
-3.751839
 31
0.0
  0
LINE
  8
0
  6
CONTINUOUS
 62
     7
  5
1A6
 10
0.26801
 20
-3.751839
 30
0.0
 11
0.139494
 21
-3.661851
 31
0.0
  0
LINE
  8
0
  6
CONTINUOUS
 62
     7
  5
1A7
 10
-0.11046
 20
-4.29235
 30
0.0
 11
-0.238976
 21
-4.202362
 31
0.0
  0
CIRCLE
  8
0
  6
CONTINUOUS
 62
     7
  5
1A8
 10
0.374803
 20
-4.206142
 30
0.0
 40
0.241
  0
LINE
  8
0
  6
CONTINUOUS
 62
     7
  5
1A9
 10
0.413386
 20
-2.703937
 30
0.0
 11
0.649606
 21
-2.703937
 31
0.0
  0
LINE
  8
0
  6
CONTINUOUS
 62
     7
  5
1AA
 10
-0.976213
 20
-3.566142
 30
0.0
 11
-1.008268
 21
-3.566142
 31
0.0
  0
LINE
  8
0
  6
CONTINUOUS
 62
     7
  5
1AB
 10
-0.976213
 20
-3.566142
 30
0.0
 11
-0.976213
 21
-3.686143
 31
0.0
  0
LINE
  8
0
  6
CONTINUOUS
 62
     7
  5
1AC
 10
-0.976213
 20
-3.686143
 30
0.0
 11
-0.238976
 21
-4.202362
 31
0.0
  0
LINE
  8
0
  6
CONTINUOUS
 62
     7
  5
1AD
 10
0.139494
 20
-3.661851
 30
0.0
 11
0.115048
 21
-3.644734
 31
0.0
  0
LINE
  8
0
  6
CONTINUOUS
 62
     7
  5
1AE
 10
0.115048
 20
-3.644734
 30
0.0
 11
0.170079
 21
-3.566142
 31
0.0
  0
LINE
  8
0
  6
CONTINUOUS
 62
     7
  5
1AF
 10
0.257874
 20
-3.566142
 30
0.0
 11
0.170079
 21
-3.566142
 31
0.0
  0
LINE
  8
0
  6
CONTINUOUS
 62
     7
  5
1B0
 10
-0.125197
 20
-3.724016
 30
0.0
 11
-0.625197
 21
-3.724016
 31
0.0
  0
LINE
  8
0
  6
CONTINUOUS
 62
     7
  5
1B1
 10
-0.625197
 20
-3.724016
 30
0.0
 11
-0.625197
 21
-3.424016
 31
0.0
  0
LINE
  8
0
  6
CONTINUOUS
 62
     7
  5
1B2
 10
-0.625197
 20
-3.424016
 30
0.0
 11
-0.125197
 21
-3.424016
 31
0.0
  0
LINE
  8
0
  6
CONTINUOUS
 62
     7
  5
1B3
 10
-0.125197
 20
-3.424016
 30
0.0
 11
-0.125197
 21
-3.724016
 31
0.0
  0
LINE
  8
0
  6
CONTINUOUS
 62
     7
  5
1B4
 10
-1.164173
 20
-3.566142
 30
0.0
 11
-1.164173
 21
-2.944882
 31
0.0
  0
LINE
  8
0
  6
CONTINUOUS
 62
     7
  5
1B5
 10
0.41378
 20
-2.703937
 30
0.0
 11
0.41378
 21
-2.803937
 31
0.0
  0
LINE
  8
0
  6
CONTINUOUS
 62
     7
  5
1B6
 10
0.41378
 20
-3.566142
 30
0.0
 11
0.41378
 21
-2.803937
 31
0.0
  0
LINE
  8
0
  6
CONTINUOUS
 62
     7
  5
1B7
 10
0.41378
 20
-3.566142
 30
0.0
 11
0.257874
 21
-3.566142
 31
0.0
  0
LINE
  8
0
  6
CONTINUOUS
 62
     7
  5
1B8
 10
-1.008268
 20
-3.566142
 30
0.0
 11
-1.164173
 21
-3.566142
 31
0.0
  0
LINE
  8
0
  6
CONTINUOUS
 62
     7
  5
1B9
 10
0.41378
 20
-2.803937
 30
0.0
 11
0.413728
 21
-2.803937
 31
0.0
  0
LINE
  8
0
  6
CONTINUOUS
 62
     7
  5
1BA
 10
-0.25
 20
-0.568101
 30
0.0
 11
0.25
 21
-0.568101
 31
0.0
  0
LINE
  8
0
  6
CONTINUOUS
 62
     7
  5
1BB
 10
0.25
 20
0.893984
 30
0.0
 11
-0.25
 21
0.893984
 31
0.0
  0
LINE
  8
0
  6
CONTINUOUS
 62
     3
  5
1BC
 10
-0.531496
 20
-2.161417
 30
0.0
 11
-0.531496
 21
-2.326772
 31
0.0
  0
LINE
  8
0
  6
CONTINUOUS
 62
     3
  5
1BD
 10
-0.448819
 20
-2.244094
 30
0.0
 11
-0.614173
 21
-2.244094
 31
0.0
  0
ENDSEC
  0
EOF
