  0
SECTION
  2
HEADER
  9
$ACADVER
  1
AC1009
  9
$DWGCODEPAGE
  3
ansi_1250
  9
$INSBASE
 10
0.0
 20
0.0
 30
0.0
  9
$EXTMIN
 10
-7.075
 20
0.0
 30
0.0
  9
$EXTMAX
 10
2.825
 20
4.03
 30
0.0
  9
$LIMMIN
 10
0.0
 20
0.0
  9
$LIMMAX
 10
0.0
 20
0.0
  9
$ORTHOMODE
 70
     0
  9
$REGENMODE
 70
     1
  9
$FILLMODE
 70
     1
  9
$QTEXTMODE
 70
     0
  9
$MIRRTEXT
 70
     1
  9
$DRAGMODE
 70
     2
  9
$LTSCALE
 40
1.0
  9
$OSMODE
 70
     0
  9
$ATTMODE
 70
     1
  9
$TEXTSIZE
 40
0.2
  9
$TRACEWID
 40
0.05
  9
$TEXTSTYLE
  7
STANDARD
  9
$CLAYER
  8
0
  9
$CELTYPE
  6
CONTINUOUS
  9
$CECOLOR
 62
   256
  9
$DIMSCALE
 40
1.0
  9
$DIMASZ
 40
0.18
  9
$DIMEXO
 40
0.0625
  9
$DIMDLI
 40
0.38
  9
$DIMRND
 40
0.0
  9
$DIMDLE
 40
0.0
  9
$DIMEXE
 40
0.18
  9
$DIMTP
 40
0.0
  9
$DIMTM
 40
0.0
  9
$DIMTXT
 40
0.18
  9
$DIMCEN
 40
0.09
  9
$DIMTSZ
 40
0.0
  9
$DIMTOL
 70
     0
  9
$DIMLIM
 70
     0
  9
$DIMTIH
 70
     1
  9
$DIMTOH
 70
     1
  9
$DIMSE1
 70
     0
  9
$DIMSE2
 70
     0
  9
$DIMTAD
 70
     0
  9
$DIMZIN
 70
     0
  9
$DIMBLK
  1

  9
$DIMASO
 70
     1
  9
$DIMSHO
 70
     1
  9
$DIMPOST
  1

  9
$DIMAPOST
  1

  9
$DIMALT
 70
     0
  9
$DIMALTD
 70
     2
  9
$DIMALTF
 40
25.4
  9
$DIMLFAC
 40
1.0
  9
$DIMTOFL
 70
     0
  9
$DIMTVP
 40
0.0
  9
$DIMTIX
 70
     0
  9
$DIMSOXD
 70
     0
  9
$DIMSAH
 70
     0
  9
$DIMBLK1
  1

  9
$DIMBLK2
  1

  9
$DIMSTYLE
  2
STANDARD
  9
$DIMCLRD
 70
     0
  9
$DIMCLRE
 70
     0
  9
$DIMCLRT
 70
     0
  9
$DIMTFAC
 40
1.0
  9
$DIMGAP
 40
0.09
  9
$LUNITS
 70
     2
  9
$LUPREC
 70
     4
  9
$AXISMODE
 70
     0
  9
$AXISUNIT
 10
0.0
 20
0.0
  9
$SKETCHINC
 40
0.1
  9
$FILLETRAD
 40
0.0
  9
$AUNITS
 70
     0
  9
$AUPREC
 70
     0
  9
$MENU
  1
acad
  9
$ELEVATION
 40
0.0
  9
$PELEVATION
 40
0.0
  9
$THICKNESS
 40
0.0
  9
$LIMCHECK
 70
     0
  9
$BLIPMODE
 70
     1
  9
$CHAMFERA
 40
0.0
  9
$CHAMFERB
 40
0.0
  9
$SKPOLY
 70
     0
  9
$TDCREATE
 40
0.000000000
  9
$TDUPDATE
 40
0.000000000
  9
$TDINDWG
 40
0.0000000000
  9
$TDUSRTIMER
 40
0.0000000000
  9
$USRTIMER
 70
     1
  9
$ANGBASE
 50
0.0
  9
$ANGDIR
 70
     0
  9
$PDMODE
 70
     0
  9
$PDSIZE
 40
0.0
  9
$PLINEWID
 40
0.0
  9
$COORDS
 70
     0
  9
$SPLFRAME
 70
     0
  9
$SPLINETYPE
 70
     6
  9
$SPLINESEGS
 70
     8
  9
$ATTDIA
 70
     0
  9
$ATTREQ
 70
     1
  9
$HANDLING
 70
     1
  9
$HANDSEED
  5
8BE
  9
$SURFTAB1
 70
     6
  9
$SURFTAB2
 70
     6
  9
$SURFTYPE
 70
     6
  9
$SURFU
 70
     6
  9
$SURFV
 70
     6
  9
$UCSNAME
  2

  9
$UCSORG
 10
0.0
 20
0.0
 30
0.0
  9
$UCSXDIR
 10
1.0
 20
0.0
 30
0.0
  9
$UCSYDIR
 10
0.0
 20
1.0
 30
0.0
  9
$PUCSNAME
  2

  9
$PUCSORG
 10
0.0
 20
0.0
 30
0.0
  9
$PUCSXDIR
 10
1.0
 20
0.0
 30
0.0
  9
$PUCSYDIR
 10
0.0
 20
1.0
 30
0.0
  9
$USERI1
 70
     0
  9
$USERI2
 70
     0
  9
$USERI3
 70
     0
  9
$USERI4
 70
     0
  9
$USERI5
 70
     0
  9
$USERR1
 40
0.0
  9
$USERR2
 40
0.0
  9
$USERR3
 40
0.0
  9
$USERR4
 40
0.0
  9
$USERR5
 40
0.0
  9
$WORLDVIEW
 70
     1
  9
$SHADEDGE
 70
     3
  9
$SHADEDIF
 70
    70
  9
$TILEMODE
 70
     1
  9
$MAXACTVP
 70
    16
  9
$PINSBASE
 10
0.0
 20
0.0
 30
0.0
  9
$PLIMCHECK
 70
     0
  9
$PEXTMIN
 10
1.000000E+20
 20
1.000000E+20
 30
1.000000E+20
  9
$PEXTMAX
 10
-1.000000E+20
 20
-1.000000E+20
 30
-1.000000E+20
  9
$PLIMMIN
 10
0.0
 20
0.0
  9
$PLIMMAX
 10
12.0
 20
9.0
  9
$UNITMODE
 70
     0
  9
$VISRETAIN
 70
     0
  9
$PLINEGEN
 70
     1
  9
$PSLTSCALE
 70
     0
  9
$TREEDEPTH
 70
  3020
  0
ENDSEC
  0
SECTION
  2
TABLES
  0
TABLE
  2
VPORT
 70
     1
  0
VPORT
  2
*ACTIVE
 70
     0
 10
0.0
 20
0.0
 11
1.0
 21
1.0
 12
6.591288
 22
4.579184
 13
0.0
 23
0.0
 14
1.0
 24
1.0
 15
0.0
 25
0.0
 16
0.0
 26
0.0
 36
1.0
 17
0.0
 27
0.0
 37
0.0
 40
9.158369
 41
0.688564
 42
50.0
 43
0.0
 44
0.0
 50
0.0
 51
0.0
 71
     0
 72
   100
 73
     1
 74
     1
 75
     0
 76
     0
 77
     0
 78
     0
  0
ENDTAB
  0
TABLE
  2
LTYPE
 70
     5
  0
LTYPE
  2
CONTINUOUS
 70
    64
  3
Solid line
 72
    65
 73
     0
 40
0.0
  0
LTYPE
  2
CENTER
 70
    64
  3
Center ____ _ ____ _ ____ _ ____ _ ____ _ ____
 72
    65
 73
     4
 40
50.8
 49
31.75
 49
-6.35
 49
6.35
 49
-6.35
  0
LTYPE
  2
HIDDEN
 70
    64
  3
Hidden __ __ __ __ __ __ __ __ __ __ __ __ __ __
 72
    65
 73
     2
 40
9.525
 49
6.35
 49
-3.175
  0
LTYPE
  2
CENTER2
 70
    64
  3
Center (.5x) ___ _ ___ _ ___ _ ___ _ ___ _ ___
 72
    65
 73
     4
 40
28.575
 49
19.05
 49
-3.175
 49
3.175
 49
-3.175
  0
LTYPE
  2
HIDDEN2
 70
    64
  3
Hidden (.5x) _ _ _ _ _ _ _ _ _ _ _ _ _ _ _ _ _
 72
    65
 73
     2
 40
4.7625
 49
3.175
 49
-1.5875
  0
ENDTAB
  0
TABLE
  2
LAYER
 70
     1
  0
LAYER
  2
0
 70
     0
 62
     7
  6
CONTINUOUS
  0
ENDTAB
  0
TABLE
  2
STYLE
 70
     1
  0
STYLE
  2
STANDARD
 70
     0
 40
0.0
 41
1.0
 50
0.0
 71
     0
 42
0.0
  3
txt
  4

  0
ENDTAB
  0
TABLE
  2
VIEW
 70
     0
  0
ENDTAB
  0
TABLE
  2
UCS
 70
     0
  0
ENDTAB
  0
TABLE
  2
APPID
 70
     1
  0
APPID
  2
ACAD
 70
     0
  0
ENDTAB
  0
TABLE
  2
DIMSTYLE
 70
     1
  0
DIMSTYLE
  2
STANDARD
 70
     0
  3

  4

  5

  6

  7

 40
1.0
 41
0.18
 42
0.0625
 43
0.38
 44
0.18
 45
0.0
 46
0.0
 47
0.0
 48
0.0
 71
     0
 72
     0
 73
     1
 74
     1
 75
     0
 76
     0
 77
     0
 78
     0
140
0.18
141
0.09
142
0.0
143
25.4
144
1.0
145
0.0
146
1.0
147
0.09
170
     0
171
     2
172
     0
173
     0
174
     0
175
     0
176
     0
177
     0
178
     0
  0
ENDTAB
  0
ENDSEC
  0
SECTION
  2
BLOCKS
  0
ENDSEC
  0
SECTION
  2
ENTITIES
  0
LINE
  8
0
  6
CONTINUOUS
 62
     7
  5
487
 10
-0.052507
 20
3.609708
 30
0.0
 11
-0.052521
 21
3.610665
 31
0.0
  0
LINE
  8
0
  6
CONTINUOUS
 62
     7
  5
488
 10
-0.052521
 20
3.610665
 30
0.0
 11
-0.052564
 21
3.611613
 31
0.0
  0
LINE
  8
0
  6
CONTINUOUS
 62
     7
  5
489
 10
-0.052564
 20
3.611613
 30
0.0
 11
-0.052633
 21
3.61255
 31
0.0
  0
LINE
  8
0
  6
CONTINUOUS
 62
     7
  5
48A
 10
-0.052633
 20
3.61255
 30
0.0
 11
-0.052728
 21
3.613478
 31
0.0
  0
LINE
  8
0
  6
CONTINUOUS
 62
     7
  5
48B
 10
-0.052728
 20
3.613478
 30
0.0
 11
-0.052849
 21
3.614389
 31
0.0
  0
LINE
  8
0
  6
CONTINUOUS
 62
     7
  5
48C
 10
-0.052849
 20
3.614389
 30
0.0
 11
-0.052991
 21
3.615279
 31
0.0
  0
LINE
  8
0
  6
CONTINUOUS
 62
     7
  5
48D
 10
-0.052991
 20
3.615279
 30
0.0
 11
-0.053155
 21
3.616146
 31
0.0
  0
LINE
  8
0
  6
CONTINUOUS
 62
     7
  5
48E
 10
-0.053155
 20
3.616146
 30
0.0
 11
-0.053337
 21
3.616991
 31
0.0
  0
LINE
  8
0
  6
CONTINUOUS
 62
     7
  5
48F
 10
-0.053337
 20
3.616991
 30
0.0
 11
-0.053537
 21
3.617815
 31
0.0
  0
LINE
  8
0
  6
CONTINUOUS
 62
     7
  5
490
 10
-0.053537
 20
3.617815
 30
0.0
 11
-0.053754
 21
3.618618
 31
0.0
  0
LINE
  8
0
  6
CONTINUOUS
 62
     7
  5
491
 10
-0.053754
 20
3.618618
 30
0.0
 11
-0.053986
 21
3.619402
 31
0.0
  0
LINE
  8
0
  6
CONTINUOUS
 62
     7
  5
492
 10
-0.053986
 20
3.619402
 30
0.0
 11
-0.054231
 21
3.620164
 31
0.0
  0
LINE
  8
0
  6
CONTINUOUS
 62
     7
  5
493
 10
-0.054231
 20
3.620164
 30
0.0
 11
-0.054489
 21
3.620906
 31
0.0
  0
LINE
  8
0
  6
CONTINUOUS
 62
     7
  5
494
 10
-0.054489
 20
3.620906
 30
0.0
 11
-0.054757
 21
3.621626
 31
0.0
  0
LINE
  8
0
  6
CONTINUOUS
 62
     7
  5
495
 10
-0.054757
 20
3.621626
 30
0.0
 11
-0.055035
 21
3.622325
 31
0.0
  0
LINE
  8
0
  6
CONTINUOUS
 62
     7
  5
496
 10
-0.055035
 20
3.622325
 30
0.0
 11
-0.05532
 21
3.623001
 31
0.0
  0
LINE
  8
0
  6
CONTINUOUS
 62
     7
  5
497
 10
-0.05532
 20
3.623001
 30
0.0
 11
-0.055612
 21
3.623656
 31
0.0
  0
LINE
  8
0
  6
CONTINUOUS
 62
     7
  5
498
 10
-0.055612
 20
3.623656
 30
0.0
 11
-0.055908
 21
3.624288
 31
0.0
  0
LINE
  8
0
  6
CONTINUOUS
 62
     7
  5
499
 10
-0.055908
 20
3.624288
 30
0.0
 11
-0.056211
 21
3.624903
 31
0.0
  0
LINE
  8
0
  6
CONTINUOUS
 62
     7
  5
49A
 10
-0.056211
 20
3.624903
 30
0.0
 11
-0.056523
 21
3.625509
 31
0.0
  0
LINE
  8
0
  6
CONTINUOUS
 62
     7
  5
49B
 10
-0.056523
 20
3.625509
 30
0.0
 11
-0.056844
 21
3.626104
 31
0.0
  0
LINE
  8
0
  6
CONTINUOUS
 62
     7
  5
49C
 10
-0.056844
 20
3.626104
 30
0.0
 11
-0.057172
 21
3.62669
 31
0.0
  0
LINE
  8
0
  6
CONTINUOUS
 62
     7
  5
49D
 10
-0.057172
 20
3.62669
 30
0.0
 11
-0.057508
 21
3.627265
 31
0.0
  0
LINE
  8
0
  6
CONTINUOUS
 62
     7
  5
49E
 10
-0.057508
 20
3.627265
 30
0.0
 11
-0.05785
 21
3.627829
 31
0.0
  0
LINE
  8
0
  6
CONTINUOUS
 62
     7
  5
49F
 10
-0.05785
 20
3.627829
 30
0.0
 11
-0.058199
 21
3.628384
 31
0.0
  0
LINE
  8
0
  6
CONTINUOUS
 62
     7
  5
4A0
 10
-0.058199
 20
3.628384
 30
0.0
 11
-0.058554
 21
3.628928
 31
0.0
  0
LINE
  8
0
  6
CONTINUOUS
 62
     7
  5
4A1
 10
-0.058554
 20
3.628928
 30
0.0
 11
-0.058914
 21
3.629462
 31
0.0
  0
LINE
  8
0
  6
CONTINUOUS
 62
     7
  5
4A2
 10
-0.058914
 20
3.629462
 30
0.0
 11
-0.059279
 21
3.629986
 31
0.0
  0
LINE
  8
0
  6
CONTINUOUS
 62
     7
  5
4A3
 10
-0.059279
 20
3.629986
 30
0.0
 11
-0.059649
 21
3.630499
 31
0.0
  0
LINE
  8
0
  6
CONTINUOUS
 62
     7
  5
4A4
 10
-0.059649
 20
3.630499
 30
0.0
 11
-0.060022
 21
3.631002
 31
0.0
  0
LINE
  8
0
  6
CONTINUOUS
 62
     7
  5
4A5
 10
-0.060022
 20
3.631002
 30
0.0
 11
-0.060398
 21
3.631494
 31
0.0
  0
LINE
  8
0
  6
CONTINUOUS
 62
     7
  5
4A6
 10
-0.060398
 20
3.631494
 30
0.0
 11
-0.060777
 21
3.631976
 31
0.0
  0
LINE
  8
0
  6
CONTINUOUS
 62
     7
  5
4A7
 10
-0.060777
 20
3.631976
 30
0.0
 11
-0.061158
 21
3.632447
 31
0.0
  0
LINE
  8
0
  6
CONTINUOUS
 62
     7
  5
4A8
 10
-0.061158
 20
3.632447
 30
0.0
 11
-0.061541
 21
3.632908
 31
0.0
  0
LINE
  8
0
  6
CONTINUOUS
 62
     7
  5
4A9
 10
-0.061541
 20
3.632908
 30
0.0
 11
-0.061925
 21
3.633358
 31
0.0
  0
LINE
  8
0
  6
CONTINUOUS
 62
     7
  5
4AA
 10
-0.052507
 20
3.52625
 30
0.0
 11
-0.052507
 21
3.609708
 31
0.0
  0
LINE
  8
0
  6
CONTINUOUS
 62
     7
  5
4AB
 10
0.0
 20
3.52625
 30
0.0
 11
-0.052507
 21
3.52625
 31
0.0
  0
LINE
  8
0
  6
CONTINUOUS
 62
     7
  5
4AC
 10
0.0
 20
3.734519
 30
0.0
 11
0.0
 21
3.52625
 31
0.0
  0
LINE
  8
0
  6
CONTINUOUS
 62
     7
  5
4AD
 10
-0.12125
 20
3.803313
 30
0.0
 11
-0.116422
 21
3.80323
 31
0.0
  0
LINE
  8
0
  6
CONTINUOUS
 62
     7
  5
4AE
 10
-0.116422
 20
3.80323
 30
0.0
 11
-0.111662
 21
3.802987
 31
0.0
  0
LINE
  8
0
  6
CONTINUOUS
 62
     7
  5
4AF
 10
-0.111662
 20
3.802987
 30
0.0
 11
-0.106972
 21
3.802589
 31
0.0
  0
LINE
  8
0
  6
CONTINUOUS
 62
     7
  5
4B0
 10
-0.106972
 20
3.802589
 30
0.0
 11
-0.102353
 21
3.802043
 31
0.0
  0
LINE
  8
0
  6
CONTINUOUS
 62
     7
  5
4B1
 10
-0.102353
 20
3.802043
 30
0.0
 11
-0.097807
 21
3.801354
 31
0.0
  0
LINE
  8
0
  6
CONTINUOUS
 62
     7
  5
4B2
 10
-0.097807
 20
3.801354
 30
0.0
 11
-0.093335
 21
3.800527
 31
0.0
  0
LINE
  8
0
  6
CONTINUOUS
 62
     7
  5
4B3
 10
-0.093335
 20
3.800527
 30
0.0
 11
-0.088938
 21
3.799567
 31
0.0
  0
LINE
  8
0
  6
CONTINUOUS
 62
     7
  5
4B4
 10
-0.088938
 20
3.799567
 30
0.0
 11
-0.084616
 21
3.798479
 31
0.0
  0
LINE
  8
0
  6
CONTINUOUS
 62
     7
  5
4B5
 10
-0.084616
 20
3.798479
 30
0.0
 11
-0.080372
 21
3.797268
 31
0.0
  0
LINE
  8
0
  6
CONTINUOUS
 62
     7
  5
4B6
 10
-0.080372
 20
3.797268
 30
0.0
 11
-0.076207
 21
3.795938
 31
0.0
  0
LINE
  8
0
  6
CONTINUOUS
 62
     7
  5
4B7
 10
-0.076207
 20
3.795938
 30
0.0
 11
-0.07212
 21
3.794493
 31
0.0
  0
LINE
  8
0
  6
CONTINUOUS
 62
     7
  5
4B8
 10
-0.07212
 20
3.794493
 30
0.0
 11
-0.068114
 21
3.792937
 31
0.0
  0
LINE
  8
0
  6
CONTINUOUS
 62
     7
  5
4B9
 10
-0.068114
 20
3.792937
 30
0.0
 11
-0.064189
 21
3.791274
 31
0.0
  0
LINE
  8
0
  6
CONTINUOUS
 62
     7
  5
4BA
 10
-0.064189
 20
3.791274
 30
0.0
 11
-0.060346
 21
3.789508
 31
0.0
  0
LINE
  8
0
  6
CONTINUOUS
 62
     7
  5
4BB
 10
-0.060346
 20
3.789508
 30
0.0
 11
-0.056587
 21
3.787642
 31
0.0
  0
LINE
  8
0
  6
CONTINUOUS
 62
     7
  5
4BC
 10
-0.056587
 20
3.787642
 30
0.0
 11
-0.052911
 21
3.78568
 31
0.0
  0
LINE
  8
0
  6
CONTINUOUS
 62
     7
  5
4BD
 10
-0.052911
 20
3.78568
 30
0.0
 11
-0.049321
 21
3.783626
 31
0.0
  0
LINE
  8
0
  6
CONTINUOUS
 62
     7
  5
4BE
 10
-0.049321
 20
3.783626
 30
0.0
 11
-0.045816
 21
3.781483
 31
0.0
  0
LINE
  8
0
  6
CONTINUOUS
 62
     7
  5
4BF
 10
-0.045816
 20
3.781483
 30
0.0
 11
-0.042398
 21
3.779254
 31
0.0
  0
LINE
  8
0
  6
CONTINUOUS
 62
     7
  5
4C0
 10
-0.042398
 20
3.779254
 30
0.0
 11
-0.039067
 21
3.776943
 31
0.0
  0
LINE
  8
0
  6
CONTINUOUS
 62
     7
  5
4C1
 10
-0.039067
 20
3.776943
 30
0.0
 11
-0.035825
 21
3.774553
 31
0.0
  0
LINE
  8
0
  6
CONTINUOUS
 62
     7
  5
4C2
 10
-0.035825
 20
3.774553
 30
0.0
 11
-0.032671
 21
3.772087
 31
0.0
  0
LINE
  8
0
  6
CONTINUOUS
 62
     7
  5
4C3
 10
-0.032671
 20
3.772087
 30
0.0
 11
-0.029607
 21
3.769548
 31
0.0
  0
LINE
  8
0
  6
CONTINUOUS
 62
     7
  5
4C4
 10
-0.029607
 20
3.769548
 30
0.0
 11
-0.026633
 21
3.76694
 31
0.0
  0
LINE
  8
0
  6
CONTINUOUS
 62
     7
  5
4C5
 10
-0.026633
 20
3.76694
 30
0.0
 11
-0.02375
 21
3.764265
 31
0.0
  0
LINE
  8
0
  6
CONTINUOUS
 62
     7
  5
4C6
 10
-0.02375
 20
3.764265
 30
0.0
 11
-0.020959
 21
3.761527
 31
0.0
  0
LINE
  8
0
  6
CONTINUOUS
 62
     7
  5
4C7
 10
-0.020959
 20
3.761527
 30
0.0
 11
-0.018259
 21
3.758729
 31
0.0
  0
LINE
  8
0
  6
CONTINUOUS
 62
     7
  5
4C8
 10
-0.018259
 20
3.758729
 30
0.0
 11
-0.015651
 21
3.755873
 31
0.0
  0
LINE
  8
0
  6
CONTINUOUS
 62
     7
  5
4C9
 10
-0.015651
 20
3.755873
 30
0.0
 11
-0.013136
 21
3.752963
 31
0.0
  0
LINE
  8
0
  6
CONTINUOUS
 62
     7
  5
4CA
 10
-0.013136
 20
3.752963
 30
0.0
 11
-0.010713
 21
3.750001
 31
0.0
  0
LINE
  8
0
  6
CONTINUOUS
 62
     7
  5
4CB
 10
-0.010713
 20
3.750001
 30
0.0
 11
-0.008384
 21
3.74699
 31
0.0
  0
LINE
  8
0
  6
CONTINUOUS
 62
     7
  5
4CC
 10
-0.008384
 20
3.74699
 30
0.0
 11
-0.006147
 21
3.743934
 31
0.0
  0
LINE
  8
0
  6
CONTINUOUS
 62
     7
  5
4CD
 10
-0.006147
 20
3.743934
 30
0.0
 11
-0.004005
 21
3.740835
 31
0.0
  0
LINE
  8
0
  6
CONTINUOUS
 62
     7
  5
4CE
 10
-0.004005
 20
3.740835
 30
0.0
 11
-0.001956
 21
3.737696
 31
0.0
  0
LINE
  8
0
  6
CONTINUOUS
 62
     7
  5
4CF
 10
-0.001956
 20
3.737696
 30
0.0
 11
0.0
 21
3.734519
 31
0.0
  0
LINE
  8
0
  6
CONTINUOUS
 62
     7
  5
4D0
 10
-0.203175
 20
3.803313
 30
0.0
 11
-0.12125
 21
3.803313
 31
0.0
  0
LINE
  8
0
  6
CONTINUOUS
 62
     7
  5
4D1
 10
-0.2625
 20
3.862638
 30
0.0
 11
-0.262416
 21
3.859487
 31
0.0
  0
LINE
  8
0
  6
CONTINUOUS
 62
     7
  5
4D2
 10
-0.262416
 20
3.859487
 30
0.0
 11
-0.262163
 21
3.856321
 31
0.0
  0
LINE
  8
0
  6
CONTINUOUS
 62
     7
  5
4D3
 10
-0.262163
 20
3.856321
 30
0.0
 11
-0.261738
 21
3.853159
 31
0.0
  0
LINE
  8
0
  6
CONTINUOUS
 62
     7
  5
4D4
 10
-0.261738
 20
3.853159
 30
0.0
 11
-0.261143
 21
3.850022
 31
0.0
  0
LINE
  8
0
  6
CONTINUOUS
 62
     7
  5
4D5
 10
-0.261143
 20
3.850022
 30
0.0
 11
-0.260383
 21
3.84693
 31
0.0
  0
LINE
  8
0
  6
CONTINUOUS
 62
     7
  5
4D6
 10
-0.260383
 20
3.84693
 30
0.0
 11
-0.259464
 21
3.843902
 31
0.0
  0
LINE
  8
0
  6
CONTINUOUS
 62
     7
  5
4D7
 10
-0.259464
 20
3.843902
 30
0.0
 11
-0.258395
 21
3.840954
 31
0.0
  0
LINE
  8
0
  6
CONTINUOUS
 62
     7
  5
4D8
 10
-0.258395
 20
3.840954
 30
0.0
 11
-0.257187
 21
3.838099
 31
0.0
  0
LINE
  8
0
  6
CONTINUOUS
 62
     7
  5
4D9
 10
-0.257187
 20
3.838099
 30
0.0
 11
-0.255851
 21
3.835349
 31
0.0
  0
LINE
  8
0
  6
CONTINUOUS
 62
     7
  5
4DA
 10
-0.255851
 20
3.835349
 30
0.0
 11
-0.254402
 21
3.832717
 31
0.0
  0
LINE
  8
0
  6
CONTINUOUS
 62
     7
  5
4DB
 10
-0.254402
 20
3.832717
 30
0.0
 11
-0.252856
 21
3.830215
 31
0.0
  0
LINE
  8
0
  6
CONTINUOUS
 62
     7
  5
4DC
 10
-0.252856
 20
3.830215
 30
0.0
 11
-0.251231
 21
3.827851
 31
0.0
  0
LINE
  8
0
  6
CONTINUOUS
 62
     7
  5
4DD
 10
-0.251231
 20
3.827851
 30
0.0
 11
-0.249546
 21
3.825634
 31
0.0
  0
LINE
  8
0
  6
CONTINUOUS
 62
     7
  5
4DE
 10
-0.249546
 20
3.825634
 30
0.0
 11
-0.24782
 21
3.823569
 31
0.0
  0
LINE
  8
0
  6
CONTINUOUS
 62
     7
  5
4DF
 10
-0.24782
 20
3.823569
 30
0.0
 11
-0.24604
 21
3.821625
 31
0.0
  0
LINE
  8
0
  6
CONTINUOUS
 62
     7
  5
4E0
 10
-0.24604
 20
3.821625
 30
0.0
 11
-0.24419
 21
3.819774
 31
0.0
  0
LINE
  8
0
  6
CONTINUOUS
 62
     7
  5
4E1
 10
-0.24419
 20
3.819774
 30
0.0
 11
-0.242274
 21
3.81802
 31
0.0
  0
LINE
  8
0
  6
CONTINUOUS
 62
     7
  5
4E2
 10
-0.242274
 20
3.81802
 30
0.0
 11
-0.240298
 21
3.816363
 31
0.0
  0
LINE
  8
0
  6
CONTINUOUS
 62
     7
  5
4E3
 10
-0.240298
 20
3.816363
 30
0.0
 11
-0.238268
 21
3.814805
 31
0.0
  0
LINE
  8
0
  6
CONTINUOUS
 62
     7
  5
4E4
 10
-0.238268
 20
3.814805
 30
0.0
 11
-0.23619
 21
3.813348
 31
0.0
  0
LINE
  8
0
  6
CONTINUOUS
 62
     7
  5
4E5
 10
-0.23619
 20
3.813348
 30
0.0
 11
-0.23407
 21
3.811992
 31
0.0
  0
LINE
  8
0
  6
CONTINUOUS
 62
     7
  5
4E6
 10
-0.23407
 20
3.811992
 30
0.0
 11
-0.231913
 21
3.810738
 31
0.0
  0
LINE
  8
0
  6
CONTINUOUS
 62
     7
  5
4E7
 10
-0.231913
 20
3.810738
 30
0.0
 11
-0.229725
 21
3.809585
 31
0.0
  0
LINE
  8
0
  6
CONTINUOUS
 62
     7
  5
4E8
 10
-0.229725
 20
3.809585
 30
0.0
 11
-0.227513
 21
3.808535
 31
0.0
  0
LINE
  8
0
  6
CONTINUOUS
 62
     7
  5
4E9
 10
-0.227513
 20
3.808535
 30
0.0
 11
-0.225281
 21
3.807585
 31
0.0
  0
LINE
  8
0
  6
CONTINUOUS
 62
     7
  5
4EA
 10
-0.225281
 20
3.807585
 30
0.0
 11
-0.223036
 21
3.806736
 31
0.0
  0
LINE
  8
0
  6
CONTINUOUS
 62
     7
  5
4EB
 10
-0.223036
 20
3.806736
 30
0.0
 11
-0.220784
 21
3.805986
 31
0.0
  0
LINE
  8
0
  6
CONTINUOUS
 62
     7
  5
4EC
 10
-0.220784
 20
3.805986
 30
0.0
 11
-0.218529
 21
3.805334
 31
0.0
  0
LINE
  8
0
  6
CONTINUOUS
 62
     7
  5
4ED
 10
-0.218529
 20
3.805334
 30
0.0
 11
-0.216278
 21
3.804778
 31
0.0
  0
LINE
  8
0
  6
CONTINUOUS
 62
     7
  5
4EE
 10
-0.216278
 20
3.804778
 30
0.0
 11
-0.214037
 21
3.804315
 31
0.0
  0
LINE
  8
0
  6
CONTINUOUS
 62
     7
  5
4EF
 10
-0.214037
 20
3.804315
 30
0.0
 11
-0.211811
 21
3.803944
 31
0.0
  0
LINE
  8
0
  6
CONTINUOUS
 62
     7
  5
4F0
 10
-0.211811
 20
3.803944
 30
0.0
 11
-0.209607
 21
3.803662
 31
0.0
  0
LINE
  8
0
  6
CONTINUOUS
 62
     7
  5
4F1
 10
-0.209607
 20
3.803662
 30
0.0
 11
-0.207429
 21
3.803465
 31
0.0
  0
LINE
  8
0
  6
CONTINUOUS
 62
     7
  5
4F2
 10
-0.207429
 20
3.803465
 30
0.0
 11
-0.205283
 21
3.80335
 31
0.0
  0
LINE
  8
0
  6
CONTINUOUS
 62
     7
  5
4F3
 10
-0.205283
 20
3.80335
 30
0.0
 11
-0.203175
 21
3.803313
 31
0.0
  0
LINE
  8
0
  6
CONTINUOUS
 62
     7
  5
4F4
 10
-0.2625
 20
3.88875
 30
0.0
 11
-0.2625
 21
3.862637
 31
0.0
  0
LINE
  8
0
  6
CONTINUOUS
 62
     7
  5
4F5
 10
-0.40375
 20
4.03
 30
0.0
 11
-0.397871
 21
4.029878
 31
0.0
  0
LINE
  8
0
  6
CONTINUOUS
 62
     7
  5
4F6
 10
-0.397871
 20
4.029878
 30
0.0
 11
-0.391952
 21
4.029506
 31
0.0
  0
LINE
  8
0
  6
CONTINUOUS
 62
     7
  5
4F7
 10
-0.391952
 20
4.029506
 30
0.0
 11
-0.386009
 21
4.028881
 31
0.0
  0
LINE
  8
0
  6
CONTINUOUS
 62
     7
  5
4F8
 10
-0.386009
 20
4.028881
 30
0.0
 11
-0.380061
 21
4.027999
 31
0.0
  0
LINE
  8
0
  6
CONTINUOUS
 62
     7
  5
4F9
 10
-0.380061
 20
4.027999
 30
0.0
 11
-0.374127
 21
4.026859
 31
0.0
  0
LINE
  8
0
  6
CONTINUOUS
 62
     7
  5
4FA
 10
-0.374127
 20
4.026859
 30
0.0
 11
-0.368225
 21
4.02546
 31
0.0
  0
LINE
  8
0
  6
CONTINUOUS
 62
     7
  5
4FB
 10
-0.368225
 20
4.02546
 30
0.0
 11
-0.36237
 21
4.023803
 31
0.0
  0
LINE
  8
0
  6
CONTINUOUS
 62
     7
  5
4FC
 10
-0.36237
 20
4.023803
 30
0.0
 11
-0.356581
 21
4.021891
 31
0.0
  0
LINE
  8
0
  6
CONTINUOUS
 62
     7
  5
4FD
 10
-0.356581
 20
4.021891
 30
0.0
 11
-0.350871
 21
4.019728
 31
0.0
  0
LINE
  8
0
  6
CONTINUOUS
 62
     7
  5
4FE
 10
-0.350871
 20
4.019728
 30
0.0
 11
-0.345255
 21
4.017319
 31
0.0
  0
LINE
  8
0
  6
CONTINUOUS
 62
     7
  5
4FF
 10
-0.345255
 20
4.017319
 30
0.0
 11
-0.339747
 21
4.014667
 31
0.0
  0
LINE
  8
0
  6
CONTINUOUS
 62
     7
  5
500
 10
-0.339747
 20
4.014667
 30
0.0
 11
-0.334359
 21
4.01178
 31
0.0
  0
LINE
  8
0
  6
CONTINUOUS
 62
     7
  5
501
 10
-0.334359
 20
4.01178
 30
0.0
 11
-0.329105
 21
4.008665
 31
0.0
  0
LINE
  8
0
  6
CONTINUOUS
 62
     7
  5
502
 10
-0.329105
 20
4.008665
 30
0.0
 11
-0.323996
 21
4.00533
 31
0.0
  0
LINE
  8
0
  6
CONTINUOUS
 62
     7
  5
503
 10
-0.323996
 20
4.00533
 30
0.0
 11
-0.319046
 21
4.001784
 31
0.0
  0
LINE
  8
0
  6
CONTINUOUS
 62
     7
  5
504
 10
-0.319046
 20
4.001784
 30
0.0
 11
-0.314265
 21
3.998038
 31
0.0
  0
LINE
  8
0
  6
CONTINUOUS
 62
     7
  5
505
 10
-0.314265
 20
3.998038
 30
0.0
 11
-0.309664
 21
3.994103
 31
0.0
  0
LINE
  8
0
  6
CONTINUOUS
 62
     7
  5
506
 10
-0.309664
 20
3.994103
 30
0.0
 11
-0.305253
 21
3.989992
 31
0.0
  0
LINE
  8
0
  6
CONTINUOUS
 62
     7
  5
507
 10
-0.305253
 20
3.989992
 30
0.0
 11
-0.301041
 21
3.985716
 31
0.0
  0
LINE
  8
0
  6
CONTINUOUS
 62
     7
  5
508
 10
-0.301041
 20
3.985716
 30
0.0
 11
-0.297007
 21
3.981257
 31
0.0
  0
LINE
  8
0
  6
CONTINUOUS
 62
     7
  5
509
 10
-0.297007
 20
3.981257
 30
0.0
 11
-0.293075
 21
3.976514
 31
0.0
  0
LINE
  8
0
  6
CONTINUOUS
 62
     7
  5
50A
 10
-0.293075
 20
3.976514
 30
0.0
 11
-0.28927
 21
3.971489
 31
0.0
  0
LINE
  8
0
  6
CONTINUOUS
 62
     7
  5
50B
 10
-0.28927
 20
3.971489
 30
0.0
 11
-0.285623
 21
3.966195
 31
0.0
  0
LINE
  8
0
  6
CONTINUOUS
 62
     7
  5
50C
 10
-0.285623
 20
3.966195
 30
0.0
 11
-0.282166
 21
3.960644
 31
0.0
  0
LINE
  8
0
  6
CONTINUOUS
 62
     7
  5
50D
 10
-0.282166
 20
3.960644
 30
0.0
 11
-0.278924
 21
3.954856
 31
0.0
  0
LINE
  8
0
  6
CONTINUOUS
 62
     7
  5
50E
 10
-0.278924
 20
3.954856
 30
0.0
 11
-0.275923
 21
3.948849
 31
0.0
  0
LINE
  8
0
  6
CONTINUOUS
 62
     7
  5
50F
 10
-0.275923
 20
3.948849
 30
0.0
 11
-0.273185
 21
3.942642
 31
0.0
  0
LINE
  8
0
  6
CONTINUOUS
 62
     7
  5
510
 10
-0.273185
 20
3.942642
 30
0.0
 11
-0.270729
 21
3.936257
 31
0.0
  0
LINE
  8
0
  6
CONTINUOUS
 62
     7
  5
511
 10
-0.270729
 20
3.936257
 30
0.0
 11
-0.268571
 21
3.929714
 31
0.0
  0
LINE
  8
0
  6
CONTINUOUS
 62
     7
  5
512
 10
-0.268571
 20
3.929714
 30
0.0
 11
-0.266725
 21
3.923038
 31
0.0
  0
LINE
  8
0
  6
CONTINUOUS
 62
     7
  5
513
 10
-0.266725
 20
3.923038
 30
0.0
 11
-0.265204
 21
3.916257
 31
0.0
  0
LINE
  8
0
  6
CONTINUOUS
 62
     7
  5
514
 10
-0.265204
 20
3.916257
 30
0.0
 11
-0.264018
 21
3.909403
 31
0.0
  0
LINE
  8
0
  6
CONTINUOUS
 62
     7
  5
515
 10
-0.264018
 20
3.909403
 30
0.0
 11
-0.263172
 21
3.902512
 31
0.0
  0
LINE
  8
0
  6
CONTINUOUS
 62
     7
  5
516
 10
-0.263172
 20
3.902512
 30
0.0
 11
-0.262667
 21
3.895617
 31
0.0
  0
LINE
  8
0
  6
CONTINUOUS
 62
     7
  5
517
 10
-0.262667
 20
3.895617
 30
0.0
 11
-0.2625
 21
3.88875
 31
0.0
  0
LINE
  8
0
  6
CONTINUOUS
 62
     7
  5
518
 10
-0.859667
 20
4.03
 30
0.0
 11
-0.40375
 21
4.03
 31
0.0
  0
LINE
  8
0
  6
CONTINUOUS
 62
     7
  5
519
 10
-0.40375
 20
3.948075
 30
0.0
 11
-0.859667
 21
3.948075
 31
0.0
  0
LINE
  8
0
  6
CONTINUOUS
 62
     7
  5
51A
 10
-0.344425
 20
3.88875
 30
0.0
 11
-0.344492
 21
3.891575
 31
0.0
  0
LINE
  8
0
  6
CONTINUOUS
 62
     7
  5
51B
 10
-0.344492
 20
3.891575
 30
0.0
 11
-0.344697
 21
3.894421
 31
0.0
  0
LINE
  8
0
  6
CONTINUOUS
 62
     7
  5
51C
 10
-0.344697
 20
3.894421
 30
0.0
 11
-0.345041
 21
3.897274
 31
0.0
  0
LINE
  8
0
  6
CONTINUOUS
 62
     7
  5
51D
 10
-0.345041
 20
3.897274
 30
0.0
 11
-0.345525
 21
3.900121
 31
0.0
  0
LINE
  8
0
  6
CONTINUOUS
 62
     7
  5
51E
 10
-0.345525
 20
3.900121
 30
0.0
 11
-0.346149
 21
3.902946
 31
0.0
  0
LINE
  8
0
  6
CONTINUOUS
 62
     7
  5
51F
 10
-0.346149
 20
3.902946
 30
0.0
 11
-0.346909
 21
3.905737
 31
0.0
  0
LINE
  8
0
  6
CONTINUOUS
 62
     7
  5
520
 10
-0.346909
 20
3.905737
 30
0.0
 11
-0.347802
 21
3.90848
 31
0.0
  0
LINE
  8
0
  6
CONTINUOUS
 62
     7
  5
521
 10
-0.347802
 20
3.90848
 30
0.0
 11
-0.348822
 21
3.911164
 31
0.0
  0
LINE
  8
0
  6
CONTINUOUS
 62
     7
  5
522
 10
-0.348822
 20
3.911164
 30
0.0
 11
-0.349964
 21
3.91378
 31
0.0
  0
LINE
  8
0
  6
CONTINUOUS
 62
     7
  5
523
 10
-0.349964
 20
3.91378
 30
0.0
 11
-0.35122
 21
3.916319
 31
0.0
  0
LINE
  8
0
  6
CONTINUOUS
 62
     7
  5
524
 10
-0.35122
 20
3.916319
 30
0.0
 11
-0.352581
 21
3.91877
 31
0.0
  0
LINE
  8
0
  6
CONTINUOUS
 62
     7
  5
525
 10
-0.352581
 20
3.91877
 30
0.0
 11
-0.354039
 21
3.921127
 31
0.0
  0
LINE
  8
0
  6
CONTINUOUS
 62
     7
  5
526
 10
-0.354039
 20
3.921127
 30
0.0
 11
-0.355581
 21
3.92338
 31
0.0
  0
LINE
  8
0
  6
CONTINUOUS
 62
     7
  5
527
 10
-0.355581
 20
3.92338
 30
0.0
 11
-0.357196
 21
3.925522
 31
0.0
  0
LINE
  8
0
  6
CONTINUOUS
 62
     7
  5
528
 10
-0.357196
 20
3.925522
 30
0.0
 11
-0.35887
 21
3.927548
 31
0.0
  0
LINE
  8
0
  6
CONTINUOUS
 62
     7
  5
529
 10
-0.35887
 20
3.927548
 30
0.0
 11
-0.360591
 21
3.929453
 31
0.0
  0
LINE
  8
0
  6
CONTINUOUS
 62
     7
  5
52A
 10
-0.360591
 20
3.929453
 30
0.0
 11
-0.362381
 21
3.931272
 31
0.0
  0
LINE
  8
0
  6
CONTINUOUS
 62
     7
  5
52B
 10
-0.362381
 20
3.931272
 30
0.0
 11
-0.364257
 21
3.933019
 31
0.0
  0
LINE
  8
0
  6
CONTINUOUS
 62
     7
  5
52C
 10
-0.364257
 20
3.933019
 30
0.0
 11
-0.366214
 21
3.93469
 31
0.0
  0
LINE
  8
0
  6
CONTINUOUS
 62
     7
  5
52D
 10
-0.366214
 20
3.93469
 30
0.0
 11
-0.368247
 21
3.936279
 31
0.0
  0
LINE
  8
0
  6
CONTINUOUS
 62
     7
  5
52E
 10
-0.368247
 20
3.936279
 30
0.0
 11
-0.370351
 21
3.93778
 31
0.0
  0
LINE
  8
0
  6
CONTINUOUS
 62
     7
  5
52F
 10
-0.370351
 20
3.93778
 30
0.0
 11
-0.37252
 21
3.93919
 31
0.0
  0
LINE
  8
0
  6
CONTINUOUS
 62
     7
  5
530
 10
-0.37252
 20
3.93919
 30
0.0
 11
-0.374748
 21
3.940503
 31
0.0
  0
LINE
  8
0
  6
CONTINUOUS
 62
     7
  5
531
 10
-0.374748
 20
3.940503
 30
0.0
 11
-0.37703
 21
3.941717
 31
0.0
  0
LINE
  8
0
  6
CONTINUOUS
 62
     7
  5
532
 10
-0.37703
 20
3.941717
 30
0.0
 11
-0.379358
 21
3.942829
 31
0.0
  0
LINE
  8
0
  6
CONTINUOUS
 62
     7
  5
533
 10
-0.379358
 20
3.942829
 30
0.0
 11
-0.381727
 21
3.943836
 31
0.0
  0
LINE
  8
0
  6
CONTINUOUS
 62
     7
  5
534
 10
-0.381727
 20
3.943836
 30
0.0
 11
-0.384131
 21
3.944737
 31
0.0
  0
LINE
  8
0
  6
CONTINUOUS
 62
     7
  5
535
 10
-0.384131
 20
3.944737
 30
0.0
 11
-0.386563
 21
3.945531
 31
0.0
  0
LINE
  8
0
  6
CONTINUOUS
 62
     7
  5
536
 10
-0.386563
 20
3.945531
 30
0.0
 11
-0.389016
 21
3.946216
 31
0.0
  0
LINE
  8
0
  6
CONTINUOUS
 62
     7
  5
537
 10
-0.389016
 20
3.946216
 30
0.0
 11
-0.391483
 21
3.946793
 31
0.0
  0
LINE
  8
0
  6
CONTINUOUS
 62
     7
  5
538
 10
-0.391483
 20
3.946793
 30
0.0
 11
-0.393955
 21
3.947261
 31
0.0
  0
LINE
  8
0
  6
CONTINUOUS
 62
     7
  5
539
 10
-0.393955
 20
3.947261
 30
0.0
 11
-0.396426
 21
3.947621
 31
0.0
  0
LINE
  8
0
  6
CONTINUOUS
 62
     7
  5
53A
 10
-0.396426
 20
3.947621
 30
0.0
 11
-0.398888
 21
3.947875
 31
0.0
  0
LINE
  8
0
  6
CONTINUOUS
 62
     7
  5
53B
 10
-0.398888
 20
3.947875
 30
0.0
 11
-0.401331
 21
3.948026
 31
0.0
  0
LINE
  8
0
  6
CONTINUOUS
 62
     7
  5
53C
 10
-0.401331
 20
3.948026
 30
0.0
 11
-0.40375
 21
3.948075
 31
0.0
  0
LINE
  8
0
  6
CONTINUOUS
 62
     7
  5
53D
 10
-0.344425
 20
3.862637
 30
0.0
 11
-0.344425
 21
3.88875
 31
0.0
  0
LINE
  8
0
  6
CONTINUOUS
 62
     7
  5
53E
 10
-0.203175
 20
3.721388
 30
0.0
 11
-0.208054
 21
3.721472
 31
0.0
  0
LINE
  8
0
  6
CONTINUOUS
 62
     7
  5
53F
 10
-0.208054
 20
3.721472
 30
0.0
 11
-0.213047
 21
3.721733
 31
0.0
  0
LINE
  8
0
  6
CONTINUOUS
 62
     7
  5
540
 10
-0.213047
 20
3.721733
 30
0.0
 11
-0.218141
 21
3.722183
 31
0.0
  0
LINE
  8
0
  6
CONTINUOUS
 62
     7
  5
541
 10
-0.218141
 20
3.722183
 30
0.0
 11
-0.223321
 21
3.722832
 31
0.0
  0
LINE
  8
0
  6
CONTINUOUS
 62
     7
  5
542
 10
-0.223321
 20
3.722832
 30
0.0
 11
-0.228575
 21
3.72369
 31
0.0
  0
LINE
  8
0
  6
CONTINUOUS
 62
     7
  5
543
 10
-0.228575
 20
3.72369
 30
0.0
 11
-0.233887
 21
3.724767
 31
0.0
  0
LINE
  8
0
  6
CONTINUOUS
 62
     7
  5
544
 10
-0.233887
 20
3.724767
 30
0.0
 11
-0.239243
 21
3.72607
 31
0.0
  0
LINE
  8
0
  6
CONTINUOUS
 62
     7
  5
545
 10
-0.239243
 20
3.72607
 30
0.0
 11
-0.244627
 21
3.727607
 31
0.0
  0
LINE
  8
0
  6
CONTINUOUS
 62
     7
  5
546
 10
-0.244627
 20
3.727607
 30
0.0
 11
-0.250022
 21
3.729382
 31
0.0
  0
LINE
  8
0
  6
CONTINUOUS
 62
     7
  5
547
 10
-0.250022
 20
3.729382
 30
0.0
 11
-0.255414
 21
3.731403
 31
0.0
  0
LINE
  8
0
  6
CONTINUOUS
 62
     7
  5
548
 10
-0.255414
 20
3.731403
 30
0.0
 11
-0.260787
 21
3.733671
 31
0.0
  0
LINE
  8
0
  6
CONTINUOUS
 62
     7
  5
549
 10
-0.260787
 20
3.733671
 30
0.0
 11
-0.266126
 21
3.736191
 31
0.0
  0
LINE
  8
0
  6
CONTINUOUS
 62
     7
  5
54A
 10
-0.266126
 20
3.736191
 30
0.0
 11
-0.271413
 21
3.738964
 31
0.0
  0
LINE
  8
0
  6
CONTINUOUS
 62
     7
  5
54B
 10
-0.271413
 20
3.738964
 30
0.0
 11
-0.276634
 21
3.741992
 31
0.0
  0
LINE
  8
0
  6
CONTINUOUS
 62
     7
  5
54C
 10
-0.276634
 20
3.741992
 30
0.0
 11
-0.281771
 21
3.745274
 31
0.0
  0
LINE
  8
0
  6
CONTINUOUS
 62
     7
  5
54D
 10
-0.281771
 20
3.745274
 30
0.0
 11
-0.286806
 21
3.748807
 31
0.0
  0
LINE
  8
0
  6
CONTINUOUS
 62
     7
  5
54E
 10
-0.286806
 20
3.748807
 30
0.0
 11
-0.291723
 21
3.752589
 31
0.0
  0
LINE
  8
0
  6
CONTINUOUS
 62
     7
  5
54F
 10
-0.291723
 20
3.752589
 30
0.0
 11
-0.296506
 21
3.756614
 31
0.0
  0
LINE
  8
0
  6
CONTINUOUS
 62
     7
  5
550
 10
-0.296506
 20
3.756614
 30
0.0
 11
-0.301137
 21
3.760878
 31
0.0
  0
LINE
  8
0
  6
CONTINUOUS
 62
     7
  5
551
 10
-0.301137
 20
3.760878
 30
0.0
 11
-0.305602
 21
3.765374
 31
0.0
  0
LINE
  8
0
  6
CONTINUOUS
 62
     7
  5
552
 10
-0.305602
 20
3.765374
 30
0.0
 11
-0.309893
 21
3.770101
 31
0.0
  0
LINE
  8
0
  6
CONTINUOUS
 62
     7
  5
553
 10
-0.309893
 20
3.770101
 30
0.0
 11
-0.31407
 21
3.775152
 31
0.0
  0
LINE
  8
0
  6
CONTINUOUS
 62
     7
  5
554
 10
-0.31407
 20
3.775152
 30
0.0
 11
-0.318121
 21
3.780546
 31
0.0
  0
LINE
  8
0
  6
CONTINUOUS
 62
     7
  5
555
 10
-0.318121
 20
3.780546
 30
0.0
 11
-0.322
 21
3.786269
 31
0.0
  0
LINE
  8
0
  6
CONTINUOUS
 62
     7
  5
556
 10
-0.322
 20
3.786269
 30
0.0
 11
-0.325666
 21
3.792299
 31
0.0
  0
LINE
  8
0
  6
CONTINUOUS
 62
     7
  5
557
 10
-0.325666
 20
3.792299
 30
0.0
 11
-0.32908
 21
3.798611
 31
0.0
  0
LINE
  8
0
  6
CONTINUOUS
 62
     7
  5
558
 10
-0.32908
 20
3.798611
 30
0.0
 11
-0.332208
 21
3.805174
 31
0.0
  0
LINE
  8
0
  6
CONTINUOUS
 62
     7
  5
559
 10
-0.332208
 20
3.805174
 30
0.0
 11
-0.33502
 21
3.811958
 31
0.0
  0
LINE
  8
0
  6
CONTINUOUS
 62
     7
  5
55A
 10
-0.33502
 20
3.811958
 30
0.0
 11
-0.337494
 21
3.818934
 31
0.0
  0
LINE
  8
0
  6
CONTINUOUS
 62
     7
  5
55B
 10
-0.337494
 20
3.818934
 30
0.0
 11
-0.339609
 21
3.826067
 31
0.0
  0
LINE
  8
0
  6
CONTINUOUS
 62
     7
  5
55C
 10
-0.339609
 20
3.826067
 30
0.0
 11
-0.341349
 21
3.833321
 31
0.0
  0
LINE
  8
0
  6
CONTINUOUS
 62
     7
  5
55D
 10
-0.341349
 20
3.833321
 30
0.0
 11
-0.342703
 21
3.84065
 31
0.0
  0
LINE
  8
0
  6
CONTINUOUS
 62
     7
  5
55E
 10
-0.342703
 20
3.84065
 30
0.0
 11
-0.343666
 21
3.84801
 31
0.0
  0
LINE
  8
0
  6
CONTINUOUS
 62
     7
  5
55F
 10
-0.343666
 20
3.84801
 30
0.0
 11
-0.344237
 21
3.855354
 31
0.0
  0
LINE
  8
0
  6
CONTINUOUS
 62
     7
  5
560
 10
-0.344237
 20
3.855354
 30
0.0
 11
-0.344425
 21
3.862638
 31
0.0
  0
LINE
  8
0
  6
CONTINUOUS
 62
     7
  5
561
 10
-0.12125
 20
3.721388
 30
0.0
 11
-0.203175
 21
3.721388
 31
0.0
  0
LINE
  8
0
  6
CONTINUOUS
 62
     7
  5
562
 10
-0.061925
 20
3.662063
 30
0.0
 11
-0.062056
 21
3.666009
 31
0.0
  0
LINE
  8
0
  6
CONTINUOUS
 62
     7
  5
563
 10
-0.062056
 20
3.666009
 30
0.0
 11
-0.062431
 21
3.669797
 31
0.0
  0
LINE
  8
0
  6
CONTINUOUS
 62
     7
  5
564
 10
-0.062431
 20
3.669797
 30
0.0
 11
-0.063024
 21
3.67343
 31
0.0
  0
LINE
  8
0
  6
CONTINUOUS
 62
     7
  5
565
 10
-0.063024
 20
3.67343
 30
0.0
 11
-0.063812
 21
3.676904
 31
0.0
  0
LINE
  8
0
  6
CONTINUOUS
 62
     7
  5
566
 10
-0.063812
 20
3.676904
 30
0.0
 11
-0.064772
 21
3.680219
 31
0.0
  0
LINE
  8
0
  6
CONTINUOUS
 62
     7
  5
567
 10
-0.064772
 20
3.680219
 30
0.0
 11
-0.065884
 21
3.683372
 31
0.0
  0
LINE
  8
0
  6
CONTINUOUS
 62
     7
  5
568
 10
-0.065884
 20
3.683372
 30
0.0
 11
-0.067128
 21
3.686357
 31
0.0
  0
LINE
  8
0
  6
CONTINUOUS
 62
     7
  5
569
 10
-0.067128
 20
3.686357
 30
0.0
 11
-0.06848
 21
3.68917
 31
0.0
  0
LINE
  8
0
  6
CONTINUOUS
 62
     7
  5
56A
 10
-0.06848
 20
3.68917
 30
0.0
 11
-0.069919
 21
3.691805
 31
0.0
  0
LINE
  8
0
  6
CONTINUOUS
 62
     7
  5
56B
 10
-0.069919
 20
3.691805
 30
0.0
 11
-0.071422
 21
3.69426
 31
0.0
  0
LINE
  8
0
  6
CONTINUOUS
 62
     7
  5
56C
 10
-0.071422
 20
3.69426
 30
0.0
 11
-0.072965
 21
3.69653
 31
0.0
  0
LINE
  8
0
  6
CONTINUOUS
 62
     7
  5
56D
 10
-0.072965
 20
3.69653
 30
0.0
 11
-0.074526
 21
3.698618
 31
0.0
  0
LINE
  8
0
  6
CONTINUOUS
 62
     7
  5
56E
 10
-0.074526
 20
3.698618
 30
0.0
 11
-0.076135
 21
3.700586
 31
0.0
  0
LINE
  8
0
  6
CONTINUOUS
 62
     7
  5
56F
 10
-0.076135
 20
3.700586
 30
0.0
 11
-0.077803
 21
3.702458
 31
0.0
  0
LINE
  8
0
  6
CONTINUOUS
 62
     7
  5
570
 10
-0.077803
 20
3.702458
 30
0.0
 11
-0.079527
 21
3.704236
 31
0.0
  0
LINE
  8
0
  6
CONTINUOUS
 62
     7
  5
571
 10
-0.079527
 20
3.704236
 30
0.0
 11
-0.081303
 21
3.705923
 31
0.0
  0
LINE
  8
0
  6
CONTINUOUS
 62
     7
  5
572
 10
-0.081303
 20
3.705923
 30
0.0
 11
-0.083131
 21
3.70752
 31
0.0
  0
LINE
  8
0
  6
CONTINUOUS
 62
     7
  5
573
 10
-0.083131
 20
3.70752
 30
0.0
 11
-0.085006
 21
3.709029
 31
0.0
  0
LINE
  8
0
  6
CONTINUOUS
 62
     7
  5
574
 10
-0.085006
 20
3.709029
 30
0.0
 11
-0.086927
 21
3.71045
 31
0.0
  0
LINE
  8
0
  6
CONTINUOUS
 62
     7
  5
575
 10
-0.086927
 20
3.71045
 30
0.0
 11
-0.08889
 21
3.711785
 31
0.0
  0
LINE
  8
0
  6
CONTINUOUS
 62
     7
  5
576
 10
-0.08889
 20
3.711785
 30
0.0
 11
-0.090893
 21
3.713032
 31
0.0
  0
LINE
  8
0
  6
CONTINUOUS
 62
     7
  5
577
 10
-0.090893
 20
3.713032
 30
0.0
 11
-0.092933
 21
3.714193
 31
0.0
  0
LINE
  8
0
  6
CONTINUOUS
 62
     7
  5
578
 10
-0.092933
 20
3.714193
 30
0.0
 11
-0.095007
 21
3.715267
 31
0.0
  0
LINE
  8
0
  6
CONTINUOUS
 62
     7
  5
579
 10
-0.095007
 20
3.715267
 30
0.0
 11
-0.097111
 21
3.716255
 31
0.0
  0
LINE
  8
0
  6
CONTINUOUS
 62
     7
  5
57A
 10
-0.097111
 20
3.716255
 30
0.0
 11
-0.099243
 21
3.717155
 31
0.0
  0
LINE
  8
0
  6
CONTINUOUS
 62
     7
  5
57B
 10
-0.099243
 20
3.717155
 30
0.0
 11
-0.101399
 21
3.717968
 31
0.0
  0
LINE
  8
0
  6
CONTINUOUS
 62
     7
  5
57C
 10
-0.101399
 20
3.717968
 30
0.0
 11
-0.103575
 21
3.718693
 31
0.0
  0
LINE
  8
0
  6
CONTINUOUS
 62
     7
  5
57D
 10
-0.103575
 20
3.718693
 30
0.0
 11
-0.105768
 21
3.719332
 31
0.0
  0
LINE
  8
0
  6
CONTINUOUS
 62
     7
  5
57E
 10
-0.105768
 20
3.719332
 30
0.0
 11
-0.107974
 21
3.719883
 31
0.0
  0
LINE
  8
0
  6
CONTINUOUS
 62
     7
  5
57F
 10
-0.107974
 20
3.719883
 30
0.0
 11
-0.110189
 21
3.720347
 31
0.0
  0
LINE
  8
0
  6
CONTINUOUS
 62
     7
  5
580
 10
-0.110189
 20
3.720347
 30
0.0
 11
-0.112408
 21
3.720725
 31
0.0
  0
LINE
  8
0
  6
CONTINUOUS
 62
     7
  5
581
 10
-0.112408
 20
3.720725
 30
0.0
 11
-0.114629
 21
3.721017
 31
0.0
  0
LINE
  8
0
  6
CONTINUOUS
 62
     7
  5
582
 10
-0.114629
 20
3.721017
 30
0.0
 11
-0.116845
 21
3.721224
 31
0.0
  0
LINE
  8
0
  6
CONTINUOUS
 62
     7
  5
583
 10
-0.116845
 20
3.721224
 30
0.0
 11
-0.119054
 21
3.721347
 31
0.0
  0
LINE
  8
0
  6
CONTINUOUS
 62
     7
  5
584
 10
-0.119054
 20
3.721347
 30
0.0
 11
-0.12125
 21
3.721388
 31
0.0
  0
LINE
  8
0
  6
CONTINUOUS
 62
     7
  5
585
 10
-0.061925
 20
3.633358
 30
0.0
 11
-0.061925
 21
3.662063
 31
0.0
  0
LINE
  8
0
  6
CONTINUOUS
 62
     7
  5
586
 10
-2.743075
 20
3.662063
 30
0.0
 11
-2.743075
 21
3.52625
 31
0.0
  0
LINE
  8
0
  6
CONTINUOUS
 62
     7
  5
587
 10
-2.68375
 20
3.721388
 30
0.0
 11
-2.685946
 21
3.721347
 31
0.0
  0
LINE
  8
0
  6
CONTINUOUS
 62
     7
  5
588
 10
-2.685946
 20
3.721347
 30
0.0
 11
-2.688155
 21
3.721224
 31
0.0
  0
LINE
  8
0
  6
CONTINUOUS
 62
     7
  5
589
 10
-2.688155
 20
3.721224
 30
0.0
 11
-2.690371
 21
3.721017
 31
0.0
  0
LINE
  8
0
  6
CONTINUOUS
 62
     7
  5
58A
 10
-2.690371
 20
3.721017
 30
0.0
 11
-2.692592
 21
3.720725
 31
0.0
  0
LINE
  8
0
  6
CONTINUOUS
 62
     7
  5
58B
 10
-2.692592
 20
3.720725
 30
0.0
 11
-2.694811
 21
3.720347
 31
0.0
  0
LINE
  8
0
  6
CONTINUOUS
 62
     7
  5
58C
 10
-2.694811
 20
3.720347
 30
0.0
 11
-2.697026
 21
3.719883
 31
0.0
  0
LINE
  8
0
  6
CONTINUOUS
 62
     7
  5
58D
 10
-2.697026
 20
3.719883
 30
0.0
 11
-2.699232
 21
3.719332
 31
0.0
  0
LINE
  8
0
  6
CONTINUOUS
 62
     7
  5
58E
 10
-2.699232
 20
3.719332
 30
0.0
 11
-2.701425
 21
3.718693
 31
0.0
  0
LINE
  8
0
  6
CONTINUOUS
 62
     7
  5
58F
 10
-2.701425
 20
3.718693
 30
0.0
 11
-2.703601
 21
3.717968
 31
0.0
  0
LINE
  8
0
  6
CONTINUOUS
 62
     7
  5
590
 10
-2.703601
 20
3.717968
 30
0.0
 11
-2.705757
 21
3.717155
 31
0.0
  0
LINE
  8
0
  6
CONTINUOUS
 62
     7
  5
591
 10
-2.705757
 20
3.717155
 30
0.0
 11
-2.707889
 21
3.716255
 31
0.0
  0
LINE
  8
0
  6
CONTINUOUS
 62
     7
  5
592
 10
-2.707889
 20
3.716255
 30
0.0
 11
-2.709993
 21
3.715267
 31
0.0
  0
LINE
  8
0
  6
CONTINUOUS
 62
     7
  5
593
 10
-2.709993
 20
3.715267
 30
0.0
 11
-2.712067
 21
3.714193
 31
0.0
  0
LINE
  8
0
  6
CONTINUOUS
 62
     7
  5
594
 10
-2.712067
 20
3.714193
 30
0.0
 11
-2.714107
 21
3.713032
 31
0.0
  0
LINE
  8
0
  6
CONTINUOUS
 62
     7
  5
595
 10
-2.714107
 20
3.713032
 30
0.0
 11
-2.71611
 21
3.711785
 31
0.0
  0
LINE
  8
0
  6
CONTINUOUS
 62
     7
  5
596
 10
-2.71611
 20
3.711785
 30
0.0
 11
-2.718073
 21
3.71045
 31
0.0
  0
LINE
  8
0
  6
CONTINUOUS
 62
     7
  5
597
 10
-2.718073
 20
3.71045
 30
0.0
 11
-2.719994
 21
3.709029
 31
0.0
  0
LINE
  8
0
  6
CONTINUOUS
 62
     7
  5
598
 10
-2.719994
 20
3.709029
 30
0.0
 11
-2.721869
 21
3.70752
 31
0.0
  0
LINE
  8
0
  6
CONTINUOUS
 62
     7
  5
599
 10
-2.721869
 20
3.70752
 30
0.0
 11
-2.723697
 21
3.705923
 31
0.0
  0
LINE
  8
0
  6
CONTINUOUS
 62
     7
  5
59A
 10
-2.723697
 20
3.705923
 30
0.0
 11
-2.725473
 21
3.704236
 31
0.0
  0
LINE
  8
0
  6
CONTINUOUS
 62
     7
  5
59B
 10
-2.725473
 20
3.704236
 30
0.0
 11
-2.727197
 21
3.702458
 31
0.0
  0
LINE
  8
0
  6
CONTINUOUS
 62
     7
  5
59C
 10
-2.727197
 20
3.702458
 30
0.0
 11
-2.728865
 21
3.700586
 31
0.0
  0
LINE
  8
0
  6
CONTINUOUS
 62
     7
  5
59D
 10
-2.728865
 20
3.700586
 30
0.0
 11
-2.730474
 21
3.698618
 31
0.0
  0
LINE
  8
0
  6
CONTINUOUS
 62
     7
  5
59E
 10
-2.730474
 20
3.698618
 30
0.0
 11
-2.732035
 21
3.69653
 31
0.0
  0
LINE
  8
0
  6
CONTINUOUS
 62
     7
  5
59F
 10
-2.732035
 20
3.69653
 30
0.0
 11
-2.733578
 21
3.69426
 31
0.0
  0
LINE
  8
0
  6
CONTINUOUS
 62
     7
  5
5A0
 10
-2.733578
 20
3.69426
 30
0.0
 11
-2.735081
 21
3.691805
 31
0.0
  0
LINE
  8
0
  6
CONTINUOUS
 62
     7
  5
5A1
 10
-2.735081
 20
3.691805
 30
0.0
 11
-2.73652
 21
3.68917
 31
0.0
  0
LINE
  8
0
  6
CONTINUOUS
 62
     7
  5
5A2
 10
-2.73652
 20
3.68917
 30
0.0
 11
-2.737872
 21
3.686357
 31
0.0
  0
LINE
  8
0
  6
CONTINUOUS
 62
     7
  5
5A3
 10
-2.737872
 20
3.686357
 30
0.0
 11
-2.739116
 21
3.683372
 31
0.0
  0
LINE
  8
0
  6
CONTINUOUS
 62
     7
  5
5A4
 10
-2.739116
 20
3.683372
 30
0.0
 11
-2.740228
 21
3.680219
 31
0.0
  0
LINE
  8
0
  6
CONTINUOUS
 62
     7
  5
5A5
 10
-2.740228
 20
3.680219
 30
0.0
 11
-2.741188
 21
3.676904
 31
0.0
  0
LINE
  8
0
  6
CONTINUOUS
 62
     7
  5
5A6
 10
-2.741188
 20
3.676904
 30
0.0
 11
-2.741976
 21
3.67343
 31
0.0
  0
LINE
  8
0
  6
CONTINUOUS
 62
     7
  5
5A7
 10
-2.741976
 20
3.67343
 30
0.0
 11
-2.742569
 21
3.669797
 31
0.0
  0
LINE
  8
0
  6
CONTINUOUS
 62
     7
  5
5A8
 10
-2.742569
 20
3.669797
 30
0.0
 11
-2.742944
 21
3.666009
 31
0.0
  0
LINE
  8
0
  6
CONTINUOUS
 62
     7
  5
5A9
 10
-2.742944
 20
3.666009
 30
0.0
 11
-2.743075
 21
3.662063
 31
0.0
  0
LINE
  8
0
  6
CONTINUOUS
 62
     7
  5
5AA
 10
-2.601825
 20
3.721388
 30
0.0
 11
-2.68375
 21
3.721388
 31
0.0
  0
LINE
  8
0
  6
CONTINUOUS
 62
     7
  5
5AB
 10
-2.460575
 20
3.862638
 30
0.0
 11
-2.460763
 21
3.855354
 31
0.0
  0
LINE
  8
0
  6
CONTINUOUS
 62
     7
  5
5AC
 10
-2.460763
 20
3.855354
 30
0.0
 11
-2.461334
 21
3.84801
 31
0.0
  0
LINE
  8
0
  6
CONTINUOUS
 62
     7
  5
5AD
 10
-2.461334
 20
3.84801
 30
0.0
 11
-2.462297
 21
3.84065
 31
0.0
  0
LINE
  8
0
  6
CONTINUOUS
 62
     7
  5
5AE
 10
-2.462297
 20
3.84065
 30
0.0
 11
-2.463651
 21
3.833321
 31
0.0
  0
LINE
  8
0
  6
CONTINUOUS
 62
     7
  5
5AF
 10
-2.463651
 20
3.833321
 30
0.0
 11
-2.465391
 21
3.826067
 31
0.0
  0
LINE
  8
0
  6
CONTINUOUS
 62
     7
  5
5B0
 10
-2.465391
 20
3.826067
 30
0.0
 11
-2.467506
 21
3.818934
 31
0.0
  0
LINE
  8
0
  6
CONTINUOUS
 62
     7
  5
5B1
 10
-2.467506
 20
3.818934
 30
0.0
 11
-2.46998
 21
3.811958
 31
0.0
  0
LINE
  8
0
  6
CONTINUOUS
 62
     7
  5
5B2
 10
-2.46998
 20
3.811958
 30
0.0
 11
-2.472792
 21
3.805174
 31
0.0
  0
LINE
  8
0
  6
CONTINUOUS
 62
     7
  5
5B3
 10
-2.472792
 20
3.805174
 30
0.0
 11
-2.47592
 21
3.798611
 31
0.0
  0
LINE
  8
0
  6
CONTINUOUS
 62
     7
  5
5B4
 10
-2.47592
 20
3.798611
 30
0.0
 11
-2.479334
 21
3.792299
 31
0.0
  0
LINE
  8
0
  6
CONTINUOUS
 62
     7
  5
5B5
 10
-2.479334
 20
3.792299
 30
0.0
 11
-2.483
 21
3.786269
 31
0.0
  0
LINE
  8
0
  6
CONTINUOUS
 62
     7
  5
5B6
 10
-2.483
 20
3.786269
 30
0.0
 11
-2.486879
 21
3.780546
 31
0.0
  0
LINE
  8
0
  6
CONTINUOUS
 62
     7
  5
5B7
 10
-2.486879
 20
3.780546
 30
0.0
 11
-2.49093
 21
3.775152
 31
0.0
  0
LINE
  8
0
  6
CONTINUOUS
 62
     7
  5
5B8
 10
-2.49093
 20
3.775152
 30
0.0
 11
-2.495107
 21
3.770101
 31
0.0
  0
LINE
  8
0
  6
CONTINUOUS
 62
     7
  5
5B9
 10
-2.495107
 20
3.770101
 30
0.0
 11
-2.499398
 21
3.765374
 31
0.0
  0
LINE
  8
0
  6
CONTINUOUS
 62
     7
  5
5BA
 10
-2.499398
 20
3.765374
 30
0.0
 11
-2.503863
 21
3.760878
 31
0.0
  0
LINE
  8
0
  6
CONTINUOUS
 62
     7
  5
5BB
 10
-2.503863
 20
3.760878
 30
0.0
 11
-2.508494
 21
3.756614
 31
0.0
  0
LINE
  8
0
  6
CONTINUOUS
 62
     7
  5
5BC
 10
-2.508494
 20
3.756614
 30
0.0
 11
-2.513277
 21
3.752589
 31
0.0
  0
LINE
  8
0
  6
CONTINUOUS
 62
     7
  5
5BD
 10
-2.513277
 20
3.752589
 30
0.0
 11
-2.518194
 21
3.748807
 31
0.0
  0
LINE
  8
0
  6
CONTINUOUS
 62
     7
  5
5BE
 10
-2.518194
 20
3.748807
 30
0.0
 11
-2.523229
 21
3.745274
 31
0.0
  0
LINE
  8
0
  6
CONTINUOUS
 62
     7
  5
5BF
 10
-2.523229
 20
3.745274
 30
0.0
 11
-2.528366
 21
3.741992
 31
0.0
  0
LINE
  8
0
  6
CONTINUOUS
 62
     7
  5
5C0
 10
-2.528366
 20
3.741992
 30
0.0
 11
-2.533587
 21
3.738964
 31
0.0
  0
LINE
  8
0
  6
CONTINUOUS
 62
     7
  5
5C1
 10
-2.533587
 20
3.738964
 30
0.0
 11
-2.538874
 21
3.736191
 31
0.0
  0
LINE
  8
0
  6
CONTINUOUS
 62
     7
  5
5C2
 10
-2.538874
 20
3.736191
 30
0.0
 11
-2.544213
 21
3.733671
 31
0.0
  0
LINE
  8
0
  6
CONTINUOUS
 62
     7
  5
5C3
 10
-2.544213
 20
3.733671
 30
0.0
 11
-2.549586
 21
3.731403
 31
0.0
  0
LINE
  8
0
  6
CONTINUOUS
 62
     7
  5
5C4
 10
-2.549586
 20
3.731403
 30
0.0
 11
-2.554978
 21
3.729382
 31
0.0
  0
LINE
  8
0
  6
CONTINUOUS
 62
     7
  5
5C5
 10
-2.554978
 20
3.729382
 30
0.0
 11
-2.560373
 21
3.727607
 31
0.0
  0
LINE
  8
0
  6
CONTINUOUS
 62
     7
  5
5C6
 10
-2.560373
 20
3.727607
 30
0.0
 11
-2.565757
 21
3.72607
 31
0.0
  0
LINE
  8
0
  6
CONTINUOUS
 62
     7
  5
5C7
 10
-2.565757
 20
3.72607
 30
0.0
 11
-2.571113
 21
3.724767
 31
0.0
  0
LINE
  8
0
  6
CONTINUOUS
 62
     7
  5
5C8
 10
-2.571113
 20
3.724767
 30
0.0
 11
-2.576425
 21
3.72369
 31
0.0
  0
LINE
  8
0
  6
CONTINUOUS
 62
     7
  5
5C9
 10
-2.576425
 20
3.72369
 30
0.0
 11
-2.581679
 21
3.722832
 31
0.0
  0
LINE
  8
0
  6
CONTINUOUS
 62
     7
  5
5CA
 10
-2.581679
 20
3.722832
 30
0.0
 11
-2.586859
 21
3.722183
 31
0.0
  0
LINE
  8
0
  6
CONTINUOUS
 62
     7
  5
5CB
 10
-2.586859
 20
3.722183
 30
0.0
 11
-2.591953
 21
3.721733
 31
0.0
  0
LINE
  8
0
  6
CONTINUOUS
 62
     7
  5
5CC
 10
-2.591953
 20
3.721733
 30
0.0
 11
-2.596946
 21
3.721472
 31
0.0
  0
LINE
  8
0
  6
CONTINUOUS
 62
     7
  5
5CD
 10
-2.596946
 20
3.721472
 30
0.0
 11
-2.601825
 21
3.721388
 31
0.0
  0
LINE
  8
0
  6
CONTINUOUS
 62
     7
  5
5CE
 10
-2.460575
 20
3.88875
 30
0.0
 11
-2.460575
 21
3.862637
 31
0.0
  0
LINE
  8
0
  6
CONTINUOUS
 62
     7
  5
5CF
 10
-2.40125
 20
3.948075
 30
0.0
 11
-2.403669
 21
3.948026
 31
0.0
  0
LINE
  8
0
  6
CONTINUOUS
 62
     7
  5
5D0
 10
-2.403669
 20
3.948026
 30
0.0
 11
-2.406112
 21
3.947875
 31
0.0
  0
LINE
  8
0
  6
CONTINUOUS
 62
     7
  5
5D1
 10
-2.406112
 20
3.947875
 30
0.0
 11
-2.408574
 21
3.947621
 31
0.0
  0
LINE
  8
0
  6
CONTINUOUS
 62
     7
  5
5D2
 10
-2.408574
 20
3.947621
 30
0.0
 11
-2.411045
 21
3.947261
 31
0.0
  0
LINE
  8
0
  6
CONTINUOUS
 62
     7
  5
5D3
 10
-2.411045
 20
3.947261
 30
0.0
 11
-2.413517
 21
3.946793
 31
0.0
  0
LINE
  8
0
  6
CONTINUOUS
 62
     7
  5
5D4
 10
-2.413517
 20
3.946793
 30
0.0
 11
-2.415984
 21
3.946216
 31
0.0
  0
LINE
  8
0
  6
CONTINUOUS
 62
     7
  5
5D5
 10
-2.415984
 20
3.946216
 30
0.0
 11
-2.418437
 21
3.945531
 31
0.0
  0
LINE
  8
0
  6
CONTINUOUS
 62
     7
  5
5D6
 10
-2.418437
 20
3.945531
 30
0.0
 11
-2.420869
 21
3.944737
 31
0.0
  0
LINE
  8
0
  6
CONTINUOUS
 62
     7
  5
5D7
 10
-2.420869
 20
3.944737
 30
0.0
 11
-2.423273
 21
3.943836
 31
0.0
  0
LINE
  8
0
  6
CONTINUOUS
 62
     7
  5
5D8
 10
-2.423273
 20
3.943836
 30
0.0
 11
-2.425642
 21
3.942829
 31
0.0
  0
LINE
  8
0
  6
CONTINUOUS
 62
     7
  5
5D9
 10
-2.425642
 20
3.942829
 30
0.0
 11
-2.42797
 21
3.941717
 31
0.0
  0
LINE
  8
0
  6
CONTINUOUS
 62
     7
  5
5DA
 10
-2.42797
 20
3.941717
 30
0.0
 11
-2.430252
 21
3.940503
 31
0.0
  0
LINE
  8
0
  6
CONTINUOUS
 62
     7
  5
5DB
 10
-2.430252
 20
3.940503
 30
0.0
 11
-2.43248
 21
3.93919
 31
0.0
  0
LINE
  8
0
  6
CONTINUOUS
 62
     7
  5
5DC
 10
-2.43248
 20
3.93919
 30
0.0
 11
-2.434649
 21
3.93778
 31
0.0
  0
LINE
  8
0
  6
CONTINUOUS
 62
     7
  5
5DD
 10
-2.434649
 20
3.93778
 30
0.0
 11
-2.436753
 21
3.936279
 31
0.0
  0
LINE
  8
0
  6
CONTINUOUS
 62
     7
  5
5DE
 10
-2.436753
 20
3.936279
 30
0.0
 11
-2.438786
 21
3.93469
 31
0.0
  0
LINE
  8
0
  6
CONTINUOUS
 62
     7
  5
5DF
 10
-2.438786
 20
3.93469
 30
0.0
 11
-2.440743
 21
3.933019
 31
0.0
  0
LINE
  8
0
  6
CONTINUOUS
 62
     7
  5
5E0
 10
-2.440743
 20
3.933019
 30
0.0
 11
-2.442619
 21
3.931272
 31
0.0
  0
LINE
  8
0
  6
CONTINUOUS
 62
     7
  5
5E1
 10
-2.442619
 20
3.931272
 30
0.0
 11
-2.444409
 21
3.929453
 31
0.0
  0
LINE
  8
0
  6
CONTINUOUS
 62
     7
  5
5E2
 10
-2.444409
 20
3.929453
 30
0.0
 11
-2.44613
 21
3.927548
 31
0.0
  0
LINE
  8
0
  6
CONTINUOUS
 62
     7
  5
5E3
 10
-2.44613
 20
3.927548
 30
0.0
 11
-2.447804
 21
3.925522
 31
0.0
  0
LINE
  8
0
  6
CONTINUOUS
 62
     7
  5
5E4
 10
-2.447804
 20
3.925522
 30
0.0
 11
-2.449419
 21
3.92338
 31
0.0
  0
LINE
  8
0
  6
CONTINUOUS
 62
     7
  5
5E5
 10
-2.449419
 20
3.92338
 30
0.0
 11
-2.450961
 21
3.921127
 31
0.0
  0
LINE
  8
0
  6
CONTINUOUS
 62
     7
  5
5E6
 10
-2.450961
 20
3.921127
 30
0.0
 11
-2.452419
 21
3.91877
 31
0.0
  0
LINE
  8
0
  6
CONTINUOUS
 62
     7
  5
5E7
 10
-2.452419
 20
3.91877
 30
0.0
 11
-2.45378
 21
3.916319
 31
0.0
  0
LINE
  8
0
  6
CONTINUOUS
 62
     7
  5
5E8
 10
-2.45378
 20
3.916319
 30
0.0
 11
-2.455036
 21
3.91378
 31
0.0
  0
LINE
  8
0
  6
CONTINUOUS
 62
     7
  5
5E9
 10
-2.455036
 20
3.91378
 30
0.0
 11
-2.456178
 21
3.911164
 31
0.0
  0
LINE
  8
0
  6
CONTINUOUS
 62
     7
  5
5EA
 10
-2.456178
 20
3.911164
 30
0.0
 11
-2.457198
 21
3.90848
 31
0.0
  0
LINE
  8
0
  6
CONTINUOUS
 62
     7
  5
5EB
 10
-2.457198
 20
3.90848
 30
0.0
 11
-2.458091
 21
3.905737
 31
0.0
  0
LINE
  8
0
  6
CONTINUOUS
 62
     7
  5
5EC
 10
-2.458091
 20
3.905737
 30
0.0
 11
-2.458851
 21
3.902946
 31
0.0
  0
LINE
  8
0
  6
CONTINUOUS
 62
     7
  5
5ED
 10
-2.458851
 20
3.902946
 30
0.0
 11
-2.459475
 21
3.900121
 31
0.0
  0
LINE
  8
0
  6
CONTINUOUS
 62
     7
  5
5EE
 10
-2.459475
 20
3.900121
 30
0.0
 11
-2.459959
 21
3.897274
 31
0.0
  0
LINE
  8
0
  6
CONTINUOUS
 62
     7
  5
5EF
 10
-2.459959
 20
3.897274
 30
0.0
 11
-2.460303
 21
3.894421
 31
0.0
  0
LINE
  8
0
  6
CONTINUOUS
 62
     7
  5
5F0
 10
-2.460303
 20
3.894421
 30
0.0
 11
-2.460508
 21
3.891575
 31
0.0
  0
LINE
  8
0
  6
CONTINUOUS
 62
     7
  5
5F1
 10
-2.460508
 20
3.891575
 30
0.0
 11
-2.460575
 21
3.88875
 31
0.0
  0
LINE
  8
0
  6
CONTINUOUS
 62
     7
  5
5F2
 10
-1.945333
 20
3.948075
 30
0.0
 11
-0.859667
 21
3.948075
 31
0.0
  0
LINE
  8
0
  6
CONTINUOUS
 62
     7
  5
5F3
 10
-1.945333
 20
3.948075
 30
0.0
 11
-2.40125
 21
3.948075
 31
0.0
  0
LINE
  8
0
  6
CONTINUOUS
 62
     7
  5
5F4
 10
-0.061925
 20
3.662063
 30
0.0
 11
-0.061925
 21
3.609708
 31
0.0
  0
LINE
  8
0
  6
CONTINUOUS
 62
     7
  5
5F5
 10
-2.40125
 20
4.03
 30
0.0
 11
-1.945333
 21
4.03
 31
0.0
  0
LINE
  8
0
  6
CONTINUOUS
 62
     7
  5
5F6
 10
-2.5425
 20
3.88875
 30
0.0
 11
-2.542333
 21
3.895617
 31
0.0
  0
LINE
  8
0
  6
CONTINUOUS
 62
     7
  5
5F7
 10
-2.542333
 20
3.895617
 30
0.0
 11
-2.541828
 21
3.902512
 31
0.0
  0
LINE
  8
0
  6
CONTINUOUS
 62
     7
  5
5F8
 10
-2.541828
 20
3.902512
 30
0.0
 11
-2.540982
 21
3.909403
 31
0.0
  0
LINE
  8
0
  6
CONTINUOUS
 62
     7
  5
5F9
 10
-2.540982
 20
3.909403
 30
0.0
 11
-2.539796
 21
3.916257
 31
0.0
  0
LINE
  8
0
  6
CONTINUOUS
 62
     7
  5
5FA
 10
-2.539796
 20
3.916257
 30
0.0
 11
-2.538275
 21
3.923038
 31
0.0
  0
LINE
  8
0
  6
CONTINUOUS
 62
     7
  5
5FB
 10
-2.538275
 20
3.923038
 30
0.0
 11
-2.536429
 21
3.929714
 31
0.0
  0
LINE
  8
0
  6
CONTINUOUS
 62
     7
  5
5FC
 10
-2.536429
 20
3.929714
 30
0.0
 11
-2.534271
 21
3.936257
 31
0.0
  0
LINE
  8
0
  6
CONTINUOUS
 62
     7
  5
5FD
 10
-2.534271
 20
3.936257
 30
0.0
 11
-2.531815
 21
3.942642
 31
0.0
  0
LINE
  8
0
  6
CONTINUOUS
 62
     7
  5
5FE
 10
-2.531815
 20
3.942642
 30
0.0
 11
-2.529077
 21
3.948849
 31
0.0
  0
LINE
  8
0
  6
CONTINUOUS
 62
     7
  5
5FF
 10
-2.529077
 20
3.948849
 30
0.0
 11
-2.526076
 21
3.954856
 31
0.0
  0
LINE
  8
0
  6
CONTINUOUS
 62
     7
  5
600
 10
-2.526076
 20
3.954856
 30
0.0
 11
-2.522834
 21
3.960644
 31
0.0
  0
LINE
  8
0
  6
CONTINUOUS
 62
     7
  5
601
 10
-2.522834
 20
3.960644
 30
0.0
 11
-2.519377
 21
3.966195
 31
0.0
  0
LINE
  8
0
  6
CONTINUOUS
 62
     7
  5
602
 10
-2.519377
 20
3.966195
 30
0.0
 11
-2.51573
 21
3.971489
 31
0.0
  0
LINE
  8
0
  6
CONTINUOUS
 62
     7
  5
603
 10
-2.51573
 20
3.971489
 30
0.0
 11
-2.511925
 21
3.976514
 31
0.0
  0
LINE
  8
0
  6
CONTINUOUS
 62
     7
  5
604
 10
-2.511925
 20
3.976514
 30
0.0
 11
-2.507993
 21
3.981257
 31
0.0
  0
LINE
  8
0
  6
CONTINUOUS
 62
     7
  5
605
 10
-2.507993
 20
3.981257
 30
0.0
 11
-2.503959
 21
3.985716
 31
0.0
  0
LINE
  8
0
  6
CONTINUOUS
 62
     7
  5
606
 10
-2.503959
 20
3.985716
 30
0.0
 11
-2.499747
 21
3.989992
 31
0.0
  0
LINE
  8
0
  6
CONTINUOUS
 62
     7
  5
607
 10
-2.499747
 20
3.989992
 30
0.0
 11
-2.495336
 21
3.994103
 31
0.0
  0
LINE
  8
0
  6
CONTINUOUS
 62
     7
  5
608
 10
-2.495336
 20
3.994103
 30
0.0
 11
-2.490735
 21
3.998038
 31
0.0
  0
LINE
  8
0
  6
CONTINUOUS
 62
     7
  5
609
 10
-2.490735
 20
3.998038
 30
0.0
 11
-2.485954
 21
4.001784
 31
0.0
  0
LINE
  8
0
  6
CONTINUOUS
 62
     7
  5
60A
 10
-2.485954
 20
4.001784
 30
0.0
 11
-2.481004
 21
4.00533
 31
0.0
  0
LINE
  8
0
  6
CONTINUOUS
 62
     7
  5
60B
 10
-2.481004
 20
4.00533
 30
0.0
 11
-2.475895
 21
4.008665
 31
0.0
  0
LINE
  8
0
  6
CONTINUOUS
 62
     7
  5
60C
 10
-2.475895
 20
4.008665
 30
0.0
 11
-2.470641
 21
4.01178
 31
0.0
  0
LINE
  8
0
  6
CONTINUOUS
 62
     7
  5
60D
 10
-2.470641
 20
4.01178
 30
0.0
 11
-2.465253
 21
4.014667
 31
0.0
  0
LINE
  8
0
  6
CONTINUOUS
 62
     7
  5
60E
 10
-2.465253
 20
4.014667
 30
0.0
 11
-2.459745
 21
4.017319
 31
0.0
  0
LINE
  8
0
  6
CONTINUOUS
 62
     7
  5
60F
 10
-2.459745
 20
4.017319
 30
0.0
 11
-2.454129
 21
4.019728
 31
0.0
  0
LINE
  8
0
  6
CONTINUOUS
 62
     7
  5
610
 10
-2.454129
 20
4.019728
 30
0.0
 11
-2.448419
 21
4.021891
 31
0.0
  0
LINE
  8
0
  6
CONTINUOUS
 62
     7
  5
611
 10
-2.448419
 20
4.021891
 30
0.0
 11
-2.44263
 21
4.023803
 31
0.0
  0
LINE
  8
0
  6
CONTINUOUS
 62
     7
  5
612
 10
-2.44263
 20
4.023803
 30
0.0
 11
-2.436775
 21
4.02546
 31
0.0
  0
LINE
  8
0
  6
CONTINUOUS
 62
     7
  5
613
 10
-2.436775
 20
4.02546
 30
0.0
 11
-2.430873
 21
4.026859
 31
0.0
  0
LINE
  8
0
  6
CONTINUOUS
 62
     7
  5
614
 10
-2.430873
 20
4.026859
 30
0.0
 11
-2.424939
 21
4.027999
 31
0.0
  0
LINE
  8
0
  6
CONTINUOUS
 62
     7
  5
615
 10
-2.424939
 20
4.027999
 30
0.0
 11
-2.418991
 21
4.028881
 31
0.0
  0
LINE
  8
0
  6
CONTINUOUS
 62
     7
  5
616
 10
-2.418991
 20
4.028881
 30
0.0
 11
-2.413048
 21
4.029506
 31
0.0
  0
LINE
  8
0
  6
CONTINUOUS
 62
     7
  5
617
 10
-2.413048
 20
4.029506
 30
0.0
 11
-2.407129
 21
4.029878
 31
0.0
  0
LINE
  8
0
  6
CONTINUOUS
 62
     7
  5
618
 10
-2.407129
 20
4.029878
 30
0.0
 11
-2.40125
 21
4.03
 31
0.0
  0
LINE
  8
0
  6
CONTINUOUS
 62
     7
  5
619
 10
-2.5425
 20
3.862637
 30
0.0
 11
-2.5425
 21
3.88875
 31
0.0
  0
LINE
  8
0
  6
CONTINUOUS
 62
     7
  5
61A
 10
-2.601825
 20
3.803313
 30
0.0
 11
-2.599717
 21
3.80335
 31
0.0
  0
LINE
  8
0
  6
CONTINUOUS
 62
     7
  5
61B
 10
-2.599717
 20
3.80335
 30
0.0
 11
-2.597571
 21
3.803465
 31
0.0
  0
LINE
  8
0
  6
CONTINUOUS
 62
     7
  5
61C
 10
-2.597571
 20
3.803465
 30
0.0
 11
-2.595393
 21
3.803662
 31
0.0
  0
LINE
  8
0
  6
CONTINUOUS
 62
     7
  5
61D
 10
-2.595393
 20
3.803662
 30
0.0
 11
-2.593189
 21
3.803944
 31
0.0
  0
LINE
  8
0
  6
CONTINUOUS
 62
     7
  5
61E
 10
-2.593189
 20
3.803944
 30
0.0
 11
-2.590963
 21
3.804315
 31
0.0
  0
LINE
  8
0
  6
CONTINUOUS
 62
     7
  5
61F
 10
-2.590963
 20
3.804315
 30
0.0
 11
-2.588722
 21
3.804778
 31
0.0
  0
LINE
  8
0
  6
CONTINUOUS
 62
     7
  5
620
 10
-2.588722
 20
3.804778
 30
0.0
 11
-2.586471
 21
3.805334
 31
0.0
  0
LINE
  8
0
  6
CONTINUOUS
 62
     7
  5
621
 10
-2.586471
 20
3.805334
 30
0.0
 11
-2.584216
 21
3.805986
 31
0.0
  0
LINE
  8
0
  6
CONTINUOUS
 62
     7
  5
622
 10
-2.584216
 20
3.805986
 30
0.0
 11
-2.581964
 21
3.806736
 31
0.0
  0
LINE
  8
0
  6
CONTINUOUS
 62
     7
  5
623
 10
-2.581964
 20
3.806736
 30
0.0
 11
-2.579719
 21
3.807585
 31
0.0
  0
LINE
  8
0
  6
CONTINUOUS
 62
     7
  5
624
 10
-2.579719
 20
3.807585
 30
0.0
 11
-2.577487
 21
3.808535
 31
0.0
  0
LINE
  8
0
  6
CONTINUOUS
 62
     7
  5
625
 10
-2.577487
 20
3.808535
 30
0.0
 11
-2.575275
 21
3.809585
 31
0.0
  0
LINE
  8
0
  6
CONTINUOUS
 62
     7
  5
626
 10
-2.575275
 20
3.809585
 30
0.0
 11
-2.573087
 21
3.810738
 31
0.0
  0
LINE
  8
0
  6
CONTINUOUS
 62
     7
  5
627
 10
-2.573087
 20
3.810738
 30
0.0
 11
-2.57093
 21
3.811992
 31
0.0
  0
LINE
  8
0
  6
CONTINUOUS
 62
     7
  5
628
 10
-2.57093
 20
3.811992
 30
0.0
 11
-2.56881
 21
3.813348
 31
0.0
  0
LINE
  8
0
  6
CONTINUOUS
 62
     7
  5
629
 10
-2.56881
 20
3.813348
 30
0.0
 11
-2.566732
 21
3.814805
 31
0.0
  0
LINE
  8
0
  6
CONTINUOUS
 62
     7
  5
62A
 10
-2.566732
 20
3.814805
 30
0.0
 11
-2.564702
 21
3.816363
 31
0.0
  0
LINE
  8
0
  6
CONTINUOUS
 62
     7
  5
62B
 10
-2.564702
 20
3.816363
 30
0.0
 11
-2.562726
 21
3.81802
 31
0.0
  0
LINE
  8
0
  6
CONTINUOUS
 62
     7
  5
62C
 10
-2.562726
 20
3.81802
 30
0.0
 11
-2.56081
 21
3.819774
 31
0.0
  0
LINE
  8
0
  6
CONTINUOUS
 62
     7
  5
62D
 10
-2.56081
 20
3.819774
 30
0.0
 11
-2.55896
 21
3.821625
 31
0.0
  0
LINE
  8
0
  6
CONTINUOUS
 62
     7
  5
62E
 10
-2.55896
 20
3.821625
 30
0.0
 11
-2.55718
 21
3.823569
 31
0.0
  0
LINE
  8
0
  6
CONTINUOUS
 62
     7
  5
62F
 10
-2.55718
 20
3.823569
 30
0.0
 11
-2.555454
 21
3.825634
 31
0.0
  0
LINE
  8
0
  6
CONTINUOUS
 62
     7
  5
630
 10
-2.555454
 20
3.825634
 30
0.0
 11
-2.553769
 21
3.827851
 31
0.0
  0
LINE
  8
0
  6
CONTINUOUS
 62
     7
  5
631
 10
-2.553769
 20
3.827851
 30
0.0
 11
-2.552144
 21
3.830215
 31
0.0
  0
LINE
  8
0
  6
CONTINUOUS
 62
     7
  5
632
 10
-2.552144
 20
3.830215
 30
0.0
 11
-2.550598
 21
3.832717
 31
0.0
  0
LINE
  8
0
  6
CONTINUOUS
 62
     7
  5
633
 10
-2.550598
 20
3.832717
 30
0.0
 11
-2.549149
 21
3.835349
 31
0.0
  0
LINE
  8
0
  6
CONTINUOUS
 62
     7
  5
634
 10
-2.549149
 20
3.835349
 30
0.0
 11
-2.547813
 21
3.838099
 31
0.0
  0
LINE
  8
0
  6
CONTINUOUS
 62
     7
  5
635
 10
-2.547813
 20
3.838099
 30
0.0
 11
-2.546605
 21
3.840954
 31
0.0
  0
LINE
  8
0
  6
CONTINUOUS
 62
     7
  5
636
 10
-2.546605
 20
3.840954
 30
0.0
 11
-2.545536
 21
3.843902
 31
0.0
  0
LINE
  8
0
  6
CONTINUOUS
 62
     7
  5
637
 10
-2.545536
 20
3.843902
 30
0.0
 11
-2.544617
 21
3.84693
 31
0.0
  0
LINE
  8
0
  6
CONTINUOUS
 62
     7
  5
638
 10
-2.544617
 20
3.84693
 30
0.0
 11
-2.543857
 21
3.850022
 31
0.0
  0
LINE
  8
0
  6
CONTINUOUS
 62
     7
  5
639
 10
-2.543857
 20
3.850022
 30
0.0
 11
-2.543262
 21
3.853159
 31
0.0
  0
LINE
  8
0
  6
CONTINUOUS
 62
     7
  5
63A
 10
-2.543262
 20
3.853159
 30
0.0
 11
-2.542837
 21
3.856321
 31
0.0
  0
LINE
  8
0
  6
CONTINUOUS
 62
     7
  5
63B
 10
-2.542837
 20
3.856321
 30
0.0
 11
-2.542584
 21
3.859487
 31
0.0
  0
LINE
  8
0
  6
CONTINUOUS
 62
     7
  5
63C
 10
-2.542584
 20
3.859487
 30
0.0
 11
-2.5425
 21
3.862638
 31
0.0
  0
LINE
  8
0
  6
CONTINUOUS
 62
     7
  5
63D
 10
-2.68375
 20
3.803313
 30
0.0
 11
-2.601825
 21
3.803313
 31
0.0
  0
LINE
  8
0
  6
CONTINUOUS
 62
     7
  5
63E
 10
-2.825
 20
3.662063
 30
0.0
 11
-2.824897
 21
3.667465
 31
0.0
  0
LINE
  8
0
  6
CONTINUOUS
 62
     7
  5
63F
 10
-2.824897
 20
3.667465
 30
0.0
 11
-2.824583
 21
3.672911
 31
0.0
  0
LINE
  8
0
  6
CONTINUOUS
 62
     7
  5
640
 10
-2.824583
 20
3.672911
 30
0.0
 11
-2.824053
 21
3.67839
 31
0.0
  0
LINE
  8
0
  6
CONTINUOUS
 62
     7
  5
641
 10
-2.824053
 20
3.67839
 30
0.0
 11
-2.823303
 21
3.683893
 31
0.0
  0
LINE
  8
0
  6
CONTINUOUS
 62
     7
  5
642
 10
-2.823303
 20
3.683893
 30
0.0
 11
-2.822328
 21
3.689409
 31
0.0
  0
LINE
  8
0
  6
CONTINUOUS
 62
     7
  5
643
 10
-2.822328
 20
3.689409
 30
0.0
 11
-2.821123
 21
3.694928
 31
0.0
  0
LINE
  8
0
  6
CONTINUOUS
 62
     7
  5
644
 10
-2.821123
 20
3.694928
 30
0.0
 11
-2.819687
 21
3.70044
 31
0.0
  0
LINE
  8
0
  6
CONTINUOUS
 62
     7
  5
645
 10
-2.819687
 20
3.70044
 30
0.0
 11
-2.818015
 21
3.705933
 31
0.0
  0
LINE
  8
0
  6
CONTINUOUS
 62
     7
  5
646
 10
-2.818015
 20
3.705933
 30
0.0
 11
-2.816105
 21
3.711397
 31
0.0
  0
LINE
  8
0
  6
CONTINUOUS
 62
     7
  5
647
 10
-2.816105
 20
3.711397
 30
0.0
 11
-2.813954
 21
3.71682
 31
0.0
  0
LINE
  8
0
  6
CONTINUOUS
 62
     7
  5
648
 10
-2.813954
 20
3.71682
 30
0.0
 11
-2.811562
 21
3.722192
 31
0.0
  0
LINE
  8
0
  6
CONTINUOUS
 62
     7
  5
649
 10
-2.811562
 20
3.722192
 30
0.0
 11
-2.808928
 21
3.727501
 31
0.0
  0
LINE
  8
0
  6
CONTINUOUS
 62
     7
  5
64A
 10
-2.808928
 20
3.727501
 30
0.0
 11
-2.806049
 21
3.732735
 31
0.0
  0
LINE
  8
0
  6
CONTINUOUS
 62
     7
  5
64B
 10
-2.806049
 20
3.732735
 30
0.0
 11
-2.802926
 21
3.737883
 31
0.0
  0
LINE
  8
0
  6
CONTINUOUS
 62
     7
  5
64C
 10
-2.802926
 20
3.737883
 30
0.0
 11
-2.799558
 21
3.742933
 31
0.0
  0
LINE
  8
0
  6
CONTINUOUS
 62
     7
  5
64D
 10
-2.799558
 20
3.742933
 30
0.0
 11
-2.795946
 21
3.747873
 31
0.0
  0
LINE
  8
0
  6
CONTINUOUS
 62
     7
  5
64E
 10
-2.795946
 20
3.747873
 30
0.0
 11
-2.792091
 21
3.752692
 31
0.0
  0
LINE
  8
0
  6
CONTINUOUS
 62
     7
  5
64F
 10
-2.792091
 20
3.752692
 30
0.0
 11
-2.787994
 21
3.757377
 31
0.0
  0
LINE
  8
0
  6
CONTINUOUS
 62
     7
  5
650
 10
-2.787994
 20
3.757377
 30
0.0
 11
-2.783655
 21
3.761915
 31
0.0
  0
LINE
  8
0
  6
CONTINUOUS
 62
     7
  5
651
 10
-2.783655
 20
3.761915
 30
0.0
 11
-2.779077
 21
3.766295
 31
0.0
  0
LINE
  8
0
  6
CONTINUOUS
 62
     7
  5
652
 10
-2.779077
 20
3.766295
 30
0.0
 11
-2.774261
 21
3.770503
 31
0.0
  0
LINE
  8
0
  6
CONTINUOUS
 62
     7
  5
653
 10
-2.774261
 20
3.770503
 30
0.0
 11
-2.76921
 21
3.774526
 31
0.0
  0
LINE
  8
0
  6
CONTINUOUS
 62
     7
  5
654
 10
-2.76921
 20
3.774526
 30
0.0
 11
-2.763927
 21
3.778352
 31
0.0
  0
LINE
  8
0
  6
CONTINUOUS
 62
     7
  5
655
 10
-2.763927
 20
3.778352
 30
0.0
 11
-2.758415
 21
3.781965
 31
0.0
  0
LINE
  8
0
  6
CONTINUOUS
 62
     7
  5
656
 10
-2.758415
 20
3.781965
 30
0.0
 11
-2.752677
 21
3.785353
 31
0.0
  0
LINE
  8
0
  6
CONTINUOUS
 62
     7
  5
657
 10
-2.752677
 20
3.785353
 30
0.0
 11
-2.746717
 21
3.788501
 31
0.0
  0
LINE
  8
0
  6
CONTINUOUS
 62
     7
  5
658
 10
-2.746717
 20
3.788501
 30
0.0
 11
-2.740538
 21
3.791394
 31
0.0
  0
LINE
  8
0
  6
CONTINUOUS
 62
     7
  5
659
 10
-2.740538
 20
3.791394
 30
0.0
 11
-2.734145
 21
3.794017
 31
0.0
  0
LINE
  8
0
  6
CONTINUOUS
 62
     7
  5
65A
 10
-2.734145
 20
3.794017
 30
0.0
 11
-2.727541
 21
3.796353
 31
0.0
  0
LINE
  8
0
  6
CONTINUOUS
 62
     7
  5
65B
 10
-2.727541
 20
3.796353
 30
0.0
 11
-2.720731
 21
3.798386
 31
0.0
  0
LINE
  8
0
  6
CONTINUOUS
 62
     7
  5
65C
 10
-2.720731
 20
3.798386
 30
0.0
 11
-2.713719
 21
3.800097
 31
0.0
  0
LINE
  8
0
  6
CONTINUOUS
 62
     7
  5
65D
 10
-2.713719
 20
3.800097
 30
0.0
 11
-2.70651
 21
3.801467
 31
0.0
  0
LINE
  8
0
  6
CONTINUOUS
 62
     7
  5
65E
 10
-2.70651
 20
3.801467
 30
0.0
 11
-2.699108
 21
3.802475
 31
0.0
  0
LINE
  8
0
  6
CONTINUOUS
 62
     7
  5
65F
 10
-2.699108
 20
3.802475
 30
0.0
 11
-2.69152
 21
3.803099
 31
0.0
  0
LINE
  8
0
  6
CONTINUOUS
 62
     7
  5
660
 10
-2.69152
 20
3.803099
 30
0.0
 11
-2.68375
 21
3.803313
 31
0.0
  0
LINE
  8
0
  6
CONTINUOUS
 62
     7
  5
661
 10
-2.825
 20
3.52625
 30
0.0
 11
-2.825
 21
3.662063
 31
0.0
  0
LINE
  8
0
  6
CONTINUOUS
 62
     7
  5
662
 10
-2.743075
 20
3.52625
 30
0.0
 11
-2.825
 21
3.52625
 31
0.0
  0
LINE
  8
0
  6
CONTINUOUS
 62
     7
  5
663
 10
-1.945333
 20
4.03
 30
0.0
 11
-0.859667
 21
4.03
 31
0.0
  0
LINE
  8
0
  6
CONTINUOUS
 62
     7
  5
664
 10
-0.104075
 20
3.677375
 30
0.0
 11
-1.273954
 21
3.677375
 31
0.0
  0
LINE
  8
0
  6
CONTINUOUS
 62
     7
  5
665
 10
-1.389742
 20
1.8
 30
0.0
 11
-1.389742
 21
0.0
 31
0.0
  0
LINE
  8
0
  6
CONTINUOUS
 62
     7
  5
666
 10
-0.036408
 20
0.0
 30
0.0
 11
-1.389742
 21
0.0
 31
0.0
  0
LINE
  8
0
  6
CONTINUOUS
 62
     7
  5
667
 10
0.052507
 20
3.52625
 30
0.0
 11
0.0
 21
3.52625
 31
0.0
  0
LINE
  8
0
  6
CONTINUOUS
 62
     7
  5
668
 10
0.052507
 20
3.609708
 30
0.0
 11
0.052507
 21
3.52625
 31
0.0
  0
LINE
  8
0
  6
CONTINUOUS
 62
     7
  5
669
 10
0.061925
 20
3.633358
 30
0.0
 11
0.061543
 21
3.63291
 31
0.0
  0
LINE
  8
0
  6
CONTINUOUS
 62
     7
  5
66A
 10
0.061543
 20
3.63291
 30
0.0
 11
0.061164
 21
3.632453
 31
0.0
  0
LINE
  8
0
  6
CONTINUOUS
 62
     7
  5
66B
 10
0.061164
 20
3.632453
 30
0.0
 11
0.060788
 21
3.631989
 31
0.0
  0
LINE
  8
0
  6
CONTINUOUS
 62
     7
  5
66C
 10
0.060788
 20
3.631989
 30
0.0
 11
0.060415
 21
3.631516
 31
0.0
  0
LINE
  8
0
  6
CONTINUOUS
 62
     7
  5
66D
 10
0.060415
 20
3.631516
 30
0.0
 11
0.060047
 21
3.631036
 31
0.0
  0
LINE
  8
0
  6
CONTINUOUS
 62
     7
  5
66E
 10
0.060047
 20
3.631036
 30
0.0
 11
0.059683
 21
3.630547
 31
0.0
  0
LINE
  8
0
  6
CONTINUOUS
 62
     7
  5
66F
 10
0.059683
 20
3.630547
 30
0.0
 11
0.059324
 21
3.63005
 31
0.0
  0
LINE
  8
0
  6
CONTINUOUS
 62
     7
  5
670
 10
0.059324
 20
3.63005
 30
0.0
 11
0.058971
 21
3.629544
 31
0.0
  0
LINE
  8
0
  6
CONTINUOUS
 62
     7
  5
671
 10
0.058971
 20
3.629544
 30
0.0
 11
0.058622
 21
3.629031
 31
0.0
  0
LINE
  8
0
  6
CONTINUOUS
 62
     7
  5
672
 10
0.058622
 20
3.629031
 30
0.0
 11
0.05828
 21
3.62851
 31
0.0
  0
LINE
  8
0
  6
CONTINUOUS
 62
     7
  5
673
 10
0.05828
 20
3.62851
 30
0.0
 11
0.057942
 21
3.627978
 31
0.0
  0
LINE
  8
0
  6
CONTINUOUS
 62
     7
  5
674
 10
0.057942
 20
3.627978
 30
0.0
 11
0.057606
 21
3.62743
 31
0.0
  0
LINE
  8
0
  6
CONTINUOUS
 62
     7
  5
675
 10
0.057606
 20
3.62743
 30
0.0
 11
0.057272
 21
3.626863
 31
0.0
  0
LINE
  8
0
  6
CONTINUOUS
 62
     7
  5
676
 10
0.057272
 20
3.626863
 30
0.0
 11
0.05694
 21
3.626278
 31
0.0
  0
LINE
  8
0
  6
CONTINUOUS
 62
     7
  5
677
 10
0.05694
 20
3.626278
 30
0.0
 11
0.056612
 21
3.625676
 31
0.0
  0
LINE
  8
0
  6
CONTINUOUS
 62
     7
  5
678
 10
0.056612
 20
3.625676
 30
0.0
 11
0.056289
 21
3.625056
 31
0.0
  0
LINE
  8
0
  6
CONTINUOUS
 62
     7
  5
679
 10
0.056289
 20
3.625056
 30
0.0
 11
0.055972
 21
3.624419
 31
0.0
  0
LINE
  8
0
  6
CONTINUOUS
 62
     7
  5
67A
 10
0.055972
 20
3.624419
 30
0.0
 11
0.055662
 21
3.623765
 31
0.0
  0
LINE
  8
0
  6
CONTINUOUS
 62
     7
  5
67B
 10
0.055662
 20
3.623765
 30
0.0
 11
0.055361
 21
3.623094
 31
0.0
  0
LINE
  8
0
  6
CONTINUOUS
 62
     7
  5
67C
 10
0.055361
 20
3.623094
 30
0.0
 11
0.055069
 21
3.622406
 31
0.0
  0
LINE
  8
0
  6
CONTINUOUS
 62
     7
  5
67D
 10
0.055069
 20
3.622406
 30
0.0
 11
0.054787
 21
3.621702
 31
0.0
  0
LINE
  8
0
  6
CONTINUOUS
 62
     7
  5
67E
 10
0.054787
 20
3.621702
 30
0.0
 11
0.054516
 21
3.620981
 31
0.0
  0
LINE
  8
0
  6
CONTINUOUS
 62
     7
  5
67F
 10
0.054516
 20
3.620981
 30
0.0
 11
0.054258
 21
3.620244
 31
0.0
  0
LINE
  8
0
  6
CONTINUOUS
 62
     7
  5
680
 10
0.054258
 20
3.620244
 30
0.0
 11
0.054012
 21
3.619485
 31
0.0
  0
LINE
  8
0
  6
CONTINUOUS
 62
     7
  5
681
 10
0.054012
 20
3.619485
 30
0.0
 11
0.053778
 21
3.618701
 31
0.0
  0
LINE
  8
0
  6
CONTINUOUS
 62
     7
  5
682
 10
0.053778
 20
3.618701
 30
0.0
 11
0.053557
 21
3.617893
 31
0.0
  0
LINE
  8
0
  6
CONTINUOUS
 62
     7
  5
683
 10
0.053557
 20
3.617893
 30
0.0
 11
0.053353
 21
3.61706
 31
0.0
  0
LINE
  8
0
  6
CONTINUOUS
 62
     7
  5
684
 10
0.053353
 20
3.61706
 30
0.0
 11
0.053166
 21
3.616204
 31
0.0
  0
LINE
  8
0
  6
CONTINUOUS
 62
     7
  5
685
 10
0.053166
 20
3.616204
 30
0.0
 11
0.052999
 21
3.615325
 31
0.0
  0
LINE
  8
0
  6
CONTINUOUS
 62
     7
  5
686
 10
0.052999
 20
3.615325
 30
0.0
 11
0.052854
 21
3.614423
 31
0.0
  0
LINE
  8
0
  6
CONTINUOUS
 62
     7
  5
687
 10
0.052854
 20
3.614423
 30
0.0
 11
0.052732
 21
3.613505
 31
0.0
  0
LINE
  8
0
  6
CONTINUOUS
 62
     7
  5
688
 10
0.052732
 20
3.613505
 30
0.0
 11
0.052635
 21
3.612575
 31
0.0
  0
LINE
  8
0
  6
CONTINUOUS
 62
     7
  5
689
 10
0.052635
 20
3.612575
 30
0.0
 11
0.052565
 21
3.611632
 31
0.0
  0
LINE
  8
0
  6
CONTINUOUS
 62
     7
  5
68A
 10
0.052565
 20
3.611632
 30
0.0
 11
0.052522
 21
3.610676
 31
0.0
  0
LINE
  8
0
  6
CONTINUOUS
 62
     7
  5
68B
 10
0.052522
 20
3.610676
 30
0.0
 11
0.052507
 21
3.609708
 31
0.0
  0
LINE
  8
0
  6
CONTINUOUS
 62
     7
  5
68C
 10
0.061925
 20
3.662063
 30
0.0
 11
0.061925
 21
3.633358
 31
0.0
  0
LINE
  8
0
  6
CONTINUOUS
 62
     7
  5
68D
 10
0.12125
 20
3.721388
 30
0.0
 11
0.119054
 21
3.721347
 31
0.0
  0
LINE
  8
0
  6
CONTINUOUS
 62
     7
  5
68E
 10
0.119054
 20
3.721347
 30
0.0
 11
0.116845
 21
3.721224
 31
0.0
  0
LINE
  8
0
  6
CONTINUOUS
 62
     7
  5
68F
 10
0.116845
 20
3.721224
 30
0.0
 11
0.114629
 21
3.721017
 31
0.0
  0
LINE
  8
0
  6
CONTINUOUS
 62
     7
  5
690
 10
0.114629
 20
3.721017
 30
0.0
 11
0.112408
 21
3.720725
 31
0.0
  0
LINE
  8
0
  6
CONTINUOUS
 62
     7
  5
691
 10
0.112408
 20
3.720725
 30
0.0
 11
0.110189
 21
3.720347
 31
0.0
  0
LINE
  8
0
  6
CONTINUOUS
 62
     7
  5
692
 10
0.110189
 20
3.720347
 30
0.0
 11
0.107974
 21
3.719883
 31
0.0
  0
LINE
  8
0
  6
CONTINUOUS
 62
     7
  5
693
 10
0.107974
 20
3.719883
 30
0.0
 11
0.105768
 21
3.719332
 31
0.0
  0
LINE
  8
0
  6
CONTINUOUS
 62
     7
  5
694
 10
0.105768
 20
3.719332
 30
0.0
 11
0.103575
 21
3.718693
 31
0.0
  0
LINE
  8
0
  6
CONTINUOUS
 62
     7
  5
695
 10
0.103575
 20
3.718693
 30
0.0
 11
0.101399
 21
3.717968
 31
0.0
  0
LINE
  8
0
  6
CONTINUOUS
 62
     7
  5
696
 10
0.101399
 20
3.717968
 30
0.0
 11
0.099243
 21
3.717155
 31
0.0
  0
LINE
  8
0
  6
CONTINUOUS
 62
     7
  5
697
 10
0.099243
 20
3.717155
 30
0.0
 11
0.097111
 21
3.716255
 31
0.0
  0
LINE
  8
0
  6
CONTINUOUS
 62
     7
  5
698
 10
0.097111
 20
3.716255
 30
0.0
 11
0.095007
 21
3.715267
 31
0.0
  0
LINE
  8
0
  6
CONTINUOUS
 62
     7
  5
699
 10
0.095007
 20
3.715267
 30
0.0
 11
0.092933
 21
3.714193
 31
0.0
  0
LINE
  8
0
  6
CONTINUOUS
 62
     7
  5
69A
 10
0.092933
 20
3.714193
 30
0.0
 11
0.090893
 21
3.713032
 31
0.0
  0
LINE
  8
0
  6
CONTINUOUS
 62
     7
  5
69B
 10
0.090893
 20
3.713032
 30
0.0
 11
0.08889
 21
3.711785
 31
0.0
  0
LINE
  8
0
  6
CONTINUOUS
 62
     7
  5
69C
 10
0.08889
 20
3.711785
 30
0.0
 11
0.086927
 21
3.71045
 31
0.0
  0
LINE
  8
0
  6
CONTINUOUS
 62
     7
  5
69D
 10
0.086927
 20
3.71045
 30
0.0
 11
0.085006
 21
3.709029
 31
0.0
  0
LINE
  8
0
  6
CONTINUOUS
 62
     7
  5
69E
 10
0.085006
 20
3.709029
 30
0.0
 11
0.083131
 21
3.70752
 31
0.0
  0
LINE
  8
0
  6
CONTINUOUS
 62
     7
  5
69F
 10
0.083131
 20
3.70752
 30
0.0
 11
0.081303
 21
3.705923
 31
0.0
  0
LINE
  8
0
  6
CONTINUOUS
 62
     7
  5
6A0
 10
0.081303
 20
3.705923
 30
0.0
 11
0.079527
 21
3.704236
 31
0.0
  0
LINE
  8
0
  6
CONTINUOUS
 62
     7
  5
6A1
 10
0.079527
 20
3.704236
 30
0.0
 11
0.077803
 21
3.702458
 31
0.0
  0
LINE
  8
0
  6
CONTINUOUS
 62
     7
  5
6A2
 10
0.077803
 20
3.702458
 30
0.0
 11
0.076135
 21
3.700586
 31
0.0
  0
LINE
  8
0
  6
CONTINUOUS
 62
     7
  5
6A3
 10
0.076135
 20
3.700586
 30
0.0
 11
0.074526
 21
3.698618
 31
0.0
  0
LINE
  8
0
  6
CONTINUOUS
 62
     7
  5
6A4
 10
0.074526
 20
3.698618
 30
0.0
 11
0.072965
 21
3.69653
 31
0.0
  0
LINE
  8
0
  6
CONTINUOUS
 62
     7
  5
6A5
 10
0.072965
 20
3.69653
 30
0.0
 11
0.071422
 21
3.69426
 31
0.0
  0
LINE
  8
0
  6
CONTINUOUS
 62
     7
  5
6A6
 10
0.071422
 20
3.69426
 30
0.0
 11
0.069919
 21
3.691805
 31
0.0
  0
LINE
  8
0
  6
CONTINUOUS
 62
     7
  5
6A7
 10
0.069919
 20
3.691805
 30
0.0
 11
0.06848
 21
3.68917
 31
0.0
  0
LINE
  8
0
  6
CONTINUOUS
 62
     7
  5
6A8
 10
0.06848
 20
3.68917
 30
0.0
 11
0.067128
 21
3.686357
 31
0.0
  0
LINE
  8
0
  6
CONTINUOUS
 62
     7
  5
6A9
 10
0.067128
 20
3.686357
 30
0.0
 11
0.065884
 21
3.683372
 31
0.0
  0
LINE
  8
0
  6
CONTINUOUS
 62
     7
  5
6AA
 10
0.065884
 20
3.683372
 30
0.0
 11
0.064772
 21
3.680219
 31
0.0
  0
LINE
  8
0
  6
CONTINUOUS
 62
     7
  5
6AB
 10
0.064772
 20
3.680219
 30
0.0
 11
0.063812
 21
3.676904
 31
0.0
  0
LINE
  8
0
  6
CONTINUOUS
 62
     7
  5
6AC
 10
0.063812
 20
3.676904
 30
0.0
 11
0.063024
 21
3.67343
 31
0.0
  0
LINE
  8
0
  6
CONTINUOUS
 62
     7
  5
6AD
 10
0.063024
 20
3.67343
 30
0.0
 11
0.062431
 21
3.669797
 31
0.0
  0
LINE
  8
0
  6
CONTINUOUS
 62
     7
  5
6AE
 10
0.062431
 20
3.669797
 30
0.0
 11
0.062056
 21
3.666009
 31
0.0
  0
LINE
  8
0
  6
CONTINUOUS
 62
     7
  5
6AF
 10
0.062056
 20
3.666009
 30
0.0
 11
0.061925
 21
3.662063
 31
0.0
  0
LINE
  8
0
  6
CONTINUOUS
 62
     7
  5
6B0
 10
0.203175
 20
3.721388
 30
0.0
 11
0.12125
 21
3.721388
 31
0.0
  0
LINE
  8
0
  6
CONTINUOUS
 62
     7
  5
6B1
 10
0.344425
 20
3.862638
 30
0.0
 11
0.344237
 21
3.855354
 31
0.0
  0
LINE
  8
0
  6
CONTINUOUS
 62
     7
  5
6B2
 10
0.344237
 20
3.855354
 30
0.0
 11
0.343666
 21
3.84801
 31
0.0
  0
LINE
  8
0
  6
CONTINUOUS
 62
     7
  5
6B3
 10
0.343666
 20
3.84801
 30
0.0
 11
0.342703
 21
3.84065
 31
0.0
  0
LINE
  8
0
  6
CONTINUOUS
 62
     7
  5
6B4
 10
0.342703
 20
3.84065
 30
0.0
 11
0.341349
 21
3.833321
 31
0.0
  0
LINE
  8
0
  6
CONTINUOUS
 62
     7
  5
6B5
 10
0.341349
 20
3.833321
 30
0.0
 11
0.339609
 21
3.826067
 31
0.0
  0
LINE
  8
0
  6
CONTINUOUS
 62
     7
  5
6B6
 10
0.339609
 20
3.826067
 30
0.0
 11
0.337494
 21
3.818934
 31
0.0
  0
LINE
  8
0
  6
CONTINUOUS
 62
     7
  5
6B7
 10
0.337494
 20
3.818934
 30
0.0
 11
0.33502
 21
3.811958
 31
0.0
  0
LINE
  8
0
  6
CONTINUOUS
 62
     7
  5
6B8
 10
0.33502
 20
3.811958
 30
0.0
 11
0.332208
 21
3.805174
 31
0.0
  0
LINE
  8
0
  6
CONTINUOUS
 62
     7
  5
6B9
 10
0.332208
 20
3.805174
 30
0.0
 11
0.32908
 21
3.798611
 31
0.0
  0
LINE
  8
0
  6
CONTINUOUS
 62
     7
  5
6BA
 10
0.32908
 20
3.798611
 30
0.0
 11
0.325666
 21
3.792299
 31
0.0
  0
LINE
  8
0
  6
CONTINUOUS
 62
     7
  5
6BB
 10
0.325666
 20
3.792299
 30
0.0
 11
0.322
 21
3.786269
 31
0.0
  0
LINE
  8
0
  6
CONTINUOUS
 62
     7
  5
6BC
 10
0.322
 20
3.786269
 30
0.0
 11
0.318121
 21
3.780546
 31
0.0
  0
LINE
  8
0
  6
CONTINUOUS
 62
     7
  5
6BD
 10
0.318121
 20
3.780546
 30
0.0
 11
0.31407
 21
3.775152
 31
0.0
  0
LINE
  8
0
  6
CONTINUOUS
 62
     7
  5
6BE
 10
0.31407
 20
3.775152
 30
0.0
 11
0.309893
 21
3.770101
 31
0.0
  0
LINE
  8
0
  6
CONTINUOUS
 62
     7
  5
6BF
 10
0.309893
 20
3.770101
 30
0.0
 11
0.305602
 21
3.765374
 31
0.0
  0
LINE
  8
0
  6
CONTINUOUS
 62
     7
  5
6C0
 10
0.305602
 20
3.765374
 30
0.0
 11
0.301137
 21
3.760878
 31
0.0
  0
LINE
  8
0
  6
CONTINUOUS
 62
     7
  5
6C1
 10
0.301137
 20
3.760878
 30
0.0
 11
0.296506
 21
3.756614
 31
0.0
  0
LINE
  8
0
  6
CONTINUOUS
 62
     7
  5
6C2
 10
0.296506
 20
3.756614
 30
0.0
 11
0.291723
 21
3.752589
 31
0.0
  0
LINE
  8
0
  6
CONTINUOUS
 62
     7
  5
6C3
 10
0.291723
 20
3.752589
 30
0.0
 11
0.286806
 21
3.748807
 31
0.0
  0
LINE
  8
0
  6
CONTINUOUS
 62
     7
  5
6C4
 10
0.286806
 20
3.748807
 30
0.0
 11
0.281771
 21
3.745274
 31
0.0
  0
LINE
  8
0
  6
CONTINUOUS
 62
     7
  5
6C5
 10
0.281771
 20
3.745274
 30
0.0
 11
0.276634
 21
3.741992
 31
0.0
  0
LINE
  8
0
  6
CONTINUOUS
 62
     7
  5
6C6
 10
0.276634
 20
3.741992
 30
0.0
 11
0.271413
 21
3.738964
 31
0.0
  0
LINE
  8
0
  6
CONTINUOUS
 62
     7
  5
6C7
 10
0.271413
 20
3.738964
 30
0.0
 11
0.266126
 21
3.736191
 31
0.0
  0
LINE
  8
0
  6
CONTINUOUS
 62
     7
  5
6C8
 10
0.266126
 20
3.736191
 30
0.0
 11
0.260787
 21
3.733671
 31
0.0
  0
LINE
  8
0
  6
CONTINUOUS
 62
     7
  5
6C9
 10
0.260787
 20
3.733671
 30
0.0
 11
0.255414
 21
3.731403
 31
0.0
  0
LINE
  8
0
  6
CONTINUOUS
 62
     7
  5
6CA
 10
0.255414
 20
3.731403
 30
0.0
 11
0.250022
 21
3.729382
 31
0.0
  0
LINE
  8
0
  6
CONTINUOUS
 62
     7
  5
6CB
 10
0.250022
 20
3.729382
 30
0.0
 11
0.244627
 21
3.727607
 31
0.0
  0
LINE
  8
0
  6
CONTINUOUS
 62
     7
  5
6CC
 10
0.244627
 20
3.727607
 30
0.0
 11
0.239243
 21
3.72607
 31
0.0
  0
LINE
  8
0
  6
CONTINUOUS
 62
     7
  5
6CD
 10
0.239243
 20
3.72607
 30
0.0
 11
0.233887
 21
3.724767
 31
0.0
  0
LINE
  8
0
  6
CONTINUOUS
 62
     7
  5
6CE
 10
0.233887
 20
3.724767
 30
0.0
 11
0.228575
 21
3.72369
 31
0.0
  0
LINE
  8
0
  6
CONTINUOUS
 62
     7
  5
6CF
 10
0.228575
 20
3.72369
 30
0.0
 11
0.223321
 21
3.722832
 31
0.0
  0
LINE
  8
0
  6
CONTINUOUS
 62
     7
  5
6D0
 10
0.223321
 20
3.722832
 30
0.0
 11
0.218141
 21
3.722183
 31
0.0
  0
LINE
  8
0
  6
CONTINUOUS
 62
     7
  5
6D1
 10
0.218141
 20
3.722183
 30
0.0
 11
0.213047
 21
3.721733
 31
0.0
  0
LINE
  8
0
  6
CONTINUOUS
 62
     7
  5
6D2
 10
0.213047
 20
3.721733
 30
0.0
 11
0.208054
 21
3.721472
 31
0.0
  0
LINE
  8
0
  6
CONTINUOUS
 62
     7
  5
6D3
 10
0.208054
 20
3.721472
 30
0.0
 11
0.203175
 21
3.721388
 31
0.0
  0
LINE
  8
0
  6
CONTINUOUS
 62
     7
  5
6D4
 10
0.344425
 20
3.88875
 30
0.0
 11
0.344425
 21
3.862637
 31
0.0
  0
LINE
  8
0
  6
CONTINUOUS
 62
     7
  5
6D5
 10
0.40375
 20
3.948075
 30
0.0
 11
0.401331
 21
3.948026
 31
0.0
  0
LINE
  8
0
  6
CONTINUOUS
 62
     7
  5
6D6
 10
0.401331
 20
3.948026
 30
0.0
 11
0.398888
 21
3.947875
 31
0.0
  0
LINE
  8
0
  6
CONTINUOUS
 62
     7
  5
6D7
 10
0.398888
 20
3.947875
 30
0.0
 11
0.396426
 21
3.947621
 31
0.0
  0
LINE
  8
0
  6
CONTINUOUS
 62
     7
  5
6D8
 10
0.396426
 20
3.947621
 30
0.0
 11
0.393955
 21
3.947261
 31
0.0
  0
LINE
  8
0
  6
CONTINUOUS
 62
     7
  5
6D9
 10
0.393955
 20
3.947261
 30
0.0
 11
0.391483
 21
3.946793
 31
0.0
  0
LINE
  8
0
  6
CONTINUOUS
 62
     7
  5
6DA
 10
0.391483
 20
3.946793
 30
0.0
 11
0.389016
 21
3.946216
 31
0.0
  0
LINE
  8
0
  6
CONTINUOUS
 62
     7
  5
6DB
 10
0.389016
 20
3.946216
 30
0.0
 11
0.386563
 21
3.945531
 31
0.0
  0
LINE
  8
0
  6
CONTINUOUS
 62
     7
  5
6DC
 10
0.386563
 20
3.945531
 30
0.0
 11
0.384131
 21
3.944737
 31
0.0
  0
LINE
  8
0
  6
CONTINUOUS
 62
     7
  5
6DD
 10
0.384131
 20
3.944737
 30
0.0
 11
0.381727
 21
3.943836
 31
0.0
  0
LINE
  8
0
  6
CONTINUOUS
 62
     7
  5
6DE
 10
0.381727
 20
3.943836
 30
0.0
 11
0.379358
 21
3.942829
 31
0.0
  0
LINE
  8
0
  6
CONTINUOUS
 62
     7
  5
6DF
 10
0.379358
 20
3.942829
 30
0.0
 11
0.37703
 21
3.941717
 31
0.0
  0
LINE
  8
0
  6
CONTINUOUS
 62
     7
  5
6E0
 10
0.37703
 20
3.941717
 30
0.0
 11
0.374748
 21
3.940503
 31
0.0
  0
LINE
  8
0
  6
CONTINUOUS
 62
     7
  5
6E1
 10
0.374748
 20
3.940503
 30
0.0
 11
0.37252
 21
3.93919
 31
0.0
  0
LINE
  8
0
  6
CONTINUOUS
 62
     7
  5
6E2
 10
0.37252
 20
3.93919
 30
0.0
 11
0.370351
 21
3.93778
 31
0.0
  0
LINE
  8
0
  6
CONTINUOUS
 62
     7
  5
6E3
 10
0.370351
 20
3.93778
 30
0.0
 11
0.368247
 21
3.936279
 31
0.0
  0
LINE
  8
0
  6
CONTINUOUS
 62
     7
  5
6E4
 10
0.368247
 20
3.936279
 30
0.0
 11
0.366214
 21
3.93469
 31
0.0
  0
LINE
  8
0
  6
CONTINUOUS
 62
     7
  5
6E5
 10
0.366214
 20
3.93469
 30
0.0
 11
0.364257
 21
3.933019
 31
0.0
  0
LINE
  8
0
  6
CONTINUOUS
 62
     7
  5
6E6
 10
0.364257
 20
3.933019
 30
0.0
 11
0.362381
 21
3.931272
 31
0.0
  0
LINE
  8
0
  6
CONTINUOUS
 62
     7
  5
6E7
 10
0.362381
 20
3.931272
 30
0.0
 11
0.360591
 21
3.929453
 31
0.0
  0
LINE
  8
0
  6
CONTINUOUS
 62
     7
  5
6E8
 10
0.360591
 20
3.929453
 30
0.0
 11
0.35887
 21
3.927548
 31
0.0
  0
LINE
  8
0
  6
CONTINUOUS
 62
     7
  5
6E9
 10
0.35887
 20
3.927548
 30
0.0
 11
0.357196
 21
3.925522
 31
0.0
  0
LINE
  8
0
  6
CONTINUOUS
 62
     7
  5
6EA
 10
0.357196
 20
3.925522
 30
0.0
 11
0.355581
 21
3.92338
 31
0.0
  0
LINE
  8
0
  6
CONTINUOUS
 62
     7
  5
6EB
 10
0.355581
 20
3.92338
 30
0.0
 11
0.354039
 21
3.921127
 31
0.0
  0
LINE
  8
0
  6
CONTINUOUS
 62
     7
  5
6EC
 10
0.354039
 20
3.921127
 30
0.0
 11
0.352581
 21
3.91877
 31
0.0
  0
LINE
  8
0
  6
CONTINUOUS
 62
     7
  5
6ED
 10
0.352581
 20
3.91877
 30
0.0
 11
0.35122
 21
3.916319
 31
0.0
  0
LINE
  8
0
  6
CONTINUOUS
 62
     7
  5
6EE
 10
0.35122
 20
3.916319
 30
0.0
 11
0.349964
 21
3.91378
 31
0.0
  0
LINE
  8
0
  6
CONTINUOUS
 62
     7
  5
6EF
 10
0.349964
 20
3.91378
 30
0.0
 11
0.348822
 21
3.911164
 31
0.0
  0
LINE
  8
0
  6
CONTINUOUS
 62
     7
  5
6F0
 10
0.348822
 20
3.911164
 30
0.0
 11
0.347802
 21
3.90848
 31
0.0
  0
LINE
  8
0
  6
CONTINUOUS
 62
     7
  5
6F1
 10
0.347802
 20
3.90848
 30
0.0
 11
0.346909
 21
3.905737
 31
0.0
  0
LINE
  8
0
  6
CONTINUOUS
 62
     7
  5
6F2
 10
0.346909
 20
3.905737
 30
0.0
 11
0.346149
 21
3.902946
 31
0.0
  0
LINE
  8
0
  6
CONTINUOUS
 62
     7
  5
6F3
 10
0.346149
 20
3.902946
 30
0.0
 11
0.345525
 21
3.900121
 31
0.0
  0
LINE
  8
0
  6
CONTINUOUS
 62
     7
  5
6F4
 10
0.345525
 20
3.900121
 30
0.0
 11
0.345041
 21
3.897274
 31
0.0
  0
LINE
  8
0
  6
CONTINUOUS
 62
     7
  5
6F5
 10
0.345041
 20
3.897274
 30
0.0
 11
0.344697
 21
3.894421
 31
0.0
  0
LINE
  8
0
  6
CONTINUOUS
 62
     7
  5
6F6
 10
0.344697
 20
3.894421
 30
0.0
 11
0.344492
 21
3.891575
 31
0.0
  0
LINE
  8
0
  6
CONTINUOUS
 62
     7
  5
6F7
 10
0.344492
 20
3.891575
 30
0.0
 11
0.344425
 21
3.88875
 31
0.0
  0
LINE
  8
0
  6
CONTINUOUS
 62
     7
  5
6F8
 10
0.859667
 20
3.948075
 30
0.0
 11
0.40375
 21
3.948075
 31
0.0
  0
LINE
  8
0
  6
CONTINUOUS
 62
     7
  5
6F9
 10
0.40375
 20
4.03
 30
0.0
 11
0.859667
 21
4.03
 31
0.0
  0
LINE
  8
0
  6
CONTINUOUS
 62
     7
  5
6FA
 10
0.2625
 20
3.88875
 30
0.0
 11
0.262667
 21
3.895617
 31
0.0
  0
LINE
  8
0
  6
CONTINUOUS
 62
     7
  5
6FB
 10
0.262667
 20
3.895617
 30
0.0
 11
0.263172
 21
3.902512
 31
0.0
  0
LINE
  8
0
  6
CONTINUOUS
 62
     7
  5
6FC
 10
0.263172
 20
3.902512
 30
0.0
 11
0.264018
 21
3.909403
 31
0.0
  0
LINE
  8
0
  6
CONTINUOUS
 62
     7
  5
6FD
 10
0.264018
 20
3.909403
 30
0.0
 11
0.265204
 21
3.916257
 31
0.0
  0
LINE
  8
0
  6
CONTINUOUS
 62
     7
  5
6FE
 10
0.265204
 20
3.916257
 30
0.0
 11
0.266725
 21
3.923038
 31
0.0
  0
LINE
  8
0
  6
CONTINUOUS
 62
     7
  5
6FF
 10
0.266725
 20
3.923038
 30
0.0
 11
0.268571
 21
3.929714
 31
0.0
  0
LINE
  8
0
  6
CONTINUOUS
 62
     7
  5
700
 10
0.268571
 20
3.929714
 30
0.0
 11
0.270729
 21
3.936257
 31
0.0
  0
LINE
  8
0
  6
CONTINUOUS
 62
     7
  5
701
 10
0.270729
 20
3.936257
 30
0.0
 11
0.273185
 21
3.942642
 31
0.0
  0
LINE
  8
0
  6
CONTINUOUS
 62
     7
  5
702
 10
0.273185
 20
3.942642
 30
0.0
 11
0.275923
 21
3.948849
 31
0.0
  0
LINE
  8
0
  6
CONTINUOUS
 62
     7
  5
703
 10
0.275923
 20
3.948849
 30
0.0
 11
0.278924
 21
3.954856
 31
0.0
  0
LINE
  8
0
  6
CONTINUOUS
 62
     7
  5
704
 10
0.278924
 20
3.954856
 30
0.0
 11
0.282166
 21
3.960644
 31
0.0
  0
LINE
  8
0
  6
CONTINUOUS
 62
     7
  5
705
 10
0.282166
 20
3.960644
 30
0.0
 11
0.285623
 21
3.966195
 31
0.0
  0
LINE
  8
0
  6
CONTINUOUS
 62
     7
  5
706
 10
0.285623
 20
3.966195
 30
0.0
 11
0.28927
 21
3.971489
 31
0.0
  0
LINE
  8
0
  6
CONTINUOUS
 62
     7
  5
707
 10
0.28927
 20
3.971489
 30
0.0
 11
0.293075
 21
3.976514
 31
0.0
  0
LINE
  8
0
  6
CONTINUOUS
 62
     7
  5
708
 10
0.293075
 20
3.976514
 30
0.0
 11
0.297007
 21
3.981257
 31
0.0
  0
LINE
  8
0
  6
CONTINUOUS
 62
     7
  5
709
 10
0.297007
 20
3.981257
 30
0.0
 11
0.301041
 21
3.985716
 31
0.0
  0
LINE
  8
0
  6
CONTINUOUS
 62
     7
  5
70A
 10
0.301041
 20
3.985716
 30
0.0
 11
0.305253
 21
3.989992
 31
0.0
  0
LINE
  8
0
  6
CONTINUOUS
 62
     7
  5
70B
 10
0.305253
 20
3.989992
 30
0.0
 11
0.309664
 21
3.994103
 31
0.0
  0
LINE
  8
0
  6
CONTINUOUS
 62
     7
  5
70C
 10
0.309664
 20
3.994103
 30
0.0
 11
0.314265
 21
3.998038
 31
0.0
  0
LINE
  8
0
  6
CONTINUOUS
 62
     7
  5
70D
 10
0.314265
 20
3.998038
 30
0.0
 11
0.319046
 21
4.001784
 31
0.0
  0
LINE
  8
0
  6
CONTINUOUS
 62
     7
  5
70E
 10
0.319046
 20
4.001784
 30
0.0
 11
0.323996
 21
4.00533
 31
0.0
  0
LINE
  8
0
  6
CONTINUOUS
 62
     7
  5
70F
 10
0.323996
 20
4.00533
 30
0.0
 11
0.329105
 21
4.008665
 31
0.0
  0
LINE
  8
0
  6
CONTINUOUS
 62
     7
  5
710
 10
0.329105
 20
4.008665
 30
0.0
 11
0.334359
 21
4.01178
 31
0.0
  0
LINE
  8
0
  6
CONTINUOUS
 62
     7
  5
711
 10
0.334359
 20
4.01178
 30
0.0
 11
0.339747
 21
4.014667
 31
0.0
  0
LINE
  8
0
  6
CONTINUOUS
 62
     7
  5
712
 10
0.339747
 20
4.014667
 30
0.0
 11
0.345255
 21
4.017319
 31
0.0
  0
LINE
  8
0
  6
CONTINUOUS
 62
     7
  5
713
 10
0.345255
 20
4.017319
 30
0.0
 11
0.350871
 21
4.019728
 31
0.0
  0
LINE
  8
0
  6
CONTINUOUS
 62
     7
  5
714
 10
0.350871
 20
4.019728
 30
0.0
 11
0.356581
 21
4.021891
 31
0.0
  0
LINE
  8
0
  6
CONTINUOUS
 62
     7
  5
715
 10
0.356581
 20
4.021891
 30
0.0
 11
0.36237
 21
4.023803
 31
0.0
  0
LINE
  8
0
  6
CONTINUOUS
 62
     7
  5
716
 10
0.36237
 20
4.023803
 30
0.0
 11
0.368225
 21
4.02546
 31
0.0
  0
LINE
  8
0
  6
CONTINUOUS
 62
     7
  5
717
 10
0.368225
 20
4.02546
 30
0.0
 11
0.374127
 21
4.026859
 31
0.0
  0
LINE
  8
0
  6
CONTINUOUS
 62
     7
  5
718
 10
0.374127
 20
4.026859
 30
0.0
 11
0.380061
 21
4.027999
 31
0.0
  0
LINE
  8
0
  6
CONTINUOUS
 62
     7
  5
719
 10
0.380061
 20
4.027999
 30
0.0
 11
0.386009
 21
4.028881
 31
0.0
  0
LINE
  8
0
  6
CONTINUOUS
 62
     7
  5
71A
 10
0.386009
 20
4.028881
 30
0.0
 11
0.391952
 21
4.029506
 31
0.0
  0
LINE
  8
0
  6
CONTINUOUS
 62
     7
  5
71B
 10
0.391952
 20
4.029506
 30
0.0
 11
0.397871
 21
4.029878
 31
0.0
  0
LINE
  8
0
  6
CONTINUOUS
 62
     7
  5
71C
 10
0.397871
 20
4.029878
 30
0.0
 11
0.40375
 21
4.03
 31
0.0
  0
LINE
  8
0
  6
CONTINUOUS
 62
     7
  5
71D
 10
0.2625
 20
3.862637
 30
0.0
 11
0.2625
 21
3.88875
 31
0.0
  0
LINE
  8
0
  6
CONTINUOUS
 62
     7
  5
71E
 10
0.203175
 20
3.803313
 30
0.0
 11
0.205283
 21
3.80335
 31
0.0
  0
LINE
  8
0
  6
CONTINUOUS
 62
     7
  5
71F
 10
0.205283
 20
3.80335
 30
0.0
 11
0.207429
 21
3.803465
 31
0.0
  0
LINE
  8
0
  6
CONTINUOUS
 62
     7
  5
720
 10
0.207429
 20
3.803465
 30
0.0
 11
0.209607
 21
3.803662
 31
0.0
  0
LINE
  8
0
  6
CONTINUOUS
 62
     7
  5
721
 10
0.209607
 20
3.803662
 30
0.0
 11
0.211811
 21
3.803944
 31
0.0
  0
LINE
  8
0
  6
CONTINUOUS
 62
     7
  5
722
 10
0.211811
 20
3.803944
 30
0.0
 11
0.214037
 21
3.804315
 31
0.0
  0
LINE
  8
0
  6
CONTINUOUS
 62
     7
  5
723
 10
0.214037
 20
3.804315
 30
0.0
 11
0.216278
 21
3.804778
 31
0.0
  0
LINE
  8
0
  6
CONTINUOUS
 62
     7
  5
724
 10
0.216278
 20
3.804778
 30
0.0
 11
0.218529
 21
3.805334
 31
0.0
  0
LINE
  8
0
  6
CONTINUOUS
 62
     7
  5
725
 10
0.218529
 20
3.805334
 30
0.0
 11
0.220784
 21
3.805986
 31
0.0
  0
LINE
  8
0
  6
CONTINUOUS
 62
     7
  5
726
 10
0.220784
 20
3.805986
 30
0.0
 11
0.223036
 21
3.806736
 31
0.0
  0
LINE
  8
0
  6
CONTINUOUS
 62
     7
  5
727
 10
0.223036
 20
3.806736
 30
0.0
 11
0.225281
 21
3.807585
 31
0.0
  0
LINE
  8
0
  6
CONTINUOUS
 62
     7
  5
728
 10
0.225281
 20
3.807585
 30
0.0
 11
0.227513
 21
3.808535
 31
0.0
  0
LINE
  8
0
  6
CONTINUOUS
 62
     7
  5
729
 10
0.227513
 20
3.808535
 30
0.0
 11
0.229725
 21
3.809585
 31
0.0
  0
LINE
  8
0
  6
CONTINUOUS
 62
     7
  5
72A
 10
0.229725
 20
3.809585
 30
0.0
 11
0.231913
 21
3.810738
 31
0.0
  0
LINE
  8
0
  6
CONTINUOUS
 62
     7
  5
72B
 10
0.231913
 20
3.810738
 30
0.0
 11
0.23407
 21
3.811992
 31
0.0
  0
LINE
  8
0
  6
CONTINUOUS
 62
     7
  5
72C
 10
0.23407
 20
3.811992
 30
0.0
 11
0.23619
 21
3.813348
 31
0.0
  0
LINE
  8
0
  6
CONTINUOUS
 62
     7
  5
72D
 10
0.23619
 20
3.813348
 30
0.0
 11
0.238268
 21
3.814805
 31
0.0
  0
LINE
  8
0
  6
CONTINUOUS
 62
     7
  5
72E
 10
0.238268
 20
3.814805
 30
0.0
 11
0.240298
 21
3.816363
 31
0.0
  0
LINE
  8
0
  6
CONTINUOUS
 62
     7
  5
72F
 10
0.240298
 20
3.816363
 30
0.0
 11
0.242274
 21
3.81802
 31
0.0
  0
LINE
  8
0
  6
CONTINUOUS
 62
     7
  5
730
 10
0.242274
 20
3.81802
 30
0.0
 11
0.24419
 21
3.819774
 31
0.0
  0
LINE
  8
0
  6
CONTINUOUS
 62
     7
  5
731
 10
0.24419
 20
3.819774
 30
0.0
 11
0.24604
 21
3.821625
 31
0.0
  0
LINE
  8
0
  6
CONTINUOUS
 62
     7
  5
732
 10
0.24604
 20
3.821625
 30
0.0
 11
0.24782
 21
3.823569
 31
0.0
  0
LINE
  8
0
  6
CONTINUOUS
 62
     7
  5
733
 10
0.24782
 20
3.823569
 30
0.0
 11
0.249546
 21
3.825634
 31
0.0
  0
LINE
  8
0
  6
CONTINUOUS
 62
     7
  5
734
 10
0.249546
 20
3.825634
 30
0.0
 11
0.251231
 21
3.827851
 31
0.0
  0
LINE
  8
0
  6
CONTINUOUS
 62
     7
  5
735
 10
0.251231
 20
3.827851
 30
0.0
 11
0.252856
 21
3.830215
 31
0.0
  0
LINE
  8
0
  6
CONTINUOUS
 62
     7
  5
736
 10
0.252856
 20
3.830215
 30
0.0
 11
0.254402
 21
3.832717
 31
0.0
  0
LINE
  8
0
  6
CONTINUOUS
 62
     7
  5
737
 10
0.254402
 20
3.832717
 30
0.0
 11
0.255851
 21
3.835349
 31
0.0
  0
LINE
  8
0
  6
CONTINUOUS
 62
     7
  5
738
 10
0.255851
 20
3.835349
 30
0.0
 11
0.257187
 21
3.838099
 31
0.0
  0
LINE
  8
0
  6
CONTINUOUS
 62
     7
  5
739
 10
0.257187
 20
3.838099
 30
0.0
 11
0.258395
 21
3.840954
 31
0.0
  0
LINE
  8
0
  6
CONTINUOUS
 62
     7
  5
73A
 10
0.258395
 20
3.840954
 30
0.0
 11
0.259464
 21
3.843902
 31
0.0
  0
LINE
  8
0
  6
CONTINUOUS
 62
     7
  5
73B
 10
0.259464
 20
3.843902
 30
0.0
 11
0.260383
 21
3.84693
 31
0.0
  0
LINE
  8
0
  6
CONTINUOUS
 62
     7
  5
73C
 10
0.260383
 20
3.84693
 30
0.0
 11
0.261143
 21
3.850022
 31
0.0
  0
LINE
  8
0
  6
CONTINUOUS
 62
     7
  5
73D
 10
0.261143
 20
3.850022
 30
0.0
 11
0.261738
 21
3.853159
 31
0.0
  0
LINE
  8
0
  6
CONTINUOUS
 62
     7
  5
73E
 10
0.261738
 20
3.853159
 30
0.0
 11
0.262163
 21
3.856321
 31
0.0
  0
LINE
  8
0
  6
CONTINUOUS
 62
     7
  5
73F
 10
0.262163
 20
3.856321
 30
0.0
 11
0.262416
 21
3.859487
 31
0.0
  0
LINE
  8
0
  6
CONTINUOUS
 62
     7
  5
740
 10
0.262416
 20
3.859487
 30
0.0
 11
0.2625
 21
3.862638
 31
0.0
  0
LINE
  8
0
  6
CONTINUOUS
 62
     7
  5
741
 10
0.12125
 20
3.803313
 30
0.0
 11
0.203175
 21
3.803313
 31
0.0
  0
LINE
  8
0
  6
CONTINUOUS
 62
     7
  5
742
 10
0.0
 20
3.734519
 30
0.0
 11
0.001956
 21
3.737696
 31
0.0
  0
LINE
  8
0
  6
CONTINUOUS
 62
     7
  5
743
 10
0.001956
 20
3.737696
 30
0.0
 11
0.004005
 21
3.740835
 31
0.0
  0
LINE
  8
0
  6
CONTINUOUS
 62
     7
  5
744
 10
0.004005
 20
3.740835
 30
0.0
 11
0.006147
 21
3.743934
 31
0.0
  0
LINE
  8
0
  6
CONTINUOUS
 62
     7
  5
745
 10
0.006147
 20
3.743934
 30
0.0
 11
0.008384
 21
3.74699
 31
0.0
  0
LINE
  8
0
  6
CONTINUOUS
 62
     7
  5
746
 10
0.008384
 20
3.74699
 30
0.0
 11
0.010713
 21
3.750001
 31
0.0
  0
LINE
  8
0
  6
CONTINUOUS
 62
     7
  5
747
 10
0.010713
 20
3.750001
 30
0.0
 11
0.013136
 21
3.752963
 31
0.0
  0
LINE
  8
0
  6
CONTINUOUS
 62
     7
  5
748
 10
0.013136
 20
3.752963
 30
0.0
 11
0.015651
 21
3.755873
 31
0.0
  0
LINE
  8
0
  6
CONTINUOUS
 62
     7
  5
749
 10
0.015651
 20
3.755873
 30
0.0
 11
0.018259
 21
3.758729
 31
0.0
  0
LINE
  8
0
  6
CONTINUOUS
 62
     7
  5
74A
 10
0.018259
 20
3.758729
 30
0.0
 11
0.020959
 21
3.761527
 31
0.0
  0
LINE
  8
0
  6
CONTINUOUS
 62
     7
  5
74B
 10
0.020959
 20
3.761527
 30
0.0
 11
0.02375
 21
3.764265
 31
0.0
  0
LINE
  8
0
  6
CONTINUOUS
 62
     7
  5
74C
 10
0.02375
 20
3.764265
 30
0.0
 11
0.026633
 21
3.76694
 31
0.0
  0
LINE
  8
0
  6
CONTINUOUS
 62
     7
  5
74D
 10
0.026633
 20
3.76694
 30
0.0
 11
0.029607
 21
3.769548
 31
0.0
  0
LINE
  8
0
  6
CONTINUOUS
 62
     7
  5
74E
 10
0.029607
 20
3.769548
 30
0.0
 11
0.032671
 21
3.772087
 31
0.0
  0
LINE
  8
0
  6
CONTINUOUS
 62
     7
  5
74F
 10
0.032671
 20
3.772087
 30
0.0
 11
0.035825
 21
3.774553
 31
0.0
  0
LINE
  8
0
  6
CONTINUOUS
 62
     7
  5
750
 10
0.035825
 20
3.774553
 30
0.0
 11
0.039067
 21
3.776943
 31
0.0
  0
LINE
  8
0
  6
CONTINUOUS
 62
     7
  5
751
 10
0.039067
 20
3.776943
 30
0.0
 11
0.042398
 21
3.779254
 31
0.0
  0
LINE
  8
0
  6
CONTINUOUS
 62
     7
  5
752
 10
0.042398
 20
3.779254
 30
0.0
 11
0.045816
 21
3.781483
 31
0.0
  0
LINE
  8
0
  6
CONTINUOUS
 62
     7
  5
753
 10
0.045816
 20
3.781483
 30
0.0
 11
0.049321
 21
3.783626
 31
0.0
  0
LINE
  8
0
  6
CONTINUOUS
 62
     7
  5
754
 10
0.049321
 20
3.783626
 30
0.0
 11
0.052911
 21
3.78568
 31
0.0
  0
LINE
  8
0
  6
CONTINUOUS
 62
     7
  5
755
 10
0.052911
 20
3.78568
 30
0.0
 11
0.056587
 21
3.787642
 31
0.0
  0
LINE
  8
0
  6
CONTINUOUS
 62
     7
  5
756
 10
0.056587
 20
3.787642
 30
0.0
 11
0.060346
 21
3.789508
 31
0.0
  0
LINE
  8
0
  6
CONTINUOUS
 62
     7
  5
757
 10
0.060346
 20
3.789508
 30
0.0
 11
0.064189
 21
3.791274
 31
0.0
  0
LINE
  8
0
  6
CONTINUOUS
 62
     7
  5
758
 10
0.064189
 20
3.791274
 30
0.0
 11
0.068114
 21
3.792937
 31
0.0
  0
LINE
  8
0
  6
CONTINUOUS
 62
     7
  5
759
 10
0.068114
 20
3.792937
 30
0.0
 11
0.07212
 21
3.794493
 31
0.0
  0
LINE
  8
0
  6
CONTINUOUS
 62
     7
  5
75A
 10
0.07212
 20
3.794493
 30
0.0
 11
0.076207
 21
3.795938
 31
0.0
  0
LINE
  8
0
  6
CONTINUOUS
 62
     7
  5
75B
 10
0.076207
 20
3.795938
 30
0.0
 11
0.080372
 21
3.797268
 31
0.0
  0
LINE
  8
0
  6
CONTINUOUS
 62
     7
  5
75C
 10
0.080372
 20
3.797268
 30
0.0
 11
0.084616
 21
3.798479
 31
0.0
  0
LINE
  8
0
  6
CONTINUOUS
 62
     7
  5
75D
 10
0.084616
 20
3.798479
 30
0.0
 11
0.088938
 21
3.799567
 31
0.0
  0
LINE
  8
0
  6
CONTINUOUS
 62
     7
  5
75E
 10
0.088938
 20
3.799567
 30
0.0
 11
0.093335
 21
3.800527
 31
0.0
  0
LINE
  8
0
  6
CONTINUOUS
 62
     7
  5
75F
 10
0.093335
 20
3.800527
 30
0.0
 11
0.097807
 21
3.801354
 31
0.0
  0
LINE
  8
0
  6
CONTINUOUS
 62
     7
  5
760
 10
0.097807
 20
3.801354
 30
0.0
 11
0.102353
 21
3.802043
 31
0.0
  0
LINE
  8
0
  6
CONTINUOUS
 62
     7
  5
761
 10
0.102353
 20
3.802043
 30
0.0
 11
0.106972
 21
3.802589
 31
0.0
  0
LINE
  8
0
  6
CONTINUOUS
 62
     7
  5
762
 10
0.106972
 20
3.802589
 30
0.0
 11
0.111662
 21
3.802987
 31
0.0
  0
LINE
  8
0
  6
CONTINUOUS
 62
     7
  5
763
 10
0.111662
 20
3.802987
 30
0.0
 11
0.116422
 21
3.80323
 31
0.0
  0
LINE
  8
0
  6
CONTINUOUS
 62
     7
  5
764
 10
0.116422
 20
3.80323
 30
0.0
 11
0.12125
 21
3.803313
 31
0.0
  0
LINE
  8
0
  6
CONTINUOUS
 62
     7
  5
765
 10
2.743075
 20
3.52625
 30
0.0
 11
2.743075
 21
3.662063
 31
0.0
  0
LINE
  8
0
  6
CONTINUOUS
 62
     7
  5
766
 10
2.825
 20
3.52625
 30
0.0
 11
2.743075
 21
3.52625
 31
0.0
  0
LINE
  8
0
  6
CONTINUOUS
 62
     7
  5
767
 10
2.825
 20
3.52625
 30
0.0
 11
2.825
 21
3.662063
 31
0.0
  0
LINE
  8
0
  6
CONTINUOUS
 62
     7
  5
768
 10
2.68375
 20
3.803313
 30
0.0
 11
2.69152
 21
3.803099
 31
0.0
  0
LINE
  8
0
  6
CONTINUOUS
 62
     7
  5
769
 10
2.69152
 20
3.803099
 30
0.0
 11
2.699108
 21
3.802475
 31
0.0
  0
LINE
  8
0
  6
CONTINUOUS
 62
     7
  5
76A
 10
2.699108
 20
3.802475
 30
0.0
 11
2.70651
 21
3.801467
 31
0.0
  0
LINE
  8
0
  6
CONTINUOUS
 62
     7
  5
76B
 10
2.70651
 20
3.801467
 30
0.0
 11
2.713719
 21
3.800097
 31
0.0
  0
LINE
  8
0
  6
CONTINUOUS
 62
     7
  5
76C
 10
2.713719
 20
3.800097
 30
0.0
 11
2.720731
 21
3.798386
 31
0.0
  0
LINE
  8
0
  6
CONTINUOUS
 62
     7
  5
76D
 10
2.720731
 20
3.798386
 30
0.0
 11
2.727541
 21
3.796353
 31
0.0
  0
LINE
  8
0
  6
CONTINUOUS
 62
     7
  5
76E
 10
2.727541
 20
3.796353
 30
0.0
 11
2.734145
 21
3.794017
 31
0.0
  0
LINE
  8
0
  6
CONTINUOUS
 62
     7
  5
76F
 10
2.734145
 20
3.794017
 30
0.0
 11
2.740538
 21
3.791394
 31
0.0
  0
LINE
  8
0
  6
CONTINUOUS
 62
     7
  5
770
 10
2.740538
 20
3.791394
 30
0.0
 11
2.746717
 21
3.788501
 31
0.0
  0
LINE
  8
0
  6
CONTINUOUS
 62
     7
  5
771
 10
2.746717
 20
3.788501
 30
0.0
 11
2.752677
 21
3.785353
 31
0.0
  0
LINE
  8
0
  6
CONTINUOUS
 62
     7
  5
772
 10
2.752677
 20
3.785353
 30
0.0
 11
2.758415
 21
3.781965
 31
0.0
  0
LINE
  8
0
  6
CONTINUOUS
 62
     7
  5
773
 10
2.758415
 20
3.781965
 30
0.0
 11
2.763927
 21
3.778352
 31
0.0
  0
LINE
  8
0
  6
CONTINUOUS
 62
     7
  5
774
 10
2.763927
 20
3.778352
 30
0.0
 11
2.76921
 21
3.774526
 31
0.0
  0
LINE
  8
0
  6
CONTINUOUS
 62
     7
  5
775
 10
2.76921
 20
3.774526
 30
0.0
 11
2.774261
 21
3.770503
 31
0.0
  0
LINE
  8
0
  6
CONTINUOUS
 62
     7
  5
776
 10
2.774261
 20
3.770503
 30
0.0
 11
2.779077
 21
3.766295
 31
0.0
  0
LINE
  8
0
  6
CONTINUOUS
 62
     7
  5
777
 10
2.779077
 20
3.766295
 30
0.0
 11
2.783655
 21
3.761915
 31
0.0
  0
LINE
  8
0
  6
CONTINUOUS
 62
     7
  5
778
 10
2.783655
 20
3.761915
 30
0.0
 11
2.787994
 21
3.757377
 31
0.0
  0
LINE
  8
0
  6
CONTINUOUS
 62
     7
  5
779
 10
2.787994
 20
3.757377
 30
0.0
 11
2.792091
 21
3.752692
 31
0.0
  0
LINE
  8
0
  6
CONTINUOUS
 62
     7
  5
77A
 10
2.792091
 20
3.752692
 30
0.0
 11
2.795946
 21
3.747873
 31
0.0
  0
LINE
  8
0
  6
CONTINUOUS
 62
     7
  5
77B
 10
2.795946
 20
3.747873
 30
0.0
 11
2.799558
 21
3.742933
 31
0.0
  0
LINE
  8
0
  6
CONTINUOUS
 62
     7
  5
77C
 10
2.799558
 20
3.742933
 30
0.0
 11
2.802926
 21
3.737883
 31
0.0
  0
LINE
  8
0
  6
CONTINUOUS
 62
     7
  5
77D
 10
2.802926
 20
3.737883
 30
0.0
 11
2.806049
 21
3.732735
 31
0.0
  0
LINE
  8
0
  6
CONTINUOUS
 62
     7
  5
77E
 10
2.806049
 20
3.732735
 30
0.0
 11
2.808928
 21
3.727501
 31
0.0
  0
LINE
  8
0
  6
CONTINUOUS
 62
     7
  5
77F
 10
2.808928
 20
3.727501
 30
0.0
 11
2.811562
 21
3.722192
 31
0.0
  0
LINE
  8
0
  6
CONTINUOUS
 62
     7
  5
780
 10
2.811562
 20
3.722192
 30
0.0
 11
2.813954
 21
3.71682
 31
0.0
  0
LINE
  8
0
  6
CONTINUOUS
 62
     7
  5
781
 10
2.813954
 20
3.71682
 30
0.0
 11
2.816105
 21
3.711397
 31
0.0
  0
LINE
  8
0
  6
CONTINUOUS
 62
     7
  5
782
 10
2.816105
 20
3.711397
 30
0.0
 11
2.818015
 21
3.705933
 31
0.0
  0
LINE
  8
0
  6
CONTINUOUS
 62
     7
  5
783
 10
2.818015
 20
3.705933
 30
0.0
 11
2.819687
 21
3.70044
 31
0.0
  0
LINE
  8
0
  6
CONTINUOUS
 62
     7
  5
784
 10
2.819687
 20
3.70044
 30
0.0
 11
2.821123
 21
3.694928
 31
0.0
  0
LINE
  8
0
  6
CONTINUOUS
 62
     7
  5
785
 10
2.821123
 20
3.694928
 30
0.0
 11
2.822328
 21
3.689409
 31
0.0
  0
LINE
  8
0
  6
CONTINUOUS
 62
     7
  5
786
 10
2.822328
 20
3.689409
 30
0.0
 11
2.823303
 21
3.683893
 31
0.0
  0
LINE
  8
0
  6
CONTINUOUS
 62
     7
  5
787
 10
2.823303
 20
3.683893
 30
0.0
 11
2.824053
 21
3.67839
 31
0.0
  0
LINE
  8
0
  6
CONTINUOUS
 62
     7
  5
788
 10
2.824053
 20
3.67839
 30
0.0
 11
2.824583
 21
3.672911
 31
0.0
  0
LINE
  8
0
  6
CONTINUOUS
 62
     7
  5
789
 10
2.824583
 20
3.672911
 30
0.0
 11
2.824897
 21
3.667465
 31
0.0
  0
LINE
  8
0
  6
CONTINUOUS
 62
     7
  5
78A
 10
2.824897
 20
3.667465
 30
0.0
 11
2.825
 21
3.662063
 31
0.0
  0
LINE
  8
0
  6
CONTINUOUS
 62
     7
  5
78B
 10
2.601825
 20
3.803313
 30
0.0
 11
2.68375
 21
3.803313
 31
0.0
  0
LINE
  8
0
  6
CONTINUOUS
 62
     7
  5
78C
 10
2.5425
 20
3.862638
 30
0.0
 11
2.542584
 21
3.859487
 31
0.0
  0
LINE
  8
0
  6
CONTINUOUS
 62
     7
  5
78D
 10
2.542584
 20
3.859487
 30
0.0
 11
2.542837
 21
3.856321
 31
0.0
  0
LINE
  8
0
  6
CONTINUOUS
 62
     7
  5
78E
 10
2.542837
 20
3.856321
 30
0.0
 11
2.543262
 21
3.853159
 31
0.0
  0
LINE
  8
0
  6
CONTINUOUS
 62
     7
  5
78F
 10
2.543262
 20
3.853159
 30
0.0
 11
2.543857
 21
3.850022
 31
0.0
  0
LINE
  8
0
  6
CONTINUOUS
 62
     7
  5
790
 10
2.543857
 20
3.850022
 30
0.0
 11
2.544617
 21
3.84693
 31
0.0
  0
LINE
  8
0
  6
CONTINUOUS
 62
     7
  5
791
 10
2.544617
 20
3.84693
 30
0.0
 11
2.545536
 21
3.843902
 31
0.0
  0
LINE
  8
0
  6
CONTINUOUS
 62
     7
  5
792
 10
2.545536
 20
3.843902
 30
0.0
 11
2.546605
 21
3.840954
 31
0.0
  0
LINE
  8
0
  6
CONTINUOUS
 62
     7
  5
793
 10
2.546605
 20
3.840954
 30
0.0
 11
2.547813
 21
3.838099
 31
0.0
  0
LINE
  8
0
  6
CONTINUOUS
 62
     7
  5
794
 10
2.547813
 20
3.838099
 30
0.0
 11
2.549149
 21
3.835349
 31
0.0
  0
LINE
  8
0
  6
CONTINUOUS
 62
     7
  5
795
 10
2.549149
 20
3.835349
 30
0.0
 11
2.550598
 21
3.832717
 31
0.0
  0
LINE
  8
0
  6
CONTINUOUS
 62
     7
  5
796
 10
2.550598
 20
3.832717
 30
0.0
 11
2.552144
 21
3.830215
 31
0.0
  0
LINE
  8
0
  6
CONTINUOUS
 62
     7
  5
797
 10
2.552144
 20
3.830215
 30
0.0
 11
2.553769
 21
3.827851
 31
0.0
  0
LINE
  8
0
  6
CONTINUOUS
 62
     7
  5
798
 10
2.553769
 20
3.827851
 30
0.0
 11
2.555454
 21
3.825634
 31
0.0
  0
LINE
  8
0
  6
CONTINUOUS
 62
     7
  5
799
 10
2.555454
 20
3.825634
 30
0.0
 11
2.55718
 21
3.823569
 31
0.0
  0
LINE
  8
0
  6
CONTINUOUS
 62
     7
  5
79A
 10
2.55718
 20
3.823569
 30
0.0
 11
2.55896
 21
3.821625
 31
0.0
  0
LINE
  8
0
  6
CONTINUOUS
 62
     7
  5
79B
 10
2.55896
 20
3.821625
 30
0.0
 11
2.56081
 21
3.819774
 31
0.0
  0
LINE
  8
0
  6
CONTINUOUS
 62
     7
  5
79C
 10
2.56081
 20
3.819774
 30
0.0
 11
2.562726
 21
3.81802
 31
0.0
  0
LINE
  8
0
  6
CONTINUOUS
 62
     7
  5
79D
 10
2.562726
 20
3.81802
 30
0.0
 11
2.564702
 21
3.816363
 31
0.0
  0
LINE
  8
0
  6
CONTINUOUS
 62
     7
  5
79E
 10
2.564702
 20
3.816363
 30
0.0
 11
2.566732
 21
3.814805
 31
0.0
  0
LINE
  8
0
  6
CONTINUOUS
 62
     7
  5
79F
 10
2.566732
 20
3.814805
 30
0.0
 11
2.56881
 21
3.813348
 31
0.0
  0
LINE
  8
0
  6
CONTINUOUS
 62
     7
  5
7A0
 10
2.56881
 20
3.813348
 30
0.0
 11
2.57093
 21
3.811992
 31
0.0
  0
LINE
  8
0
  6
CONTINUOUS
 62
     7
  5
7A1
 10
2.57093
 20
3.811992
 30
0.0
 11
2.573087
 21
3.810738
 31
0.0
  0
LINE
  8
0
  6
CONTINUOUS
 62
     7
  5
7A2
 10
2.573087
 20
3.810738
 30
0.0
 11
2.575275
 21
3.809585
 31
0.0
  0
LINE
  8
0
  6
CONTINUOUS
 62
     7
  5
7A3
 10
2.575275
 20
3.809585
 30
0.0
 11
2.577487
 21
3.808535
 31
0.0
  0
LINE
  8
0
  6
CONTINUOUS
 62
     7
  5
7A4
 10
2.577487
 20
3.808535
 30
0.0
 11
2.579719
 21
3.807585
 31
0.0
  0
LINE
  8
0
  6
CONTINUOUS
 62
     7
  5
7A5
 10
2.579719
 20
3.807585
 30
0.0
 11
2.581964
 21
3.806736
 31
0.0
  0
LINE
  8
0
  6
CONTINUOUS
 62
     7
  5
7A6
 10
2.581964
 20
3.806736
 30
0.0
 11
2.584216
 21
3.805986
 31
0.0
  0
LINE
  8
0
  6
CONTINUOUS
 62
     7
  5
7A7
 10
2.584216
 20
3.805986
 30
0.0
 11
2.586471
 21
3.805334
 31
0.0
  0
LINE
  8
0
  6
CONTINUOUS
 62
     7
  5
7A8
 10
2.586471
 20
3.805334
 30
0.0
 11
2.588722
 21
3.804778
 31
0.0
  0
LINE
  8
0
  6
CONTINUOUS
 62
     7
  5
7A9
 10
2.588722
 20
3.804778
 30
0.0
 11
2.590963
 21
3.804315
 31
0.0
  0
LINE
  8
0
  6
CONTINUOUS
 62
     7
  5
7AA
 10
2.590963
 20
3.804315
 30
0.0
 11
2.593189
 21
3.803944
 31
0.0
  0
LINE
  8
0
  6
CONTINUOUS
 62
     7
  5
7AB
 10
2.593189
 20
3.803944
 30
0.0
 11
2.595393
 21
3.803662
 31
0.0
  0
LINE
  8
0
  6
CONTINUOUS
 62
     7
  5
7AC
 10
2.595393
 20
3.803662
 30
0.0
 11
2.597571
 21
3.803465
 31
0.0
  0
LINE
  8
0
  6
CONTINUOUS
 62
     7
  5
7AD
 10
2.597571
 20
3.803465
 30
0.0
 11
2.599717
 21
3.80335
 31
0.0
  0
LINE
  8
0
  6
CONTINUOUS
 62
     7
  5
7AE
 10
2.599717
 20
3.80335
 30
0.0
 11
2.601825
 21
3.803313
 31
0.0
  0
LINE
  8
0
  6
CONTINUOUS
 62
     7
  5
7AF
 10
2.5425
 20
3.88875
 30
0.0
 11
2.5425
 21
3.862637
 31
0.0
  0
LINE
  8
0
  6
CONTINUOUS
 62
     7
  5
7B0
 10
2.40125
 20
4.03
 30
0.0
 11
2.407129
 21
4.029878
 31
0.0
  0
LINE
  8
0
  6
CONTINUOUS
 62
     7
  5
7B1
 10
2.407129
 20
4.029878
 30
0.0
 11
2.413048
 21
4.029506
 31
0.0
  0
LINE
  8
0
  6
CONTINUOUS
 62
     7
  5
7B2
 10
2.413048
 20
4.029506
 30
0.0
 11
2.418991
 21
4.028881
 31
0.0
  0
LINE
  8
0
  6
CONTINUOUS
 62
     7
  5
7B3
 10
2.418991
 20
4.028881
 30
0.0
 11
2.424939
 21
4.027999
 31
0.0
  0
LINE
  8
0
  6
CONTINUOUS
 62
     7
  5
7B4
 10
2.424939
 20
4.027999
 30
0.0
 11
2.430873
 21
4.026859
 31
0.0
  0
LINE
  8
0
  6
CONTINUOUS
 62
     7
  5
7B5
 10
2.430873
 20
4.026859
 30
0.0
 11
2.436775
 21
4.02546
 31
0.0
  0
LINE
  8
0
  6
CONTINUOUS
 62
     7
  5
7B6
 10
2.436775
 20
4.02546
 30
0.0
 11
2.44263
 21
4.023803
 31
0.0
  0
LINE
  8
0
  6
CONTINUOUS
 62
     7
  5
7B7
 10
2.44263
 20
4.023803
 30
0.0
 11
2.448419
 21
4.021891
 31
0.0
  0
LINE
  8
0
  6
CONTINUOUS
 62
     7
  5
7B8
 10
2.448419
 20
4.021891
 30
0.0
 11
2.454129
 21
4.019728
 31
0.0
  0
LINE
  8
0
  6
CONTINUOUS
 62
     7
  5
7B9
 10
2.454129
 20
4.019728
 30
0.0
 11
2.459745
 21
4.017319
 31
0.0
  0
LINE
  8
0
  6
CONTINUOUS
 62
     7
  5
7BA
 10
2.459745
 20
4.017319
 30
0.0
 11
2.465253
 21
4.014667
 31
0.0
  0
LINE
  8
0
  6
CONTINUOUS
 62
     7
  5
7BB
 10
2.465253
 20
4.014667
 30
0.0
 11
2.470641
 21
4.01178
 31
0.0
  0
LINE
  8
0
  6
CONTINUOUS
 62
     7
  5
7BC
 10
2.470641
 20
4.01178
 30
0.0
 11
2.475895
 21
4.008665
 31
0.0
  0
LINE
  8
0
  6
CONTINUOUS
 62
     7
  5
7BD
 10
2.475895
 20
4.008665
 30
0.0
 11
2.481004
 21
4.00533
 31
0.0
  0
LINE
  8
0
  6
CONTINUOUS
 62
     7
  5
7BE
 10
2.481004
 20
4.00533
 30
0.0
 11
2.485954
 21
4.001784
 31
0.0
  0
LINE
  8
0
  6
CONTINUOUS
 62
     7
  5
7BF
 10
2.485954
 20
4.001784
 30
0.0
 11
2.490735
 21
3.998038
 31
0.0
  0
LINE
  8
0
  6
CONTINUOUS
 62
     7
  5
7C0
 10
2.490735
 20
3.998038
 30
0.0
 11
2.495336
 21
3.994103
 31
0.0
  0
LINE
  8
0
  6
CONTINUOUS
 62
     7
  5
7C1
 10
2.495336
 20
3.994103
 30
0.0
 11
2.499747
 21
3.989992
 31
0.0
  0
LINE
  8
0
  6
CONTINUOUS
 62
     7
  5
7C2
 10
2.499747
 20
3.989992
 30
0.0
 11
2.503959
 21
3.985716
 31
0.0
  0
LINE
  8
0
  6
CONTINUOUS
 62
     7
  5
7C3
 10
2.503959
 20
3.985716
 30
0.0
 11
2.507993
 21
3.981257
 31
0.0
  0
LINE
  8
0
  6
CONTINUOUS
 62
     7
  5
7C4
 10
2.507993
 20
3.981257
 30
0.0
 11
2.511925
 21
3.976514
 31
0.0
  0
LINE
  8
0
  6
CONTINUOUS
 62
     7
  5
7C5
 10
2.511925
 20
3.976514
 30
0.0
 11
2.51573
 21
3.971489
 31
0.0
  0
LINE
  8
0
  6
CONTINUOUS
 62
     7
  5
7C6
 10
2.51573
 20
3.971489
 30
0.0
 11
2.519377
 21
3.966195
 31
0.0
  0
LINE
  8
0
  6
CONTINUOUS
 62
     7
  5
7C7
 10
2.519377
 20
3.966195
 30
0.0
 11
2.522834
 21
3.960644
 31
0.0
  0
LINE
  8
0
  6
CONTINUOUS
 62
     7
  5
7C8
 10
2.522834
 20
3.960644
 30
0.0
 11
2.526076
 21
3.954856
 31
0.0
  0
LINE
  8
0
  6
CONTINUOUS
 62
     7
  5
7C9
 10
2.526076
 20
3.954856
 30
0.0
 11
2.529077
 21
3.948849
 31
0.0
  0
LINE
  8
0
  6
CONTINUOUS
 62
     7
  5
7CA
 10
2.529077
 20
3.948849
 30
0.0
 11
2.531815
 21
3.942642
 31
0.0
  0
LINE
  8
0
  6
CONTINUOUS
 62
     7
  5
7CB
 10
2.531815
 20
3.942642
 30
0.0
 11
2.534271
 21
3.936257
 31
0.0
  0
LINE
  8
0
  6
CONTINUOUS
 62
     7
  5
7CC
 10
2.534271
 20
3.936257
 30
0.0
 11
2.536429
 21
3.929714
 31
0.0
  0
LINE
  8
0
  6
CONTINUOUS
 62
     7
  5
7CD
 10
2.536429
 20
3.929714
 30
0.0
 11
2.538275
 21
3.923038
 31
0.0
  0
LINE
  8
0
  6
CONTINUOUS
 62
     7
  5
7CE
 10
2.538275
 20
3.923038
 30
0.0
 11
2.539796
 21
3.916257
 31
0.0
  0
LINE
  8
0
  6
CONTINUOUS
 62
     7
  5
7CF
 10
2.539796
 20
3.916257
 30
0.0
 11
2.540982
 21
3.909403
 31
0.0
  0
LINE
  8
0
  6
CONTINUOUS
 62
     7
  5
7D0
 10
2.540982
 20
3.909403
 30
0.0
 11
2.541828
 21
3.902512
 31
0.0
  0
LINE
  8
0
  6
CONTINUOUS
 62
     7
  5
7D1
 10
2.541828
 20
3.902512
 30
0.0
 11
2.542333
 21
3.895617
 31
0.0
  0
LINE
  8
0
  6
CONTINUOUS
 62
     7
  5
7D2
 10
2.542333
 20
3.895617
 30
0.0
 11
2.5425
 21
3.88875
 31
0.0
  0
LINE
  8
0
  6
CONTINUOUS
 62
     7
  5
7D3
 10
1.945333
 20
4.03
 30
0.0
 11
2.40125
 21
4.03
 31
0.0
  0
LINE
  8
0
  6
CONTINUOUS
 62
     7
  5
7D4
 10
2.40125
 20
3.948075
 30
0.0
 11
1.945333
 21
3.948075
 31
0.0
  0
LINE
  8
0
  6
CONTINUOUS
 62
     7
  5
7D5
 10
2.460575
 20
3.88875
 30
0.0
 11
2.460508
 21
3.891575
 31
0.0
  0
LINE
  8
0
  6
CONTINUOUS
 62
     7
  5
7D6
 10
2.460508
 20
3.891575
 30
0.0
 11
2.460303
 21
3.894421
 31
0.0
  0
LINE
  8
0
  6
CONTINUOUS
 62
     7
  5
7D7
 10
2.460303
 20
3.894421
 30
0.0
 11
2.459959
 21
3.897274
 31
0.0
  0
LINE
  8
0
  6
CONTINUOUS
 62
     7
  5
7D8
 10
2.459959
 20
3.897274
 30
0.0
 11
2.459475
 21
3.900121
 31
0.0
  0
LINE
  8
0
  6
CONTINUOUS
 62
     7
  5
7D9
 10
2.459475
 20
3.900121
 30
0.0
 11
2.458851
 21
3.902946
 31
0.0
  0
LINE
  8
0
  6
CONTINUOUS
 62
     7
  5
7DA
 10
2.458851
 20
3.902946
 30
0.0
 11
2.458091
 21
3.905737
 31
0.0
  0
LINE
  8
0
  6
CONTINUOUS
 62
     7
  5
7DB
 10
2.458091
 20
3.905737
 30
0.0
 11
2.457198
 21
3.90848
 31
0.0
  0
LINE
  8
0
  6
CONTINUOUS
 62
     7
  5
7DC
 10
2.457198
 20
3.90848
 30
0.0
 11
2.456178
 21
3.911164
 31
0.0
  0
LINE
  8
0
  6
CONTINUOUS
 62
     7
  5
7DD
 10
2.456178
 20
3.911164
 30
0.0
 11
2.455036
 21
3.91378
 31
0.0
  0
LINE
  8
0
  6
CONTINUOUS
 62
     7
  5
7DE
 10
2.455036
 20
3.91378
 30
0.0
 11
2.45378
 21
3.916319
 31
0.0
  0
LINE
  8
0
  6
CONTINUOUS
 62
     7
  5
7DF
 10
2.45378
 20
3.916319
 30
0.0
 11
2.452419
 21
3.91877
 31
0.0
  0
LINE
  8
0
  6
CONTINUOUS
 62
     7
  5
7E0
 10
2.452419
 20
3.91877
 30
0.0
 11
2.450961
 21
3.921127
 31
0.0
  0
LINE
  8
0
  6
CONTINUOUS
 62
     7
  5
7E1
 10
2.450961
 20
3.921127
 30
0.0
 11
2.449419
 21
3.92338
 31
0.0
  0
LINE
  8
0
  6
CONTINUOUS
 62
     7
  5
7E2
 10
2.449419
 20
3.92338
 30
0.0
 11
2.447804
 21
3.925522
 31
0.0
  0
LINE
  8
0
  6
CONTINUOUS
 62
     7
  5
7E3
 10
2.447804
 20
3.925522
 30
0.0
 11
2.44613
 21
3.927548
 31
0.0
  0
LINE
  8
0
  6
CONTINUOUS
 62
     7
  5
7E4
 10
2.44613
 20
3.927548
 30
0.0
 11
2.444409
 21
3.929453
 31
0.0
  0
LINE
  8
0
  6
CONTINUOUS
 62
     7
  5
7E5
 10
2.444409
 20
3.929453
 30
0.0
 11
2.442619
 21
3.931272
 31
0.0
  0
LINE
  8
0
  6
CONTINUOUS
 62
     7
  5
7E6
 10
2.442619
 20
3.931272
 30
0.0
 11
2.440743
 21
3.933019
 31
0.0
  0
LINE
  8
0
  6
CONTINUOUS
 62
     7
  5
7E7
 10
2.440743
 20
3.933019
 30
0.0
 11
2.438786
 21
3.93469
 31
0.0
  0
LINE
  8
0
  6
CONTINUOUS
 62
     7
  5
7E8
 10
2.438786
 20
3.93469
 30
0.0
 11
2.436753
 21
3.936279
 31
0.0
  0
LINE
  8
0
  6
CONTINUOUS
 62
     7
  5
7E9
 10
2.436753
 20
3.936279
 30
0.0
 11
2.434649
 21
3.93778
 31
0.0
  0
LINE
  8
0
  6
CONTINUOUS
 62
     7
  5
7EA
 10
2.434649
 20
3.93778
 30
0.0
 11
2.43248
 21
3.93919
 31
0.0
  0
LINE
  8
0
  6
CONTINUOUS
 62
     7
  5
7EB
 10
2.43248
 20
3.93919
 30
0.0
 11
2.430252
 21
3.940503
 31
0.0
  0
LINE
  8
0
  6
CONTINUOUS
 62
     7
  5
7EC
 10
2.430252
 20
3.940503
 30
0.0
 11
2.42797
 21
3.941717
 31
0.0
  0
LINE
  8
0
  6
CONTINUOUS
 62
     7
  5
7ED
 10
2.42797
 20
3.941717
 30
0.0
 11
2.425642
 21
3.942829
 31
0.0
  0
LINE
  8
0
  6
CONTINUOUS
 62
     7
  5
7EE
 10
2.425642
 20
3.942829
 30
0.0
 11
2.423273
 21
3.943836
 31
0.0
  0
LINE
  8
0
  6
CONTINUOUS
 62
     7
  5
7EF
 10
2.423273
 20
3.943836
 30
0.0
 11
2.420869
 21
3.944737
 31
0.0
  0
LINE
  8
0
  6
CONTINUOUS
 62
     7
  5
7F0
 10
2.420869
 20
3.944737
 30
0.0
 11
2.418437
 21
3.945531
 31
0.0
  0
LINE
  8
0
  6
CONTINUOUS
 62
     7
  5
7F1
 10
2.418437
 20
3.945531
 30
0.0
 11
2.415984
 21
3.946216
 31
0.0
  0
LINE
  8
0
  6
CONTINUOUS
 62
     7
  5
7F2
 10
2.415984
 20
3.946216
 30
0.0
 11
2.413517
 21
3.946793
 31
0.0
  0
LINE
  8
0
  6
CONTINUOUS
 62
     7
  5
7F3
 10
2.413517
 20
3.946793
 30
0.0
 11
2.411045
 21
3.947261
 31
0.0
  0
LINE
  8
0
  6
CONTINUOUS
 62
     7
  5
7F4
 10
2.411045
 20
3.947261
 30
0.0
 11
2.408574
 21
3.947621
 31
0.0
  0
LINE
  8
0
  6
CONTINUOUS
 62
     7
  5
7F5
 10
2.408574
 20
3.947621
 30
0.0
 11
2.406112
 21
3.947875
 31
0.0
  0
LINE
  8
0
  6
CONTINUOUS
 62
     7
  5
7F6
 10
2.406112
 20
3.947875
 30
0.0
 11
2.403669
 21
3.948026
 31
0.0
  0
LINE
  8
0
  6
CONTINUOUS
 62
     7
  5
7F7
 10
2.403669
 20
3.948026
 30
0.0
 11
2.40125
 21
3.948075
 31
0.0
  0
LINE
  8
0
  6
CONTINUOUS
 62
     7
  5
7F8
 10
2.460575
 20
3.862637
 30
0.0
 11
2.460575
 21
3.88875
 31
0.0
  0
LINE
  8
0
  6
CONTINUOUS
 62
     7
  5
7F9
 10
2.601825
 20
3.721388
 30
0.0
 11
2.596946
 21
3.721472
 31
0.0
  0
LINE
  8
0
  6
CONTINUOUS
 62
     7
  5
7FA
 10
2.596946
 20
3.721472
 30
0.0
 11
2.591953
 21
3.721733
 31
0.0
  0
LINE
  8
0
  6
CONTINUOUS
 62
     7
  5
7FB
 10
2.591953
 20
3.721733
 30
0.0
 11
2.586859
 21
3.722183
 31
0.0
  0
LINE
  8
0
  6
CONTINUOUS
 62
     7
  5
7FC
 10
2.586859
 20
3.722183
 30
0.0
 11
2.581679
 21
3.722832
 31
0.0
  0
LINE
  8
0
  6
CONTINUOUS
 62
     7
  5
7FD
 10
2.581679
 20
3.722832
 30
0.0
 11
2.576425
 21
3.72369
 31
0.0
  0
LINE
  8
0
  6
CONTINUOUS
 62
     7
  5
7FE
 10
2.576425
 20
3.72369
 30
0.0
 11
2.571113
 21
3.724767
 31
0.0
  0
LINE
  8
0
  6
CONTINUOUS
 62
     7
  5
7FF
 10
2.571113
 20
3.724767
 30
0.0
 11
2.565757
 21
3.72607
 31
0.0
  0
LINE
  8
0
  6
CONTINUOUS
 62
     7
  5
800
 10
2.565757
 20
3.72607
 30
0.0
 11
2.560373
 21
3.727607
 31
0.0
  0
LINE
  8
0
  6
CONTINUOUS
 62
     7
  5
801
 10
2.560373
 20
3.727607
 30
0.0
 11
2.554978
 21
3.729382
 31
0.0
  0
LINE
  8
0
  6
CONTINUOUS
 62
     7
  5
802
 10
2.554978
 20
3.729382
 30
0.0
 11
2.549586
 21
3.731403
 31
0.0
  0
LINE
  8
0
  6
CONTINUOUS
 62
     7
  5
803
 10
2.549586
 20
3.731403
 30
0.0
 11
2.544213
 21
3.733671
 31
0.0
  0
LINE
  8
0
  6
CONTINUOUS
 62
     7
  5
804
 10
2.544213
 20
3.733671
 30
0.0
 11
2.538874
 21
3.736191
 31
0.0
  0
LINE
  8
0
  6
CONTINUOUS
 62
     7
  5
805
 10
2.538874
 20
3.736191
 30
0.0
 11
2.533587
 21
3.738964
 31
0.0
  0
LINE
  8
0
  6
CONTINUOUS
 62
     7
  5
806
 10
2.533587
 20
3.738964
 30
0.0
 11
2.528366
 21
3.741992
 31
0.0
  0
LINE
  8
0
  6
CONTINUOUS
 62
     7
  5
807
 10
2.528366
 20
3.741992
 30
0.0
 11
2.523229
 21
3.745274
 31
0.0
  0
LINE
  8
0
  6
CONTINUOUS
 62
     7
  5
808
 10
2.523229
 20
3.745274
 30
0.0
 11
2.518194
 21
3.748807
 31
0.0
  0
LINE
  8
0
  6
CONTINUOUS
 62
     7
  5
809
 10
2.518194
 20
3.748807
 30
0.0
 11
2.513277
 21
3.752589
 31
0.0
  0
LINE
  8
0
  6
CONTINUOUS
 62
     7
  5
80A
 10
2.513277
 20
3.752589
 30
0.0
 11
2.508494
 21
3.756614
 31
0.0
  0
LINE
  8
0
  6
CONTINUOUS
 62
     7
  5
80B
 10
2.508494
 20
3.756614
 30
0.0
 11
2.503863
 21
3.760878
 31
0.0
  0
LINE
  8
0
  6
CONTINUOUS
 62
     7
  5
80C
 10
2.503863
 20
3.760878
 30
0.0
 11
2.499398
 21
3.765374
 31
0.0
  0
LINE
  8
0
  6
CONTINUOUS
 62
     7
  5
80D
 10
2.499398
 20
3.765374
 30
0.0
 11
2.495107
 21
3.770101
 31
0.0
  0
LINE
  8
0
  6
CONTINUOUS
 62
     7
  5
80E
 10
2.495107
 20
3.770101
 30
0.0
 11
2.49093
 21
3.775152
 31
0.0
  0
LINE
  8
0
  6
CONTINUOUS
 62
     7
  5
80F
 10
2.49093
 20
3.775152
 30
0.0
 11
2.486879
 21
3.780546
 31
0.0
  0
LINE
  8
0
  6
CONTINUOUS
 62
     7
  5
810
 10
2.486879
 20
3.780546
 30
0.0
 11
2.483
 21
3.786269
 31
0.0
  0
LINE
  8
0
  6
CONTINUOUS
 62
     7
  5
811
 10
2.483
 20
3.786269
 30
0.0
 11
2.479334
 21
3.792299
 31
0.0
  0
LINE
  8
0
  6
CONTINUOUS
 62
     7
  5
812
 10
2.479334
 20
3.792299
 30
0.0
 11
2.47592
 21
3.798611
 31
0.0
  0
LINE
  8
0
  6
CONTINUOUS
 62
     7
  5
813
 10
2.47592
 20
3.798611
 30
0.0
 11
2.472792
 21
3.805174
 31
0.0
  0
LINE
  8
0
  6
CONTINUOUS
 62
     7
  5
814
 10
2.472792
 20
3.805174
 30
0.0
 11
2.46998
 21
3.811958
 31
0.0
  0
LINE
  8
0
  6
CONTINUOUS
 62
     7
  5
815
 10
2.46998
 20
3.811958
 30
0.0
 11
2.467506
 21
3.818934
 31
0.0
  0
LINE
  8
0
  6
CONTINUOUS
 62
     7
  5
816
 10
2.467506
 20
3.818934
 30
0.0
 11
2.465391
 21
3.826067
 31
0.0
  0
LINE
  8
0
  6
CONTINUOUS
 62
     7
  5
817
 10
2.465391
 20
3.826067
 30
0.0
 11
2.463651
 21
3.833321
 31
0.0
  0
LINE
  8
0
  6
CONTINUOUS
 62
     7
  5
818
 10
2.463651
 20
3.833321
 30
0.0
 11
2.462297
 21
3.84065
 31
0.0
  0
LINE
  8
0
  6
CONTINUOUS
 62
     7
  5
819
 10
2.462297
 20
3.84065
 30
0.0
 11
2.461334
 21
3.84801
 31
0.0
  0
LINE
  8
0
  6
CONTINUOUS
 62
     7
  5
81A
 10
2.461334
 20
3.84801
 30
0.0
 11
2.460763
 21
3.855354
 31
0.0
  0
LINE
  8
0
  6
CONTINUOUS
 62
     7
  5
81B
 10
2.460763
 20
3.855354
 30
0.0
 11
2.460575
 21
3.862638
 31
0.0
  0
LINE
  8
0
  6
CONTINUOUS
 62
     7
  5
81C
 10
2.68375
 20
3.721388
 30
0.0
 11
2.601825
 21
3.721388
 31
0.0
  0
LINE
  8
0
  6
CONTINUOUS
 62
     7
  5
81D
 10
2.743075
 20
3.662063
 30
0.0
 11
2.742944
 21
3.666009
 31
0.0
  0
LINE
  8
0
  6
CONTINUOUS
 62
     7
  5
81E
 10
2.742944
 20
3.666009
 30
0.0
 11
2.742569
 21
3.669797
 31
0.0
  0
LINE
  8
0
  6
CONTINUOUS
 62
     7
  5
81F
 10
2.742569
 20
3.669797
 30
0.0
 11
2.741976
 21
3.67343
 31
0.0
  0
LINE
  8
0
  6
CONTINUOUS
 62
     7
  5
820
 10
2.741976
 20
3.67343
 30
0.0
 11
2.741188
 21
3.676904
 31
0.0
  0
LINE
  8
0
  6
CONTINUOUS
 62
     7
  5
821
 10
2.741188
 20
3.676904
 30
0.0
 11
2.740228
 21
3.680219
 31
0.0
  0
LINE
  8
0
  6
CONTINUOUS
 62
     7
  5
822
 10
2.740228
 20
3.680219
 30
0.0
 11
2.739116
 21
3.683372
 31
0.0
  0
LINE
  8
0
  6
CONTINUOUS
 62
     7
  5
823
 10
2.739116
 20
3.683372
 30
0.0
 11
2.737872
 21
3.686357
 31
0.0
  0
LINE
  8
0
  6
CONTINUOUS
 62
     7
  5
824
 10
2.737872
 20
3.686357
 30
0.0
 11
2.73652
 21
3.68917
 31
0.0
  0
LINE
  8
0
  6
CONTINUOUS
 62
     7
  5
825
 10
2.73652
 20
3.68917
 30
0.0
 11
2.735081
 21
3.691805
 31
0.0
  0
LINE
  8
0
  6
CONTINUOUS
 62
     7
  5
826
 10
2.735081
 20
3.691805
 30
0.0
 11
2.733578
 21
3.69426
 31
0.0
  0
LINE
  8
0
  6
CONTINUOUS
 62
     7
  5
827
 10
2.733578
 20
3.69426
 30
0.0
 11
2.732035
 21
3.69653
 31
0.0
  0
LINE
  8
0
  6
CONTINUOUS
 62
     7
  5
828
 10
2.732035
 20
3.69653
 30
0.0
 11
2.730474
 21
3.698618
 31
0.0
  0
LINE
  8
0
  6
CONTINUOUS
 62
     7
  5
829
 10
2.730474
 20
3.698618
 30
0.0
 11
2.728865
 21
3.700586
 31
0.0
  0
LINE
  8
0
  6
CONTINUOUS
 62
     7
  5
82A
 10
2.728865
 20
3.700586
 30
0.0
 11
2.727197
 21
3.702458
 31
0.0
  0
LINE
  8
0
  6
CONTINUOUS
 62
     7
  5
82B
 10
2.727197
 20
3.702458
 30
0.0
 11
2.725473
 21
3.704236
 31
0.0
  0
LINE
  8
0
  6
CONTINUOUS
 62
     7
  5
82C
 10
2.725473
 20
3.704236
 30
0.0
 11
2.723697
 21
3.705923
 31
0.0
  0
LINE
  8
0
  6
CONTINUOUS
 62
     7
  5
82D
 10
2.723697
 20
3.705923
 30
0.0
 11
2.721869
 21
3.70752
 31
0.0
  0
LINE
  8
0
  6
CONTINUOUS
 62
     7
  5
82E
 10
2.721869
 20
3.70752
 30
0.0
 11
2.719994
 21
3.709029
 31
0.0
  0
LINE
  8
0
  6
CONTINUOUS
 62
     7
  5
82F
 10
2.719994
 20
3.709029
 30
0.0
 11
2.718073
 21
3.71045
 31
0.0
  0
LINE
  8
0
  6
CONTINUOUS
 62
     7
  5
830
 10
2.718073
 20
3.71045
 30
0.0
 11
2.71611
 21
3.711785
 31
0.0
  0
LINE
  8
0
  6
CONTINUOUS
 62
     7
  5
831
 10
2.71611
 20
3.711785
 30
0.0
 11
2.714107
 21
3.713032
 31
0.0
  0
LINE
  8
0
  6
CONTINUOUS
 62
     7
  5
832
 10
2.714107
 20
3.713032
 30
0.0
 11
2.712067
 21
3.714193
 31
0.0
  0
LINE
  8
0
  6
CONTINUOUS
 62
     7
  5
833
 10
2.712067
 20
3.714193
 30
0.0
 11
2.709993
 21
3.715267
 31
0.0
  0
LINE
  8
0
  6
CONTINUOUS
 62
     7
  5
834
 10
2.709993
 20
3.715267
 30
0.0
 11
2.707889
 21
3.716255
 31
0.0
  0
LINE
  8
0
  6
CONTINUOUS
 62
     7
  5
835
 10
2.707889
 20
3.716255
 30
0.0
 11
2.705757
 21
3.717155
 31
0.0
  0
LINE
  8
0
  6
CONTINUOUS
 62
     7
  5
836
 10
2.705757
 20
3.717155
 30
0.0
 11
2.703601
 21
3.717968
 31
0.0
  0
LINE
  8
0
  6
CONTINUOUS
 62
     7
  5
837
 10
2.703601
 20
3.717968
 30
0.0
 11
2.701425
 21
3.718693
 31
0.0
  0
LINE
  8
0
  6
CONTINUOUS
 62
     7
  5
838
 10
2.701425
 20
3.718693
 30
0.0
 11
2.699232
 21
3.719332
 31
0.0
  0
LINE
  8
0
  6
CONTINUOUS
 62
     7
  5
839
 10
2.699232
 20
3.719332
 30
0.0
 11
2.697026
 21
3.719883
 31
0.0
  0
LINE
  8
0
  6
CONTINUOUS
 62
     7
  5
83A
 10
2.697026
 20
3.719883
 30
0.0
 11
2.694811
 21
3.720347
 31
0.0
  0
LINE
  8
0
  6
CONTINUOUS
 62
     7
  5
83B
 10
2.694811
 20
3.720347
 30
0.0
 11
2.692592
 21
3.720725
 31
0.0
  0
LINE
  8
0
  6
CONTINUOUS
 62
     7
  5
83C
 10
2.692592
 20
3.720725
 30
0.0
 11
2.690371
 21
3.721017
 31
0.0
  0
LINE
  8
0
  6
CONTINUOUS
 62
     7
  5
83D
 10
2.690371
 20
3.721017
 30
0.0
 11
2.688155
 21
3.721224
 31
0.0
  0
LINE
  8
0
  6
CONTINUOUS
 62
     7
  5
83E
 10
2.688155
 20
3.721224
 30
0.0
 11
2.685946
 21
3.721347
 31
0.0
  0
LINE
  8
0
  6
CONTINUOUS
 62
     7
  5
83F
 10
2.685946
 20
3.721347
 30
0.0
 11
2.68375
 21
3.721388
 31
0.0
  0
LINE
  8
0
  6
CONTINUOUS
 62
     7
  5
840
 10
0.859667
 20
3.948075
 30
0.0
 11
1.945333
 21
3.948075
 31
0.0
  0
LINE
  8
0
  6
CONTINUOUS
 62
     7
  5
841
 10
1.945333
 20
4.03
 30
0.0
 11
0.859667
 21
4.03
 31
0.0
  0
LINE
  8
0
  6
CONTINUOUS
 62
     7
  5
842
 10
1.274273
 20
3.677375
 30
0.0
 11
0.104075
 21
3.677375
 31
0.0
  0
ARC
  8
0
  6
CONTINUOUS
 62
     7
  5
843
 10
-1.389742
 20
1.915788
 30
0.0
 40
0.115787
 50
270.0
 51
0.0
  0
ARC
  8
0
  6
CONTINUOUS
 62
     7
  5
844
 10
-1.389742
 20
1.915788
 30
0.0
 40
0.115787
 50
0.0
 51
90.0
  0
ARC
  8
0
  6
CONTINUOUS
 62
     7
  5
845
 10
-1.389742
 20
3.793163
 30
0.0
 40
0.115788
 50
0.0
 51
180.0
  0
ARC
  8
0
  6
CONTINUOUS
 62
     7
  5
846
 10
-2.066408
 20
3.793163
 30
0.0
 40
0.115788
 50
0.0
 51
180.0
  0
LINE
  8
0
  6
CONTINUOUS
 62
     7
  5
847
 10
-2.182196
 20
3.677375
 30
0.0
 11
-2.066408
 21
3.677375
 31
0.0
  0
LINE
  8
0
  6
CONTINUOUS
 62
     7
  5
848
 10
-2.066408
 20
3.677375
 30
0.0
 11
-1.950621
 21
3.677375
 31
0.0
  0
LINE
  8
0
  6
CONTINUOUS
 62
     7
  5
849
 10
-1.50553
 20
3.677375
 30
0.0
 11
-2.675408
 21
3.677375
 31
0.0
  0
ARC
  8
0
  6
CONTINUOUS
 62
     7
  5
84A
 10
1.389742
 20
3.793163
 30
0.0
 40
0.115788
 50
0.0
 51
180.0
  0
LINE
  8
0
  6
CONTINUOUS
 62
     7
  5
84B
 10
1.944174
 20
3.90895
 30
0.0
 11
1.944174
 21
3.677375
 31
0.0
  0
ARC
  8
0
  6
CONTINUOUS
 62
     7
  5
84C
 10
2.066408
 20
3.793163
 30
0.0
 40
0.115788
 50
0.0
 51
180.0
  0
LINE
  8
0
  6
CONTINUOUS
 62
     7
  5
84D
 10
1.950621
 20
3.677375
 30
0.0
 11
2.066408
 21
3.677375
 31
0.0
  0
LINE
  8
0
  6
CONTINUOUS
 62
     7
  5
84E
 10
2.066408
 20
3.677375
 30
0.0
 11
2.182196
 21
3.677375
 31
0.0
  0
LINE
  8
0
  6
CONTINUOUS
 62
     7
  5
84F
 10
2.675408
 20
3.677375
 30
0.0
 11
1.505531
 21
3.677375
 31
0.0
  0
LINE
  8
0
  6
CONTINUOUS
 62
     7
  5
850
 10
1.389742
 20
2.141353
 30
0.0
 11
1.389742
 21
0.0
 31
0.0
  0
LINE
  8
0
  6
CONTINUOUS
 62
     7
  5
851
 10
1.389742
 20
0.0
 30
0.0
 11
0.036408
 21
0.0
 31
0.0
  0
LINE
  8
0
  6
CONTINUOUS
 62
     7
  5
852
 10
2.066408
 20
3.609708
 30
0.0
 11
2.066408
 21
0.0
 31
0.0
  0
LINE
  8
0
  6
CONTINUOUS
 62
     7
  5
853
 10
2.730073
 20
3.609708
 30
0.0
 11
2.066408
 21
3.609708
 31
0.0
  0
LINE
  8
0
  6
CONTINUOUS
 62
     7
  5
854
 10
2.066408
 20
3.609708
 30
0.0
 11
2.730073
 21
3.609708
 31
0.0
  0
LINE
  8
0
  6
CONTINUOUS
 62
     7
  5
855
 10
2.743075
 20
3.609708
 30
0.0
 11
1.505319
 21
3.609708
 31
0.0
  0
LINE
  8
0
  6
CONTINUOUS
 62
     7
  5
856
 10
2.743075
 20
0.0
 30
0.0
 11
1.389742
 21
0.0
 31
0.0
  0
LINE
  8
0
  6
CONTINUOUS
 62
     7
  5
857
 10
2.743075
 20
3.609708
 30
0.0
 11
2.066408
 21
3.609708
 31
0.0
  0
ARC
  8
0
  6
CONTINUOUS
 62
     7
  5
858
 10
-6.735
 20
2.069572
 30
0.0
 40
0.034
 50
351.543481
 51
8.456519
  0
LINE
  8
0
  6
CONTINUOUS
 62
     7
  5
859
 10
-6.225
 20
2.074572
 30
0.0
 11
-6.225
 21
2.064572
 31
0.0
  0
ARC
  8
0
  6
CONTINUOUS
 62
     7
  5
85A
 10
-6.735
 20
2.069572
 30
0.0
 40
0.034
 50
171.543481
 51
188.456519
  0
LINE
  8
0
  6
CONTINUOUS
 62
     7
  5
85B
 10
-7.075
 20
2.064572
 30
0.0
 11
-7.075
 21
2.074572
 31
0.0
  0
LINE
  8
0
  6
CONTINUOUS
 62
     7
  5
85C
 10
-6.225
 20
2.064572
 30
0.0
 11
-6.70137
 21
2.064572
 31
0.0
  0
LINE
  8
0
  6
CONTINUOUS
 62
     7
  5
85D
 10
-6.82
 20
2.064572
 30
0.0
 11
-7.075
 21
2.064572
 31
0.0
  0
LINE
  8
0
  6
CONTINUOUS
 62
     7
  5
85E
 10
-6.76863
 20
2.064572
 30
0.0
 11
-6.82
 21
2.064572
 31
0.0
  0
LINE
  8
0
  6
CONTINUOUS
 62
     7
  5
85F
 10
-6.70137
 20
2.074572
 30
0.0
 11
-6.225
 21
2.074572
 31
0.0
  0
LINE
  8
0
  6
CONTINUOUS
 62
     7
  5
860
 10
-6.82
 20
2.074572
 30
0.0
 11
-6.76863
 21
2.074572
 31
0.0
  0
LINE
  8
0
  6
CONTINUOUS
 62
     7
  5
861
 10
-7.075
 20
2.074572
 30
0.0
 11
-6.82
 21
2.074572
 31
0.0
  0
LINE
  8
0
  6
CONTINUOUS
 62
     7
  5
862
 10
-6.82
 20
2.064572
 30
0.0
 11
-6.82
 21
1.772072
 31
0.0
  0
LINE
  8
0
  6
CONTINUOUS
 62
     7
  5
863
 10
-7.075
 20
2.052572
 30
0.0
 11
-7.075
 21
2.064572
 31
0.0
  0
LINE
  8
0
  6
CONTINUOUS
 62
     7
  5
864
 10
-7.075
 20
2.052572
 30
0.0
 11
-6.82
 21
2.052572
 31
0.0
  0
LINE
  8
0
  6
CONTINUOUS
 62
     7
  5
865
 10
-6.82
 20
1.772072
 30
0.0
 11
-6.769
 21
1.772072
 31
0.0
  0
ARC
  8
0
  6
CONTINUOUS
 62
     7
  5
866
 10
-6.735
 20
1.772072
 30
0.0
 40
0.034
 50
0.0
 51
180.0
  0
LINE
  8
0
  6
CONTINUOUS
 62
     7
  5
867
 10
-6.701
 20
1.772072
 30
0.0
 11
-6.225
 21
1.772072
 31
0.0
  0
LINE
  8
0
  6
CONTINUOUS
 62
     7
  5
868
 10
-6.225
 20
1.772072
 30
0.0
 11
-6.225
 21
1.861322
 31
0.0
  0
LINE
  8
0
  6
CONTINUOUS
 62
     7
  5
869
 10
-6.225
 20
1.861322
 30
0.0
 11
-6.65
 21
1.861322
 31
0.0
  0
LINE
  8
0
  6
CONTINUOUS
 62
     7
  5
86A
 10
-6.65
 20
1.861322
 30
0.0
 11
-6.65
 21
1.980322
 31
0.0
  0
LINE
  8
0
  6
CONTINUOUS
 62
     7
  5
86B
 10
-6.65
 20
1.980322
 30
0.0
 11
-6.225
 21
1.980322
 31
0.0
  0
LINE
  8
0
  6
CONTINUOUS
 62
     7
  5
86C
 10
-6.225
 20
1.980322
 30
0.0
 11
-6.225
 21
2.064572
 31
0.0
  0
ARC
  8
0
  6
CONTINUOUS
 62
     7
  5
86D
 10
-6.735
 20
2.069572
 30
0.0
 40
0.034
 50
188.456519
 51
351.543481
  0
ARC
  8
0
  6
CONTINUOUS
 62
     7
  5
86E
 10
-6.735
 20
2.069572
 30
0.0
 40
0.034
 50
8.456519
 51
171.543481
  0
LINE
  8
0
  6
CONTINUOUS
 62
     7
  5
86F
 10
-6.225
 20
1.980322
 30
0.0
 11
-6.225
 21
1.861322
 31
0.0
  0
LINE
  8
0
  6
CONTINUOUS
 62
     7
  5
870
 10
-6.225
 20
2.074572
 30
0.0
 11
-6.225
 21
2.158822
 31
0.0
  0
LINE
  8
0
  6
CONTINUOUS
 62
     7
  5
871
 10
-6.225
 20
2.158822
 30
0.0
 11
-6.65
 21
2.158822
 31
0.0
  0
LINE
  8
0
  6
CONTINUOUS
 62
     7
  5
872
 10
-6.65
 20
2.158822
 30
0.0
 11
-6.65
 21
2.277822
 31
0.0
  0
LINE
  8
0
  6
CONTINUOUS
 62
     7
  5
873
 10
-6.65
 20
2.277822
 30
0.0
 11
-6.225
 21
2.277822
 31
0.0
  0
LINE
  8
0
  6
CONTINUOUS
 62
     7
  5
874
 10
-6.225
 20
2.277822
 30
0.0
 11
-6.225
 21
2.367072
 31
0.0
  0
LINE
  8
0
  6
CONTINUOUS
 62
     7
  5
875
 10
-6.225
 20
2.367072
 30
0.0
 11
-6.701
 21
2.367072
 31
0.0
  0
ARC
  8
0
  6
CONTINUOUS
 62
     7
  5
876
 10
-6.735
 20
2.367072
 30
0.0
 40
0.034
 50
180.0
 51
0.0
  0
LINE
  8
0
  6
CONTINUOUS
 62
     7
  5
877
 10
-6.769
 20
2.367072
 30
0.0
 11
-6.82
 21
2.367072
 31
0.0
  0
LINE
  8
0
  6
CONTINUOUS
 62
     7
  5
878
 10
-6.82
 20
2.367072
 30
0.0
 11
-6.82
 21
2.074572
 31
0.0
  0
LINE
  8
0
  6
CONTINUOUS
 62
     7
  5
879
 10
-6.225
 20
2.277822
 30
0.0
 11
-6.225
 21
2.158822
 31
0.0
  0
LINE
  8
0
  6
CONTINUOUS
 62
     7
  5
87A
 10
-6.82
 20
1.789072
 30
0.0
 11
-7.075
 21
1.789072
 31
0.0
  0
LINE
  8
0
  6
CONTINUOUS
 62
     7
  5
87B
 10
-7.075
 20
1.789072
 30
0.0
 11
-7.075
 21
2.052572
 31
0.0
  0
LINE
  8
0
  6
CONTINUOUS
 62
     7
  5
87C
 10
-7.075
 20
1.772072
 30
0.0
 11
-7.075
 21
1.789072
 31
0.0
  0
LINE
  8
0
  6
CONTINUOUS
 62
     7
  5
87D
 10
-6.82
 20
1.772072
 30
0.0
 11
-7.075
 21
1.772072
 31
0.0
  0
LINE
  8
0
  6
CONTINUOUS
 62
     7
  5
87E
 10
-6.82
 20
2.086572
 30
0.0
 11
-7.075
 21
2.086572
 31
0.0
  0
LINE
  8
0
  6
CONTINUOUS
 62
     7
  5
87F
 10
-7.075
 20
2.086572
 30
0.0
 11
-7.075
 21
2.350072
 31
0.0
  0
LINE
  8
0
  6
CONTINUOUS
 62
     7
  5
880
 10
-7.075
 20
2.350072
 30
0.0
 11
-6.82
 21
2.350072
 31
0.0
  0
LINE
  8
0
  6
CONTINUOUS
 62
     7
  5
881
 10
-7.075
 20
2.074572
 30
0.0
 11
-7.075
 21
2.086572
 31
0.0
  0
LINE
  8
0
  6
CONTINUOUS
 62
     7
  5
882
 10
-7.075
 20
2.367072
 30
0.0
 11
-6.82
 21
2.367072
 31
0.0
  0
LINE
  8
0
  6
CONTINUOUS
 62
     7
  5
883
 10
-7.075
 20
2.350072
 30
0.0
 11
-7.075
 21
2.367072
 31
0.0
  0
LINE
  8
0
  6
CONTINUOUS
 62
     7
  5
884
 10
-2.066408
 20
1.8
 30
0.0
 11
-2.066408
 21
0.0
 31
0.0
  0
LINE
  8
0
  6
CONTINUOUS
 62
     7
  5
885
 10
-2.066408
 20
2.107569
 30
0.0
 11
-2.066408
 21
2.031575
 31
0.0
  0
LINE
  8
0
  6
CONTINUOUS
 62
     7
  5
886
 10
-2.066408
 20
3.609708
 30
0.0
 11
-2.066408
 21
2.339144
 31
0.0
  0
LINE
  8
0
  6
CONTINUOUS
 62
     7
  5
887
 10
-1.505529
 20
3.609708
 30
0.0
 11
-2.743075
 21
3.609708
 31
0.0
  0
LINE
  8
0
  6
CONTINUOUS
 62
     7
  5
888
 10
-1.389742
 20
0.0
 30
0.0
 11
-2.743075
 21
0.0
 31
0.0
  0
LINE
  8
0
  6
CONTINUOUS
 62
     7
  5
889
 10
-2.066408
 20
3.609708
 30
0.0
 11
-2.743075
 21
3.609708
 31
0.0
  0
LINE
  8
0
  6
CONTINUOUS
 62
     7
  5
88A
 10
-2.730073
 20
3.609708
 30
0.0
 11
-2.066408
 21
3.609708
 31
0.0
  0
LINE
  8
0
  6
CONTINUOUS
 62
     7
  5
88B
 10
-2.066408
 20
3.609708
 30
0.0
 11
-2.743075
 21
3.609708
 31
0.0
  0
ARC
  8
0
  6
CONTINUOUS
 62
     7
  5
88C
 10
-0.104075
 20
3.609708
 30
0.0
 40
0.067667
 50
51.474418
 51
90.0
  0
LINE
  8
0
  6
CONTINUOUS
 62
     7
  5
88D
 10
-0.036408
 20
2.339144
 30
0.0
 11
-0.036408
 21
3.52625
 31
0.0
  0
LINE
  8
0
  6
CONTINUOUS
 62
     7
  5
88E
 10
-0.036408
 20
0.0
 30
0.0
 11
-0.036408
 21
2.107569
 31
0.0
  0
ARC
  8
0
  6
CONTINUOUS
 62
     7
  5
88F
 10
0.104075
 20
3.609708
 30
0.0
 40
0.067667
 50
90.0
 51
128.525582
  0
LINE
  8
0
  6
CONTINUOUS
 62
     7
  5
890
 10
-6.225
 20
1.8
 30
0.0
 11
-1.511976
 21
1.8
 31
0.0
  0
LINE
  8
0
  6
CONTINUOUS
 62
     7
  5
891
 10
-1.511976
 20
2.031575
 30
0.0
 11
-6.225
 21
2.031575
 31
0.0
  0
LINE
  8
0
  6
CONTINUOUS
 62
     7
  5
892
 10
-1.389742
 20
2.031575
 30
0.0
 11
-1.511976
 21
2.031575
 31
0.0
  0
LINE
  8
0
  6
CONTINUOUS
 62
     7
  5
893
 10
-1.511976
 20
1.8
 30
0.0
 11
-1.389742
 21
1.8
 31
0.0
  0
ARC
  8
0
  6
CONTINUOUS
 62
     7
  5
894
 10
-1.389742
 20
1.915788
 30
0.0
 40
0.115787
 50
122.70422
 51
57.29578
  0
LINE
  8
0
  6
CONTINUOUS
 62
     7
  5
895
 10
-1.273954
 20
1.915788
 30
0.0
 11
-1.273954
 21
2.038022
 31
0.0
  0
LINE
  8
0
  6
CONTINUOUS
 62
     7
  5
896
 10
-1.505529
 20
2.038022
 30
0.0
 11
-1.505529
 21
2.031536
 31
0.0
  0
LINE
  8
0
  6
CONTINUOUS
 62
     7
  5
897
 10
-1.273954
 20
2.339144
 30
0.0
 11
-1.273954
 21
3.670928
 31
0.0
  0
LINE
  8
0
  6
CONTINUOUS
 62
     7
  5
898
 10
-1.273954
 20
2.038022
 30
0.0
 11
-1.273954
 21
2.107569
 31
0.0
  0
LINE
  8
0
  6
CONTINUOUS
 62
     7
  5
899
 10
-1.505529
 20
2.107569
 30
0.0
 11
-1.505529
 21
2.038022
 31
0.0
  0
LINE
  8
0
  6
CONTINUOUS
 62
     7
  5
89A
 10
-1.505529
 20
3.670928
 30
0.0
 11
-1.505529
 21
2.339144
 31
0.0
  0
LINE
  8
0
  6
CONTINUOUS
 62
     7
  5
89B
 10
-1.273954
 20
3.670928
 30
0.0
 11
-1.273954
 21
3.793163
 31
0.0
  0
LINE
  8
0
  6
CONTINUOUS
 62
     7
  5
89C
 10
-1.505529
 20
3.793163
 30
0.0
 11
-1.505529
 21
3.670928
 31
0.0
  0
LINE
  8
0
  6
CONTINUOUS
 62
     7
  5
89D
 10
-1.944174
 20
3.90895
 30
0.0
 11
-2.066408
 21
3.90895
 31
0.0
  0
LINE
  8
0
  6
CONTINUOUS
 62
     7
  5
89E
 10
-1.566864
 20
3.677375
 30
0.0
 11
-1.511976
 21
3.677375
 31
0.0
  0
LINE
  8
0
  6
CONTINUOUS
 62
     7
  5
89F
 10
-1.511976
 20
3.90895
 30
0.0
 11
-1.944174
 21
3.90895
 31
0.0
  0
LINE
  8
0
  6
CONTINUOUS
 62
     7
  5
8A0
 10
-1.389742
 20
3.90895
 30
0.0
 11
-1.511976
 21
3.90895
 31
0.0
  0
LINE
  8
0
  6
CONTINUOUS
 62
     7
  5
8A1
 10
-2.182196
 20
3.793163
 30
0.0
 11
-2.182196
 21
3.677375
 31
0.0
  0
LINE
  8
0
  6
CONTINUOUS
 62
     7
  5
8A2
 10
-1.950621
 20
3.677375
 30
0.0
 11
-1.950621
 21
3.793163
 31
0.0
  0
LINE
  8
0
  6
CONTINUOUS
 62
     7
  5
8A3
 10
-6.225
 20
2.107569
 30
0.0
 11
1.267507
 21
2.107569
 31
0.0
  0
LINE
  8
0
  6
CONTINUOUS
 62
     7
  5
8A4
 10
1.267507
 20
2.339144
 30
0.0
 11
-6.225
 21
2.339144
 31
0.0
  0
ARC
  8
0
  6
CONTINUOUS
 62
     7
  5
8A5
 10
1.267507
 20
2.345591
 30
0.0
 40
0.238022
 50
270.0
 51
0.0
  0
ARC
  8
0
  6
CONTINUOUS
 62
     7
  5
8A6
 10
1.267507
 20
2.345591
 30
0.0
 40
0.006447
 50
270.0
 51
0.0
  0
LINE
  8
0
  6
CONTINUOUS
 62
     7
  5
8A7
 10
1.505529
 20
2.345591
 30
0.0
 11
1.505529
 21
3.670928
 31
0.0
  0
LINE
  8
0
  6
CONTINUOUS
 62
     7
  5
8A8
 10
1.273954
 20
3.670928
 30
0.0
 11
1.273954
 21
2.345591
 31
0.0
  0
LINE
  8
0
  6
CONTINUOUS
 62
     7
  5
8A9
 10
1.505529
 20
3.670928
 30
0.0
 11
1.505529
 21
3.793163
 31
0.0
  0
LINE
  8
0
  6
CONTINUOUS
 62
     7
  5
8AA
 10
1.273954
 20
3.793163
 30
0.0
 11
1.273954
 21
3.670928
 31
0.0
  0
LINE
  8
0
  6
CONTINUOUS
 62
     7
  5
8AB
 10
1.511976
 20
3.90895
 30
0.0
 11
1.389742
 21
3.90895
 31
0.0
  0
LINE
  8
0
  6
CONTINUOUS
 62
     7
  5
8AC
 10
1.505491
 20
3.677375
 30
0.0
 11
1.511976
 21
3.677375
 31
0.0
  0
LINE
  8
0
  6
CONTINUOUS
 62
     7
  5
8AD
 10
1.511976
 20
3.677375
 30
0.0
 11
1.573988
 21
3.677375
 31
0.0
  0
LINE
  8
0
  6
CONTINUOUS
 62
     7
  5
8AE
 10
1.944174
 20
3.90895
 30
0.0
 11
1.511976
 21
3.90895
 31
0.0
  0
LINE
  8
0
  6
CONTINUOUS
 62
     7
  5
8AF
 10
2.066408
 20
3.90895
 30
0.0
 11
1.944174
 21
3.90895
 31
0.0
  0
LINE
  8
0
  6
CONTINUOUS
 62
     7
  5
8B0
 10
1.944174
 20
3.677375
 30
0.0
 11
1.950659
 21
3.677375
 31
0.0
  0
LINE
  8
0
  6
CONTINUOUS
 62
     7
  5
8B1
 10
1.950621
 20
3.793163
 30
0.0
 11
1.950621
 21
3.677375
 31
0.0
  0
LINE
  8
0
  6
CONTINUOUS
 62
     7
  5
8B2
 10
2.182196
 20
3.677375
 30
0.0
 11
2.182196
 21
3.793163
 31
0.0
  0
LINE
  8
0
  6
CONTINUOUS
 62
     7
  5
8B3
 10
0.036408
 20
2.107569
 30
0.0
 11
0.036408
 21
0.0
 31
0.0
  0
LINE
  8
0
  6
CONTINUOUS
 62
     7
  5
8B4
 10
0.036408
 20
3.52625
 30
0.0
 11
0.036408
 21
2.339144
 31
0.0
  0
ARC
  8
0
  6
CONTINUOUS
 62
     7
  5
8B5
 10
2.675408
 20
3.609708
 30
0.0
 40
0.067667
 50
0.0
 51
90.0
  0
LINE
  8
0
  6
CONTINUOUS
 62
     7
  5
8B6
 10
2.743075
 20
0.0
 30
0.0
 11
2.743075
 21
3.52625
 31
0.0
  0
LINE
  8
0
  6
CONTINUOUS
 62
     7
  5
8B7
 10
2.743075
 20
3.52625
 30
0.0
 11
2.743075
 21
3.609708
 31
0.0
  0
LINE
  8
0
  6
CONTINUOUS
 62
     7
  5
8B8
 10
-2.743075
 20
1.8
 30
0.0
 11
-2.743075
 21
0.0
 31
0.0
  0
LINE
  8
0
  6
CONTINUOUS
 62
     7
  5
8B9
 10
-2.743075
 20
2.107569
 30
0.0
 11
-2.743075
 21
2.031575
 31
0.0
  0
LINE
  8
0
  6
CONTINUOUS
 62
     7
  5
8BA
 10
-2.743075
 20
3.52625
 30
0.0
 11
-2.743075
 21
2.339144
 31
0.0
  0
ARC
  8
0
  6
CONTINUOUS
 62
     7
  5
8BB
 10
-2.675408
 20
3.609708
 30
0.0
 40
0.067667
 50
90.0
 51
180.0
  0
ENDSEC
  0
EOF
