  0
SECTION
  2
HEADER
  9
$ACADVER
  1
AC1009
  9
$DWGCODEPAGE
  3
ansi_1250
  9
$INSBASE
 10
0.0
 20
0.0
 30
0.0
  9
$EXTMIN
 10
-1.37
 20
-1.616562
 30
0.0
  9
$EXTMAX
 10
1.863125
 20
1.616562
 30
0.0
  9
$LIMMIN
 10
0.0
 20
0.0
  9
$LIMMAX
 10
0.0
 20
0.0
  9
$ORTHOMODE
 70
     0
  9
$REGENMODE
 70
     1
  9
$FILLMODE
 70
     1
  9
$QTEXTMODE
 70
     0
  9
$MIRRTEXT
 70
     1
  9
$DRAGMODE
 70
     2
  9
$LTSCALE
 40
1.0
  9
$OSMODE
 70
     0
  9
$ATTMODE
 70
     1
  9
$TEXTSIZE
 40
0.2
  9
$TRACEWID
 40
0.05
  9
$TEXTSTYLE
  7
STANDARD
  9
$CLAYER
  8
0
  9
$CELTYPE
  6
CONTINUOUS
  9
$CECOLOR
 62
   256
  9
$DIMSCALE
 40
1.0
  9
$DIMASZ
 40
0.18
  9
$DIMEXO
 40
0.0625
  9
$DIMDLI
 40
0.38
  9
$DIMRND
 40
0.0
  9
$DIMDLE
 40
0.0
  9
$DIMEXE
 40
0.18
  9
$DIMTP
 40
0.0
  9
$DIMTM
 40
0.0
  9
$DIMTXT
 40
0.18
  9
$DIMCEN
 40
0.09
  9
$DIMTSZ
 40
0.0
  9
$DIMTOL
 70
     0
  9
$DIMLIM
 70
     0
  9
$DIMTIH
 70
     1
  9
$DIMTOH
 70
     1
  9
$DIMSE1
 70
     0
  9
$DIMSE2
 70
     0
  9
$DIMTAD
 70
     0
  9
$DIMZIN
 70
     0
  9
$DIMBLK
  1

  9
$DIMASO
 70
     1
  9
$DIMSHO
 70
     1
  9
$DIMPOST
  1

  9
$DIMAPOST
  1

  9
$DIMALT
 70
     0
  9
$DIMALTD
 70
     2
  9
$DIMALTF
 40
25.4
  9
$DIMLFAC
 40
1.0
  9
$DIMTOFL
 70
     0
  9
$DIMTVP
 40
0.0
  9
$DIMTIX
 70
     0
  9
$DIMSOXD
 70
     0
  9
$DIMSAH
 70
     0
  9
$DIMBLK1
  1

  9
$DIMBLK2
  1

  9
$DIMSTYLE
  2
STANDARD
  9
$DIMCLRD
 70
     0
  9
$DIMCLRE
 70
     0
  9
$DIMCLRT
 70
     0
  9
$DIMTFAC
 40
1.0
  9
$DIMGAP
 40
0.09
  9
$LUNITS
 70
     2
  9
$LUPREC
 70
     4
  9
$AXISMODE
 70
     0
  9
$AXISUNIT
 10
0.0
 20
0.0
  9
$SKETCHINC
 40
0.1
  9
$FILLETRAD
 40
0.0
  9
$AUNITS
 70
     0
  9
$AUPREC
 70
     0
  9
$MENU
  1
acad
  9
$ELEVATION
 40
0.0
  9
$PELEVATION
 40
0.0
  9
$THICKNESS
 40
0.0
  9
$LIMCHECK
 70
     0
  9
$BLIPMODE
 70
     1
  9
$CHAMFERA
 40
0.0
  9
$CHAMFERB
 40
0.0
  9
$SKPOLY
 70
     0
  9
$TDCREATE
 40
0.000000000
  9
$TDUPDATE
 40
0.000000000
  9
$TDINDWG
 40
0.0000000000
  9
$TDUSRTIMER
 40
0.0000000000
  9
$USRTIMER
 70
     1
  9
$ANGBASE
 50
0.0
  9
$ANGDIR
 70
     0
  9
$PDMODE
 70
     0
  9
$PDSIZE
 40
0.0
  9
$PLINEWID
 40
0.0
  9
$COORDS
 70
     0
  9
$SPLFRAME
 70
     0
  9
$SPLINETYPE
 70
     6
  9
$SPLINESEGS
 70
     8
  9
$ATTDIA
 70
     0
  9
$ATTREQ
 70
     1
  9
$HANDLING
 70
     1
  9
$HANDSEED
  5
2D8
  9
$SURFTAB1
 70
     6
  9
$SURFTAB2
 70
     6
  9
$SURFTYPE
 70
     6
  9
$SURFU
 70
     6
  9
$SURFV
 70
     6
  9
$UCSNAME
  2

  9
$UCSORG
 10
0.0
 20
0.0
 30
0.0
  9
$UCSXDIR
 10
1.0
 20
0.0
 30
0.0
  9
$UCSYDIR
 10
0.0
 20
1.0
 30
0.0
  9
$PUCSNAME
  2

  9
$PUCSORG
 10
0.0
 20
0.0
 30
0.0
  9
$PUCSXDIR
 10
1.0
 20
0.0
 30
0.0
  9
$PUCSYDIR
 10
0.0
 20
1.0
 30
0.0
  9
$USERI1
 70
     0
  9
$USERI2
 70
     0
  9
$USERI3
 70
     0
  9
$USERI4
 70
     0
  9
$USERI5
 70
     0
  9
$USERR1
 40
0.0
  9
$USERR2
 40
0.0
  9
$USERR3
 40
0.0
  9
$USERR4
 40
0.0
  9
$USERR5
 40
0.0
  9
$WORLDVIEW
 70
     1
  9
$SHADEDGE
 70
     3
  9
$SHADEDIF
 70
    70
  9
$TILEMODE
 70
     1
  9
$MAXACTVP
 70
    16
  9
$PINSBASE
 10
0.0
 20
0.0
 30
0.0
  9
$PLIMCHECK
 70
     0
  9
$PEXTMIN
 10
1.000000E+20
 20
1.000000E+20
 30
1.000000E+20
  9
$PEXTMAX
 10
-1.000000E+20
 20
-1.000000E+20
 30
-1.000000E+20
  9
$PLIMMIN
 10
0.0
 20
0.0
  9
$PLIMMAX
 10
12.0
 20
9.0
  9
$UNITMODE
 70
     0
  9
$VISRETAIN
 70
     0
  9
$PLINEGEN
 70
     1
  9
$PSLTSCALE
 70
     0
  9
$TREEDEPTH
 70
  3020
  0
ENDSEC
  0
SECTION
  2
TABLES
  0
TABLE
  2
VPORT
 70
     1
  0
VPORT
  2
*ACTIVE
 70
     0
 10
0.0
 20
0.0
 11
1.0
 21
1.0
 12
6.591288
 22
4.579184
 13
0.0
 23
0.0
 14
1.0
 24
1.0
 15
0.0
 25
0.0
 16
0.0
 26
0.0
 36
1.0
 17
0.0
 27
0.0
 37
0.0
 40
9.158369
 41
0.688564
 42
50.0
 43
0.0
 44
0.0
 50
0.0
 51
0.0
 71
     0
 72
   100
 73
     1
 74
     1
 75
     0
 76
     0
 77
     0
 78
     0
  0
ENDTAB
  0
TABLE
  2
LTYPE
 70
     5
  0
LTYPE
  2
CONTINUOUS
 70
    64
  3
Solid line
 72
    65
 73
     0
 40
0.0
  0
LTYPE
  2
CENTER
 70
    64
  3
Center ____ _ ____ _ ____ _ ____ _ ____ _ ____
 72
    65
 73
     4
 40
50.8
 49
31.75
 49
-6.35
 49
6.35
 49
-6.35
  0
LTYPE
  2
HIDDEN
 70
    64
  3
Hidden __ __ __ __ __ __ __ __ __ __ __ __ __ __
 72
    65
 73
     2
 40
9.525
 49
6.35
 49
-3.175
  0
LTYPE
  2
CENTER2
 70
    64
  3
Center (.5x) ___ _ ___ _ ___ _ ___ _ ___ _ ___
 72
    65
 73
     4
 40
28.575
 49
19.05
 49
-3.175
 49
3.175
 49
-3.175
  0
LTYPE
  2
HIDDEN2
 70
    64
  3
Hidden (.5x) _ _ _ _ _ _ _ _ _ _ _ _ _ _ _ _ _
 72
    65
 73
     2
 40
4.7625
 49
3.175
 49
-1.5875
  0
ENDTAB
  0
TABLE
  2
LAYER
 70
     1
  0
LAYER
  2
0
 70
     0
 62
     7
  6
CONTINUOUS
  0
ENDTAB
  0
TABLE
  2
STYLE
 70
     1
  0
STYLE
  2
STANDARD
 70
     0
 40
0.0
 41
1.0
 50
0.0
 71
     0
 42
0.0
  3
txt
  4

  0
ENDTAB
  0
TABLE
  2
VIEW
 70
     0
  0
ENDTAB
  0
TABLE
  2
UCS
 70
     0
  0
ENDTAB
  0
TABLE
  2
APPID
 70
     1
  0
APPID
  2
ACAD
 70
     0
  0
ENDTAB
  0
TABLE
  2
DIMSTYLE
 70
     1
  0
DIMSTYLE
  2
STANDARD
 70
     0
  3

  4

  5

  6

  7

 40
1.0
 41
0.18
 42
0.0625
 43
0.38
 44
0.18
 45
0.0
 46
0.0
 47
0.0
 48
0.0
 71
     0
 72
     0
 73
     1
 74
     1
 75
     0
 76
     0
 77
     0
 78
     0
140
0.18
141
0.09
142
0.0
143
25.4
144
1.0
145
0.0
146
1.0
147
0.09
170
     0
171
     2
172
     0
173
     0
174
     0
175
     0
176
     0
177
     0
178
     0
  0
ENDTAB
  0
ENDSEC
  0
SECTION
  2
BLOCKS
  0
ENDSEC
  0
SECTION
  2
ENTITIES
  0
LINE
  8
0
  6
CONTINUOUS
 62
     7
  5
19A
 10
-1.304242
 20
0.062071
 30
0.0
 11
-1.304758
 21
0.06355
 31
0.0
  0
LINE
  8
0
  6
CONTINUOUS
 62
     7
  5
19B
 10
-1.304758
 20
0.06355
 30
0.0
 11
-1.30527
 21
0.065029
 31
0.0
  0
LINE
  8
0
  6
CONTINUOUS
 62
     7
  5
19C
 10
-1.30527
 20
0.065029
 30
0.0
 11
-1.305778
 21
0.066509
 31
0.0
  0
LINE
  8
0
  6
CONTINUOUS
 62
     7
  5
19D
 10
-1.305778
 20
0.066509
 30
0.0
 11
-1.306282
 21
0.06799
 31
0.0
  0
LINE
  8
0
  6
CONTINUOUS
 62
     7
  5
19E
 10
-1.306282
 20
0.06799
 30
0.0
 11
-1.306782
 21
0.069471
 31
0.0
  0
LINE
  8
0
  6
CONTINUOUS
 62
     7
  5
19F
 10
-1.306782
 20
0.069471
 30
0.0
 11
-1.307278
 21
0.070952
 31
0.0
  0
LINE
  8
0
  6
CONTINUOUS
 62
     7
  5
1A0
 10
-1.307278
 20
0.070952
 30
0.0
 11
-1.30777
 21
0.072434
 31
0.0
  0
LINE
  8
0
  6
CONTINUOUS
 62
     7
  5
1A1
 10
-1.30777
 20
0.072434
 30
0.0
 11
-1.308258
 21
0.073917
 31
0.0
  0
LINE
  8
0
  6
CONTINUOUS
 62
     7
  5
1A2
 10
-1.308258
 20
0.073917
 30
0.0
 11
-1.308743
 21
0.0754
 31
0.0
  0
LINE
  8
0
  6
CONTINUOUS
 62
     7
  5
1A3
 10
-1.308743
 20
0.0754
 30
0.0
 11
-1.309223
 21
0.076883
 31
0.0
  0
LINE
  8
0
  6
CONTINUOUS
 62
     7
  5
1A4
 10
-1.309223
 20
0.076883
 30
0.0
 11
-1.309699
 21
0.078367
 31
0.0
  0
LINE
  8
0
  6
CONTINUOUS
 62
     7
  5
1A5
 10
-1.309699
 20
0.078367
 30
0.0
 11
-1.310172
 21
0.079851
 31
0.0
  0
LINE
  8
0
  6
CONTINUOUS
 62
     7
  5
1A6
 10
-1.310172
 20
0.079851
 30
0.0
 11
-1.31064
 21
0.081336
 31
0.0
  0
LINE
  8
0
  6
CONTINUOUS
 62
     7
  5
1A7
 10
-1.31064
 20
0.081336
 30
0.0
 11
-1.311105
 21
0.082821
 31
0.0
  0
LINE
  8
0
  6
CONTINUOUS
 62
     7
  5
1A8
 10
-1.311105
 20
0.082821
 30
0.0
 11
-1.311565
 21
0.084307
 31
0.0
  0
LINE
  8
0
  6
CONTINUOUS
 62
     7
  5
1A9
 10
-1.311565
 20
0.084307
 30
0.0
 11
-1.312022
 21
0.085793
 31
0.0
  0
LINE
  8
0
  6
CONTINUOUS
 62
     7
  5
1AA
 10
-1.312022
 20
0.085793
 30
0.0
 11
-1.312475
 21
0.087279
 31
0.0
  0
LINE
  8
0
  6
CONTINUOUS
 62
     7
  5
1AB
 10
-1.312475
 20
0.087279
 30
0.0
 11
-1.312924
 21
0.088766
 31
0.0
  0
LINE
  8
0
  6
CONTINUOUS
 62
     7
  5
1AC
 10
-1.312924
 20
0.088766
 30
0.0
 11
-1.313368
 21
0.090253
 31
0.0
  0
LINE
  8
0
  6
CONTINUOUS
 62
     7
  5
1AD
 10
-1.313368
 20
0.090253
 30
0.0
 11
-1.313809
 21
0.091741
 31
0.0
  0
LINE
  8
0
  6
CONTINUOUS
 62
     7
  5
1AE
 10
-1.313809
 20
0.091741
 30
0.0
 11
-1.314246
 21
0.093229
 31
0.0
  0
LINE
  8
0
  6
CONTINUOUS
 62
     7
  5
1AF
 10
-1.314246
 20
0.093229
 30
0.0
 11
-1.314679
 21
0.094718
 31
0.0
  0
LINE
  8
0
  6
CONTINUOUS
 62
     7
  5
1B0
 10
-1.314679
 20
0.094718
 30
0.0
 11
-1.315108
 21
0.096207
 31
0.0
  0
LINE
  8
0
  6
CONTINUOUS
 62
     7
  5
1B1
 10
-1.315108
 20
0.096207
 30
0.0
 11
-1.315533
 21
0.097696
 31
0.0
  0
LINE
  8
0
  6
CONTINUOUS
 62
     7
  5
1B2
 10
-1.315533
 20
0.097696
 30
0.0
 11
-1.315954
 21
0.099186
 31
0.0
  0
LINE
  8
0
  6
CONTINUOUS
 62
     7
  5
1B3
 10
-1.315954
 20
0.099186
 30
0.0
 11
-1.316371
 21
0.100676
 31
0.0
  0
LINE
  8
0
  6
CONTINUOUS
 62
     7
  5
1B4
 10
-1.316371
 20
0.100676
 30
0.0
 11
-1.316784
 21
0.102167
 31
0.0
  0
LINE
  8
0
  6
CONTINUOUS
 62
     7
  5
1B5
 10
-1.316784
 20
0.102167
 30
0.0
 11
-1.317193
 21
0.103658
 31
0.0
  0
LINE
  8
0
  6
CONTINUOUS
 62
     7
  5
1B6
 10
-1.317193
 20
0.103658
 30
0.0
 11
-1.317598
 21
0.105149
 31
0.0
  0
LINE
  8
0
  6
CONTINUOUS
 62
     7
  5
1B7
 10
-1.317598
 20
0.105149
 30
0.0
 11
-1.317999
 21
0.106641
 31
0.0
  0
LINE
  8
0
  6
CONTINUOUS
 62
     7
  5
1B8
 10
-1.317999
 20
0.106641
 30
0.0
 11
-1.318396
 21
0.108133
 31
0.0
  0
LINE
  8
0
  6
CONTINUOUS
 62
     7
  5
1B9
 10
-1.318396
 20
0.108133
 30
0.0
 11
-1.31879
 21
0.109626
 31
0.0
  0
LINE
  8
0
  6
CONTINUOUS
 62
     7
  5
1BA
 10
-1.31879
 20
0.109626
 30
0.0
 11
-1.319179
 21
0.111119
 31
0.0
  0
LINE
  8
0
  6
CONTINUOUS
 62
     7
  5
1BB
 10
-1.319179
 20
0.111119
 30
0.0
 11
-1.319564
 21
0.112612
 31
0.0
  0
LINE
  8
0
  6
CONTINUOUS
 62
     7
  5
1BC
 10
-1.319564
 20
0.112612
 30
0.0
 11
-1.319946
 21
0.114106
 31
0.0
  0
LINE
  8
0
  6
CONTINUOUS
 62
     7
  5
1BD
 10
-1.319946
 20
0.114106
 30
0.0
 11
-1.29378
 21
0.114106
 31
0.0
  0
LINE
  8
0
  6
CONTINUOUS
 62
     7
  5
1BE
 10
-1.319946
 20
0.114106
 30
0.0
 11
-1.319936
 21
0.128305
 31
0.0
  0
LINE
  8
0
  6
CONTINUOUS
 62
     7
  5
1BF
 10
-1.319936
 20
0.128305
 30
0.0
 11
-1.319926
 21
0.142314
 31
0.0
  0
LINE
  8
0
  6
CONTINUOUS
 62
     7
  5
1C0
 10
-1.319926
 20
0.142314
 30
0.0
 11
-1.319918
 21
0.156103
 31
0.0
  0
LINE
  8
0
  6
CONTINUOUS
 62
     7
  5
1C1
 10
-1.319918
 20
0.156103
 30
0.0
 11
-1.319909
 21
0.16964
 31
0.0
  0
LINE
  8
0
  6
CONTINUOUS
 62
     7
  5
1C2
 10
-1.319909
 20
0.16964
 30
0.0
 11
-1.319902
 21
0.182892
 31
0.0
  0
LINE
  8
0
  6
CONTINUOUS
 62
     7
  5
1C3
 10
-1.319902
 20
0.182892
 30
0.0
 11
-1.319894
 21
0.19583
 31
0.0
  0
LINE
  8
0
  6
CONTINUOUS
 62
     7
  5
1C4
 10
-1.319894
 20
0.19583
 30
0.0
 11
-1.319888
 21
0.208425
 31
0.0
  0
LINE
  8
0
  6
CONTINUOUS
 62
     7
  5
1C5
 10
-1.319888
 20
0.208425
 30
0.0
 11
-1.319882
 21
0.220649
 31
0.0
  0
LINE
  8
0
  6
CONTINUOUS
 62
     7
  5
1C6
 10
-1.319882
 20
0.220649
 30
0.0
 11
-1.319876
 21
0.232477
 31
0.0
  0
LINE
  8
0
  6
CONTINUOUS
 62
     7
  5
1C7
 10
-1.319876
 20
0.232477
 30
0.0
 11
-1.319872
 21
0.243887
 31
0.0
  0
LINE
  8
0
  6
CONTINUOUS
 62
     7
  5
1C8
 10
-1.319872
 20
0.243887
 30
0.0
 11
-1.319867
 21
0.254887
 31
0.0
  0
LINE
  8
0
  6
CONTINUOUS
 62
     7
  5
1C9
 10
-1.319867
 20
0.254887
 30
0.0
 11
-1.319863
 21
0.265653
 31
0.0
  0
LINE
  8
0
  6
CONTINUOUS
 62
     7
  5
1CA
 10
-1.319863
 20
0.265653
 30
0.0
 11
-1.31986
 21
0.276192
 31
0.0
  0
LINE
  8
0
  6
CONTINUOUS
 62
     7
  5
1CB
 10
-1.31986
 20
0.276192
 30
0.0
 11
-1.319857
 21
0.286466
 31
0.0
  0
LINE
  8
0
  6
CONTINUOUS
 62
     7
  5
1CC
 10
-1.319857
 20
0.286466
 30
0.0
 11
-1.319855
 21
0.296439
 31
0.0
  0
LINE
  8
0
  6
CONTINUOUS
 62
     7
  5
1CD
 10
-1.319855
 20
0.296439
 30
0.0
 11
-1.319853
 21
0.306078
 31
0.0
  0
LINE
  8
0
  6
CONTINUOUS
 62
     7
  5
1CE
 10
-1.319853
 20
0.306078
 30
0.0
 11
-1.319852
 21
0.315349
 31
0.0
  0
LINE
  8
0
  6
CONTINUOUS
 62
     7
  5
1CF
 10
-1.319852
 20
0.315349
 30
0.0
 11
-1.319851
 21
0.324223
 31
0.0
  0
LINE
  8
0
  6
CONTINUOUS
 62
     7
  5
1D0
 10
-1.319851
 20
0.324223
 30
0.0
 11
-1.319852
 21
0.332674
 31
0.0
  0
LINE
  8
0
  6
CONTINUOUS
 62
     7
  5
1D1
 10
-1.319852
 20
0.332674
 30
0.0
 11
-1.319852
 21
0.340678
 31
0.0
  0
LINE
  8
0
  6
CONTINUOUS
 62
     7
  5
1D2
 10
-1.319852
 20
0.340678
 30
0.0
 11
-1.319853
 21
0.348214
 31
0.0
  0
LINE
  8
0
  6
CONTINUOUS
 62
     7
  5
1D3
 10
-1.319853
 20
0.348214
 30
0.0
 11
-1.319855
 21
0.355265
 31
0.0
  0
LINE
  8
0
  6
CONTINUOUS
 62
     7
  5
1D4
 10
-1.319855
 20
0.355265
 30
0.0
 11
-1.319858
 21
0.361818
 31
0.0
  0
LINE
  8
0
  6
CONTINUOUS
 62
     7
  5
1D5
 10
-1.319858
 20
0.361818
 30
0.0
 11
-1.319861
 21
0.367857
 31
0.0
  0
LINE
  8
0
  6
CONTINUOUS
 62
     7
  5
1D6
 10
-1.319861
 20
0.367857
 30
0.0
 11
-1.319864
 21
0.373373
 31
0.0
  0
LINE
  8
0
  6
CONTINUOUS
 62
     7
  5
1D7
 10
-1.319864
 20
0.373373
 30
0.0
 11
-1.319868
 21
0.378356
 31
0.0
  0
LINE
  8
0
  6
CONTINUOUS
 62
     7
  5
1D8
 10
-1.319868
 20
0.378356
 30
0.0
 11
-1.319873
 21
0.382799
 31
0.0
  0
LINE
  8
0
  6
CONTINUOUS
 62
     7
  5
1D9
 10
-1.319873
 20
0.382799
 30
0.0
 11
-1.319878
 21
0.3867
 31
0.0
  0
LINE
  8
0
  6
CONTINUOUS
 62
     7
  5
1DA
 10
-1.319878
 20
0.3867
 30
0.0
 11
-1.319884
 21
0.390058
 31
0.0
  0
LINE
  8
0
  6
CONTINUOUS
 62
     7
  5
1DB
 10
-1.319884
 20
0.390058
 30
0.0
 11
-1.31989
 21
0.392876
 31
0.0
  0
LINE
  8
0
  6
CONTINUOUS
 62
     7
  5
1DC
 10
-1.31989
 20
0.392876
 30
0.0
 11
-1.319897
 21
0.395161
 31
0.0
  0
LINE
  8
0
  6
CONTINUOUS
 62
     7
  5
1DD
 10
-1.319897
 20
0.395161
 30
0.0
 11
-1.319904
 21
0.396923
 31
0.0
  0
LINE
  8
0
  6
CONTINUOUS
 62
     7
  5
1DE
 10
-1.319904
 20
0.396923
 30
0.0
 11
-1.319911
 21
0.398191
 31
0.0
  0
LINE
  8
0
  6
CONTINUOUS
 62
     7
  5
1DF
 10
-1.319911
 20
0.398191
 30
0.0
 11
-1.319919
 21
0.398964
 31
0.0
  0
LINE
  8
0
  6
CONTINUOUS
 62
     7
  5
1E0
 10
-1.319919
 20
0.398964
 30
0.0
 11
-1.319928
 21
0.399225
 31
0.0
  0
LINE
  8
0
  6
CONTINUOUS
 62
     7
  5
1E1
 10
-1.289
 20
0.134784
 30
0.0
 11
-1.289494
 21
0.132716
 31
0.0
  0
LINE
  8
0
  6
CONTINUOUS
 62
     7
  5
1E2
 10
-1.289494
 20
0.132716
 30
0.0
 11
-1.289984
 21
0.130649
 31
0.0
  0
LINE
  8
0
  6
CONTINUOUS
 62
     7
  5
1E3
 10
-1.289984
 20
0.130649
 30
0.0
 11
-1.290471
 21
0.12858
 31
0.0
  0
LINE
  8
0
  6
CONTINUOUS
 62
     7
  5
1E4
 10
-1.290471
 20
0.12858
 30
0.0
 11
-1.290955
 21
0.126511
 31
0.0
  0
LINE
  8
0
  6
CONTINUOUS
 62
     7
  5
1E5
 10
-1.290955
 20
0.126511
 30
0.0
 11
-1.291435
 21
0.124441
 31
0.0
  0
LINE
  8
0
  6
CONTINUOUS
 62
     7
  5
1E6
 10
-1.291435
 20
0.124441
 30
0.0
 11
-1.291912
 21
0.122371
 31
0.0
  0
LINE
  8
0
  6
CONTINUOUS
 62
     7
  5
1E7
 10
-1.291912
 20
0.122371
 30
0.0
 11
-1.292385
 21
0.1203
 31
0.0
  0
LINE
  8
0
  6
CONTINUOUS
 62
     7
  5
1E8
 10
-1.292385
 20
0.1203
 30
0.0
 11
-1.292855
 21
0.118228
 31
0.0
  0
LINE
  8
0
  6
CONTINUOUS
 62
     7
  5
1E9
 10
-1.292855
 20
0.118228
 30
0.0
 11
-1.293321
 21
0.116156
 31
0.0
  0
LINE
  8
0
  6
CONTINUOUS
 62
     7
  5
1EA
 10
-1.293321
 20
0.116156
 30
0.0
 11
-1.293784
 21
0.114083
 31
0.0
  0
LINE
  8
0
  6
CONTINUOUS
 62
     7
  5
1EB
 10
-1.293784
 20
0.114083
 30
0.0
 11
-1.294244
 21
0.11201
 31
0.0
  0
LINE
  8
0
  6
CONTINUOUS
 62
     7
  5
1EC
 10
-1.294244
 20
0.11201
 30
0.0
 11
-1.2947
 21
0.109935
 31
0.0
  0
LINE
  8
0
  6
CONTINUOUS
 62
     7
  5
1ED
 10
-1.2947
 20
0.109935
 30
0.0
 11
-1.295153
 21
0.107861
 31
0.0
  0
LINE
  8
0
  6
CONTINUOUS
 62
     7
  5
1EE
 10
-1.295153
 20
0.107861
 30
0.0
 11
-1.295602
 21
0.105785
 31
0.0
  0
LINE
  8
0
  6
CONTINUOUS
 62
     7
  5
1EF
 10
-1.295602
 20
0.105785
 30
0.0
 11
-1.296048
 21
0.103709
 31
0.0
  0
LINE
  8
0
  6
CONTINUOUS
 62
     7
  5
1F0
 10
-1.296048
 20
0.103709
 30
0.0
 11
-1.29649
 21
0.101633
 31
0.0
  0
LINE
  8
0
  6
CONTINUOUS
 62
     7
  5
1F1
 10
-1.29649
 20
0.101633
 30
0.0
 11
-1.296929
 21
0.099556
 31
0.0
  0
LINE
  8
0
  6
CONTINUOUS
 62
     7
  5
1F2
 10
-1.296929
 20
0.099556
 30
0.0
 11
-1.297365
 21
0.097478
 31
0.0
  0
LINE
  8
0
  6
CONTINUOUS
 62
     7
  5
1F3
 10
-1.297365
 20
0.097478
 30
0.0
 11
-1.297797
 21
0.0954
 31
0.0
  0
LINE
  8
0
  6
CONTINUOUS
 62
     7
  5
1F4
 10
-1.297797
 20
0.0954
 30
0.0
 11
-1.298226
 21
0.093321
 31
0.0
  0
LINE
  8
0
  6
CONTINUOUS
 62
     7
  5
1F5
 10
-1.298226
 20
0.093321
 30
0.0
 11
-1.298651
 21
0.091241
 31
0.0
  0
LINE
  8
0
  6
CONTINUOUS
 62
     7
  5
1F6
 10
-1.298651
 20
0.091241
 30
0.0
 11
-1.299073
 21
0.089161
 31
0.0
  0
LINE
  8
0
  6
CONTINUOUS
 62
     7
  5
1F7
 10
-1.299073
 20
0.089161
 30
0.0
 11
-1.299491
 21
0.087081
 31
0.0
  0
LINE
  8
0
  6
CONTINUOUS
 62
     7
  5
1F8
 10
-1.299491
 20
0.087081
 30
0.0
 11
-1.299906
 21
0.084999
 31
0.0
  0
LINE
  8
0
  6
CONTINUOUS
 62
     7
  5
1F9
 10
-1.299906
 20
0.084999
 30
0.0
 11
-1.300317
 21
0.082918
 31
0.0
  0
LINE
  8
0
  6
CONTINUOUS
 62
     7
  5
1FA
 10
-1.300317
 20
0.082918
 30
0.0
 11
-1.300725
 21
0.080835
 31
0.0
  0
LINE
  8
0
  6
CONTINUOUS
 62
     7
  5
1FB
 10
-1.300725
 20
0.080835
 30
0.0
 11
-1.30113
 21
0.078752
 31
0.0
  0
LINE
  8
0
  6
CONTINUOUS
 62
     7
  5
1FC
 10
-1.30113
 20
0.078752
 30
0.0
 11
-1.301531
 21
0.076669
 31
0.0
  0
LINE
  8
0
  6
CONTINUOUS
 62
     7
  5
1FD
 10
-1.301531
 20
0.076669
 30
0.0
 11
-1.301929
 21
0.074585
 31
0.0
  0
LINE
  8
0
  6
CONTINUOUS
 62
     7
  5
1FE
 10
-1.301929
 20
0.074585
 30
0.0
 11
-1.302323
 21
0.072501
 31
0.0
  0
LINE
  8
0
  6
CONTINUOUS
 62
     7
  5
1FF
 10
-1.302323
 20
0.072501
 30
0.0
 11
-1.302714
 21
0.070416
 31
0.0
  0
LINE
  8
0
  6
CONTINUOUS
 62
     7
  5
200
 10
-1.302714
 20
0.070416
 30
0.0
 11
-1.303101
 21
0.06833
 31
0.0
  0
LINE
  8
0
  6
CONTINUOUS
 62
     7
  5
201
 10
-1.303101
 20
0.06833
 30
0.0
 11
-1.303485
 21
0.066244
 31
0.0
  0
LINE
  8
0
  6
CONTINUOUS
 62
     7
  5
202
 10
-1.303485
 20
0.066244
 30
0.0
 11
-1.303865
 21
0.064158
 31
0.0
  0
LINE
  8
0
  6
CONTINUOUS
 62
     7
  5
203
 10
-1.303865
 20
0.064158
 30
0.0
 11
-1.304242
 21
0.062071
 31
0.0
  0
LINE
  8
0
  6
CONTINUOUS
 62
     7
  5
204
 10
-1.289
 20
0.505294
 30
0.0
 11
-1.289
 21
0.134784
 31
0.0
  0
LINE
  8
0
  6
CONTINUOUS
 62
     7
  5
205
 10
-1.319929
 20
-0.399224
 30
0.0
 11
-1.319939
 21
-0.398843
 31
0.0
  0
LINE
  8
0
  6
CONTINUOUS
 62
     7
  5
206
 10
-1.319939
 20
-0.398843
 30
0.0
 11
-1.31995
 21
-0.397771
 31
0.0
  0
LINE
  8
0
  6
CONTINUOUS
 62
     7
  5
207
 10
-1.31995
 20
-0.397771
 30
0.0
 11
-1.319962
 21
-0.395998
 31
0.0
  0
LINE
  8
0
  6
CONTINUOUS
 62
     7
  5
208
 10
-1.319962
 20
-0.395998
 30
0.0
 11
-1.319974
 21
-0.393517
 31
0.0
  0
LINE
  8
0
  6
CONTINUOUS
 62
     7
  5
209
 10
-1.319974
 20
-0.393517
 30
0.0
 11
-1.319987
 21
-0.390329
 31
0.0
  0
LINE
  8
0
  6
CONTINUOUS
 62
     7
  5
20A
 10
-1.319987
 20
-0.390329
 30
0.0
 11
-1.320001
 21
-0.38644
 31
0.0
  0
LINE
  8
0
  6
CONTINUOUS
 62
     7
  5
20B
 10
-1.320001
 20
-0.38644
 30
0.0
 11
-1.320015
 21
-0.381858
 31
0.0
  0
LINE
  8
0
  6
CONTINUOUS
 62
     7
  5
20C
 10
-1.320015
 20
-0.381858
 30
0.0
 11
-1.320029
 21
-0.376594
 31
0.0
  0
LINE
  8
0
  6
CONTINUOUS
 62
     7
  5
20D
 10
-1.320029
 20
-0.376594
 30
0.0
 11
-1.320044
 21
-0.370666
 31
0.0
  0
LINE
  8
0
  6
CONTINUOUS
 62
     7
  5
20E
 10
-1.320044
 20
-0.370666
 30
0.0
 11
-1.320059
 21
-0.364094
 31
0.0
  0
LINE
  8
0
  6
CONTINUOUS
 62
     7
  5
20F
 10
-1.320059
 20
-0.364094
 30
0.0
 11
-1.320075
 21
-0.356907
 31
0.0
  0
LINE
  8
0
  6
CONTINUOUS
 62
     7
  5
210
 10
-1.320075
 20
-0.356907
 30
0.0
 11
-1.320091
 21
-0.349135
 31
0.0
  0
LINE
  8
0
  6
CONTINUOUS
 62
     7
  5
211
 10
-1.320091
 20
-0.349135
 30
0.0
 11
-1.320107
 21
-0.340817
 31
0.0
  0
LINE
  8
0
  6
CONTINUOUS
 62
     7
  5
212
 10
-1.320107
 20
-0.340817
 30
0.0
 11
-1.320123
 21
-0.331994
 31
0.0
  0
LINE
  8
0
  6
CONTINUOUS
 62
     7
  5
213
 10
-1.320123
 20
-0.331994
 30
0.0
 11
-1.32014
 21
-0.322711
 31
0.0
  0
LINE
  8
0
  6
CONTINUOUS
 62
     7
  5
214
 10
-1.32014
 20
-0.322711
 30
0.0
 11
-1.320156
 21
-0.313017
 31
0.0
  0
LINE
  8
0
  6
CONTINUOUS
 62
     7
  5
215
 10
-1.320156
 20
-0.313017
 30
0.0
 11
-1.320173
 21
-0.302849
 31
0.0
  0
LINE
  8
0
  6
CONTINUOUS
 62
     7
  5
216
 10
-1.320173
 20
-0.302849
 30
0.0
 11
-1.32019
 21
-0.29206
 31
0.0
  0
LINE
  8
0
  6
CONTINUOUS
 62
     7
  5
217
 10
-1.32019
 20
-0.29206
 30
0.0
 11
-1.320207
 21
-0.280667
 31
0.0
  0
LINE
  8
0
  6
CONTINUOUS
 62
     7
  5
218
 10
-1.320207
 20
-0.280667
 30
0.0
 11
-1.320224
 21
-0.268692
 31
0.0
  0
LINE
  8
0
  6
CONTINUOUS
 62
     7
  5
219
 10
-1.320224
 20
-0.268692
 30
0.0
 11
-1.320242
 21
-0.256165
 31
0.0
  0
LINE
  8
0
  6
CONTINUOUS
 62
     7
  5
21A
 10
-1.320242
 20
-0.256165
 30
0.0
 11
-1.32026
 21
-0.243118
 31
0.0
  0
LINE
  8
0
  6
CONTINUOUS
 62
     7
  5
21B
 10
-1.32026
 20
-0.243118
 30
0.0
 11
-1.320278
 21
-0.229587
 31
0.0
  0
LINE
  8
0
  6
CONTINUOUS
 62
     7
  5
21C
 10
-1.320278
 20
-0.229587
 30
0.0
 11
-1.320296
 21
-0.21561
 31
0.0
  0
LINE
  8
0
  6
CONTINUOUS
 62
     7
  5
21D
 10
-1.320296
 20
-0.21561
 30
0.0
 11
-1.320314
 21
-0.201228
 31
0.0
  0
LINE
  8
0
  6
CONTINUOUS
 62
     7
  5
21E
 10
-1.320314
 20
-0.201228
 30
0.0
 11
-1.320332
 21
-0.186479
 31
0.0
  0
LINE
  8
0
  6
CONTINUOUS
 62
     7
  5
21F
 10
-1.320332
 20
-0.186479
 30
0.0
 11
-1.32035
 21
-0.171405
 31
0.0
  0
LINE
  8
0
  6
CONTINUOUS
 62
     7
  5
220
 10
-1.32035
 20
-0.171405
 30
0.0
 11
-1.320368
 21
-0.156048
 31
0.0
  0
LINE
  8
0
  6
CONTINUOUS
 62
     7
  5
221
 10
-1.320368
 20
-0.156048
 30
0.0
 11
-1.320385
 21
-0.140457
 31
0.0
  0
LINE
  8
0
  6
CONTINUOUS
 62
     7
  5
222
 10
-1.320385
 20
-0.140457
 30
0.0
 11
-1.320403
 21
-0.124683
 31
0.0
  0
LINE
  8
0
  6
CONTINUOUS
 62
     7
  5
223
 10
-1.320403
 20
-0.124683
 30
0.0
 11
-1.32042
 21
-0.108782
 31
0.0
  0
LINE
  8
0
  6
CONTINUOUS
 62
     7
  5
224
 10
-1.32042
 20
-0.108782
 30
0.0
 11
-1.320436
 21
-0.092809
 31
0.0
  0
LINE
  8
0
  6
CONTINUOUS
 62
     7
  5
225
 10
-1.320436
 20
-0.092809
 30
0.0
 11
-1.320453
 21
-0.076822
 31
0.0
  0
LINE
  8
0
  6
CONTINUOUS
 62
     7
  5
226
 10
-1.320453
 20
-0.076822
 30
0.0
 11
-1.320468
 21
-0.060879
 31
0.0
  0
LINE
  8
0
  6
CONTINUOUS
 62
     7
  5
227
 10
-1.320468
 20
-0.060879
 30
0.0
 11
-1.320484
 21
-0.045035
 31
0.0
  0
LINE
  8
0
  6
CONTINUOUS
 62
     7
  5
228
 10
-1.320484
 20
-0.045035
 30
0.0
 11
-1.32011
 21
-0.047416
 31
0.0
  0
LINE
  8
0
  6
CONTINUOUS
 62
     7
  5
229
 10
-1.32011
 20
-0.047416
 30
0.0
 11
-1.319731
 21
-0.049797
 31
0.0
  0
LINE
  8
0
  6
CONTINUOUS
 62
     7
  5
22A
 10
-1.319731
 20
-0.049797
 30
0.0
 11
-1.319348
 21
-0.052178
 31
0.0
  0
LINE
  8
0
  6
CONTINUOUS
 62
     7
  5
22B
 10
-1.319348
 20
-0.052178
 30
0.0
 11
-1.31896
 21
-0.054557
 31
0.0
  0
LINE
  8
0
  6
CONTINUOUS
 62
     7
  5
22C
 10
-1.31896
 20
-0.054557
 30
0.0
 11
-1.318568
 21
-0.056936
 31
0.0
  0
LINE
  8
0
  6
CONTINUOUS
 62
     7
  5
22D
 10
-1.318568
 20
-0.056936
 30
0.0
 11
-1.318171
 21
-0.059315
 31
0.0
  0
LINE
  8
0
  6
CONTINUOUS
 62
     7
  5
22E
 10
-1.318171
 20
-0.059315
 30
0.0
 11
-1.31777
 21
-0.061693
 31
0.0
  0
LINE
  8
0
  6
CONTINUOUS
 62
     7
  5
22F
 10
-1.31777
 20
-0.061693
 30
0.0
 11
-1.317364
 21
-0.06407
 31
0.0
  0
LINE
  8
0
  6
CONTINUOUS
 62
     7
  5
230
 10
-1.317364
 20
-0.06407
 30
0.0
 11
-1.316954
 21
-0.066446
 31
0.0
  0
LINE
  8
0
  6
CONTINUOUS
 62
     7
  5
231
 10
-1.316954
 20
-0.066446
 30
0.0
 11
-1.316539
 21
-0.068822
 31
0.0
  0
LINE
  8
0
  6
CONTINUOUS
 62
     7
  5
232
 10
-1.316539
 20
-0.068822
 30
0.0
 11
-1.31612
 21
-0.071198
 31
0.0
  0
LINE
  8
0
  6
CONTINUOUS
 62
     7
  5
233
 10
-1.31612
 20
-0.071198
 30
0.0
 11
-1.315696
 21
-0.073573
 31
0.0
  0
LINE
  8
0
  6
CONTINUOUS
 62
     7
  5
234
 10
-1.315696
 20
-0.073573
 30
0.0
 11
-1.315267
 21
-0.075947
 31
0.0
  0
LINE
  8
0
  6
CONTINUOUS
 62
     7
  5
235
 10
-1.315267
 20
-0.075947
 30
0.0
 11
-1.314834
 21
-0.07832
 31
0.0
  0
LINE
  8
0
  6
CONTINUOUS
 62
     7
  5
236
 10
-1.314834
 20
-0.07832
 30
0.0
 11
-1.314397
 21
-0.080693
 31
0.0
  0
LINE
  8
0
  6
CONTINUOUS
 62
     7
  5
237
 10
-1.314397
 20
-0.080693
 30
0.0
 11
-1.313955
 21
-0.083065
 31
0.0
  0
LINE
  8
0
  6
CONTINUOUS
 62
     7
  5
238
 10
-1.313955
 20
-0.083065
 30
0.0
 11
-1.313508
 21
-0.085436
 31
0.0
  0
LINE
  8
0
  6
CONTINUOUS
 62
     7
  5
239
 10
-1.313508
 20
-0.085436
 30
0.0
 11
-1.313057
 21
-0.087807
 31
0.0
  0
LINE
  8
0
  6
CONTINUOUS
 62
     7
  5
23A
 10
-1.313057
 20
-0.087807
 30
0.0
 11
-1.312601
 21
-0.090177
 31
0.0
  0
LINE
  8
0
  6
CONTINUOUS
 62
     7
  5
23B
 10
-1.312601
 20
-0.090177
 30
0.0
 11
-1.312141
 21
-0.092546
 31
0.0
  0
LINE
  8
0
  6
CONTINUOUS
 62
     7
  5
23C
 10
-1.312141
 20
-0.092546
 30
0.0
 11
-1.311676
 21
-0.094915
 31
0.0
  0
LINE
  8
0
  6
CONTINUOUS
 62
     7
  5
23D
 10
-1.311676
 20
-0.094915
 30
0.0
 11
-1.311207
 21
-0.097283
 31
0.0
  0
LINE
  8
0
  6
CONTINUOUS
 62
     7
  5
23E
 10
-1.311207
 20
-0.097283
 30
0.0
 11
-1.310733
 21
-0.09965
 31
0.0
  0
LINE
  8
0
  6
CONTINUOUS
 62
     7
  5
23F
 10
-1.310733
 20
-0.09965
 30
0.0
 11
-1.310255
 21
-0.102017
 31
0.0
  0
LINE
  8
0
  6
CONTINUOUS
 62
     7
  5
240
 10
-1.310255
 20
-0.102017
 30
0.0
 11
-1.309772
 21
-0.104382
 31
0.0
  0
LINE
  8
0
  6
CONTINUOUS
 62
     7
  5
241
 10
-1.309772
 20
-0.104382
 30
0.0
 11
-1.309285
 21
-0.106747
 31
0.0
  0
LINE
  8
0
  6
CONTINUOUS
 62
     7
  5
242
 10
-1.309285
 20
-0.106747
 30
0.0
 11
-1.308793
 21
-0.109112
 31
0.0
  0
LINE
  8
0
  6
CONTINUOUS
 62
     7
  5
243
 10
-1.308793
 20
-0.109112
 30
0.0
 11
-1.308297
 21
-0.111475
 31
0.0
  0
LINE
  8
0
  6
CONTINUOUS
 62
     7
  5
244
 10
-1.308297
 20
-0.111475
 30
0.0
 11
-1.307796
 21
-0.113838
 31
0.0
  0
LINE
  8
0
  6
CONTINUOUS
 62
     7
  5
245
 10
-1.307796
 20
-0.113838
 30
0.0
 11
-1.307291
 21
-0.1162
 31
0.0
  0
LINE
  8
0
  6
CONTINUOUS
 62
     7
  5
246
 10
-1.307291
 20
-0.1162
 30
0.0
 11
-1.306781
 21
-0.118561
 31
0.0
  0
LINE
  8
0
  6
CONTINUOUS
 62
     7
  5
247
 10
-1.306781
 20
-0.118561
 30
0.0
 11
-1.306267
 21
-0.120922
 31
0.0
  0
LINE
  8
0
  6
CONTINUOUS
 62
     7
  5
248
 10
-1.306267
 20
-0.120922
 30
0.0
 11
-1.305748
 21
-0.123281
 31
0.0
  0
LINE
  8
0
  6
CONTINUOUS
 62
     7
  5
249
 10
-1.305748
 20
-0.123281
 30
0.0
 11
-1.305224
 21
-0.12564
 31
0.0
  0
LINE
  8
0
  6
CONTINUOUS
 62
     7
  5
24A
 10
-1.305224
 20
-0.12564
 30
0.0
 11
-1.304697
 21
-0.127998
 31
0.0
  0
LINE
  8
0
  6
CONTINUOUS
 62
     7
  5
24B
 10
-1.304697
 20
-0.127998
 30
0.0
 11
-1.289
 21
-0.127998
 31
0.0
  0
LINE
  8
0
  6
CONTINUOUS
 62
     7
  5
24C
 10
-1.304697
 20
-0.127998
 30
0.0
 11
-1.304323
 21
-0.126156
 31
0.0
  0
LINE
  8
0
  6
CONTINUOUS
 62
     7
  5
24D
 10
-1.304323
 20
-0.126156
 30
0.0
 11
-1.303945
 21
-0.124314
 31
0.0
  0
LINE
  8
0
  6
CONTINUOUS
 62
     7
  5
24E
 10
-1.303945
 20
-0.124314
 30
0.0
 11
-1.303563
 21
-0.122472
 31
0.0
  0
LINE
  8
0
  6
CONTINUOUS
 62
     7
  5
24F
 10
-1.303563
 20
-0.122472
 30
0.0
 11
-1.303176
 21
-0.120631
 31
0.0
  0
LINE
  8
0
  6
CONTINUOUS
 62
     7
  5
250
 10
-1.303176
 20
-0.120631
 30
0.0
 11
-1.302785
 21
-0.118791
 31
0.0
  0
LINE
  8
0
  6
CONTINUOUS
 62
     7
  5
251
 10
-1.302785
 20
-0.118791
 30
0.0
 11
-1.302389
 21
-0.116951
 31
0.0
  0
LINE
  8
0
  6
CONTINUOUS
 62
     7
  5
252
 10
-1.302389
 20
-0.116951
 30
0.0
 11
-1.301989
 21
-0.115111
 31
0.0
  0
LINE
  8
0
  6
CONTINUOUS
 62
     7
  5
253
 10
-1.301989
 20
-0.115111
 30
0.0
 11
-1.301584
 21
-0.113272
 31
0.0
  0
LINE
  8
0
  6
CONTINUOUS
 62
     7
  5
254
 10
-1.301584
 20
-0.113272
 30
0.0
 11
-1.301175
 21
-0.111433
 31
0.0
  0
LINE
  8
0
  6
CONTINUOUS
 62
     7
  5
255
 10
-1.301175
 20
-0.111433
 30
0.0
 11
-1.300762
 21
-0.109595
 31
0.0
  0
LINE
  8
0
  6
CONTINUOUS
 62
     7
  5
256
 10
-1.300762
 20
-0.109595
 30
0.0
 11
-1.300344
 21
-0.107757
 31
0.0
  0
LINE
  8
0
  6
CONTINUOUS
 62
     7
  5
257
 10
-1.300344
 20
-0.107757
 30
0.0
 11
-1.299922
 21
-0.10592
 31
0.0
  0
LINE
  8
0
  6
CONTINUOUS
 62
     7
  5
258
 10
-1.299922
 20
-0.10592
 30
0.0
 11
-1.299496
 21
-0.104083
 31
0.0
  0
LINE
  8
0
  6
CONTINUOUS
 62
     7
  5
259
 10
-1.299496
 20
-0.104083
 30
0.0
 11
-1.299065
 21
-0.102247
 31
0.0
  0
LINE
  8
0
  6
CONTINUOUS
 62
     7
  5
25A
 10
-1.299065
 20
-0.102247
 30
0.0
 11
-1.29863
 21
-0.100411
 31
0.0
  0
LINE
  8
0
  6
CONTINUOUS
 62
     7
  5
25B
 10
-1.29863
 20
-0.100411
 30
0.0
 11
-1.29819
 21
-0.098576
 31
0.0
  0
LINE
  8
0
  6
CONTINUOUS
 62
     7
  5
25C
 10
-1.29819
 20
-0.098576
 30
0.0
 11
-1.297746
 21
-0.096741
 31
0.0
  0
LINE
  8
0
  6
CONTINUOUS
 62
     7
  5
25D
 10
-1.297746
 20
-0.096741
 30
0.0
 11
-1.297297
 21
-0.094907
 31
0.0
  0
LINE
  8
0
  6
CONTINUOUS
 62
     7
  5
25E
 10
-1.297297
 20
-0.094907
 30
0.0
 11
-1.296844
 21
-0.093074
 31
0.0
  0
LINE
  8
0
  6
CONTINUOUS
 62
     7
  5
25F
 10
-1.296844
 20
-0.093074
 30
0.0
 11
-1.296387
 21
-0.091241
 31
0.0
  0
LINE
  8
0
  6
CONTINUOUS
 62
     7
  5
260
 10
-1.296387
 20
-0.091241
 30
0.0
 11
-1.295925
 21
-0.089408
 31
0.0
  0
LINE
  8
0
  6
CONTINUOUS
 62
     7
  5
261
 10
-1.295925
 20
-0.089408
 30
0.0
 11
-1.295459
 21
-0.087576
 31
0.0
  0
LINE
  8
0
  6
CONTINUOUS
 62
     7
  5
262
 10
-1.295459
 20
-0.087576
 30
0.0
 11
-1.294988
 21
-0.085745
 31
0.0
  0
LINE
  8
0
  6
CONTINUOUS
 62
     7
  5
263
 10
-1.294988
 20
-0.085745
 30
0.0
 11
-1.294514
 21
-0.083914
 31
0.0
  0
LINE
  8
0
  6
CONTINUOUS
 62
     7
  5
264
 10
-1.294514
 20
-0.083914
 30
0.0
 11
-1.294034
 21
-0.082084
 31
0.0
  0
LINE
  8
0
  6
CONTINUOUS
 62
     7
  5
265
 10
-1.294034
 20
-0.082084
 30
0.0
 11
-1.293551
 21
-0.080254
 31
0.0
  0
LINE
  8
0
  6
CONTINUOUS
 62
     7
  5
266
 10
-1.293551
 20
-0.080254
 30
0.0
 11
-1.293062
 21
-0.078425
 31
0.0
  0
LINE
  8
0
  6
CONTINUOUS
 62
     7
  5
267
 10
-1.293062
 20
-0.078425
 30
0.0
 11
-1.29257
 21
-0.076596
 31
0.0
  0
LINE
  8
0
  6
CONTINUOUS
 62
     7
  5
268
 10
-1.29257
 20
-0.076596
 30
0.0
 11
-1.292073
 21
-0.074768
 31
0.0
  0
LINE
  8
0
  6
CONTINUOUS
 62
     7
  5
269
 10
-1.292073
 20
-0.074768
 30
0.0
 11
-1.291572
 21
-0.072941
 31
0.0
  0
LINE
  8
0
  6
CONTINUOUS
 62
     7
  5
26A
 10
-1.291572
 20
-0.072941
 30
0.0
 11
-1.291066
 21
-0.071114
 31
0.0
  0
LINE
  8
0
  6
CONTINUOUS
 62
     7
  5
26B
 10
-1.291066
 20
-0.071114
 30
0.0
 11
-1.290556
 21
-0.069288
 31
0.0
  0
LINE
  8
0
  6
CONTINUOUS
 62
     7
  5
26C
 10
-1.290556
 20
-0.069288
 30
0.0
 11
-1.290042
 21
-0.067463
 31
0.0
  0
LINE
  8
0
  6
CONTINUOUS
 62
     7
  5
26D
 10
-1.290042
 20
-0.067463
 30
0.0
 11
-1.289523
 21
-0.065638
 31
0.0
  0
LINE
  8
0
  6
CONTINUOUS
 62
     7
  5
26E
 10
-1.289523
 20
-0.065638
 30
0.0
 11
-1.289
 21
-0.063813
 31
0.0
  0
LINE
  8
0
  6
CONTINUOUS
 62
     7
  5
26F
 10
-1.289
 20
-0.063813
 30
0.0
 11
-1.289
 21
-0.505294
 31
0.0
  0
LINE
  8
0
  6
CONTINUOUS
 62
     7
  5
270
 10
-1.065669
 20
-0.696319
 30
0.0
 11
-1.065669
 21
0.696319
 31
0.0
  0
LINE
  8
0
  6
CONTINUOUS
 62
     7
  5
271
 10
-1.243031
 20
0.696319
 30
0.0
 11
-1.243031
 21
-0.696319
 31
0.0
  0
LINE
  8
0
  6
CONTINUOUS
 62
     7
  5
272
 10
-0.523543
 20
0.5905
 30
0.0
 11
-0.523543
 21
-0.5905
 31
0.0
  0
LINE
  8
0
  6
CONTINUOUS
 62
     7
  5
273
 10
-0.157063
 20
0.561024
 30
0.0
 11
-0.157063
 21
-0.561024
 31
0.0
  0
LINE
  8
0
  6
CONTINUOUS
 62
     7
  5
274
 10
0.0
 20
0.561024
 30
0.0
 11
0.0
 21
-0.561024
 31
0.0
  0
LINE
  8
0
  6
CONTINUOUS
 62
     7
  5
275
 10
-1.289
 20
0.399225
 30
0.0
 11
-1.319928
 21
0.399225
 31
0.0
  0
LINE
  8
0
  6
CONTINUOUS
 62
     7
  5
276
 10
-1.319928
 20
-0.399225
 30
0.0
 11
-1.289
 21
-0.399225
 31
0.0
  0
ARC
  8
0
  6
CONTINUOUS
 62
     7
  5
277
 10
-1.15435
 20
-0.696319
 30
0.0
 40
0.088681
 50
180.0
 51
0.0
  0
ARC
  8
0
  6
CONTINUOUS
 62
     7
  5
278
 10
-1.15435
 20
0.696319
 30
0.0
 40
0.088681
 50
0.0
 51
180.0
  0
ARC
  8
0
  6
CONTINUOUS
 62
     7
  5
279
 10
0.246562
 20
0.0
 30
0.0
 40
1.616562
 50
157.140128
 51
161.785628
  0
ARC
  8
0
  6
CONTINUOUS
 62
     7
  5
27A
 10
0.246562
 20
0.0
 30
0.0
 40
1.616562
 50
165.702392
 51
180.0
  0
ARC
  8
0
  6
CONTINUOUS
 62
     7
  5
27B
 10
0.246562
 20
0.0
 30
0.0
 40
1.616562
 50
180.0
 51
194.297608
  0
ARC
  8
0
  6
CONTINUOUS
 62
     7
  5
27C
 10
0.246562
 20
0.0
 30
0.0
 40
1.616562
 50
198.214372
 51
202.859872
  0
LINE
  8
0
  6
CONTINUOUS
 62
     7
  5
27D
 10
-0.523543
 20
0.5905
 30
0.0
 11
-1.065669
 21
0.5905
 31
0.0
  0
LINE
  8
0
  6
CONTINUOUS
 62
     7
  5
27E
 10
-1.065669
 20
-0.5905
 30
0.0
 11
-0.523543
 21
-0.5905
 31
0.0
  0
LINE
  8
0
  6
CONTINUOUS
 62
     7
  5
27F
 10
-0.157063
 20
0.516142
 30
0.0
 11
-0.523543
 21
0.516142
 31
0.0
  0
LINE
  8
0
  6
CONTINUOUS
 62
     7
  5
280
 10
-0.523543
 20
-0.516142
 30
0.0
 11
-0.157063
 21
-0.516142
 31
0.0
  0
LINE
  8
0
  6
CONTINUOUS
 62
     7
  5
281
 10
0.0
 20
0.561024
 30
0.0
 11
-0.157063
 21
0.561024
 31
0.0
  0
LINE
  8
0
  6
CONTINUOUS
 62
     7
  5
282
 10
-0.157063
 20
-0.561024
 30
0.0
 11
0.0
 21
-0.561024
 31
0.0
  0
LINE
  8
0
  6
CONTINUOUS
 62
     7
  5
283
 10
0.124016
 20
0.391926
 30
0.0
 11
0.124016
 21
0.433071
 31
0.0
  0
LINE
  8
0
  6
CONTINUOUS
 62
     7
  5
284
 10
0.124016
 20
0.222793
 30
0.0
 11
0.024803
 21
0.222793
 31
0.0
  0
LINE
  8
0
  6
CONTINUOUS
 62
     7
  5
285
 10
0.124016
 20
0.222793
 30
0.0
 11
0.124016
 21
0.391926
 31
0.0
  0
LINE
  8
0
  6
CONTINUOUS
 62
     7
  5
286
 10
0.024803
 20
-0.222793
 30
0.0
 11
0.124016
 21
-0.222793
 31
0.0
  0
LINE
  8
0
  6
CONTINUOUS
 62
     7
  5
287
 10
0.124016
 20
-0.222793
 30
0.0
 11
0.124016
 21
0.222793
 31
0.0
  0
LINE
  8
0
  6
CONTINUOUS
 62
     7
  5
288
 10
0.124016
 20
-0.391926
 30
0.0
 11
0.124016
 21
-0.222793
 31
0.0
  0
LINE
  8
0
  6
CONTINUOUS
 62
     7
  5
289
 10
0.124016
 20
-0.433071
 30
0.0
 11
0.124016
 21
-0.391926
 31
0.0
  0
LINE
  8
0
  6
CONTINUOUS
 62
     7
  5
28A
 10
0.142618
 20
0.324102
 30
0.0
 11
0.261024
 21
0.324102
 31
0.0
  0
LINE
  8
0
  6
CONTINUOUS
 62
     7
  5
28B
 10
0.142618
 20
0.316788
 30
0.0
 11
0.261024
 21
0.316788
 31
0.0
  0
LINE
  8
0
  6
CONTINUOUS
 62
     7
  5
28C
 10
0.142618
 20
0.230378
 30
0.0
 11
0.142618
 21
0.324102
 31
0.0
  0
LINE
  8
0
  6
CONTINUOUS
 62
     7
  5
28D
 10
0.261024
 20
0.230378
 30
0.0
 11
0.142618
 21
0.230378
 31
0.0
  0
LINE
  8
0
  6
CONTINUOUS
 62
     7
  5
28E
 10
0.261024
 20
-0.324102
 30
0.0
 11
0.142618
 21
-0.324102
 31
0.0
  0
LINE
  8
0
  6
CONTINUOUS
 62
     7
  5
28F
 10
0.142618
 20
-0.324102
 30
0.0
 11
0.142618
 21
-0.230378
 31
0.0
  0
LINE
  8
0
  6
CONTINUOUS
 62
     7
  5
290
 10
0.142618
 20
-0.230378
 30
0.0
 11
0.261024
 21
-0.230378
 31
0.0
  0
LINE
  8
0
  6
CONTINUOUS
 62
     7
  5
291
 10
0.142618
 20
-0.316788
 30
0.0
 11
0.261024
 21
-0.316788
 31
0.0
  0
LINE
  8
0
  6
CONTINUOUS
 62
     7
  5
292
 10
0.024803
 20
-0.531496
 30
0.0
 11
0.024803
 21
0.531496
 31
0.0
  0
LINE
  8
0
  6
CONTINUOUS
 62
     7
  5
293
 10
0.124016
 20
0.433071
 30
0.0
 11
0.024803
 21
0.433071
 31
0.0
  0
LINE
  8
0
  6
CONTINUOUS
 62
     7
  5
294
 10
0.124016
 20
0.391926
 30
0.0
 11
0.024803
 21
0.391926
 31
0.0
  0
LINE
  8
0
  6
CONTINUOUS
 62
     7
  5
295
 10
0.024803
 20
-0.391926
 30
0.0
 11
0.124016
 21
-0.391926
 31
0.0
  0
LINE
  8
0
  6
CONTINUOUS
 62
     7
  5
296
 10
0.024803
 20
-0.433071
 30
0.0
 11
0.124016
 21
-0.433071
 31
0.0
  0
LINE
  8
0
  6
CONTINUOUS
 62
     7
  5
297
 10
0.124016
 20
-0.397638
 30
0.0
 11
0.261024
 21
-0.397638
 31
0.0
  0
LINE
  8
0
  6
CONTINUOUS
 62
     7
  5
298
 10
0.261024
 20
0.397638
 30
0.0
 11
0.124016
 21
0.397638
 31
0.0
  0
LINE
  8
0
  6
CONTINUOUS
 62
     7
  5
299
 10
0.0
 20
-0.531496
 30
0.0
 11
0.024803
 21
-0.531496
 31
0.0
  0
LINE
  8
0
  6
CONTINUOUS
 62
     7
  5
29A
 10
0.024803
 20
0.531496
 30
0.0
 11
0.0
 21
0.531496
 31
0.0
  0
LINE
  8
0
  6
CONTINUOUS
 62
     7
  5
29B
 10
0.670472
 20
-0.4799
 30
0.0
 11
0.642835
 21
-0.4799
 31
0.0
  0
LINE
  8
0
  6
CONTINUOUS
 62
     7
  5
29C
 10
0.642835
 20
-0.5299
 30
0.0
 11
0.592835
 21
-0.5299
 31
0.0
  0
LINE
  8
0
  6
CONTINUOUS
 62
     7
  5
29D
 10
0.642835
 20
-0.4799
 30
0.0
 11
0.642835
 21
-0.5299
 31
0.0
  0
LINE
  8
0
  6
CONTINUOUS
 62
     7
  5
29E
 10
0.592835
 20
-0.5
 30
0.0
 11
0.592835
 21
-0.5299
 31
0.0
  0
LINE
  8
0
  6
CONTINUOUS
 62
     7
  5
29F
 10
0.772835
 20
-0.167029
 30
0.0
 11
0.772835
 21
0.255879
 31
0.0
  0
LINE
  8
0
  6
CONTINUOUS
 62
     7
  5
2A0
 10
1.701835
 20
0.56691
 30
0.0
 11
1.592733
 21
0.6299
 31
0.0
  0
LINE
  8
0
  6
CONTINUOUS
 62
     7
  5
2A1
 10
0.930315
 20
-0.498248
 30
0.0
 11
1.292025
 21
-0.6299
 31
0.0
  0
LINE
  8
0
  6
CONTINUOUS
 62
     7
  5
2A2
 10
1.292025
 20
-0.6299
 30
0.0
 11
1.592733
 21
-0.6299
 31
0.0
  0
LINE
  8
0
  6
CONTINUOUS
 62
     7
  5
2A3
 10
1.592733
 20
-0.6299
 30
0.0
 11
1.701835
 21
-0.56691
 31
0.0
  0
LINE
  8
0
  6
CONTINUOUS
 62
     7
  5
2A4
 10
1.701835
 20
0.56691
 30
0.0
 11
1.701835
 21
-0.56691
 31
0.0
  0
LINE
  8
0
  6
CONTINUOUS
 62
     7
  5
2A5
 10
0.772835
 20
0.6299
 30
0.0
 11
1.592733
 21
0.6299
 31
0.0
  0
LINE
  8
0
  6
CONTINUOUS
 62
     7
  5
2A6
 10
0.261024
 20
-0.5
 30
0.0
 11
0.261024
 21
-0.80374
 31
0.0
  0
LINE
  8
0
  6
CONTINUOUS
 62
     7
  5
2A7
 10
0.261024
 20
-0.80374
 30
0.0
 11
0.529024
 21
-0.80374
 31
0.0
  0
LINE
  8
0
  6
CONTINUOUS
 62
     7
  5
2A8
 10
0.529024
 20
-0.80374
 30
0.0
 11
0.529024
 21
-0.5
 31
0.0
  0
CIRCLE
  8
0
  6
CONTINUOUS
 62
     7
  5
2A9
 10
0.391024
 20
-0.6
 30
0.0
 40
0.075
  0
LINE
  8
0
  6
CONTINUOUS
 62
     7
  5
2AA
 10
0.261024
 20
-0.455
 30
0.0
 11
0.529024
 21
-0.455
 31
0.0
  0
LINE
  8
0
  6
CONTINUOUS
 62
     7
  5
2AB
 10
0.529024
 20
-0.455
 30
0.0
 11
0.529024
 21
0.817
 31
0.0
  0
LINE
  8
0
  6
CONTINUOUS
 62
     7
  5
2AC
 10
0.529024
 20
0.817
 30
0.0
 11
0.278789
 21
1.026971
 31
0.0
  0
LINE
  8
0
  6
CONTINUOUS
 62
     7
  5
2AD
 10
0.261024
 20
1.026971
 30
0.0
 11
0.278789
 21
1.026971
 31
0.0
  0
LINE
  8
0
  6
CONTINUOUS
 62
     7
  5
2AE
 10
0.261024
 20
1.026971
 30
0.0
 11
0.261024
 21
-0.455
 31
0.0
  0
LINE
  8
0
  6
CONTINUOUS
 62
     7
  5
2AF
 10
0.261024
 20
-0.5
 30
0.0
 11
0.261024
 21
-0.455
 31
0.0
  0
LINE
  8
0
  6
CONTINUOUS
 62
     7
  5
2B0
 10
0.529024
 20
-0.381102
 30
0.0
 11
0.611024
 21
-0.381102
 31
0.0
  0
LINE
  8
0
  6
CONTINUOUS
 62
     7
  5
2B1
 10
0.670472
 20
-0.454436
 30
0.0
 11
0.709635
 21
-0.454436
 31
0.0
  0
LINE
  8
0
  6
CONTINUOUS
 62
     7
  5
2B2
 10
0.536614
 20
0.381102
 30
0.0
 11
0.529024
 21
0.381102
 31
0.0
  0
LINE
  8
0
  6
CONTINUOUS
 62
     7
  5
2B3
 10
0.561024
 20
1.016339
 30
0.0
 11
0.561024
 21
0.9
 31
0.0
  0
LINE
  8
0
  6
CONTINUOUS
 62
     7
  5
2B4
 10
0.580709
 20
0.7
 30
0.0
 11
0.580709
 21
0.816386
 31
0.0
  0
LINE
  8
0
  6
CONTINUOUS
 62
     7
  5
2B5
 10
0.572835
 20
0.816386
 30
0.0
 11
0.580709
 21
0.816386
 31
0.0
  0
LINE
  8
0
  6
CONTINUOUS
 62
     7
  5
2B6
 10
0.561024
 20
1.016339
 30
0.0
 11
0.580709
 21
1.016339
 31
0.0
  0
LINE
  8
0
  6
CONTINUOUS
 62
     7
  5
2B7
 10
0.580709
 20
0.816386
 30
0.0
 11
0.580709
 21
1.016339
 31
0.0
  0
LINE
  8
0
  6
CONTINUOUS
 62
     7
  5
2B8
 10
0.915091
 20
-0.713882
 30
0.0
 11
0.919918
 21
-0.658711
 31
0.0
  0
LINE
  8
0
  6
CONTINUOUS
 62
     7
  5
2B9
 10
1.017299
 20
-0.578274
 30
0.0
 11
1.004748
 21
-0.721726
 31
0.0
  0
LINE
  8
0
  6
CONTINUOUS
 62
     7
  5
2BA
 10
0.930315
 20
-0.284252
 30
0.0
 11
0.930315
 21
-0.648248
 31
0.0
  0
LINE
  8
0
  6
CONTINUOUS
 62
     7
  5
2BB
 10
0.733597
 20
-0.137822
 30
0.0
 11
0.930315
 21
-0.284252
 31
0.0
  0
LINE
  8
0
  6
CONTINUOUS
 62
     7
  5
2BC
 10
0.572835
 20
0.7
 30
0.0
 11
0.572835
 21
0.9
 31
0.0
  0
LINE
  8
0
  6
CONTINUOUS
 62
     7
  5
2BD
 10
0.536614
 20
0.7
 30
0.0
 11
0.772835
 21
0.7
 31
0.0
  0
LINE
  8
0
  6
CONTINUOUS
 62
     7
  5
2BE
 10
0.772835
 20
-0.677953
 30
0.0
 11
0.772835
 21
-0.7
 31
0.0
  0
LINE
  8
0
  6
CONTINUOUS
 62
     7
  5
2BF
 10
0.670472
 20
-0.7
 30
0.0
 11
0.670472
 21
-0.454436
 31
0.0
  0
LINE
  8
0
  6
CONTINUOUS
 62
     7
  5
2C0
 10
0.670472
 20
-0.7
 30
0.0
 11
0.772835
 21
-0.7
 31
0.0
  0
LINE
  8
0
  6
CONTINUOUS
 62
     7
  5
2C1
 10
0.772835
 20
0.7
 30
0.0
 11
0.772835
 21
0.255879
 31
0.0
  0
LINE
  8
0
  6
CONTINUOUS
 62
     7
  5
2C2
 10
0.772835
 20
0.255879
 30
0.0
 11
0.772835
 21
-0.167029
 31
0.0
  0
LINE
  8
0
  6
CONTINUOUS
 62
     7
  5
2C3
 10
0.772835
 20
-0.588502
 30
0.0
 11
0.536614
 21
-0.087402
 31
0.0
  0
LINE
  8
0
  6
CONTINUOUS
 62
     7
  5
2C4
 10
0.430108
 20
0.9
 30
0.0
 11
0.572835
 21
0.9
 31
0.0
  0
LINE
  8
0
  6
CONTINUOUS
 62
     7
  5
2C5
 10
0.261024
 20
-0.5
 30
0.0
 11
0.611024
 21
-0.5
 31
0.0
  0
LINE
  8
0
  6
CONTINUOUS
 62
     7
  5
2C6
 10
0.611024
 20
-0.381102
 30
0.0
 11
0.611024
 21
-0.5
 31
0.0
  0
LINE
  8
0
  6
CONTINUOUS
 62
     7
  5
2C7
 10
0.733597
 20
0.240299
 30
0.0
 11
0.733597
 21
-0.137822
 31
0.0
  0
LINE
  8
0
  6
CONTINUOUS
 62
     7
  5
2C8
 10
0.772835
 20
0.255879
 30
0.0
 11
0.733597
 21
0.240299
 31
0.0
  0
LINE
  8
0
  6
CONTINUOUS
 62
     7
  5
2C9
 10
0.536614
 20
-0.087402
 30
0.0
 11
0.536614
 21
0.7
 31
0.0
  0
LINE
  8
0
  6
CONTINUOUS
 62
     7
  5
2CA
 10
0.90061
 20
-0.677953
 30
0.0
 11
0.772835
 21
-0.677953
 31
0.0
  0
LINE
  8
0
  6
CONTINUOUS
 62
     7
  5
2CB
 10
0.930315
 20
-0.648248
 30
0.0
 11
0.90061
 21
-0.677953
 31
0.0
  0
LINE
  8
0
  6
CONTINUOUS
 62
     7
  5
2CC
 10
0.772835
 20
-0.677953
 30
0.0
 11
0.772835
 21
-0.588502
 31
0.0
  0
LINE
  8
0
  6
CONTINUOUS
 62
     7
  5
2CD
 10
0.611024
 20
-0.476378
 30
0.0
 11
0.670472
 21
-0.476378
 31
0.0
  0
LINE
  8
0
  6
CONTINUOUS
 62
     7
  5
2CE
 10
0.915091
 20
-0.713882
 30
0.0
 11
1.004748
 21
-0.721726
 31
0.0
  0
LINE
  8
0
  6
CONTINUOUS
 62
     7
  5
2CF
 10
1.017299
 20
-0.578274
 30
0.0
 11
0.930315
 21
-0.570664
 31
0.0
  0
LINE
  8
0
  6
CONTINUOUS
 62
     7
  5
2D0
 10
0.529024
 20
-0.653002
 30
0.0
 11
0.670472
 21
-0.665378
 31
0.0
  0
LINE
  8
0
  6
CONTINUOUS
 62
     7
  5
2D1
 10
0.670472
 20
-0.575034
 30
0.0
 11
0.529024
 21
-0.562659
 31
0.0
  0
LINE
  8
0
  6
CONTINUOUS
 62
     7
  5
2D2
 10
0.814208
 20
-0.677953
 30
0.0
 11
0.917444
 21
-0.686985
 31
0.0
  0
LINE
  8
0
  6
CONTINUOUS
 62
     3
  5
2D3
 10
-1.37
 20
0.0
 30
0.0
 11
0.772835
 21
0.0
 31
0.0
  0
LINE
  8
0
  6
CONTINUOUS
 62
     3
  5
2D4
 10
0.391024
 20
-0.525
 30
0.0
 11
0.391024
 21
-0.675
 31
0.0
  0
LINE
  8
0
  6
CONTINUOUS
 62
     3
  5
2D5
 10
0.316024
 20
-0.6
 30
0.0
 11
0.466024
 21
-0.6
 31
0.0
  0
ENDSEC
  0
EOF
