  0
SECTION
  2
HEADER
  9
$ACADVER
  1
AC1012
  9
$DWGCODEPAGE
  3
ANSI_1252
  9
$INSBASE
 10
0.0
 20
0.0
 30
0.0
  9
$EXTMIN
 10
16.08400654616066
 20
20.08710005195669
 30
-0.0015258207003583
  9
$EXTMAX
 10
79.1005421847216
 20
59.39024805823001
 30
0.0000000349246037
  9
$LIMMIN
 10
-0.5
 20
-0.5
  9
$LIMMAX
 10
5.0
 20
5.0
  9
$ORTHOMODE
 70
     0
  9
$REGENMODE
 70
     1
  9
$FILLMODE
 70
     1
  9
$QTEXTMODE
 70
     0
  9
$MIRRTEXT
 70
     1
  9
$DRAGMODE
 70
     2
  9
$LTSCALE
 40
1.0
  9
$OSMODE
 70
    37
  9
$ATTMODE
 70
     1
  9
$TEXTSIZE
 40
0.0
  9
$TRACEWID
 40
0.05
  9
$TEXTSTYLE
  7
STANDARD
  9
$CLAYER
  8
0
  9
$CELTYPE
  6
CONTINUOUS
  9
$CECOLOR
 62
   256
  9
$CELTSCALE
 40
1.0
  9
$DELOBJ
 70
     1
  9
$DISPSILH
 70
     0
  9
$DIMSCALE
 40
1.0
  9
$DIMASZ
 40
0.18
  9
$DIMEXO
 40
0.0625
  9
$DIMDLI
 40
0.38
  9
$DIMRND
 40
0.0
  9
$DIMDLE
 40
0.0
  9
$DIMEXE
 40
0.18
  9
$DIMTP
 40
0.0
  9
$DIMTM
 40
0.0
  9
$DIMTXT
 40
0.18
  9
$DIMCEN
 40
0.09
  9
$DIMTSZ
 40
0.0
  9
$DIMTOL
 70
     0
  9
$DIMLIM
 70
     0
  9
$DIMTIH
 70
     1
  9
$DIMTOH
 70
     1
  9
$DIMSE1
 70
     0
  9
$DIMSE2
 70
     0
  9
$DIMTAD
 70
     0
  9
$DIMZIN
 70
     0
  9
$DIMBLK
  1

  9
$DIMASO
 70
     1
  9
$DIMSHO
 70
     1
  9
$DIMPOST
  1

  9
$DIMAPOST
  1

  9
$DIMALT
 70
     0
  9
$DIMALTD
 70
     2
  9
$DIMALTF
 40
25.4
  9
$DIMLFAC
 40
1.0
  9
$DIMTOFL
 70
     0
  9
$DIMTVP
 40
0.0
  9
$DIMTIX
 70
     0
  9
$DIMSOXD
 70
     0
  9
$DIMSAH
 70
     0
  9
$DIMBLK1
  1

  9
$DIMBLK2
  1

  9
$DIMSTYLE
  2
STANDARD
  9
$DIMCLRD
 70
     0
  9
$DIMCLRE
 70
     0
  9
$DIMCLRT
 70
     0
  9
$DIMTFAC
 40
1.0
  9
$DIMGAP
 40
0.09
  9
$DIMJUST
 70
     0
  9
$DIMSD1
 70
     0
  9
$DIMSD2
 70
     0
  9
$DIMTOLJ
 70
     1
  9
$DIMTZIN
 70
     0
  9
$DIMALTZ
 70
     0
  9
$DIMALTTZ
 70
     0
  9
$DIMFIT
 70
     3
  9
$DIMUPT
 70
     0
  9
$DIMUNIT
 70
     2
  9
$DIMDEC
 70
     4
  9
$DIMTDEC
 70
     4
  9
$DIMALTU
 70
     2
  9
$DIMALTTD
 70
     2
  9
$DIMTXSTY
  7
STANDARD
  9
$DIMAUNIT
 70
     0
  9
$LUNITS
 70
     2
  9
$LUPREC
 70
     4
  9
$SKETCHINC
 40
0.1
  9
$FILLETRAD
 40
0.0
  9
$AUNITS
 70
     0
  9
$AUPREC
 70
     0
  9
$MENU
  1
acad
  9
$ELEVATION
 40
0.0
  9
$PELEVATION
 40
0.0
  9
$THICKNESS
 40
0.0
  9
$LIMCHECK
 70
     0
  9
$BLIPMODE
 70
     0
  9
$CHAMFERA
 40
0.0
  9
$CHAMFERB
 40
0.0
  9
$CHAMFERC
 40
0.0
  9
$CHAMFERD
 40
0.0
  9
$SKPOLY
 70
     0
  9
$TDCREATE
 40
2455055.607117396
  9
$TDUPDATE
 40
2455055.609128981
  9
$TDINDWG
 40
0.0020123032
  9
$TDUSRTIMER
 40
0.0020123032
  9
$USRTIMER
 70
     1
  9
$ANGBASE
 50
0.0
  9
$ANGDIR
 70
     0
  9
$PDMODE
 70
     0
  9
$PDSIZE
 40
0.0
  9
$PLINEWID
 40
0.0
  9
$COORDS
 70
     1
  9
$SPLFRAME
 70
     0
  9
$SPLINETYPE
 70
     6
  9
$SPLINESEGS
 70
     8
  9
$ATTDIA
 70
     0
  9
$ATTREQ
 70
     1
  9
$HANDLING
 70
-16383
  9
$HANDSEED
  5
28F
  9
$SURFTAB1
 70
     6
  9
$SURFTAB2
 70
     6
  9
$SURFTYPE
 70
     6
  9
$SURFU
 70
     6
  9
$SURFV
 70
     6
  9
$UCSNAME
  2

  9
$UCSORG
 10
0.0
 20
0.0
 30
0.0
  9
$UCSXDIR
 10
1.0
 20
0.0
 30
0.0
  9
$UCSYDIR
 10
0.0
 20
1.0
 30
0.0
  9
$PUCSNAME
  2

  9
$PUCSORG
 10
0.0
 20
0.0
 30
0.0
  9
$PUCSXDIR
 10
1.0
 20
0.0
 30
0.0
  9
$PUCSYDIR
 10
0.0
 20
1.0
 30
0.0
  9
$USERI1
 70
     0
  9
$USERI2
 70
     0
  9
$USERI3
 70
     0
  9
$USERI4
 70
     0
  9
$USERI5
 70
     0
  9
$USERR1
 40
0.0
  9
$USERR2
 40
0.0
  9
$USERR3
 40
0.0
  9
$USERR4
 40
0.0
  9
$USERR5
 40
0.0
  9
$WORLDVIEW
 70
     1
  9
$SHADEDGE
 70
     3
  9
$SHADEDIF
 70
    70
  9
$TILEMODE
 70
     1
  9
$MAXACTVP
 70
    64
  9
$PINSBASE
 10
0.0
 20
0.0
 30
0.0
  9
$PLIMCHECK
 70
     0
  9
$PEXTMIN
 10
1.000000000000000E+20
 20
1.000000000000000E+20
 30
1.000000000000000E+20
  9
$PEXTMAX
 10
-1.000000000000000E+20
 20
-1.000000000000000E+20
 30
-1.000000000000000E+20
  9
$PLIMMIN
 10
-0.6912502979669045
 20
-0.691249997597041
  9
$PLIMMAX
 10
10.3087494617372
 20
7.808749762107067
  9
$UNITMODE
 70
     0
  9
$VISRETAIN
 70
     0
  9
$PLINEGEN
 70
     1
  9
$PSLTSCALE
 70
     0
  9
$TREEDEPTH
 70
  3020
  9
$PICKSTYLE
 70
     1
  9
$CMLSTYLE
  2
STANDARD
  9
$CMLJUST
 70
     0
  9
$CMLSCALE
 40
1.0
  9
$SAVEIMAGES
 70
     0
  0
ENDSEC
  0
SECTION
  2
CLASSES
  0
CLASS
  1
LWPOLYLINE
  2
AcDbPolyline
  3
AutoCAD 2000
 90
    32768
280
     0
281
     1
  0
CLASS
  1
IMAGE
  2
AcDbRasterImage
  3
ISM
 90
    32895
280
     0
281
     1
  0
CLASS
  1
OLE2FRAME
  2
AcDbOle2Frame
  3
AutoCAD 2000
 90
    32768
280
     0
281
     1
  0
CLASS
  1
HATCH
  2
AcDbHatch
  3
AutoCAD 2000
 90
    32768
280
     0
281
     1
  0
CLASS
  1
DICTIONARYVAR
  2
AcDbDictionaryVar
  3
AutoCAD 2000
 90
    32768
280
     0
281
     0
  0
CLASS
  1
RASTERVARIABLES
  2
AcDbRasterVariables
  3
ISM
 90
    32768
280
     0
281
     0
  0
CLASS
  1
IMAGEDEF
  2
AcDbRasterImageDef
  3
ISM
 90
    32768
280
     0
281
     0
  0
CLASS
  1
IMAGEDEF_REACTOR
  2
AcDbRasterImageDefReactor
  3
ISM
 90
    32769
280
     0
281
     0
  0
CLASS
  1
IDBUFFER
  2
AcDbIdBuffer
  3
AutoCAD 2000
 90
    32768
280
     0
281
     0
  0
CLASS
  1
SPATIAL_FILTER
  2
AcDbSpatialFilter
  3
AutoCAD 2000
 90
    32768
280
     0
281
     0
  0
CLASS
  1
XRECORD
  2
AcDbXrecord
  3
AutoCAD 2000
 90
    32768
280
     0
281
     0
  0
CLASS
  1
SORTENTSTABLE
  2
AcDbSortentsTable
  3
AutoCAD 2000
 90
    32768
280
     0
281
     0
  0
CLASS
  1
LAYER_INDEX
  2
AcDbLayerIndex
  3
AutoCAD 2000
 90
    32768
280
     0
281
     0
  0
CLASS
  1
SPATIAL_INDEX
  2
AcDbSpatialIndex
  3
AutoCAD 2000
 90
    32768
280
     0
281
     0
  0
CLASS
  1
OBJECT_PTR
  2
CAseDLPNTableRecord
  3
ASE-LPNTableRecord
 90
    32769
280
     0
281
     0
  0
CLASS
  1
LAYOUT
  2
AcDbLayout
  3
AutoCAD 2000
 90
    32768
280
     0
281
     0
  0
CLASS
  1
PLOTSETTINGS
  2
AcDbPlotSettings
  3
AutoCAD 2000
 90
    32768
280
     0
281
     0
  0
CLASS
  1
ACDBDICTIONARYWDFLT
  2
AcDbDictionaryWithDefault
  3
AutoCAD 2000
 90
    32768
280
     0
281
     0
  0
CLASS
  1
ACDBPLACEHOLDER
  2
AcDbPlaceHolder
  3
AutoCAD 2000
 90
    32768
280
     0
281
     0
  0
CLASS
  1
VBA_PROJECT
  2
AcDbVbaProject
  3
acadvba
 90
    32768
280
     0
281
     0
  0
CLASS
  1
WIPEOUT
  2
AcDbWipeout
  3
WipeOut|AutoCAD Express Tool|expresstools@autodesk.com
 90
    32895
280
     0
281
     1
  0
CLASS
  1
WIPEOUTVARIABLES
  2
AcDbWipeoutVariables
  3
WipeOut|AutoCAD Express Tool|expresstools@autodesk.com
 90
    32768
280
     0
281
     0
  0
CLASS
  1
RTEXT
  2
RText
  3
RText|AutoCAD Express Tool|expresstools@autodesk.com
 90
    32768
280
     0
281
     1
  0
CLASS
  1
ARCALIGNEDTEXT
  2
AcDbArcAlignedText
  3
ATEXT|AutoCAD Express Tool|expresstools@autodesk.com
 90
    32768
280
     0
281
     1
  0
CLASS
  1
ACAD_PROXY_OBJECT_WRAPPER
  2
AcDbProxyObjectWrapper
  3
AutoCAD 2000
 90
    32768
280
     0
281
     0
  0
CLASS
  1
LONG_TRANSACTION
  2
AcDbLongTransaction
  3
AutoCAD 2000
 90
    32768
280
     0
281
     0
  0
CLASS
  1
LWPOLYLINE
  2
AcDbPolyline
  3
AutoCAD 2000
 90
    32768
280
     0
281
     1
  0
CLASS
  1
HATCH
  2
AcDbHatch
  3
AutoCAD 2000
 90
    32768
280
     0
281
     1
  0
CLASS
  1
XRECORD
  2
AcDbXrecord
  3
AutoCAD 2000
 90
    32768
280
     0
281
     0
  0
ENDSEC
  0
SECTION
  2
TABLES
  0
TABLE
  2
VPORT
  5
7
330
0
100
AcDbSymbolTable
 70
    18
  0
VPORT
  5
20F
330
7
100
AcDbSymbolTableRecord
100
AcDbViewportTableRecord
  2
L1
 70
     0
 10
0.0
 20
0.0
 11
1.0
 21
1.0
 12
0.0
 22
0.0
 13
0.0
 23
0.0
 14
1.0
 24
1.0
 15
0.0
 25
0.0
 16
0.7188730927569434
 26
-0.5850486126764432
 36
0.3754192287502549
 17
0.0
 27
0.0
 37
0.0
 40
68.96750072793771
 41
0.688564
 42
50.0
 43
34.05957066112821
 44
-34.05957066112821
 50
0.0
 51
0.0
 71
    16
 72
   100
 73
     1
 74
     1
 75
     0
 76
     0
 77
     0
 78
     0
  0
VPORT
  5
210
330
7
100
AcDbSymbolTableRecord
100
AcDbViewportTableRecord
  2
L2
 70
     0
 10
0.0
 20
0.0
 11
0.5
 21
1.0
 12
0.0
 22
0.0
 13
0.0
 23
0.0
 14
1.0
 24
1.0
 15
0.0
 25
0.0
 16
0.0
 26
-1.0
 36
0.0
 17
0.0
 27
0.0
 37
0.0
 40
66.45769885098189
 41
0.688564
 42
50.0
 43
34.36039777289748
 44
-34.36039777289748
 50
0.0
 51
0.0
 71
    16
 72
   100
 73
     1
 74
     1
 75
     0
 76
     0
 77
     0
 78
     0
  0
VPORT
  5
211
330
7
100
AcDbSymbolTableRecord
100
AcDbViewportTableRecord
  2
L2
 70
     0
 10
0.5
 20
0.0
 11
1.0
 21
1.0
 12
0.0
 22
0.0
 13
0.0
 23
0.0
 14
1.0
 24
1.0
 15
0.0
 25
0.0
 16
1.0
 26
0.0
 36
0.0
 17
0.0
 27
0.0
 37
0.0
 40
66.45769885098189
 41
0.688564
 42
50.0
 43
33.57466616030683
 44
-33.57466616030683
 50
0.0
 51
0.0
 71
    16
 72
   100
 73
     1
 74
     1
 75
     0
 76
     0
 77
     0
 78
     0
  0
VPORT
  5
212
330
7
100
AcDbSymbolTableRecord
100
AcDbViewportTableRecord
  2
L3
 70
     0
 10
0.0
 20
0.5
 11
1.0
 21
1.0
 12
0.0
 22
0.0
 13
0.0
 23
0.0
 14
1.0
 24
1.0
 15
0.0
 25
0.0
 16
0.0
 26
0.0
 36
1.0
 17
0.0
 27
0.0
 37
0.0
 40
9.61286089238845
 41
0.688564
 42
50.0
 43
33.22884942549094
 44
-33.22884942549094
 50
0.0
 51
0.0
 71
    16
 72
   100
 73
     1
 74
     1
 75
     0
 76
     0
 77
     0
 78
     0
  0
VPORT
  5
213
330
7
100
AcDbSymbolTableRecord
100
AcDbViewportTableRecord
  2
L3
 70
     0
 10
0.0
 20
0.0
 11
1.0
 21
0.5
 12
0.0
 22
0.0
 13
0.0
 23
0.0
 14
1.0
 24
1.0
 15
0.0
 25
0.0
 16
0.0
 26
-1.0
 36
0.0
 17
0.0
 27
0.0
 37
0.0
 40
66.45769885098189
 41
0.688564
 42
50.0
 43
34.36039777289748
 44
-34.36039777289748
 50
0.0
 51
0.0
 71
    16
 72
   100
 73
     1
 74
     1
 75
     0
 76
     0
 77
     0
 78
     0
  0
VPORT
  5
214
330
7
100
AcDbSymbolTableRecord
100
AcDbViewportTableRecord
  2
L4
 70
     0
 10
0.0
 20
0.5
 11
0.5
 21
1.0
 12
0.0
 22
0.0
 13
0.0
 23
0.0
 14
1.0
 24
1.0
 15
0.0
 25
0.0
 16
0.0
 26
0.0
 36
1.0
 17
0.0
 27
0.0
 37
0.0
 40
9.61286089238845
 41
0.688564
 42
50.0
 43
33.22884942549094
 44
-33.22884942549094
 50
0.0
 51
0.0
 71
    16
 72
   100
 73
     1
 74
     1
 75
     0
 76
     0
 77
     0
 78
     0
  0
VPORT
  5
215
330
7
100
AcDbSymbolTableRecord
100
AcDbViewportTableRecord
  2
L4
 70
     0
 10
0.0
 20
0.0
 11
0.5
 21
0.5
 12
0.0
 22
0.0
 13
0.0
 23
0.0
 14
1.0
 24
1.0
 15
0.0
 25
0.0
 16
0.0
 26
-1.0
 36
0.0
 17
0.0
 27
0.0
 37
0.0
 40
66.45769885098189
 41
0.688564
 42
50.0
 43
34.36039777289748
 44
-34.36039777289748
 50
0.0
 51
0.0
 71
    16
 72
   100
 73
     1
 74
     1
 75
     0
 76
     0
 77
     0
 78
     0
  0
VPORT
  5
216
330
7
100
AcDbSymbolTableRecord
100
AcDbViewportTableRecord
  2
L4
 70
     0
 10
0.5
 20
0.0
 11
1.0
 21
0.5
 12
0.0
 22
0.0
 13
0.0
 23
0.0
 14
1.0
 24
1.0
 15
0.0
 25
0.0
 16
1.0
 26
0.0
 36
0.0
 17
0.0
 27
0.0
 37
0.0
 40
66.45769885098189
 41
0.688564
 42
50.0
 43
33.57466616030683
 44
-33.57466616030683
 50
0.0
 51
0.0
 71
    16
 72
   100
 73
     1
 74
     1
 75
     0
 76
     0
 77
     0
 78
     0
  0
VPORT
  5
217
330
7
100
AcDbSymbolTableRecord
100
AcDbViewportTableRecord
  2
L4
 70
     0
 10
0.5
 20
0.5
 11
1.0
 21
1.0
 12
0.0
 22
0.0
 13
0.0
 23
0.0
 14
1.0
 24
1.0
 15
0.0
 25
0.0
 16
0.5773502691896259
 26
-0.5773502691896259
 36
0.5773502691896259
 17
0.0
 27
0.0
 37
0.0
 40
65.32743614768635
 41
0.688564
 42
50.0
 43
34.04031954589813
 44
-34.04031954589813
 50
0.0
 51
0.0
 71
    16
 72
   100
 73
     1
 74
     1
 75
     0
 76
     0
 77
     0
 78
     0
  0
VPORT
  5
218
330
7
100
AcDbSymbolTableRecord
100
AcDbViewportTableRecord
  2
L6
 70
     0
 10
0.0
 20
0.5
 11
0.3333333333333334
 21
1.0
 12
0.0
 22
0.0
 13
0.0
 23
0.0
 14
1.0
 24
1.0
 15
0.0
 25
0.0
 16
0.7188730927569434
 26
-0.5850486126764432
 36
0.3754192287502549
 17
0.0
 27
0.0
 37
0.0
 40
68.96750072793771
 41
0.688564
 42
50.0
 43
34.05957066112821
 44
-34.05957066112821
 50
0.0
 51
0.0
 71
    16
 72
   100
 73
     1
 74
     1
 75
     0
 76
     0
 77
     0
 78
     0
  0
VPORT
  5
219
330
7
100
AcDbSymbolTableRecord
100
AcDbViewportTableRecord
  2
L6
 70
     0
 10
0.0
 20
0.0
 11
0.3333333333333334
 21
0.5
 12
0.0
 22
0.0
 13
0.0
 23
0.0
 14
1.0
 24
1.0
 15
0.0
 25
0.0
 16
-1.0
 26
0.0
 36
0.0
 17
0.0
 27
0.0
 37
0.0
 40
66.45769885098189
 41
0.688564
 42
50.0
 43
33.57466616030683
 44
-33.57466616030683
 50
0.0
 51
0.0
 71
    16
 72
   100
 73
     1
 74
     1
 75
     0
 76
     0
 77
     0
 78
     0
  0
VPORT
  5
21A
330
7
100
AcDbSymbolTableRecord
100
AcDbViewportTableRecord
  2
L6
 70
     0
 10
0.3333333333333334
 20
0.5
 11
0.6666666666666666
 21
1.0
 12
0.0
 22
0.0
 13
0.0
 23
0.0
 14
1.0
 24
1.0
 15
0.0
 25
0.0
 16
0.0
 26
0.0
 36
1.0
 17
0.0
 27
0.0
 37
0.0
 40
9.61286089238845
 41
0.688564
 42
50.0
 43
33.22884942549094
 44
-33.22884942549094
 50
0.0
 51
0.0
 71
    16
 72
   100
 73
     1
 74
     1
 75
     0
 76
     0
 77
     0
 78
     0
  0
VPORT
  5
21B
330
7
100
AcDbSymbolTableRecord
100
AcDbViewportTableRecord
  2
L6
 70
     0
 10
0.3333333333333334
 20
0.0
 11
0.6666666666666666
 21
0.5
 12
0.0
 22
0.0
 13
0.0
 23
0.0
 14
1.0
 24
1.0
 15
0.0
 25
0.0
 16
0.0
 26
-1.0
 36
0.0
 17
0.0
 27
0.0
 37
0.0
 40
66.45769885098189
 41
0.688564
 42
50.0
 43
34.36039777289748
 44
-34.36039777289748
 50
0.0
 51
0.0
 71
    16
 72
   100
 73
     1
 74
     1
 75
     0
 76
     0
 77
     0
 78
     0
  0
VPORT
  5
21C
330
7
100
AcDbSymbolTableRecord
100
AcDbViewportTableRecord
  2
L6
 70
     0
 10
0.6666666666666666
 20
0.5
 11
1.0
 21
1.0
 12
0.0
 22
0.0
 13
0.0
 23
0.0
 14
1.0
 24
1.0
 15
0.0
 25
0.0
 16
0.5773502691896259
 26
-0.5773502691896259
 36
0.5773502691896259
 17
0.0
 27
0.0
 37
0.0
 40
65.32743614768635
 41
0.688564
 42
50.0
 43
34.04031954589813
 44
-34.04031954589813
 50
0.0
 51
0.0
 71
    16
 72
   100
 73
     1
 74
     1
 75
     0
 76
     0
 77
     0
 78
     0
  0
VPORT
  5
21D
330
7
100
AcDbSymbolTableRecord
100
AcDbViewportTableRecord
  2
L6
 70
     0
 10
0.6666666666666666
 20
0.0
 11
1.0
 21
0.5
 12
0.0
 22
0.0
 13
0.0
 23
0.0
 14
1.0
 24
1.0
 15
0.0
 25
0.0
 16
1.0
 26
0.0
 36
0.0
 17
0.0
 27
0.0
 37
0.0
 40
66.45769885098189
 41
0.688564
 42
50.0
 43
33.57466616030683
 44
-33.57466616030683
 50
0.0
 51
0.0
 71
    16
 72
   100
 73
     1
 74
     1
 75
     0
 76
     0
 77
     0
 78
     0
  0
VPORT
  5
28A
330
7
100
AcDbSymbolTableRecord
100
AcDbViewportTableRecord
  2
*ACTIVE
 70
     0
 10
0.0
 20
0.0
 11
1.0
 21
1.0
 12
47.59227436544113
 22
39.73867405509335
 13
0.0
 23
0.0
 14
1.0
 24
1.0
 15
0.0
 25
0.0
 16
0.0
 26
0.0
 36
1.0
 17
0.0
 27
0.0
 37
0.0
 40
39.5917880161113
 41
1.965686274509803
 42
50.0
 43
34.05957066112821
 44
-34.05957066112821
 50
0.0
 51
0.0
 71
    16
 72
   100
 73
     1
 74
     1
 75
     0
 76
     0
 77
     0
 78
     0
  0
ENDTAB
  0
TABLE
  2
LTYPE
  5
4
330
0
100
AcDbSymbolTable
 70
     7
  0
LTYPE
  5
11
330
4
100
AcDbSymbolTableRecord
100
AcDbLinetypeTableRecord
  2
BYBLOCK
 70
     0
  3

 72
    65
 73
     0
 40
0.0
  0
LTYPE
  5
12
330
4
100
AcDbSymbolTableRecord
100
AcDbLinetypeTableRecord
  2
BYLAYER
 70
     0
  3

 72
    65
 73
     0
 40
0.0
  0
LTYPE
  5
13
330
4
100
AcDbSymbolTableRecord
100
AcDbLinetypeTableRecord
  2
CONTINUOUS
 70
     0
  3
Solid line
 72
    65
 73
     0
 40
0.0
  0
LTYPE
  5
24
330
4
100
AcDbSymbolTableRecord
100
AcDbLinetypeTableRecord
  2
DASHED
 70
     0
  3
__ __ __ __ __ __ __ __ __
 72
    65
 73
     2
 40
25.72
 49
12.86
 74
     0
 49
-12.86
 74
     0
  0
LTYPE
  5
25
330
4
100
AcDbSymbolTableRecord
100
AcDbLinetypeTableRecord
  2
HIDDEN
 70
     0
  3
_ _ _ _ _ _ _ _ _ _ _ _ _ _ _
 72
    65
 73
     2
 40
0.5
 49
0.25
 74
     0
 49
-0.25
 74
     0
  0
LTYPE
  5
26
330
4
100
AcDbSymbolTableRecord
100
AcDbLinetypeTableRecord
  2
PHANTOM
 70
     0
  3
____ _ _ ____ _ _ _____ _ _ ____
 72
    65
 73
     6
 40
50.5
 49
18.0
 74
     0
 49
-6.5
 74
     0
 49
6.5
 74
     0
 49
-6.5
 74
     0
 49
6.5
 74
     0
 49
-6.5
 74
     0
  0
LTYPE
  5
27
330
4
100
AcDbSymbolTableRecord
100
AcDbLinetypeTableRecord
  2
CENTER
 70
     0
  3
____ _ ____ _ ____ _ ____
 72
    65
 73
     4
 40
47.5
 49
22.0
 74
     0
 49
-8.5
 74
     0
 49
8.5
 74
     0
 49
-8.5
 74
     0
  0
LTYPE
  5
28
330
4
100
AcDbSymbolTableRecord
100
AcDbLinetypeTableRecord
  2
DOT
 70
     0
  3
.........................
 72
    65
 73
     2
 40
10.0
 49
0.0
 74
     0
 49
-10.0
 74
     0
  0
LTYPE
  5
29
330
4
100
AcDbSymbolTableRecord
100
AcDbLinetypeTableRecord
  2
DASHDOT
 70
     0
  3
_._._._._._._._._._._._._._._._.
 72
    65
 73
     4
 40
70.0
 49
31.0
 74
     0
 49
-13.0
 74
     0
 49
13.0
 74
     0
 49
-13.0
 74
     0
  0
ENDTAB
  0
TABLE
  2
LAYER
  5
2
330
0
100
AcDbSymbolTable
 70
     2
  0
LAYER
  5
14
330
2
100
AcDbSymbolTableRecord
100
AcDbLayerTableRecord
  2
0
 70
     0
 62
     7
  6
CONTINUOUS
  0
LAYER
  5
2B
330
2
100
AcDbSymbolTableRecord
100
AcDbLayerTableRecord
  2
TFR-TRI
 70
     0
 62
     7
  6
CONTINUOUS
  0
ENDTAB
  0
TABLE
  2
STYLE
  5
3
330
0
100
AcDbSymbolTable
 70
     1
  0
STYLE
  5
17
330
3
100
AcDbSymbolTableRecord
100
AcDbTextStyleTableRecord
  2
STANDARD
 70
     0
 40
0.0
 41
1.0
 50
0.0
 71
     0
 42
0.0
  3
txt
  4

  0
ENDTAB
  0
TABLE
  2
VIEW
  5
5
330
0
100
AcDbSymbolTable
 70
     8
  0
VIEW
  5
206
330
5
100
AcDbSymbolTableRecord
100
AcDbViewTableRecord
  2
TOP
 70
     0
 40
9.61286089238845
 10
0.0
 20
0.0
 41
17.49062617172853
 11
0.0
 21
0.0
 31
1.0
 12
0.0
 22
0.0
 32
0.0
 42
50.0
 43
33.22884942549094
 44
-33.22884942549094
 50
0.0
 71
    16
  0
VIEW
  5
207
330
5
100
AcDbSymbolTableRecord
100
AcDbViewTableRecord
  2
FRONT
 70
     0
 40
66.45769885098189
 10
0.0
 20
0.0
 41
17.49062617172853
 11
0.0
 21
-1.0
 31
0.0
 12
0.0
 22
0.0
 32
0.0
 42
50.0
 43
34.36039777289748
 44
-34.36039777289748
 50
0.0
 71
    16
  0
VIEW
  5
208
330
5
100
AcDbSymbolTableRecord
100
AcDbViewTableRecord
  2
RIGHT
 70
     0
 40
66.45769885098189
 10
0.0
 20
0.0
 41
9.61286089238845
 11
1.0
 21
0.0
 31
0.0
 12
0.0
 22
0.0
 32
0.0
 42
50.0
 43
33.57466616030683
 44
-33.57466616030683
 50
0.0
 71
    16
  0
VIEW
  5
209
330
5
100
AcDbSymbolTableRecord
100
AcDbViewTableRecord
  2
BACK
 70
     0
 40
66.45769885098189
 10
0.0
 20
0.0
 41
17.49062617172853
 11
0.0
 21
1.0
 31
0.0
 12
0.0
 22
0.0
 32
0.0
 42
50.0
 43
34.36039777289748
 44
-34.36039777289748
 50
0.0
 71
    16
  0
VIEW
  5
20A
330
5
100
AcDbSymbolTableRecord
100
AcDbViewTableRecord
  2
BOTTOM
 70
     0
 40
9.61286089238845
 10
0.0
 20
0.0
 41
17.49062617172853
 11
0.0
 21
0.0
 31
-1.0
 12
0.0
 22
0.0
 32
0.0
 42
50.0
 43
33.22884942549094
 44
-33.22884942549094
 50
180.0
 71
    16
  0
VIEW
  5
20B
330
5
100
AcDbSymbolTableRecord
100
AcDbViewTableRecord
  2
LEFT
 70
     0
 40
66.45769885098189
 10
0.0
 20
0.0
 41
9.61286089238845
 11
-1.0
 21
0.0
 31
0.0
 12
0.0
 22
0.0
 32
0.0
 42
50.0
 43
33.57466616030683
 44
-33.57466616030683
 50
0.0
 71
    16
  0
VIEW
  5
20C
330
5
100
AcDbSymbolTableRecord
100
AcDbViewTableRecord
  2
TFR-ISO
 70
     0
 40
65.32743614768635
 10
0.0
 20
0.0
 41
19.16505949683899
 11
0.5773502691896259
 21
-0.5773502691896259
 31
0.5773502691896259
 12
0.0
 22
0.0
 32
0.0
 42
50.0
 43
34.04031954589813
 44
-34.04031954589813
 50
0.0
 71
    16
  0
VIEW
  5
20D
330
5
100
AcDbSymbolTableRecord
100
AcDbViewTableRecord
  2
TFR-TRI
 70
     0
 40
68.96750072793771
 10
0.0
 20
0.0
 41
18.49619574220415
 11
0.7188730927569434
 21
-0.5850486126764432
 31
0.3754192287502549
 12
0.0
 22
0.0
 32
0.0
 42
50.0
 43
34.05957066112821
 44
-34.05957066112821
 50
0.0
 71
    16
  0
ENDTAB
  0
TABLE
  2
UCS
  5
6
330
0
100
AcDbSymbolTable
 70
     0
  0
ENDTAB
  0
TABLE
  2
APPID
  5
8
330
0
100
AcDbSymbolTable
 70
     1
  0
APPID
  5
16
330
8
100
AcDbSymbolTableRecord
100
AcDbRegAppTableRecord
  2
ACAD
 70
     0
  0
ENDTAB
  0
TABLE
  2
DIMSTYLE
  5
9
330
0
100
AcDbSymbolTable
 70
     1
  0
DIMSTYLE
105
18
330
9
100
AcDbSymbolTableRecord
100
AcDbDimStyleTableRecord
  2
STANDARD
 70
     0
  3

  4

  5

  6

  7

 40
1.0
 41
0.18
 42
0.0625
 43
0.38
 44
0.18
 45
0.0
 46
0.0
 47
0.0
 48
0.0
140
0.18
141
0.09
142
0.0
143
25.4
144
1.0
145
0.0
146
1.0
147
0.09
 71
     0
 72
     0
 73
     1
 74
     1
 75
     0
 76
     0
 77
     0
 78
     0
170
     0
171
     2
172
     0
173
     0
174
     0
175
     0
176
     0
177
     0
178
     0
270
     2
271
     4
272
     4
273
     2
274
     2
340
17
275
     0
280
     0
281
     0
282
     0
283
     1
284
     0
285
     0
286
     0
287
     3
288
     0
  0
ENDTAB
  0
TABLE
  2
BLOCK_RECORD
  5
1
330
0
100
AcDbSymbolTable
 70
     0
  0
BLOCK_RECORD
  5
A
102
{ACAD_XDICTIONARY
360
28B
102
}
330
1
100
AcDbSymbolTableRecord
100
AcDbBlockTableRecord
  2
*MODEL_SPACE
  0
BLOCK_RECORD
  5
B
102
{ACAD_XDICTIONARY
360
28D
102
}
330
1
100
AcDbSymbolTableRecord
100
AcDbBlockTableRecord
  2
*PAPER_SPACE
  0
ENDTAB
  0
ENDSEC
  0
SECTION
  2
BLOCKS
  0
BLOCK
  5
D
330
A
100
AcDbEntity
  8
0
100
AcDbBlockBegin
  2
*MODEL_SPACE
 70
     0
 10
0.0
 20
0.0
 30
0.0
  3
*MODEL_SPACE
  1

  0
ENDBLK
  5
E
330
A
100
AcDbEntity
  8
0
100
AcDbBlockEnd
  0
BLOCK
  5
F
330
B
100
AcDbEntity
 67
     1
  8
0
100
AcDbBlockBegin
  2
*PAPER_SPACE
 70
     0
 10
0.0
 20
0.0
 30
0.0
  3
*PAPER_SPACE
  1

  0
ENDBLK
  5
10
330
B
100
AcDbEntity
 67
     1
  8
0
100
AcDbBlockEnd
  0
ENDSEC
  0
SECTION
  2
ENTITIES
  0
LINE
  5
2A
330
A
100
AcDbEntity
  8
TFR-TRI
  6
CONTINUOUS
 62
     2
100
AcDbLine
 10
34.38433837890625
 20
45.28128433227538
 30
0.0
 11
34.36113357543945
 21
45.28128433227538
 31
0.0
  0
LINE
  5
2C
330
A
100
AcDbEntity
  8
TFR-TRI
  6
CONTINUOUS
 62
    30
100
AcDbLine
 10
49.59797668457031
 20
21.0069580078125
 30
0.0
 11
49.59797668457031
 21
20.97695732116699
 31
0.0
  0
LINE
  5
2D
330
A
100
AcDbEntity
  8
TFR-TRI
  6
CONTINUOUS
 62
    30
100
AcDbLine
 10
48.63117599487305
 20
20.23855781555175
 30
0.0
 11
48.73957443237305
 21
20.23855781555175
 31
0.0
  0
LINE
  5
2E
330
A
100
AcDbEntity
  8
TFR-TRI
  6
CONTINUOUS
 62
    30
100
AcDbLine
 10
24.41834068298339
 20
35.1898078918457
 30
0.0
 11
22.29701995849609
 21
37.31113052368164
 31
0.0
  0
LINE
  5
2F
330
A
100
AcDbEntity
  8
TFR-TRI
  6
CONTINUOUS
 62
    30
100
AcDbLine
 10
34.46329879760742
 20
29.03128433227539
 30
0.0
 11
34.51113510131836
 21
29.03128433227539
 31
0.0
  0
LINE
  5
30
330
A
100
AcDbEntity
  8
TFR-TRI
  6
CONTINUOUS
 62
    30
100
AcDbLine
 10
34.32059860229492
 20
29.13968467712402
 30
0.0
 11
34.35060119628906
 21
29.13968467712402
 31
0.0
  0
LINE
  5
31
330
A
100
AcDbEntity
  8
TFR-TRI
  6
CONTINUOUS
 62
    30
100
AcDbLine
 10
16.87167167663574
 20
29.13968467712402
 30
0.0
 11
16.86113548278808
 21
29.13968467712402
 31
0.0
  0
LINE
  5
32
330
A
100
AcDbEntity
  8
TFR-TRI
  6
CONTINUOUS
 62
    30
100
AcDbLine
 10
26.8039321899414
 20
48.1898078918457
 30
0.0
 11
28.92525291442871
 21
50.31113052368164
 31
0.0
  0
LINE
  5
33
330
A
100
AcDbEntity
  8
TFR-TRI
  6
CONTINUOUS
 62
    30
100
AcDbLine
 10
16.12065124511718
 20
29.03128433227539
 30
0.0
 11
16.14774703979492
 21
29.03128433227539
 31
0.0
  0
LINE
  5
34
330
A
100
AcDbEntity
  8
TFR-TRI
  6
CONTINUOUS
 62
     2
100
AcDbLine
 10
34.98613739013672
 20
45.28128433227538
 30
0.0
 11
34.98613739013672
 21
45.38968658447266
 31
0.0
  0
LINE
  5
35
330
A
100
AcDbEntity
  8
TFR-TRI
  6
CONTINUOUS
 62
    30
100
AcDbLine
 10
26.53876686096191
 20
32.85497283935546
 30
0.0
 11
28.66008758544921
 21
34.9762954711914
 31
0.0
  0
LINE
  5
36
330
A
100
AcDbEntity
  8
TFR-TRI
  6
CONTINUOUS
 62
    30
100
AcDbLine
 10
16.82662010192871
 20
29.03128433227539
 30
0.0
 11
16.83613586425781
 21
29.03128433227539
 31
0.0
  0
LINE
  5
37
330
A
100
AcDbEntity
  8
TFR-TRI
  6
CONTINUOUS
 62
     2
100
AcDbLine
 10
16.70488548278808
 20
45.38968658447266
 30
0.0
 11
16.23613548278808
 21
45.38968658447266
 31
0.0
  0
LINE
  5
38
330
A
100
AcDbEntity
  8
TFR-TRI
  6
CONTINUOUS
 62
     2
100
AcDbLine
 10
19.92516708374023
 20
45.38968658447266
 30
0.0
 11
20.1605110168457
 21
45.38968658447266
 31
0.0
  0
LINE
  5
39
330
A
100
AcDbEntity
  8
TFR-TRI
  6
CONTINUOUS
 62
    30
100
AcDbLine
 10
33.16833877563476
 20
53.38980865478515
 30
0.0
 11
31.04701995849609
 21
55.51112747192383
 31
0.0
  0
LINE
  5
3A
330
A
100
AcDbEntity
  8
TFR-TRI
  6
CONTINUOUS
 62
    30
100
AcDbLine
 10
17.78876686096191
 20
48.45497512817383
 30
0.0
 11
19.91008758544921
 21
50.5762939453125
 31
0.0
  0
LINE
  5
3B
330
A
100
AcDbEntity
  8
TFR-TRI
  6
CONTINUOUS
 62
    30
100
AcDbLine
 10
34.18353652954101
 20
21.79802131652832
 30
0.0
 11
34.18353652954101
 21
21.75312042236328
 31
0.0
  0
LINE
  5
3C
330
A
100
AcDbEntity
  8
TFR-TRI
  6
CONTINUOUS
 62
    30
100
AcDbLine
 10
49.59797668457031
 20
20.92399406433105
 30
0.0
 11
49.59797668457031
 21
20.87909317016601
 31
0.0
  0
LINE
  5
3D
330
A
100
AcDbEntity
  8
TFR-TRI
  6
CONTINUOUS
 62
     2
100
AcDbLine
 10
34.40190124511719
 20
45.38968658447266
 30
0.0
 11
34.42899703979492
 21
45.38968658447266
 31
0.0
  0
LINE
  5
3E
330
A
100
AcDbEntity
  8
TFR-TRI
  6
CONTINUOUS
 62
    30
100
AcDbLine
 10
33.43350601196289
 20
48.45497512817383
 30
0.0
 11
31.31218528747558
 21
50.5762939453125
 31
0.0
  0
LINE
  5
3F
330
A
100
AcDbEntity
  8
TFR-TRI
  6
CONTINUOUS
 62
    30
100
AcDbLine
 10
34.82863616943359
 20
21.1010570526123
 30
0.0
 11
34.70363616943359
 21
21.1010570526123
 31
0.0
  0
LINE
  5
40
330
A
100
AcDbEntity
  8
TFR-TRI
  6
CONTINUOUS
 62
    30
100
AcDbLine
 10
49.59797668457031
 20
20.83855628967285
 30
0.0
 11
64.9891357421875
 21
20.83855628967285
 31
0.0
  0
LINE
  5
41
330
A
100
AcDbEntity
  8
TFR-TRI
  6
CONTINUOUS
 62
    30
100
AcDbLine
 10
18.0539321899414
 20
40.38980865478515
 30
0.0
 11
20.17525291442871
 21
42.51112747192382
 31
0.0
  0
LINE
  5
42
330
A
100
AcDbEntity
  8
TFR-TRI
  6
CONTINUOUS
 62
     2
100
AcDbLine
 10
64.98957824707031
 20
21.71355628967285
 30
0.0
 11
64.98957824707031
 21
20.23855781555175
 31
0.0
  0
LINE
  5
43
330
A
100
AcDbEntity
  8
TFR-TRI
  6
CONTINUOUS
 62
     2
100
AcDbLine
 10
30.99322891235351
 20
45.22128295898437
 30
0.0
 11
31.46710395812988
 21
45.22128295898437
 31
0.0
  0
LINE
  5
44
330
A
100
AcDbEntity
  8
TFR-TRI
  6
CONTINUOUS
 62
     2
100
AcDbLine
 10
22.79285430908203
 20
44.61538314819335
 30
0.0
 11
23.32330703735351
 21
44.61538314819335
 31
0.0
  0
LINE
  5
45
330
A
100
AcDbEntity
  8
TFR-TRI
  6
CONTINUOUS
 62
    30
100
AcDbLine
 10
16.39363670349121
 20
20.8510570526123
 30
0.0
 11
16.51863670349121
 21
20.8510570526123
 31
0.0
  0
LINE
  5
46
330
A
100
AcDbEntity
  8
TFR-TRI
  6
CONTINUOUS
 62
     2
100
AcDbLine
 10
65.09797668457031
 20
20.23855781555175
 30
0.0
 11
65.09797668457031
 21
21.71355628967285
 31
0.0
  0
LINE
  5
47
330
A
100
AcDbEntity
  8
TFR-TRI
  6
CONTINUOUS
 62
     2
100
AcDbLine
 10
27.89896392822265
 20
44.61538314819335
 30
0.0
 11
28.42941665649414
 21
44.61538314819335
 31
0.0
  0
LINE
  5
48
330
A
100
AcDbEntity
  8
TFR-TRI
  6
CONTINUOUS
 62
    30
100
AcDbLine
 10
33.43350601196289
 20
35.45497512817382
 30
0.0
 11
31.31218528747558
 21
37.5762939453125
 31
0.0
  0
LINE
  5
49
330
A
100
AcDbEntity
  8
TFR-TRI
  6
CONTINUOUS
 62
     2
100
AcDbLine
 10
65.09797668457031
 20
21.82904243469238
 30
0.0
 11
65.09797668457031
 21
21.80194473266601
 31
0.0
  0
LINE
  5
4A
330
A
100
AcDbEntity
  8
TFR-TRI
  6
CONTINUOUS
 62
     2
100
AcDbLine
 10
22.24354171752929
 20
45.22128295898437
 30
0.0
 11
22.71741676330566
 21
45.22128295898437
 31
0.0
  0
LINE
  5
4B
330
A
100
AcDbEntity
  8
TFR-TRI
  6
CONTINUOUS
 62
    30
100
AcDbLine
 10
34.51113510131836
 20
29.03128433227539
 30
0.0
 11
34.51113510131836
 21
28.92288398742675
 31
0.0
  0
LINE
  5
4C
330
A
100
AcDbEntity
  8
TFR-TRI
  6
CONTINUOUS
 62
     2
100
AcDbLine
 10
64.61457824707031
 20
20.22195625305176
 30
0.0
 11
64.61457824707031
 21
20.11355781555175
 31
0.0
  0
LINE
  5
4D
330
A
100
AcDbEntity
  8
TFR-TRI
  6
CONTINUOUS
 62
    30
100
AcDbLine
 10
17.03873634338378
 20
28.96342086791992
 30
0.0
 11
17.03873634338378
 21
28.93342018127441
 31
0.0
  0
LINE
  5
4E
330
A
100
AcDbEntity
  8
TFR-TRI
  6
CONTINUOUS
 62
    30
100
AcDbLine
 10
34.27569961547851
 20
59.38968658447265
 30
0.0
 11
34.32059860229492
 21
59.38968658447265
 31
0.0
  0
LINE
  5
4F
330
A
100
AcDbEntity
  8
TFR-TRI
  6
CONTINUOUS
 62
     2
100
AcDbLine
 10
35.03396987915039
 20
45.38968658447266
 30
0.0
 11
35.07452392578125
 21
45.38968658447266
 31
0.0
  0
LINE
  5
50
330
A
100
AcDbEntity
  8
TFR-TRI
  6
CONTINUOUS
 62
    30
100
AcDbLine
 10
17.03873634338378
 20
29.00832176208496
 30
0.0
 11
17.03873634338378
 21
28.96342086791992
 31
0.0
  0
LINE
  5
51
330
A
100
AcDbEntity
  8
TFR-TRI
  6
CONTINUOUS
 62
     2
100
AcDbLine
 10
64.49909210205078
 20
20.22195625305176
 30
0.0
 11
64.52618408203125
 21
20.22195625305176
 31
0.0
  0
LINE
  5
52
330
A
100
AcDbEntity
  8
TFR-TRI
  6
CONTINUOUS
 62
    30
100
AcDbLine
 10
34.98613739013672
 20
28.92288398742675
 30
0.0
 11
34.51113510131836
 21
28.92288398742675
 31
0.0
  0
LINE
  5
53
330
A
100
AcDbEntity
  8
TFR-TRI
  6
CONTINUOUS
 62
    30
100
AcDbLine
 10
16.87167167663574
 20
59.38968658447265
 30
0.0
 11
16.86113548278808
 21
59.38968658447265
 31
0.0
  0
LINE
  5
54
330
A
100
AcDbEntity
  8
TFR-TRI
  6
CONTINUOUS
 62
    30
100
AcDbLine
 10
65.097900390625
 20
21.83855628967285
 30
0.0
 11
79.09797668457031
 21
21.83855628967285
 31
0.0
  0
LINE
  5
55
330
A
100
AcDbEntity
  8
TFR-TRI
  6
CONTINUOUS
 62
    30
100
AcDbLine
 10
18.0539321899414
 20
35.1898078918457
 30
0.0
 11
20.17525291442871
 21
37.31113052368164
 31
0.0
  0
LINE
  5
56
330
A
100
AcDbEntity
  8
TFR-TRI
  6
CONTINUOUS
 62
    30
100
AcDbLine
 10
16.12065124511718
 20
28.92288398742675
 30
0.0
 11
16.11113548278808
 21
28.92288398742675
 31
0.0
  0
LINE
  5
57
330
A
100
AcDbEntity
  8
TFR-TRI
  6
CONTINUOUS
 62
    30
100
AcDbLine
 10
17.78876686096191
 20
38.05497360229492
 30
0.0
 11
19.91008758544921
 21
40.17629241943359
 31
0.0
  0
LINE
  5
58
330
A
100
AcDbEntity
  8
TFR-TRI
  6
CONTINUOUS
 62
    30
100
AcDbLine
 10
48.63117599487305
 20
20.19072151184082
 30
0.0
 11
48.63117599487305
 21
20.23855781555175
 31
0.0
  0
LINE
  5
59
330
A
100
AcDbEntity
  8
TFR-TRI
  6
CONTINUOUS
 62
    30
100
AcDbLine
 10
16.14774703979492
 20
28.92288398742675
 30
0.0
 11
16.12065124511718
 21
28.92288398742675
 31
0.0
  0
LINE
  5
5A
330
A
100
AcDbEntity
  8
TFR-TRI
  6
CONTINUOUS
 62
    30
100
AcDbLine
 10
48.73957443237305
 20
21.82904243469238
 30
0.0
 11
48.73957443237305
 21
21.80194473266601
 31
0.0
  0
LINE
  5
5B
330
A
100
AcDbEntity
  8
TFR-TRI
  6
CONTINUOUS
 62
    30
100
AcDbLine
 10
24.68350410461425
 20
40.65497207641601
 30
0.0
 11
22.56218528747558
 21
42.77629470825195
 31
0.0
  0
LINE
  5
5C
330
A
100
AcDbEntity
  8
TFR-TRI
  6
CONTINUOUS
 62
     2
100
AcDbLine
 10
34.42899703979492
 20
45.28128433227538
 30
0.0
 11
34.40190124511719
 21
45.28128433227538
 31
0.0
  0
LINE
  5
5D
330
A
100
AcDbEntity
  8
TFR-TRI
  6
CONTINUOUS
 62
    30
100
AcDbLine
 10
48.84797668457031
 20
21.70015716552734
 30
0.0
 11
64.98918914794922
 21
21.70015716552734
 31
0.0
  0
LINE
  5
5E
330
A
100
AcDbEntity
  8
TFR-TRI
  6
CONTINUOUS
 62
    30
100
AcDbLine
 10
48.73957443237305
 20
20.12307167053222
 30
0.0
 11
48.73957443237305
 21
20.11355781555175
 31
0.0
  0
LINE
  5
5F
330
A
100
AcDbEntity
  8
TFR-TRI
  6
CONTINUOUS
 62
    30
100
AcDbLine
 10
16.39363670349121
 20
20.2260570526123
 30
0.0
 11
16.51863670349121
 21
20.2260570526123
 31
0.0
  0
LINE
  5
60
330
A
100
AcDbEntity
  8
TFR-TRI
  6
CONTINUOUS
 62
     2
100
AcDbLine
 10
16.82037162780761
 20
45.28128433227538
 30
0.0
 11
16.79327392578125
 21
45.28128433227538
 31
0.0
  0
LINE
  5
61
330
A
100
AcDbEntity
  8
TFR-TRI
  6
CONTINUOUS
 62
    30
100
AcDbLine
 10
34.18353652954101
 20
21.83855628967285
 30
0.0
 11
34.22273635864257
 21
21.83855628967285
 31
0.0
  0
LINE
  5
62
330
A
100
AcDbEntity
  8
TFR-TRI
  6
CONTINUOUS
 62
    30
100
AcDbLine
 10
24.68350410461425
 20
43.25497436523437
 30
0.0
 11
22.56218528747558
 21
45.37629318237304
 31
0.0
  0
LINE
  5
63
330
A
100
AcDbEntity
  8
TFR-TRI
  6
CONTINUOUS
 62
     2
100
AcDbLine
 10
16.12065124511718
 20
45.28128433227538
 30
0.0
 11
16.11113548278808
 21
45.28128433227538
 31
0.0
  0
LINE
  5
64
330
A
100
AcDbEntity
  8
TFR-TRI
  6
CONTINUOUS
 62
     2
100
AcDbLine
 10
16.23613548278808
 20
45.28128433227538
 30
0.0
 11
16.70488548278808
 21
45.28128433227538
 31
0.0
  0
LINE
  5
65
330
A
100
AcDbEntity
  8
TFR-TRI
  6
CONTINUOUS
 62
     2
100
AcDbLine
 10
35.07452392578125
 20
45.28128433227538
 30
0.0
 11
35.03396987915039
 21
45.28128433227538
 31
0.0
  0
LINE
  5
66
330
A
100
AcDbEntity
  8
TFR-TRI
  6
CONTINUOUS
 62
     2
100
AcDbLine
 10
16.12065124511718
 20
45.38968658447266
 30
0.0
 11
16.14774703979492
 21
45.38968658447266
 31
0.0
  0
LINE
  5
67
330
A
100
AcDbEntity
  8
TFR-TRI
  6
CONTINUOUS
 62
    30
100
AcDbLine
 10
26.53876686096191
 20
30.25497436523437
 30
0.0
 11
28.66008758544921
 21
32.37629318237305
 31
0.0
  0
LINE
  5
68
330
A
100
AcDbEntity
  8
TFR-TRI
  6
CONTINUOUS
 62
    30
100
AcDbLine
 10
18.0539321899414
 20
55.98980712890625
 30
0.0
 11
20.17525291442871
 21
58.11112976074219
 31
0.0
  0
LINE
  5
69
330
A
100
AcDbEntity
  8
TFR-TRI
  6
CONTINUOUS
 62
     2
100
AcDbLine
 10
64.48957824707031
 20
20.22195625305176
 30
0.0
 11
64.49909210205078
 21
20.22195625305176
 31
0.0
  0
LINE
  5
6A
330
A
100
AcDbEntity
  8
TFR-TRI
  6
CONTINUOUS
 62
     2
100
AcDbLine
 10
16.82037162780761
 20
45.38968658447266
 30
0.0
 11
16.82988548278808
 21
45.38968658447266
 31
0.0
  0
LINE
  5
6B
330
A
100
AcDbEntity
  8
TFR-TRI
  6
CONTINUOUS
 62
    30
100
AcDbLine
 10
17.03873634338378
 20
29.06128501892089
 30
0.0
 11
17.03873634338378
 21
29.13968467712402
 31
0.0
  0
LINE
  5
6C
330
A
100
AcDbEntity
  8
TFR-TRI
  6
CONTINUOUS
 62
    30
100
AcDbLine
 10
17.03873634338378
 20
21.75312042236328
 30
0.0
 11
17.03873634338378
 21
21.70015716552734
 31
0.0
  0
LINE
  5
6D
330
A
100
AcDbEntity
  8
TFR-TRI
  6
CONTINUOUS
 62
    30
100
AcDbLine
 10
24.41834068298339
 20
45.5898094177246
 30
0.0
 11
22.29701995849609
 21
47.71112823486328
 31
0.0
  0
LINE
  5
6E
330
A
100
AcDbEntity
  8
TFR-TRI
  6
CONTINUOUS
 62
    30
100
AcDbLine
 10
17.78876686096191
 20
45.85497283935547
 30
0.0
 11
19.91008758544921
 21
47.9762954711914
 31
0.0
  0
LINE
  5
6F
330
A
100
AcDbEntity
  8
TFR-TRI
  6
CONTINUOUS
 62
    30
100
AcDbLine
 10
79.09797668457031
 20
20.92399406433105
 30
0.0
 11
79.09797668457031
 21
20.87909317016601
 31
0.0
  0
LINE
  5
70
330
A
100
AcDbEntity
  8
TFR-TRI
  6
CONTINUOUS
 62
    30
100
AcDbLine
 10
33.43350601196289
 20
45.85497283935547
 30
0.0
 11
31.31218528747558
 21
47.9762954711914
 31
0.0
  0
LINE
  5
71
330
A
100
AcDbEntity
  8
TFR-TRI
  6
CONTINUOUS
 62
     2
100
AcDbLine
 10
28.06736946105957
 20
44.78378295898437
 30
0.0
 11
28.59782409667968
 21
44.78378295898437
 31
0.0
  0
LINE
  5
72
330
A
100
AcDbEntity
  8
TFR-TRI
  6
CONTINUOUS
 62
    30
100
AcDbLine
 10
34.82863616943359
 20
21.7260570526123
 30
0.0
 11
34.70363616943359
 21
21.7260570526123
 31
0.0
  0
LINE
  5
73
330
A
100
AcDbEntity
  8
TFR-TRI
  6
CONTINUOUS
 62
     2
100
AcDbLine
 10
64.98957824707031
 20
20.12307167053222
 30
0.0
 11
64.98957824707031
 21
20.15016937255859
 31
0.0
  0
LINE
  5
74
330
A
100
AcDbEntity
  8
TFR-TRI
  6
CONTINUOUS
 62
    30
100
AcDbLine
 10
26.53876686096191
 20
56.25497436523438
 30
0.0
 11
28.66008758544921
 21
58.37629318237304
 31
0.0
  0
LINE
  5
75
330
A
100
AcDbEntity
  8
TFR-TRI
  6
CONTINUOUS
 62
     2
100
AcDbLine
 10
64.98957824707031
 20
21.82904243469238
 30
0.0
 11
64.98957824707031
 21
21.83855628967285
 31
0.0
  0
LINE
  5
76
330
A
100
AcDbEntity
  8
TFR-TRI
  6
CONTINUOUS
 62
     2
100
AcDbLine
 10
31.37413597106933
 20
44.78378295898437
 30
0.0
 11
31.90458869934082
 21
44.78378295898437
 31
0.0
  0
LINE
  5
77
330
A
100
AcDbEntity
  8
TFR-TRI
  6
CONTINUOUS
 62
    30
100
AcDbLine
 10
16.39363670349121
 20
21.4760570526123
 30
0.0
 11
16.51863670349121
 21
21.4760570526123
 31
0.0
  0
LINE
  5
78
330
A
100
AcDbEntity
  8
TFR-TRI
  6
CONTINUOUS
 62
     2
100
AcDbLine
 10
65.09797668457031
 20
20.15016937255859
 30
0.0
 11
65.09797668457031
 21
20.12307167053222
 31
0.0
  0
LINE
  5
79
330
A
100
AcDbEntity
  8
TFR-TRI
  6
CONTINUOUS
 62
    30
100
AcDbLine
 10
17.78876686096191
 20
32.85497283935546
 30
0.0
 11
19.91008758544921
 21
34.9762954711914
 31
0.0
  0
LINE
  5
7A
330
A
100
AcDbEntity
  8
TFR-TRI
  6
CONTINUOUS
 62
    30
100
AcDbLine
 10
33.43350601196289
 20
32.85497283935546
 30
0.0
 11
31.31218528747558
 21
34.9762954711914
 31
0.0
  0
LINE
  5
7B
330
A
100
AcDbEntity
  8
TFR-TRI
  6
CONTINUOUS
 62
    30
100
AcDbLine
 10
16.23613548278808
 20
29.03128433227539
 30
0.0
 11
16.23613548278808
 21
28.92288398742675
 31
0.0
  0
LINE
  5
7C
330
A
100
AcDbEntity
  8
TFR-TRI
  6
CONTINUOUS
 62
    30
100
AcDbLine
 10
16.83613586425781
 20
21.70015716552734
 30
0.0
 11
16.83613586425781
 21
21.71355628967285
 31
0.0
  0
LINE
  5
7D
330
A
100
AcDbEntity
  8
TFR-TRI
  6
CONTINUOUS
 62
     2
100
AcDbLine
 10
64.92957305908203
 20
20.22195625305176
 30
0.0
 11
64.92957305908203
 21
20.11355781555175
 31
0.0
  0
LINE
  5
7E
330
A
100
AcDbEntity
  8
TFR-TRI
  6
CONTINUOUS
 62
    30
100
AcDbLine
 10
16.99953651428222
 20
59.38968658447265
 30
0.0
 11
34.22273635864257
 21
59.38968658447265
 31
0.0
  0
LINE
  5
7F
330
A
100
AcDbEntity
  8
TFR-TRI
  6
CONTINUOUS
 62
    30
100
AcDbLine
 10
34.18353652954101
 20
21.73015785217285
 30
0.0
 11
34.22273635864257
 21
21.73015785217285
 31
0.0
  0
LINE
  5
80
330
A
100
AcDbEntity
  8
TFR-TRI
  6
CONTINUOUS
 62
    30
100
AcDbLine
 10
16.99953651428222
 20
59.38968658447265
 30
0.0
 11
16.94657325744628
 21
59.38968658447265
 31
0.0
  0
LINE
  5
81
330
A
100
AcDbEntity
  8
TFR-TRI
  6
CONTINUOUS
 62
     2
100
AcDbLine
 10
64.52618408203125
 20
20.11355781555175
 30
0.0
 11
64.49909210205078
 21
20.11355781555175
 31
0.0
  0
LINE
  5
82
330
A
100
AcDbEntity
  8
TFR-TRI
  6
CONTINUOUS
 62
    30
100
AcDbLine
 10
24.68350410461425
 20
38.05497360229492
 30
0.0
 11
22.56218528747558
 21
40.17629241943359
 31
0.0
  0
LINE
  5
83
330
A
100
AcDbEntity
  8
TFR-TRI
  6
CONTINUOUS
 62
    30
100
AcDbLine
 10
34.18353652954101
 20
28.96342086791992
 30
0.0
 11
34.18353652954101
 21
28.93342018127441
 31
0.0
  0
LINE
  5
84
330
A
100
AcDbEntity
  8
TFR-TRI
  6
CONTINUOUS
 62
    30
100
AcDbLine
 10
48.84797668457031
 20
21.70015716552734
 30
0.0
 11
48.84797668457031
 21
21.0069580078125
 31
0.0
  0
LINE
  5
85
330
A
100
AcDbEntity
  8
TFR-TRI
  6
CONTINUOUS
 62
    30
100
AcDbLine
 10
79.09797668457031
 20
20.87909317016601
 30
0.0
 11
79.09797668457031
 21
20.84909248352051
 31
0.0
  0
LINE
  5
86
330
A
100
AcDbEntity
  8
TFR-TRI
  6
CONTINUOUS
 62
    30
100
AcDbLine
 10
48.63117599487305
 20
20.11355781555175
 30
0.0
 11
48.63117599487305
 21
20.12307167053222
 31
0.0
  0
LINE
  5
87
330
A
100
AcDbEntity
  8
TFR-TRI
  6
CONTINUOUS
 62
    30
100
AcDbLine
 10
35.03396987915039
 20
28.92288398742675
 30
0.0
 11
34.98613739013672
 21
28.92288398742675
 31
0.0
  0
LINE
  5
88
330
A
100
AcDbEntity
  8
TFR-TRI
  6
CONTINUOUS
 62
    30
100
AcDbLine
 10
16.23613548278808
 20
20.11355781555175
 30
0.0
 11
34.98613739013672
 21
20.11355781555175
 31
0.0
  0
LINE
  5
89
330
A
100
AcDbEntity
  8
TFR-TRI
  6
CONTINUOUS
 62
    30
100
AcDbLine
 10
48.63117599487305
 20
21.80194473266601
 30
0.0
 11
48.63117599487305
 21
21.82904243469238
 31
0.0
  0
LINE
  5
8A
330
A
100
AcDbEntity
  8
TFR-TRI
  6
CONTINUOUS
 62
     2
100
AcDbLine
 10
34.51738739013672
 20
45.28128433227538
 30
0.0
 11
34.98613739013672
 21
45.28128433227538
 31
0.0
  0
LINE
  5
8B
330
A
100
AcDbEntity
  8
TFR-TRI
  6
CONTINUOUS
 62
    30
100
AcDbLine
 10
79.09797668457031
 20
21.82802200317382
 30
0.0
 11
79.09797668457031
 21
21.79802131652832
 31
0.0
  0
LINE
  5
8C
330
A
100
AcDbEntity
  8
TFR-TRI
  6
CONTINUOUS
 62
    30
100
AcDbLine
 10
48.73957443237305
 20
20.23855781555175
 30
0.0
 11
48.73957443237305
 21
20.19072151184082
 31
0.0
  0
LINE
  5
8D
330
A
100
AcDbEntity
  8
TFR-TRI
  6
CONTINUOUS
 62
     2
100
AcDbLine
 10
16.86113739013672
 20
45.28128433227538
 30
0.0
 11
16.83793258666992
 21
45.28128433227538
 31
0.0
  0
LINE
  5
8E
330
A
100
AcDbEntity
  8
TFR-TRI
  6
CONTINUOUS
 62
    30
100
AcDbLine
 10
49.59797668457031
 20
20.97695732116699
 30
0.0
 11
64.9891357421875
 21
20.97695732116699
 31
0.0
  0
LINE
  5
8F
330
A
100
AcDbEntity
  8
TFR-TRI
  6
CONTINUOUS
 62
    30
100
AcDbLine
 10
26.8039321899414
 20
53.38980865478515
 30
0.0
 11
28.92525291442871
 21
55.51112747192383
 31
0.0
  0
LINE
  5
90
330
A
100
AcDbEntity
  8
TFR-TRI
  6
CONTINUOUS
 62
    30
100
AcDbLine
 10
26.8039321899414
 20
40.38980865478515
 30
0.0
 11
28.92525291442871
 21
42.51112747192382
 31
0.0
  0
LINE
  5
91
330
A
100
AcDbEntity
  8
TFR-TRI
  6
CONTINUOUS
 62
    30
100
AcDbLine
 10
48.63117599487305
 20
21.83855628967285
 30
0.0
 11
48.73957443237305
 21
21.83855628967285
 31
0.0
  0
LINE
  5
92
330
A
100
AcDbEntity
  8
TFR-TRI
  6
CONTINUOUS
 62
    30
100
AcDbLine
 10
26.53876686096191
 20
38.05497360229492
 30
0.0
 11
28.66008758544921
 21
40.17629241943359
 31
0.0
  0
LINE
  5
93
330
A
100
AcDbEntity
  8
TFR-TRI
  6
CONTINUOUS
 62
    30
100
AcDbLine
 10
34.98613739013672
 20
29.03128433227539
 30
0.0
 11
34.51113510131836
 21
29.03128433227539
 31
0.0
  0
LINE
  5
94
330
A
100
AcDbEntity
  8
TFR-TRI
  6
CONTINUOUS
 62
    30
100
AcDbLine
 10
26.8039321899414
 20
50.78981018066406
 30
0.0
 11
28.92525291442871
 21
52.91112899780273
 31
0.0
  0
LINE
  5
95
330
A
100
AcDbEntity
  8
TFR-TRI
  6
CONTINUOUS
 62
     2
100
AcDbLine
 10
16.23613548278808
 20
45.28128433227538
 30
0.0
 11
16.18830108642578
 21
45.28128433227538
 31
0.0
  0
LINE
  5
96
330
A
100
AcDbEntity
  8
TFR-TRI
  6
CONTINUOUS
 62
    30
100
AcDbLine
 10
16.86113548278808
 20
59.38968658447265
 30
0.0
 11
16.86113548278808
 21
29.13968467712402
 31
0.0
  0
LINE
  5
97
330
A
100
AcDbEntity
  8
TFR-TRI
  6
CONTINUOUS
 62
    30
100
AcDbLine
 10
16.14774703979492
 20
29.03128433227539
 30
0.0
 11
16.18830108642578
 21
29.03128433227539
 31
0.0
  0
LINE
  5
98
330
A
100
AcDbEntity
  8
TFR-TRI
  6
CONTINUOUS
 62
    30
100
AcDbLine
 10
16.83613586425781
 20
28.92288398742675
 30
0.0
 11
16.82662010192871
 21
28.92288398742675
 31
0.0
  0
LINE
  5
99
330
A
100
AcDbEntity
  8
TFR-TRI
  6
CONTINUOUS
 62
    30
100
AcDbLine
 10
26.53876686096191
 20
43.25497436523437
 30
0.0
 11
28.66008758544921
 21
45.37629318237304
 31
0.0
  0
LINE
  5
9A
330
A
100
AcDbEntity
  8
TFR-TRI
  6
CONTINUOUS
 62
    30
100
AcDbLine
 10
17.03873634338378
 20
28.92288398742675
 30
0.0
 11
34.18353652954101
 21
28.92288398742675
 31
0.0
  0
LINE
  5
9B
330
A
100
AcDbEntity
  8
TFR-TRI
  6
CONTINUOUS
 62
     2
100
AcDbLine
 10
16.70488548278808
 20
45.38968658447266
 30
0.0
 11
16.75272178649902
 21
45.38968658447266
 31
0.0
  0
LINE
  5
9C
330
A
100
AcDbEntity
  8
TFR-TRI
  6
CONTINUOUS
 62
    30
100
AcDbLine
 10
33.43350601196289
 20
56.25497436523438
 30
0.0
 11
31.31218528747558
 21
58.37629318237304
 31
0.0
  0
LINE
  5
9D
330
A
100
AcDbEntity
  8
TFR-TRI
  6
CONTINUOUS
 62
    30
100
AcDbLine
 10
18.0539321899414
 20
53.38980865478515
 30
0.0
 11
20.17525291442871
 21
55.51112747192383
 31
0.0
  0
LINE
  5
9E
330
A
100
AcDbEntity
  8
TFR-TRI
  6
CONTINUOUS
 62
    30
100
AcDbLine
 10
34.35060119628906
 20
59.38968658447265
 30
0.0
 11
34.36113739013672
 21
59.38968658447265
 31
0.0
  0
LINE
  5
9F
330
A
100
AcDbEntity
  8
TFR-TRI
  6
CONTINUOUS
 62
    30
100
AcDbLine
 10
26.8039321899414
 20
37.78981018066406
 30
0.0
 11
28.92525291442871
 21
39.91112899780273
 31
0.0
  0
LINE
  5
A0
330
A
100
AcDbEntity
  8
TFR-TRI
  6
CONTINUOUS
 62
    30
100
AcDbLine
 10
17.03873634338378
 20
21.83855628967285
 30
0.0
 11
17.03873634338378
 21
21.82802200317382
 31
0.0
  0
LINE
  5
A1
330
A
100
AcDbEntity
  8
TFR-TRI
  6
CONTINUOUS
 62
     2
100
AcDbLine
 10
22.31207275390624
 20
45.38968658447266
 30
0.0
 11
22.54741668701171
 21
45.38968658447266
 31
0.0
  0
LINE
  5
A2
330
A
100
AcDbEntity
  8
TFR-TRI
  6
CONTINUOUS
 62
    30
100
AcDbLine
 10
34.18353652954101
 20
21.75312042236328
 30
0.0
 11
34.18353652954101
 21
21.70015716552734
 31
0.0
  0
LINE
  5
A3
330
A
100
AcDbEntity
  8
TFR-TRI
  6
CONTINUOUS
 62
    30
100
AcDbLine
 10
49.59797668457031
 20
20.87909317016601
 30
0.0
 11
49.59797668457031
 21
20.84909248352051
 31
0.0
  0
LINE
  5
A4
330
A
100
AcDbEntity
  8
TFR-TRI
  6
CONTINUOUS
 62
     2
100
AcDbLine
 10
34.42899703979492
 20
45.38968658447266
 30
0.0
 11
34.46955108642578
 21
45.38968658447266
 31
0.0
  0
LINE
  5
A5
330
A
100
AcDbEntity
  8
TFR-TRI
  6
CONTINUOUS
 62
    30
100
AcDbLine
 10
65.09792327880859
 20
20.83855628967285
 30
0.0
 11
79.09797668457031
 21
20.83855628967285
 31
0.0
  0
LINE
  5
A6
330
A
100
AcDbEntity
  8
TFR-TRI
  6
CONTINUOUS
 62
    30
100
AcDbLine
 10
33.43350601196289
 20
43.25497436523437
 30
0.0
 11
31.31218528747558
 21
45.37629318237304
 31
0.0
  0
LINE
  5
A7
330
A
100
AcDbEntity
  8
TFR-TRI
  6
CONTINUOUS
 62
    30
100
AcDbLine
 10
17.03873634338378
 20
29.06128501892089
 30
0.0
 11
34.18353652954101
 21
29.06128501892089
 31
0.0
  0
LINE
  5
A8
330
A
100
AcDbEntity
  8
TFR-TRI
  6
CONTINUOUS
 62
    30
100
AcDbLine
 10
16.99953651428222
 20
59.38968658447265
 30
0.0
 11
16.99953651428222
 21
29.13968467712402
 31
0.0
  0
LINE
  5
A9
330
A
100
AcDbEntity
  8
TFR-TRI
  6
CONTINUOUS
 62
    30
100
AcDbLine
 10
48.84797668457031
 20
21.0069580078125
 30
0.0
 11
49.59797668457031
 21
21.0069580078125
 31
0.0
  0
LINE
  5
AA
330
A
100
AcDbEntity
  8
TFR-TRI
  6
CONTINUOUS
 62
    30
100
AcDbLine
 10
16.39363670349121
 20
20.4760570526123
 30
0.0
 11
16.51863670349121
 21
20.4760570526123
 31
0.0
  0
LINE
  5
AB
330
A
100
AcDbEntity
  8
TFR-TRI
  6
CONTINUOUS
 62
     2
100
AcDbLine
 10
64.98957824707031
 20
21.71355628967285
 30
0.0
 11
64.98957824707031
 21
21.76139259338378
 31
0.0
  0
LINE
  5
AC
330
A
100
AcDbEntity
  8
TFR-TRI
  6
CONTINUOUS
 62
    30
100
AcDbLine
 10
33.16833877563476
 20
40.38980865478515
 30
0.0
 11
31.04701995849609
 21
42.51112747192382
 31
0.0
  0
LINE
  5
AD
330
A
100
AcDbEntity
  8
TFR-TRI
  6
CONTINUOUS
 62
    30
100
AcDbLine
 10
17.03873634338378
 20
29.03128433227539
 30
0.0
 11
16.83613586425781
 21
29.03128433227539
 31
0.0
  0
LINE
  5
AE
330
A
100
AcDbEntity
  8
TFR-TRI
  6
CONTINUOUS
 62
     2
100
AcDbLine
 10
65.09797668457031
 20
21.71355628967285
 30
0.0
 11
64.98957824707031
 21
21.71355628967285
 31
0.0
  0
LINE
  5
AF
330
A
100
AcDbEntity
  8
TFR-TRI
  6
CONTINUOUS
 62
     2
100
AcDbLine
 10
31.54254150390625
 20
44.61538314819335
 30
0.0
 11
32.07299423217773
 21
44.61538314819335
 31
0.0
  0
LINE
  5
B0
330
A
100
AcDbEntity
  8
TFR-TRI
  6
CONTINUOUS
 62
    30
100
AcDbLine
 10
24.41834068298339
 20
55.98980712890625
 30
0.0
 11
22.29701995849609
 21
58.11112976074219
 31
0.0
  0
LINE
  5
B1
330
A
100
AcDbEntity
  8
TFR-TRI
  6
CONTINUOUS
 62
     2
100
AcDbLine
 10
65.09797668457031
 20
21.80194473266601
 30
0.0
 11
65.09797668457031
 21
21.76139259338378
 31
0.0
  0
LINE
  5
B2
330
A
100
AcDbEntity
  8
TFR-TRI
  6
CONTINUOUS
 62
    30
100
AcDbLine
 10
34.32059860229492
 20
59.38968658447265
 30
0.0
 11
34.35060119628906
 21
59.38968658447265
 31
0.0
  0
LINE
  5
B3
330
A
100
AcDbEntity
  8
TFR-TRI
  6
CONTINUOUS
 62
    30
100
AcDbLine
 10
34.18353652954101
 20
29.13968467712402
 30
0.0
 11
34.18353652954101
 21
29.06128501892089
 31
0.0
  0
LINE
  5
B4
330
A
100
AcDbEntity
  8
TFR-TRI
  6
CONTINUOUS
 62
    30
100
AcDbLine
 10
34.98613739013672
 20
28.92288398742675
 30
0.0
 11
34.98613739013672
 21
29.03128433227539
 31
0.0
  0
LINE
  5
B5
330
A
100
AcDbEntity
  8
TFR-TRI
  6
CONTINUOUS
 62
     2
100
AcDbLine
 10
64.92957305908203
 20
20.11355781555175
 30
0.0
 11
64.61457824707031
 21
20.11355781555175
 31
0.0
  0
LINE
  5
B6
330
A
100
AcDbEntity
  8
TFR-TRI
  6
CONTINUOUS
 62
    30
100
AcDbLine
 10
17.03873634338378
 20
28.93342018127441
 30
0.0
 11
17.03873634338378
 21
28.92288398742675
 31
0.0
  0
LINE
  5
B7
330
A
100
AcDbEntity
  8
TFR-TRI
  6
CONTINUOUS
 62
     2
100
AcDbLine
 10
64.52618408203125
 20
20.22195625305176
 30
0.0
 11
64.56674194335938
 21
20.22195625305176
 31
0.0
  0
LINE
  5
B8
330
A
100
AcDbEntity
  8
TFR-TRI
  6
CONTINUOUS
 62
    30
100
AcDbLine
 10
24.41834068298339
 20
50.78981018066406
 30
0.0
 11
22.29701995849609
 21
52.91112899780273
 31
0.0
  0
LINE
  5
B9
330
A
100
AcDbEntity
  8
TFR-TRI
  6
CONTINUOUS
 62
    30
100
AcDbLine
 10
48.76957321166992
 20
21.73015785217285
 30
0.0
 11
48.84797668457031
 21
21.73015785217285
 31
0.0
  0
LINE
  5
BA
330
A
100
AcDbEntity
  8
TFR-TRI
  6
CONTINUOUS
 62
    30
100
AcDbLine
 10
26.53876686096191
 20
35.45497512817382
 30
0.0
 11
28.66008758544921
 21
37.5762939453125
 31
0.0
  0
LINE
  5
BB
330
A
100
AcDbEntity
  8
TFR-TRI
  6
CONTINUOUS
 62
    30
100
AcDbLine
 10
35.11113739013671
 20
28.92288398742675
 30
0.0
 11
35.10161972045898
 21
28.92288398742675
 31
0.0
  0
LINE
  5
BC
330
A
100
AcDbEntity
  8
TFR-TRI
  6
CONTINUOUS
 62
    30
100
AcDbLine
 10
48.63117599487305
 20
20.23855781555175
 30
0.0
 11
48.63117599487305
 21
21.71355628967285
 31
0.0
  0
LINE
  5
BD
330
A
100
AcDbEntity
  8
TFR-TRI
  6
CONTINUOUS
 62
    30
100
AcDbLine
 10
48.84797668457031
 20
21.79802131652832
 30
0.0
 11
48.84797668457031
 21
21.75312042236328
 31
0.0
  0
LINE
  5
BE
330
A
100
AcDbEntity
  8
TFR-TRI
  6
CONTINUOUS
 62
    30
100
AcDbLine
 10
48.73957443237305
 20
21.80194473266601
 30
0.0
 11
48.73957443237305
 21
21.76139259338378
 31
0.0
  0
LINE
  5
BF
330
A
100
AcDbEntity
  8
TFR-TRI
  6
CONTINUOUS
 62
     2
100
AcDbLine
 10
34.40190124511719
 20
45.28128433227538
 30
0.0
 11
34.39238739013672
 21
45.28128433227538
 31
0.0
  0
LINE
  5
C0
330
A
100
AcDbEntity
  8
TFR-TRI
  6
CONTINUOUS
 62
    30
100
AcDbLine
 10
65.097900390625
 20
21.70015716552734
 30
0.0
 11
79.09797668457031
 21
21.70015716552734
 31
0.0
  0
LINE
  5
C1
330
A
100
AcDbEntity
  8
TFR-TRI
  6
CONTINUOUS
 62
    30
100
AcDbLine
 10
26.53876686096191
 20
53.65497207641602
 30
0.0
 11
28.66008758544921
 21
55.77629470825195
 31
0.0
  0
LINE
  5
C2
330
A
100
AcDbEntity
  8
TFR-TRI
  6
CONTINUOUS
 62
    30
100
AcDbLine
 10
48.73957443237305
 20
20.11355781555175
 30
0.0
 11
48.63117599487305
 21
20.11355781555175
 31
0.0
  0
LINE
  5
C3
330
A
100
AcDbEntity
  8
TFR-TRI
  6
CONTINUOUS
 62
     2
100
AcDbLine
 10
16.79327392578125
 20
45.28128433227538
 30
0.0
 11
16.75272178649902
 21
45.28128433227538
 31
0.0
  0
LINE
  5
C4
330
A
100
AcDbEntity
  8
TFR-TRI
  6
CONTINUOUS
 62
    30
100
AcDbLine
 10
34.39565277099609
 20
28.92288398742675
 30
0.0
 11
34.38613510131836
 21
28.92288398742675
 31
0.0
  0
LINE
  5
C5
330
A
100
AcDbEntity
  8
TFR-TRI
  6
CONTINUOUS
 62
     2
100
AcDbLine
 10
34.98613739013672
 20
45.38968658447266
 30
0.0
 11
34.51738739013672
 21
45.38968658447266
 31
0.0
  0
LINE
  5
C6
330
A
100
AcDbEntity
  8
TFR-TRI
  6
CONTINUOUS
 62
    30
100
AcDbLine
 10
24.41834068298339
 20
48.1898078918457
 30
0.0
 11
22.29701995849609
 21
50.31113052368164
 31
0.0
  0
LINE
  5
C7
330
A
100
AcDbEntity
  8
TFR-TRI
  6
CONTINUOUS
 62
     2
100
AcDbLine
 10
35.03396987915039
 20
45.28128433227538
 30
0.0
 11
34.98613739013672
 21
45.28128433227538
 31
0.0
  0
LINE
  5
C8
330
A
100
AcDbEntity
  8
TFR-TRI
  6
CONTINUOUS
 62
     2
100
AcDbLine
 10
16.14774703979492
 20
45.38968658447266
 30
0.0
 11
16.18830108642578
 21
45.38968658447266
 31
0.0
  0
LINE
  5
C9
330
A
100
AcDbEntity
  8
TFR-TRI
  6
CONTINUOUS
 62
    30
100
AcDbLine
 10
26.53876686096191
 20
40.65497207641601
 30
0.0
 11
28.66008758544921
 21
42.77629470825195
 31
0.0
  0
LINE
  5
CA
330
A
100
AcDbEntity
  8
TFR-TRI
  6
CONTINUOUS
 62
     2
100
AcDbLine
 10
19.75516700744629
 20
45.22128295898437
 30
0.0
 11
20.22904205322265
 21
45.22128295898437
 31
0.0
  0
LINE
  5
CB
330
A
100
AcDbEntity
  8
TFR-TRI
  6
CONTINUOUS
 62
     2
100
AcDbLine
 10
16.82988548278808
 20
45.38968658447266
 30
0.0
 11
16.83793258666992
 21
45.38968658447266
 31
0.0
  0
LINE
  5
CC
330
A
100
AcDbEntity
  8
TFR-TRI
  6
CONTINUOUS
 62
     2
100
AcDbLine
 10
64.98957824707031
 20
21.83855628967285
 30
0.0
 11
65.09797668457031
 21
21.83855628967285
 31
0.0
  0
LINE
  5
CD
330
A
100
AcDbEntity
  8
TFR-TRI
  6
CONTINUOUS
 62
    30
100
AcDbLine
 10
18.0539321899414
 20
50.78981018066406
 30
0.0
 11
20.17525291442871
 21
52.91112899780273
 31
0.0
  0
LINE
  5
CE
330
A
100
AcDbEntity
  8
TFR-TRI
  6
CONTINUOUS
 62
    30
100
AcDbLine
 10
16.75897216796875
 20
29.03128433227539
 30
0.0
 11
16.79952430725097
 21
29.03128433227539
 31
0.0
  0
LINE
  5
CF
330
A
100
AcDbEntity
  8
TFR-TRI
  6
CONTINUOUS
 62
    30
100
AcDbLine
 10
34.18353652954101
 20
21.83855628967285
 30
0.0
 11
34.18353652954101
 21
21.82802200317382
 31
0.0
  0
LINE
  5
D0
330
A
100
AcDbEntity
  8
TFR-TRI
  6
CONTINUOUS
 62
    30
100
AcDbLine
 10
34.42274856567383
 20
29.03128433227539
 30
0.0
 11
34.46329879760742
 21
29.03128433227539
 31
0.0
  0
LINE
  5
D1
330
A
100
AcDbEntity
  8
TFR-TRI
  6
CONTINUOUS
 62
     2
100
AcDbLine
 10
34.38433837890625
 20
45.38968658447266
 30
0.0
 11
34.39238739013672
 21
45.38968658447266
 31
0.0
  0
LINE
  5
D2
330
A
100
AcDbEntity
  8
TFR-TRI
  6
CONTINUOUS
 62
    30
100
AcDbLine
 10
33.16833877563476
 20
50.78981018066406
 30
0.0
 11
31.04701995849609
 21
52.91112899780273
 31
0.0
  0
LINE
  5
D3
330
A
100
AcDbEntity
  8
TFR-TRI
  6
CONTINUOUS
 62
    30
100
AcDbLine
 10
34.82863616943359
 20
20.2260570526123
 30
0.0
 11
34.70363616943359
 21
20.2260570526123
 31
0.0
  0
LINE
  5
D4
330
A
100
AcDbEntity
  8
TFR-TRI
  6
CONTINUOUS
 62
    30
100
AcDbLine
 10
35.07452392578125
 20
29.03128433227539
 30
0.0
 11
35.10161972045898
 21
29.03128433227539
 31
0.0
  0
LINE
  5
D5
330
A
100
AcDbEntity
  8
TFR-TRI
  6
CONTINUOUS
 62
    30
100
AcDbLine
 10
49.59797668457031
 20
20.97695732116699
 30
0.0
 11
49.59797668457031
 21
20.92399406433105
 31
0.0
  0
LINE
  5
D6
330
A
100
AcDbEntity
  8
TFR-TRI
  6
CONTINUOUS
 62
     2
100
AcDbLine
 10
64.98957824707031
 20
20.15016937255859
 30
0.0
 11
64.98957824707031
 21
20.19072151184082
 31
0.0
  0
LINE
  5
D7
330
A
100
AcDbEntity
  8
TFR-TRI
  6
CONTINUOUS
 62
    30
100
AcDbLine
 10
79.09797668457031
 20
20.97695732116699
 30
0.0
 11
79.09797668457031
 21
20.92399406433105
 31
0.0
  0
LINE
  5
D8
330
A
100
AcDbEntity
  8
TFR-TRI
  6
CONTINUOUS
 62
    30
100
AcDbLine
 10
16.39363670349121
 20
21.1010570526123
 30
0.0
 11
16.51863670349121
 21
21.1010570526123
 31
0.0
  0
LINE
  5
D9
330
A
100
AcDbEntity
  8
TFR-TRI
  6
CONTINUOUS
 62
     2
100
AcDbLine
 10
19.14927673339843
 20
44.61538314819335
 30
0.0
 11
19.67972946166992
 21
44.61538314819335
 31
0.0
  0
LINE
  5
DA
330
A
100
AcDbEntity
  8
TFR-TRI
  6
CONTINUOUS
 62
    30
100
AcDbLine
 10
34.35060119628906
 20
29.13968467712402
 30
0.0
 11
34.36113739013672
 21
29.13968467712402
 31
0.0
  0
LINE
  5
DB
330
A
100
AcDbEntity
  8
TFR-TRI
  6
CONTINUOUS
 62
    30
100
AcDbLine
 10
33.16833877563476
 20
37.78981018066406
 30
0.0
 11
31.04701995849609
 21
39.91112899780273
 31
0.0
  0
LINE
  5
DC
330
A
100
AcDbEntity
  8
TFR-TRI
  6
CONTINUOUS
 62
     2
100
AcDbLine
 10
65.09797668457031
 20
20.12307167053222
 30
0.0
 11
65.09797668457031
 21
20.11355781555175
 31
0.0
  0
LINE
  5
DD
330
A
100
AcDbEntity
  8
TFR-TRI
  6
CONTINUOUS
 62
    30
100
AcDbLine
 10
17.03873634338378
 20
21.73015785217285
 30
0.0
 11
16.99953651428222
 21
21.73015785217285
 31
0.0
  0
LINE
  5
DE
330
A
100
AcDbEntity
  8
TFR-TRI
  6
CONTINUOUS
 62
    30
100
AcDbLine
 10
16.71113586425781
 20
28.92288398742675
 30
0.0
 11
16.71113586425781
 21
29.03128433227539
 31
0.0
  0
LINE
  5
DF
330
A
100
AcDbEntity
  8
TFR-TRI
  6
CONTINUOUS
 62
    30
100
AcDbLine
 10
17.03873634338378
 20
29.06128501892089
 30
0.0
 11
17.03873634338378
 21
29.00832176208496
 31
0.0
  0
LINE
  5
E0
330
A
100
AcDbEntity
  8
TFR-TRI
  6
CONTINUOUS
 62
    30
100
AcDbLine
 10
35.11113739013671
 20
20.23855781555175
 30
0.0
 11
35.11113739013671
 21
21.71355628967285
 31
0.0
  0
LINE
  5
E1
330
A
100
AcDbEntity
  8
TFR-TRI
  6
CONTINUOUS
 62
     2
100
AcDbLine
 10
64.49909210205078
 20
20.11355781555175
 30
0.0
 11
64.48957824707031
 21
20.11355781555175
 31
0.0
  0
LINE
  5
E2
330
A
100
AcDbEntity
  8
TFR-TRI
  6
CONTINUOUS
 62
    30
100
AcDbLine
 10
48.84797668457031
 20
21.83855628967285
 30
0.0
 11
48.76957321166992
 21
21.83855628967285
 31
0.0
  0
LINE
  5
E3
330
A
100
AcDbEntity
  8
TFR-TRI
  6
CONTINUOUS
 62
    30
100
AcDbLine
 10
34.18353652954101
 20
28.92288398742675
 30
0.0
 11
34.38613510131836
 21
28.92288398742675
 31
0.0
  0
LINE
  5
E4
330
A
100
AcDbEntity
  8
TFR-TRI
  6
CONTINUOUS
 62
    30
100
AcDbLine
 10
48.63117599487305
 20
20.12307167053222
 30
0.0
 11
48.63117599487305
 21
20.15016937255859
 31
0.0
  0
LINE
  5
E5
330
A
100
AcDbEntity
  8
TFR-TRI
  6
CONTINUOUS
 62
    30
100
AcDbLine
 10
16.79952430725097
 20
28.92288398742675
 30
0.0
 11
16.75897216796875
 21
28.92288398742675
 31
0.0
  0
LINE
  5
E6
330
A
100
AcDbEntity
  8
TFR-TRI
  6
CONTINUOUS
 62
    30
100
AcDbLine
 10
16.23613548278808
 20
28.92288398742675
 30
0.0
 11
16.18830108642578
 21
28.92288398742675
 31
0.0
  0
LINE
  5
E7
330
A
100
AcDbEntity
  8
TFR-TRI
  6
CONTINUOUS
 62
    30
100
AcDbLine
 10
17.78876686096191
 20
43.25497436523437
 30
0.0
 11
19.91008758544921
 21
45.37629318237304
 31
0.0
  0
LINE
  5
E8
330
A
100
AcDbEntity
  8
TFR-TRI
  6
CONTINUOUS
 62
    30
100
AcDbLine
 10
48.63117599487305
 20
21.82904243469238
 30
0.0
 11
48.63117599487305
 21
21.83855628967285
 31
0.0
  0
LINE
  5
E9
330
A
100
AcDbEntity
  8
TFR-TRI
  6
CONTINUOUS
 62
    30
100
AcDbLine
 10
24.41834068298339
 20
42.98980712890625
 30
0.0
 11
22.29701995849609
 21
45.11112976074218
 31
0.0
  0
LINE
  5
EA
330
A
100
AcDbEntity
  8
TFR-TRI
  6
CONTINUOUS
 62
    30
100
AcDbLine
 10
33.16833877563476
 20
29.98980903625488
 30
0.0
 11
31.04701995849609
 21
32.11112976074218
 31
0.0
  0
LINE
  5
EB
330
A
100
AcDbEntity
  8
TFR-TRI
  6
CONTINUOUS
 62
    30
100
AcDbLine
 10
79.09797668457031
 20
21.79802131652832
 30
0.0
 11
79.09797668457031
 21
21.75312042236328
 31
0.0
  0
LINE
  5
EC
330
A
100
AcDbEntity
  8
TFR-TRI
  6
CONTINUOUS
 62
    30
100
AcDbLine
 10
34.51113510131836
 20
28.92288398742675
 30
0.0
 11
34.46329879760742
 21
28.92288398742675
 31
0.0
  0
LINE
  5
ED
330
A
100
AcDbEntity
  8
TFR-TRI
  6
CONTINUOUS
 62
    30
100
AcDbLine
 10
48.73957443237305
 20
20.19072151184082
 30
0.0
 11
48.73957443237305
 21
20.15016937255859
 31
0.0
  0
LINE
  5
EE
330
A
100
AcDbEntity
  8
TFR-TRI
  6
CONTINUOUS
 62
    30
100
AcDbLine
 10
16.11113548278808
 20
21.71355628967285
 30
0.0
 11
16.11113548278808
 21
20.23855781555175
 31
0.0
  0
LINE
  5
EF
330
A
100
AcDbEntity
  8
TFR-TRI
  6
CONTINUOUS
 62
     2
100
AcDbLine
 10
16.83793258666992
 20
45.28128433227538
 30
0.0
 11
16.82988548278808
 21
45.28128433227538
 31
0.0
  0
LINE
  5
F0
330
A
100
AcDbEntity
  8
TFR-TRI
  6
CONTINUOUS
 62
    30
100
AcDbLine
 10
65.09792327880859
 20
20.97695732116699
 30
0.0
 11
79.09797668457031
 21
20.97695732116699
 31
0.0
  0
LINE
  5
F1
330
A
100
AcDbEntity
  8
TFR-TRI
  6
CONTINUOUS
 62
    30
100
AcDbLine
 10
48.84797668457031
 20
21.83855628967285
 30
0.0
 11
48.84797668457031
 21
21.82802200317382
 31
0.0
  0
LINE
  5
F2
330
A
100
AcDbEntity
  8
TFR-TRI
  6
CONTINUOUS
 62
     2
100
AcDbLine
 10
16.18830108642578
 20
45.28128433227538
 30
0.0
 11
16.14774703979492
 21
45.28128433227538
 31
0.0
  0
LINE
  5
F3
330
A
100
AcDbEntity
  8
TFR-TRI
  6
CONTINUOUS
 62
    30
100
AcDbLine
 10
16.82662010192871
 20
28.92288398742675
 30
0.0
 11
16.79952430725097
 21
28.92288398742675
 31
0.0
  0
LINE
  5
F4
330
A
100
AcDbEntity
  8
TFR-TRI
  6
CONTINUOUS
 62
    30
100
AcDbLine
 10
26.53876686096191
 20
45.85497283935547
 30
0.0
 11
28.66008758544921
 21
47.9762954711914
 31
0.0
  0
LINE
  5
F5
330
A
100
AcDbEntity
  8
TFR-TRI
  6
CONTINUOUS
 62
    30
100
AcDbLine
 10
16.18830108642578
 20
29.03128433227539
 30
0.0
 11
16.23613548278808
 21
29.03128433227539
 31
0.0
  0
LINE
  5
F6
330
A
100
AcDbEntity
  8
TFR-TRI
  6
CONTINUOUS
 62
     2
100
AcDbLine
 10
16.11113548278808
 20
45.28128433227538
 30
0.0
 11
16.11113548278808
 21
45.38968658447266
 31
0.0
  0
LINE
  5
F7
330
A
100
AcDbEntity
  8
TFR-TRI
  6
CONTINUOUS
 62
     2
100
AcDbLine
 10
16.23613548278808
 20
45.38968658447266
 30
0.0
 11
16.23613548278808
 21
45.28128433227538
 31
0.0
  0
LINE
  5
F8
330
A
100
AcDbEntity
  8
TFR-TRI
  6
CONTINUOUS
 62
    30
100
AcDbLine
 10
17.78876686096191
 20
56.25497436523438
 30
0.0
 11
19.91008758544921
 21
58.37629318237304
 31
0.0
  0
LINE
  5
F9
330
A
100
AcDbEntity
  8
TFR-TRI
  6
CONTINUOUS
 62
    30
100
AcDbLine
 10
24.68350410461425
 20
48.45497512817383
 30
0.0
 11
22.56218528747558
 21
50.5762939453125
 31
0.0
  0
LINE
  5
FA
330
A
100
AcDbEntity
  8
TFR-TRI
  6
CONTINUOUS
 62
    30
100
AcDbLine
 10
33.43350601196289
 20
51.05497360229492
 30
0.0
 11
31.31218528747558
 21
53.17629241943359
 31
0.0
  0
LINE
  5
FB
330
A
100
AcDbEntity
  8
TFR-TRI
  6
CONTINUOUS
 62
     2
100
AcDbLine
 10
16.75272178649902
 20
45.38968658447266
 30
0.0
 11
16.79327392578125
 21
45.38968658447266
 31
0.0
  0
LINE
  5
FC
330
A
100
AcDbEntity
  8
TFR-TRI
  6
CONTINUOUS
 62
    30
100
AcDbLine
 10
17.03873634338378
 20
21.82802200317382
 30
0.0
 11
17.03873634338378
 21
21.79802131652832
 31
0.0
  0
LINE
  5
FD
330
A
100
AcDbEntity
  8
TFR-TRI
  6
CONTINUOUS
 62
     2
100
AcDbLine
 10
28.67485427856445
 20
45.38968658447266
 30
0.0
 11
28.91019821166992
 21
45.38968658447266
 31
0.0
  0
LINE
  5
FE
330
A
100
AcDbEntity
  8
TFR-TRI
  6
CONTINUOUS
 62
    30
100
AcDbLine
 10
24.68350410461425
 20
45.85497283935547
 30
0.0
 11
22.56218528747558
 21
47.9762954711914
 31
0.0
  0
LINE
  5
FF
330
A
100
AcDbEntity
  8
TFR-TRI
  6
CONTINUOUS
 62
    30
100
AcDbLine
 10
18.0539321899414
 20
48.1898078918457
 30
0.0
 11
20.17525291442871
 21
50.31113052368164
 31
0.0
  0
LINE
  5
100
330
A
100
AcDbEntity
  8
TFR-TRI
  6
CONTINUOUS
 62
    30
100
AcDbLine
 10
17.03873634338378
 20
21.70015716552734
 30
0.0
 11
34.18353652954101
 21
21.70015716552734
 31
0.0
  0
LINE
  5
101
330
A
100
AcDbEntity
  8
TFR-TRI
  6
CONTINUOUS
 62
    30
100
AcDbLine
 10
49.59797668457031
 20
20.84909248352051
 30
0.0
 11
49.59797668457031
 21
20.83855628967285
 31
0.0
  0
LINE
  5
102
330
A
100
AcDbEntity
  8
TFR-TRI
  6
CONTINUOUS
 62
    30
100
AcDbLine
 10
33.16833877563476
 20
48.1898078918457
 30
0.0
 11
31.04701995849609
 21
50.31113052368164
 31
0.0
  0
LINE
  5
103
330
A
100
AcDbEntity
  8
TFR-TRI
  6
CONTINUOUS
 62
    30
100
AcDbLine
 10
33.43350601196289
 20
30.25497436523437
 30
0.0
 11
31.31218528747558
 21
32.37629318237305
 31
0.0
  0
LINE
  5
104
330
A
100
AcDbEntity
  8
TFR-TRI
  6
CONTINUOUS
 62
    30
100
AcDbLine
 10
34.82863616943359
 20
20.8510570526123
 30
0.0
 11
34.70363616943359
 21
20.8510570526123
 31
0.0
  0
LINE
  5
105
330
A
100
AcDbEntity
  8
TFR-TRI
  6
CONTINUOUS
 62
     2
100
AcDbLine
 10
65.09797668457031
 20
20.11355781555175
 30
0.0
 11
64.98957824707031
 21
20.11355781555175
 31
0.0
  0
LINE
  5
106
330
A
100
AcDbEntity
  8
TFR-TRI
  6
CONTINUOUS
 62
     2
100
AcDbLine
 10
34.39238739013672
 20
45.28128433227538
 30
0.0
 11
34.39238739013672
 21
45.38968658447266
 31
0.0
  0
LINE
  5
107
330
A
100
AcDbEntity
  8
TFR-TRI
  6
CONTINUOUS
 62
     2
100
AcDbLine
 10
35.11113739013671
 20
45.28128433227538
 30
0.0
 11
35.10161972045898
 21
45.28128433227538
 31
0.0
  0
LINE
  5
108
330
A
100
AcDbEntity
  8
TFR-TRI
  6
CONTINUOUS
 62
    30
100
AcDbLine
 10
26.8039321899414
 20
55.98980712890625
 30
0.0
 11
28.92525291442871
 21
58.11112976074219
 31
0.0
  0
LINE
  5
109
330
A
100
AcDbEntity
  8
TFR-TRI
  6
CONTINUOUS
 62
     2
100
AcDbLine
 10
64.98957824707031
 20
21.76139259338378
 30
0.0
 11
64.98957824707031
 21
21.80194473266601
 31
0.0
  0
LINE
  5
10A
330
A
100
AcDbEntity
  8
TFR-TRI
  6
CONTINUOUS
 62
     2
100
AcDbLine
 10
22.62444877624511
 20
44.78378295898437
 30
0.0
 11
23.1549015045166
 21
44.78378295898437
 31
0.0
  0
LINE
  5
10B
330
A
100
AcDbEntity
  8
TFR-TRI
  6
CONTINUOUS
 62
    30
100
AcDbLine
 10
16.39363670349121
 20
21.7260570526123
 30
0.0
 11
16.51863670349121
 21
21.7260570526123
 31
0.0
  0
LINE
  5
10C
330
A
100
AcDbEntity
  8
TFR-TRI
  6
CONTINUOUS
 62
    30
100
AcDbLine
 10
16.11113548278808
 20
28.92288398742675
 30
0.0
 11
16.11113548278808
 21
29.03128433227539
 31
0.0
  0
LINE
  5
10D
330
A
100
AcDbEntity
  8
TFR-TRI
  6
CONTINUOUS
 62
     2
100
AcDbLine
 10
65.09797668457031
 20
20.23855781555175
 30
0.0
 11
65.09797668457031
 21
20.19072151184082
 31
0.0
  0
LINE
  5
10E
330
A
100
AcDbEntity
  8
TFR-TRI
  6
CONTINUOUS
 62
    30
100
AcDbLine
 10
18.0539321899414
 20
29.98980903625488
 30
0.0
 11
20.17525291442871
 21
32.11112976074218
 31
0.0
  0
LINE
  5
10F
330
A
100
AcDbEntity
  8
TFR-TRI
  6
CONTINUOUS
 62
    30
100
AcDbLine
 10
35.11113739013671
 20
29.03128433227539
 30
0.0
 11
35.11113739013671
 21
28.92288398742675
 31
0.0
  0
LINE
  5
110
330
A
100
AcDbEntity
  8
TFR-TRI
  6
CONTINUOUS
 62
     2
100
AcDbLine
 10
65.09797668457031
 20
21.76139259338378
 30
0.0
 11
65.09797668457031
 21
21.71355628967285
 31
0.0
  0
LINE
  5
111
330
A
100
AcDbEntity
  8
TFR-TRI
  6
CONTINUOUS
 62
    30
100
AcDbLine
 10
34.18353652954101
 20
29.13968467712402
 30
0.0
 11
34.22273635864257
 21
29.13968467712402
 31
0.0
  0
LINE
  5
112
330
A
100
AcDbEntity
  8
TFR-TRI
  6
CONTINUOUS
 62
    30
100
AcDbLine
 10
34.22273635864257
 20
29.13968467712402
 30
0.0
 11
34.27569961547851
 21
29.13968467712402
 31
0.0
  0
LINE
  5
113
330
A
100
AcDbEntity
  8
TFR-TRI
  6
CONTINUOUS
 62
     2
100
AcDbLine
 10
64.61457824707031
 20
20.11355781555175
 30
0.0
 11
64.56674194335938
 21
20.11355781555175
 31
0.0
  0
LINE
  5
114
330
A
100
AcDbEntity
  8
TFR-TRI
  6
CONTINUOUS
 62
    30
100
AcDbLine
 10
24.68350410461425
 20
53.65497207641602
 30
0.0
 11
22.56218528747558
 21
55.77629470825195
 31
0.0
  0
LINE
  5
115
330
A
100
AcDbEntity
  8
TFR-TRI
  6
CONTINUOUS
 62
    30
100
AcDbLine
 10
33.43350601196289
 20
53.65497207641602
 30
0.0
 11
31.31218528747558
 21
55.77629470825195
 31
0.0
  0
LINE
  5
116
330
A
100
AcDbEntity
  8
TFR-TRI
  6
CONTINUOUS
 62
     2
100
AcDbLine
 10
64.56674194335938
 20
20.22195625305176
 30
0.0
 11
64.61457824707031
 21
20.22195625305176
 31
0.0
  0
LINE
  5
117
330
A
100
AcDbEntity
  8
TFR-TRI
  6
CONTINUOUS
 62
     2
100
AcDbLine
 10
34.51738739013672
 20
45.28128433227538
 30
0.0
 11
34.46955108642578
 21
45.28128433227538
 31
0.0
  0
LINE
  5
118
330
A
100
AcDbEntity
  8
TFR-TRI
  6
CONTINUOUS
 62
    30
100
AcDbLine
 10
17.78876686096191
 20
40.65497207641601
 30
0.0
 11
19.91008758544921
 21
42.77629470825195
 31
0.0
  0
LINE
  5
119
330
A
100
AcDbEntity
  8
TFR-TRI
  6
CONTINUOUS
 62
    30
100
AcDbLine
 10
34.46329879760742
 20
28.92288398742675
 30
0.0
 11
34.42274856567383
 21
28.92288398742675
 31
0.0
  0
LINE
  5
11A
330
A
100
AcDbEntity
  8
TFR-TRI
  6
CONTINUOUS
 62
    30
100
AcDbLine
 10
16.94657325744628
 20
29.13968467712402
 30
0.0
 11
16.90167236328125
 21
29.13968467712402
 31
0.0
  0
LINE
  5
11B
330
A
100
AcDbEntity
  8
TFR-TRI
  6
CONTINUOUS
 62
    30
100
AcDbLine
 10
35.10161972045898
 20
28.92288398742675
 30
0.0
 11
35.07452392578125
 21
28.92288398742675
 31
0.0
  0
LINE
  5
11C
330
A
100
AcDbEntity
  8
TFR-TRI
  6
CONTINUOUS
 62
    30
100
AcDbLine
 10
34.18353652954101
 20
28.93342018127441
 30
0.0
 11
34.18353652954101
 21
28.92288398742675
 31
0.0
  0
LINE
  5
11D
330
A
100
AcDbEntity
  8
TFR-TRI
  6
CONTINUOUS
 62
    30
100
AcDbLine
 10
48.63117599487305
 20
21.71355628967285
 30
0.0
 11
48.63117599487305
 21
21.76139259338378
 31
0.0
  0
LINE
  5
11E
330
A
100
AcDbEntity
  8
TFR-TRI
  6
CONTINUOUS
 62
    30
100
AcDbLine
 10
48.84797668457031
 20
21.75312042236328
 30
0.0
 11
48.84797668457031
 21
21.70015716552734
 31
0.0
  0
LINE
  5
11F
330
A
100
AcDbEntity
  8
TFR-TRI
  6
CONTINUOUS
 62
    30
100
AcDbLine
 10
48.73957443237305
 20
21.76139259338378
 30
0.0
 11
48.73957443237305
 21
21.71355628967285
 31
0.0
  0
LINE
  5
120
330
A
100
AcDbEntity
  8
TFR-TRI
  6
CONTINUOUS
 62
    30
100
AcDbLine
 10
24.41834068298339
 20
40.38980865478515
 30
0.0
 11
22.29701995849609
 21
42.51112747192382
 31
0.0
  0
LINE
  5
121
330
A
100
AcDbEntity
  8
TFR-TRI
  6
CONTINUOUS
 62
     2
100
AcDbLine
 10
34.39238739013672
 20
45.28128433227538
 30
0.0
 11
34.38433837890625
 21
45.28128433227538
 31
0.0
  0
LINE
  5
122
330
A
100
AcDbEntity
  8
TFR-TRI
  6
CONTINUOUS
 62
    30
100
AcDbLine
 10
79.09797668457031
 20
21.70015716552734
 30
0.0
 11
79.09797668457031
 21
20.97695732116699
 31
0.0
  0
LINE
  5
123
330
A
100
AcDbEntity
  8
TFR-TRI
  6
CONTINUOUS
 62
    30
100
AcDbLine
 10
24.68350410461425
 20
56.25497436523438
 30
0.0
 11
22.56218528747558
 21
58.37629318237304
 31
0.0
  0
LINE
  5
124
330
A
100
AcDbEntity
  8
TFR-TRI
  6
CONTINUOUS
 62
    30
100
AcDbLine
 10
48.73957443237305
 20
21.71355628967285
 30
0.0
 11
48.63117599487305
 21
21.71355628967285
 31
0.0
  0
LINE
  5
125
330
A
100
AcDbEntity
  8
TFR-TRI
  6
CONTINUOUS
 62
     2
100
AcDbLine
 10
35.07452392578125
 20
45.38968658447266
 30
0.0
 11
35.10161972045898
 21
45.38968658447266
 31
0.0
  0
LINE
  5
126
330
A
100
AcDbEntity
  8
TFR-TRI
  6
CONTINUOUS
 62
    30
100
AcDbLine
 10
34.38613510131836
 20
28.92288398742675
 30
0.0
 11
34.38613510131836
 21
29.03128433227539
 31
0.0
  0
LINE
  5
127
330
A
100
AcDbEntity
  8
TFR-TRI
  6
CONTINUOUS
 62
    30
100
AcDbLine
 10
16.11113548278808
 20
29.03128433227539
 30
0.0
 11
16.12065124511718
 21
29.03128433227539
 31
0.0
  0
LINE
  5
128
330
A
100
AcDbEntity
  8
TFR-TRI
  6
CONTINUOUS
 62
    30
100
AcDbLine
 10
24.68350410461425
 20
30.25497436523437
 30
0.0
 11
22.56218528747558
 21
32.37629318237305
 31
0.0
  0
LINE
  5
129
330
A
100
AcDbEntity
  8
TFR-TRI
  6
CONTINUOUS
 62
    30
100
AcDbLine
 10
26.8039321899414
 20
35.1898078918457
 30
0.0
 11
28.92525291442871
 21
37.31113052368164
 31
0.0
  0
LINE
  5
12A
330
A
100
AcDbEntity
  8
TFR-TRI
  6
CONTINUOUS
 62
     2
100
AcDbLine
 10
34.51738739013672
 20
45.38968658447266
 30
0.0
 11
34.51738739013672
 21
45.28128433227538
 31
0.0
  0
LINE
  5
12B
330
A
100
AcDbEntity
  8
TFR-TRI
  6
CONTINUOUS
 62
    30
100
AcDbLine
 10
16.99953651428222
 20
29.13968467712402
 30
0.0
 11
16.94657325744628
 21
29.13968467712402
 31
0.0
  0
LINE
  5
12C
330
A
100
AcDbEntity
  8
TFR-TRI
  6
CONTINUOUS
 62
    30
100
AcDbLine
 10
26.8039321899414
 20
45.5898094177246
 30
0.0
 11
28.92525291442871
 21
47.71112823486328
 31
0.0
  0
LINE
  5
12D
330
A
100
AcDbEntity
  8
TFR-TRI
  6
CONTINUOUS
 62
     2
100
AcDbLine
 10
34.36113357543945
 20
45.38968658447266
 30
0.0
 11
34.38433837890625
 21
45.38968658447266
 31
0.0
  0
LINE
  5
12E
330
A
100
AcDbEntity
  8
TFR-TRI
  6
CONTINUOUS
 62
    30
100
AcDbLine
 10
16.79952430725097
 20
29.03128433227539
 30
0.0
 11
16.82662010192871
 21
29.03128433227539
 31
0.0
  0
LINE
  5
12F
330
A
100
AcDbEntity
  8
TFR-TRI
  6
CONTINUOUS
 62
     2
100
AcDbLine
 10
16.18830108642578
 20
45.38968658447266
 30
0.0
 11
16.23613548278808
 21
45.38968658447266
 31
0.0
  0
LINE
  5
130
330
A
100
AcDbEntity
  8
TFR-TRI
  6
CONTINUOUS
 62
    30
100
AcDbLine
 10
26.8039321899414
 20
29.98980903625488
 30
0.0
 11
28.92525291442871
 21
32.11112976074218
 31
0.0
  0
LINE
  5
131
330
A
100
AcDbEntity
  8
TFR-TRI
  6
CONTINUOUS
 62
    30
100
AcDbLine
 10
34.39565277099609
 20
29.03128433227539
 30
0.0
 11
34.42274856567383
 21
29.03128433227539
 31
0.0
  0
LINE
  5
132
330
A
100
AcDbEntity
  8
TFR-TRI
  6
CONTINUOUS
 62
    30
100
AcDbLine
 10
17.78876686096191
 20
53.65497207641602
 30
0.0
 11
19.91008758544921
 21
55.77629470825195
 31
0.0
  0
LINE
  5
133
330
A
100
AcDbEntity
  8
TFR-TRI
  6
CONTINUOUS
 62
    30
100
AcDbLine
 10
24.68350410461425
 20
32.85497283935546
 30
0.0
 11
22.56218528747558
 21
34.9762954711914
 31
0.0
  0
LINE
  5
134
330
A
100
AcDbEntity
  8
TFR-TRI
  6
CONTINUOUS
 62
     2
100
AcDbLine
 10
16.83793258666992
 20
45.38968658447266
 30
0.0
 11
16.86113739013672
 21
45.38968658447266
 31
0.0
  0
LINE
  5
135
330
A
100
AcDbEntity
  8
TFR-TRI
  6
CONTINUOUS
 62
    30
100
AcDbLine
 10
34.18353652954101
 20
21.82802200317382
 30
0.0
 11
34.18353652954101
 21
21.79802131652832
 31
0.0
  0
LINE
  5
136
330
A
100
AcDbEntity
  8
TFR-TRI
  6
CONTINUOUS
 62
     2
100
AcDbLine
 10
34.39238739013672
 20
45.38968658447266
 30
0.0
 11
34.40190124511719
 21
45.38968658447266
 31
0.0
  0
LINE
  5
137
330
A
100
AcDbEntity
  8
TFR-TRI
  6
CONTINUOUS
 62
    30
100
AcDbLine
 10
18.0539321899414
 20
45.5898094177246
 30
0.0
 11
20.17525291442871
 21
47.71112823486328
 31
0.0
  0
LINE
  5
138
330
A
100
AcDbEntity
  8
TFR-TRI
  6
CONTINUOUS
 62
    30
100
AcDbLine
 10
35.10161972045898
 20
29.03128433227539
 30
0.0
 11
35.11113739013671
 21
29.03128433227539
 31
0.0
  0
LINE
  5
139
330
A
100
AcDbEntity
  8
TFR-TRI
  6
CONTINUOUS
 62
    30
100
AcDbLine
 10
79.09797668457031
 20
20.84909248352051
 30
0.0
 11
79.09797668457031
 21
20.83855628967285
 31
0.0
  0
LINE
  5
13A
330
A
100
AcDbEntity
  8
TFR-TRI
  6
CONTINUOUS
 62
    30
100
AcDbLine
 10
33.16833877563476
 20
45.5898094177246
 30
0.0
 11
31.04701995849609
 21
47.71112823486328
 31
0.0
  0
LINE
  5
13B
330
A
100
AcDbEntity
  8
TFR-TRI
  6
CONTINUOUS
 62
    30
100
AcDbLine
 10
34.82863616943359
 20
21.4760570526123
 30
0.0
 11
34.70363616943359
 21
21.4760570526123
 31
0.0
  0
LINE
  5
13C
330
A
100
AcDbEntity
  8
TFR-TRI
  6
CONTINUOUS
 62
     2
100
AcDbLine
 10
64.98957824707031
 20
20.19072151184082
 30
0.0
 11
64.98957824707031
 21
20.23855781555175
 31
0.0
  0
LINE
  5
13D
330
A
100
AcDbEntity
  8
TFR-TRI
  6
CONTINUOUS
 62
     2
100
AcDbLine
 10
28.5048542022705
 20
45.22128295898437
 30
0.0
 11
28.97872924804687
 21
45.22128295898437
 31
0.0
  0
LINE
  5
13E
330
A
100
AcDbEntity
  8
TFR-TRI
  6
CONTINUOUS
 62
    30
100
AcDbLine
 10
33.43350601196289
 20
40.65497207641601
 30
0.0
 11
31.31218528747558
 21
42.77629470825195
 31
0.0
  0
LINE
  5
13F
330
A
100
AcDbEntity
  8
TFR-TRI
  6
CONTINUOUS
 62
     2
100
AcDbLine
 10
64.98957824707031
 20
20.23855781555175
 30
0.0
 11
65.09797668457031
 21
20.23855781555175
 31
0.0
  0
LINE
  5
140
330
A
100
AcDbEntity
  8
TFR-TRI
  6
CONTINUOUS
 62
    30
100
AcDbLine
 10
34.98613739013672
 20
21.83855628967285
 30
0.0
 11
34.51113510131836
 21
21.83855628967285
 31
0.0
  0
LINE
  5
141
330
A
100
AcDbEntity
  8
TFR-TRI
  6
CONTINUOUS
 62
     2
100
AcDbLine
 10
65.09797668457031
 20
21.83855628967285
 30
0.0
 11
65.09797668457031
 21
21.82904243469238
 31
0.0
  0
LINE
  5
142
330
A
100
AcDbEntity
  8
TFR-TRI
  6
CONTINUOUS
 62
    30
100
AcDbLine
 10
33.16833877563476
 20
32.58980941772461
 30
0.0
 11
31.04701995849609
 21
34.71112823486328
 31
0.0
  0
LINE
  5
143
330
A
100
AcDbEntity
  8
TFR-TRI
  6
CONTINUOUS
 62
    30
100
AcDbLine
 10
16.23613548278808
 20
21.83855628967285
 30
0.0
 11
16.71113586425781
 21
21.83855628967285
 31
0.0
  0
LINE
  5
144
330
A
100
AcDbEntity
  8
TFR-TRI
  6
CONTINUOUS
 62
     2
100
AcDbLine
 10
64.92957305908203
 20
20.22195625305176
 30
0.0
 11
64.61457824707031
 21
20.22195625305176
 31
0.0
  0
LINE
  5
145
330
A
100
AcDbEntity
  8
TFR-TRI
  6
CONTINUOUS
 62
    30
100
AcDbLine
 10
34.42274856567383
 20
28.92288398742675
 30
0.0
 11
34.39565277099609
 21
28.92288398742675
 31
0.0
  0
LINE
  5
146
330
A
100
AcDbEntity
  8
TFR-TRI
  6
CONTINUOUS
 62
    30
100
AcDbLine
 10
34.18353652954101
 20
29.03128433227539
 30
0.0
 11
34.38613510131836
 21
29.03128433227539
 31
0.0
  0
LINE
  5
147
330
A
100
AcDbEntity
  8
TFR-TRI
  6
CONTINUOUS
 62
    30
100
AcDbLine
 10
34.22273635864257
 20
59.38968658447265
 30
0.0
 11
34.27569961547851
 21
59.38968658447265
 31
0.0
  0
LINE
  5
148
330
A
100
AcDbEntity
  8
TFR-TRI
  6
CONTINUOUS
 62
    30
100
AcDbLine
 10
18.0539321899414
 20
32.58980941772461
 30
0.0
 11
20.17525291442871
 21
34.71112823486328
 31
0.0
  0
LINE
  5
149
330
A
100
AcDbEntity
  8
TFR-TRI
  6
CONTINUOUS
 62
    30
100
AcDbLine
 10
16.90167236328125
 20
59.38968658447265
 30
0.0
 11
16.87167167663574
 21
59.38968658447265
 31
0.0
  0
LINE
  5
14A
330
A
100
AcDbEntity
  8
TFR-TRI
  6
CONTINUOUS
 62
    30
100
AcDbLine
 10
48.84797668457031
 20
21.83855628967285
 30
0.0
 11
64.98918914794922
 21
21.83855628967285
 31
0.0
  0
LINE
  5
14B
330
A
100
AcDbEntity
  8
TFR-TRI
  6
CONTINUOUS
 62
    30
100
AcDbLine
 10
34.18353652954101
 20
29.06128501892089
 30
0.0
 11
34.18353652954101
 21
29.00832176208496
 31
0.0
  0
LINE
  5
14C
330
A
100
AcDbEntity
  8
TFR-TRI
  6
CONTINUOUS
 62
    30
100
AcDbLine
 10
17.03873634338378
 20
28.92288398742675
 30
0.0
 11
16.83613586425781
 21
28.92288398742675
 31
0.0
  0
LINE
  5
14D
330
A
100
AcDbEntity
  8
TFR-TRI
  6
CONTINUOUS
 62
    30
100
AcDbLine
 10
34.18353652954101
 20
21.70015716552734
 30
0.0
 11
34.38613510131836
 21
21.70015716552734
 31
0.0
  0
LINE
  5
14E
330
A
100
AcDbEntity
  8
TFR-TRI
  6
CONTINUOUS
 62
    30
100
AcDbLine
 10
26.8039321899414
 20
32.58980941772461
 30
0.0
 11
28.92525291442871
 21
34.71112823486328
 31
0.0
  0
LINE
  5
14F
330
A
100
AcDbEntity
  8
TFR-TRI
  6
CONTINUOUS
 62
    30
100
AcDbLine
 10
48.63117599487305
 20
20.15016937255859
 30
0.0
 11
48.63117599487305
 21
20.19072151184082
 31
0.0
  0
LINE
  5
150
330
A
100
AcDbEntity
  8
TFR-TRI
  6
CONTINUOUS
 62
    30
100
AcDbLine
 10
35.07452392578125
 20
28.92288398742675
 30
0.0
 11
35.03396987915039
 21
28.92288398742675
 31
0.0
  0
LINE
  5
151
330
A
100
AcDbEntity
  8
TFR-TRI
  6
CONTINUOUS
 62
    30
100
AcDbLine
 10
16.18830108642578
 20
28.92288398742675
 30
0.0
 11
16.14774703979492
 21
28.92288398742675
 31
0.0
  0
LINE
  5
152
330
A
100
AcDbEntity
  8
TFR-TRI
  6
CONTINUOUS
 62
    30
100
AcDbLine
 10
16.71113586425781
 20
29.03128433227539
 30
0.0
 11
16.75897216796875
 21
29.03128433227539
 31
0.0
  0
LINE
  5
153
330
A
100
AcDbEntity
  8
TFR-TRI
  6
CONTINUOUS
 62
    30
100
AcDbLine
 10
48.73957443237305
 20
21.83855628967285
 30
0.0
 11
48.73957443237305
 21
21.82904243469238
 31
0.0
  0
LINE
  5
154
330
A
100
AcDbEntity
  8
TFR-TRI
  6
CONTINUOUS
 62
     2
100
AcDbLine
 10
34.46955108642578
 20
45.28128433227538
 30
0.0
 11
34.42899703979492
 21
45.28128433227538
 31
0.0
  0
LINE
  5
155
330
A
100
AcDbEntity
  8
TFR-TRI
  6
CONTINUOUS
 62
    30
100
AcDbLine
 10
79.09797668457031
 20
21.75312042236328
 30
0.0
 11
79.09797668457031
 21
21.70015716552734
 31
0.0
  0
LINE
  5
156
330
A
100
AcDbEntity
  8
TFR-TRI
  6
CONTINUOUS
 62
     2
100
AcDbLine
 10
34.46955108642578
 20
45.38968658447266
 30
0.0
 11
34.51738739013672
 21
45.38968658447266
 31
0.0
  0
LINE
  5
157
330
A
100
AcDbEntity
  8
TFR-TRI
  6
CONTINUOUS
 62
    30
100
AcDbLine
 10
48.73957443237305
 20
20.15016937255859
 30
0.0
 11
48.73957443237305
 21
20.12307167053222
 31
0.0
  0
LINE
  5
158
330
A
100
AcDbEntity
  8
TFR-TRI
  6
CONTINUOUS
 62
    30
100
AcDbLine
 10
24.41834068298339
 20
37.78981018066406
 30
0.0
 11
22.29701995849609
 21
39.91112899780273
 31
0.0
  0
LINE
  5
159
330
A
100
AcDbEntity
  8
TFR-TRI
  6
CONTINUOUS
 62
    30
100
AcDbLine
 10
24.41834068298339
 20
53.38980865478515
 30
0.0
 11
22.29701995849609
 21
55.51112747192383
 31
0.0
  0
LINE
  5
15A
330
A
100
AcDbEntity
  8
TFR-TRI
  6
CONTINUOUS
 62
    30
100
AcDbLine
 10
34.38613510131836
 20
29.03128433227539
 30
0.0
 11
34.39565277099609
 21
29.03128433227539
 31
0.0
  0
LINE
  5
15B
330
A
100
AcDbEntity
  8
TFR-TRI
  6
CONTINUOUS
 62
     2
100
AcDbLine
 10
16.82988548278808
 20
45.28128433227538
 30
0.0
 11
16.82037162780761
 21
45.28128433227538
 31
0.0
  0
LINE
  5
15C
330
A
100
AcDbEntity
  8
TFR-TRI
  6
CONTINUOUS
 62
    30
100
AcDbLine
 10
26.53876686096191
 20
51.05497360229492
 30
0.0
 11
28.66008758544921
 21
53.17629241943359
 31
0.0
  0
LINE
  5
15D
330
A
100
AcDbEntity
  8
TFR-TRI
  6
CONTINUOUS
 62
    30
100
AcDbLine
 10
48.84797668457031
 20
21.82802200317382
 30
0.0
 11
48.84797668457031
 21
21.79802131652832
 31
0.0
  0
LINE
  5
15E
330
A
100
AcDbEntity
  8
TFR-TRI
  6
CONTINUOUS
 62
    30
100
AcDbLine
 10
16.94657325744628
 20
59.38968658447265
 30
0.0
 11
16.90167236328125
 21
59.38968658447265
 31
0.0
  0
LINE
  5
15F
330
A
100
AcDbEntity
  8
TFR-TRI
  6
CONTINUOUS
 62
    30
100
AcDbLine
 10
35.03396987915039
 20
29.03128433227539
 30
0.0
 11
35.07452392578125
 21
29.03128433227539
 31
0.0
  0
LINE
  5
160
330
A
100
AcDbEntity
  8
TFR-TRI
  6
CONTINUOUS
 62
    30
100
AcDbLine
 10
26.53876686096191
 20
48.45497512817383
 30
0.0
 11
28.66008758544921
 21
50.5762939453125
 31
0.0
  0
LINE
  5
161
330
A
100
AcDbEntity
  8
TFR-TRI
  6
CONTINUOUS
 62
     2
100
AcDbLine
 10
16.14774703979492
 20
45.28128433227538
 30
0.0
 11
16.12065124511718
 21
45.28128433227538
 31
0.0
  0
LINE
  5
162
330
A
100
AcDbEntity
  8
TFR-TRI
  6
CONTINUOUS
 62
    30
100
AcDbLine
 10
18.0539321899414
 20
37.78981018066406
 30
0.0
 11
20.17525291442871
 21
39.91112899780273
 31
0.0
  0
LINE
  5
163
330
A
100
AcDbEntity
  8
TFR-TRI
  6
CONTINUOUS
 62
     2
100
AcDbLine
 10
35.10161972045898
 20
45.28128433227538
 30
0.0
 11
35.07452392578125
 21
45.28128433227538
 31
0.0
  0
LINE
  5
164
330
A
100
AcDbEntity
  8
TFR-TRI
  6
CONTINUOUS
 62
    30
100
AcDbLine
 10
16.23613548278808
 20
29.03128433227539
 30
0.0
 11
16.71113586425781
 21
29.03128433227539
 31
0.0
  0
LINE
  5
165
330
A
100
AcDbEntity
  8
TFR-TRI
  6
CONTINUOUS
 62
    30
100
AcDbLine
 10
34.38613510131836
 20
21.70015716552734
 30
0.0
 11
34.38613510131836
 21
21.71355628967285
 31
0.0
  0
LINE
  5
166
330
A
100
AcDbEntity
  8
TFR-TRI
  6
CONTINUOUS
 62
    30
100
AcDbLine
 10
17.03873634338378
 20
21.79802131652832
 30
0.0
 11
17.03873634338378
 21
21.75312042236328
 31
0.0
  0
LINE
  5
167
330
A
100
AcDbEntity
  8
TFR-TRI
  6
CONTINUOUS
 62
    30
100
AcDbLine
 10
33.16833877563476
 20
35.1898078918457
 30
0.0
 11
31.04701995849609
 21
37.31113052368164
 31
0.0
  0
LINE
  5
168
330
A
100
AcDbEntity
  8
TFR-TRI
  6
CONTINUOUS
 62
    30
100
AcDbLine
 10
34.98613739013672
 20
29.03128433227539
 30
0.0
 11
35.03396987915039
 21
29.03128433227539
 31
0.0
  0
LINE
  5
169
330
A
100
AcDbEntity
  8
TFR-TRI
  6
CONTINUOUS
 62
     2
100
AcDbLine
 10
16.79327392578125
 20
45.38968658447266
 30
0.0
 11
16.82037162780761
 21
45.38968658447266
 31
0.0
  0
LINE
  5
16A
330
A
100
AcDbEntity
  8
TFR-TRI
  6
CONTINUOUS
 62
    30
100
AcDbLine
 10
17.78876686096191
 20
51.05497360229492
 30
0.0
 11
19.91008758544921
 21
53.17629241943359
 31
0.0
  0
LINE
  5
16B
330
A
100
AcDbEntity
  8
TFR-TRI
  6
CONTINUOUS
 62
    30
100
AcDbLine
 10
33.16833877563476
 20
42.98980712890625
 30
0.0
 11
31.04701995849609
 21
45.11112976074218
 31
0.0
  0
LINE
  5
16C
330
A
100
AcDbEntity
  8
TFR-TRI
  6
CONTINUOUS
 62
     2
100
AcDbLine
 10
31.0617618560791
 20
45.38968658447266
 30
0.0
 11
31.29710388183593
 21
45.38968658447266
 31
0.0
  0
LINE
  5
16D
330
A
100
AcDbEntity
  8
TFR-TRI
  6
CONTINUOUS
 62
    30
100
AcDbLine
 10
24.68350410461425
 20
35.45497512817382
 30
0.0
 11
22.56218528747558
 21
37.5762939453125
 31
0.0
  0
LINE
  5
16E
330
A
100
AcDbEntity
  8
TFR-TRI
  6
CONTINUOUS
 62
    30
100
AcDbLine
 10
34.82863616943359
 20
20.4760570526123
 30
0.0
 11
34.70363616943359
 21
20.4760570526123
 31
0.0
  0
LINE
  5
16F
330
A
100
AcDbEntity
  8
TFR-TRI
  6
CONTINUOUS
 62
     2
100
AcDbLine
 10
34.98613739013672
 20
45.38968658447266
 30
0.0
 11
35.03396987915039
 21
45.38968658447266
 31
0.0
  0
LINE
  5
170
330
A
100
AcDbEntity
  8
TFR-TRI
  6
CONTINUOUS
 62
    30
100
AcDbLine
 10
18.0539321899414
 20
42.98980712890625
 30
0.0
 11
20.17525291442871
 21
45.11112976074218
 31
0.0
  0
LINE
  5
171
330
A
100
AcDbEntity
  8
TFR-TRI
  6
CONTINUOUS
 62
     2
100
AcDbLine
 10
64.98957824707031
 20
20.11355781555175
 30
0.0
 11
64.98957824707031
 21
20.12307167053222
 31
0.0
  0
LINE
  5
172
330
A
100
AcDbEntity
  8
TFR-TRI
  6
CONTINUOUS
 62
     2
100
AcDbLine
 10
16.82988548278808
 20
45.38968658447266
 30
0.0
 11
16.82988548278808
 21
45.28128433227538
 31
0.0
  0
LINE
  5
173
330
A
100
AcDbEntity
  8
TFR-TRI
  6
CONTINUOUS
 62
    30
100
AcDbLine
 10
24.41834068298339
 20
29.98980903625488
 30
0.0
 11
22.29701995849609
 21
32.11112976074218
 31
0.0
  0
LINE
  5
174
330
A
100
AcDbEntity
  8
TFR-TRI
  6
CONTINUOUS
 62
    30
100
AcDbLine
 10
16.23613548278808
 20
28.92288398742675
 30
0.0
 11
16.71113586425781
 21
28.92288398742675
 31
0.0
  0
LINE
  5
175
330
A
100
AcDbEntity
  8
TFR-TRI
  6
CONTINUOUS
 62
     2
100
AcDbLine
 10
35.10161972045898
 20
45.38968658447266
 30
0.0
 11
35.11113739013671
 21
45.38968658447266
 31
0.0
  0
LINE
  5
176
330
A
100
AcDbEntity
  8
TFR-TRI
  6
CONTINUOUS
 62
     2
100
AcDbLine
 10
64.98957824707031
 20
21.80194473266601
 30
0.0
 11
64.98957824707031
 21
21.82904243469238
 31
0.0
  0
LINE
  5
177
330
A
100
AcDbEntity
  8
TFR-TRI
  6
CONTINUOUS
 62
    30
100
AcDbLine
 10
26.8039321899414
 20
42.98980712890625
 30
0.0
 11
28.92525291442871
 21
45.11112976074218
 31
0.0
  0
LINE
  5
178
330
A
100
AcDbEntity
  8
TFR-TRI
  6
CONTINUOUS
 62
    30
100
AcDbLine
 10
33.43350601196289
 20
38.05497360229492
 30
0.0
 11
31.31218528747558
 21
40.17629241943359
 31
0.0
  0
LINE
  5
179
330
A
100
AcDbEntity
  8
TFR-TRI
  6
CONTINUOUS
 62
     2
100
AcDbLine
 10
65.09797668457031
 20
20.19072151184082
 30
0.0
 11
65.09797668457031
 21
20.15016937255859
 31
0.0
  0
LINE
  5
17A
330
A
100
AcDbEntity
  8
TFR-TRI
  6
CONTINUOUS
 62
    30
100
AcDbLine
 10
17.03873634338378
 20
21.83855628967285
 30
0.0
 11
34.18353652954101
 21
21.83855628967285
 31
0.0
  0
LINE
  5
17B
330
A
100
AcDbEntity
  8
TFR-TRI
  6
CONTINUOUS
 62
    30
100
AcDbLine
 10
34.18353652954101
 20
29.00832176208496
 30
0.0
 11
34.18353652954101
 21
28.96342086791992
 31
0.0
  0
LINE
  5
17C
330
A
100
AcDbEntity
  8
TFR-TRI
  6
CONTINUOUS
 62
    30
100
AcDbLine
 10
17.03873634338378
 20
21.83855628967285
 30
0.0
 11
16.99953651428222
 21
21.83855628967285
 31
0.0
  0
LINE
  5
17D
330
A
100
AcDbEntity
  8
TFR-TRI
  6
CONTINUOUS
 62
     2
100
AcDbLine
 10
16.11113548278808
 20
45.38968658447266
 30
0.0
 11
16.12065124511718
 21
45.38968658447266
 31
0.0
  0
LINE
  5
17E
330
A
100
AcDbEntity
  8
TFR-TRI
  6
CONTINUOUS
 62
    30
100
AcDbLine
 10
16.83613586425781
 20
29.03128433227539
 30
0.0
 11
16.83613586425781
 21
28.92288398742675
 31
0.0
  0
LINE
  5
17F
330
A
100
AcDbEntity
  8
TFR-TRI
  6
CONTINUOUS
 62
    30
100
AcDbLine
 10
34.22273635864257
 20
29.13968467712402
 30
0.0
 11
34.22273635864257
 21
59.38968658447265
 31
0.0
  0
LINE
  5
180
330
A
100
AcDbEntity
  8
TFR-TRI
  6
CONTINUOUS
 62
    30
100
AcDbLine
 10
34.27569961547851
 20
29.13968467712402
 30
0.0
 11
34.32059860229492
 21
29.13968467712402
 31
0.0
  0
LINE
  5
181
330
A
100
AcDbEntity
  8
TFR-TRI
  6
CONTINUOUS
 62
     2
100
AcDbLine
 10
19.31768226623535
 20
44.78378295898437
 30
0.0
 11
19.84813690185546
 21
44.78378295898437
 31
0.0
  0
LINE
  5
182
330
A
100
AcDbEntity
  8
TFR-TRI
  6
CONTINUOUS
 62
    30
100
AcDbLine
 10
24.68350410461425
 20
51.05497360229492
 30
0.0
 11
22.56218528747558
 21
53.17629241943359
 31
0.0
  0
LINE
  5
183
330
A
100
AcDbEntity
  8
TFR-TRI
  6
CONTINUOUS
 62
     2
100
AcDbLine
 10
64.56674194335938
 20
20.11355781555175
 30
0.0
 11
64.52618408203125
 21
20.11355781555175
 31
0.0
  0
LINE
  5
184
330
A
100
AcDbEntity
  8
TFR-TRI
  6
CONTINUOUS
 62
    30
100
AcDbLine
 10
17.78876686096191
 20
35.45497512817382
 30
0.0
 11
19.91008758544921
 21
37.5762939453125
 31
0.0
  0
LINE
  5
185
330
A
100
AcDbEntity
  8
TFR-TRI
  6
CONTINUOUS
 62
    30
100
AcDbLine
 10
34.36113739013672
 20
29.13968467712402
 30
0.0
 11
34.36113739013672
 21
59.38968658447265
 31
0.0
  0
LINE
  5
186
330
A
100
AcDbEntity
  8
TFR-TRI
  6
CONTINUOUS
 62
    30
100
AcDbLine
 10
33.16833877563476
 20
55.98980712890625
 30
0.0
 11
31.04701995849609
 21
58.11112976074219
 31
0.0
  0
LINE
  5
187
330
A
100
AcDbEntity
  8
TFR-TRI
  6
CONTINUOUS
 62
    30
100
AcDbLine
 10
17.78876686096191
 20
30.25497436523437
 30
0.0
 11
19.91008758544921
 21
32.37629318237305
 31
0.0
  0
LINE
  5
188
330
A
100
AcDbEntity
  8
TFR-TRI
  6
CONTINUOUS
 62
     2
100
AcDbLine
 10
64.48957824707031
 20
20.11355781555175
 30
0.0
 11
64.48957824707031
 21
20.22195625305176
 31
0.0
  0
LINE
  5
189
330
A
100
AcDbEntity
  8
TFR-TRI
  6
CONTINUOUS
 62
     2
100
AcDbLine
 10
16.70488548278808
 20
45.28128433227538
 30
0.0
 11
16.70488548278808
 21
45.38968658447266
 31
0.0
  0
LINE
  5
18A
330
A
100
AcDbEntity
  8
TFR-TRI
  6
CONTINUOUS
 62
    30
100
AcDbLine
 10
17.03873634338378
 20
29.13968467712402
 30
0.0
 11
16.99953651428222
 21
29.13968467712402
 31
0.0
  0
LINE
  5
18B
330
A
100
AcDbEntity
  8
TFR-TRI
  6
CONTINUOUS
 62
     2
100
AcDbLine
 10
16.75272178649902
 20
45.28128433227538
 30
0.0
 11
16.70488548278808
 21
45.28128433227538
 31
0.0
  0
LINE
  5
18C
330
A
100
AcDbEntity
  8
TFR-TRI
  6
CONTINUOUS
 62
    30
100
AcDbLine
 10
16.75897216796875
 20
28.92288398742675
 30
0.0
 11
16.71113586425781
 21
28.92288398742675
 31
0.0
  0
LINE
  5
18D
330
A
100
AcDbEntity
  8
TFR-TRI
  6
CONTINUOUS
 62
    30
100
AcDbLine
 10
16.90167236328125
 20
29.13968467712402
 30
0.0
 11
16.87167167663574
 21
29.13968467712402
 31
0.0
  0
LINE
  5
18E
330
A
100
AcDbEntity
  8
TFR-TRI
  6
CONTINUOUS
 62
     2
100
AcDbLine
 10
35.11113739013671
 20
45.38968658447266
 30
0.0
 11
35.11113739013671
 21
45.28128433227538
 31
0.0
  0
LINE
  5
18F
330
A
100
AcDbEntity
  8
TFR-TRI
  6
CONTINUOUS
 62
    30
100
AcDbLine
 10
48.63117599487305
 20
21.76139259338378
 30
0.0
 11
48.63117599487305
 21
21.80194473266601
 31
0.0
  0
LINE
  5
190
330
A
100
AcDbEntity
  8
TFR-TRI
  6
CONTINUOUS
 62
    30
100
AcDbLine
 10
17.03873634338378
 20
21.70015716552734
 30
0.0
 11
16.83613586425781
 21
21.70015716552734
 31
0.0
  0
LINE
  5
191
330
A
100
AcDbEntity
  8
TFR-TRI
  6
CONTINUOUS
 62
    30
100
AcDbLine
 10
79.09797668457031
 20
21.83855628967285
 30
0.0
 11
79.09797668457031
 21
21.82802200317382
 31
0.0
  0
LINE
  5
192
330
A
100
AcDbEntity
  8
TFR-TRI
  6
CONTINUOUS
 62
    30
100
AcDbLine
 10
48.73957443237305
 20
21.71355628967285
 30
0.0
 11
48.73957443237305
 21
20.23855781555175
 31
0.0
  0
LINE
  5
193
330
A
100
AcDbEntity
  8
TFR-TRI
  6
CONTINUOUS
 62
    30
100
AcDbLine
 10
24.41834068298339
 20
32.58980941772461
 30
0.0
 11
22.29701995849609
 21
34.71112823486328
 31
0.0
  0
ARC
  5
194
330
A
100
AcDbEntity
  8
TFR-TRI
  6
CONTINUOUS
 62
    30
100
AcDbCircle
 10
28.79266929626465
 20
55.64371109008789
 30
0.0
 40
0.1875
100
AcDbArc
 50
315.0
 51
134.9999999999999
  0
ARC
  5
195
330
A
100
AcDbEntity
  8
TFR-TRI
  6
CONTINUOUS
 62
    30
100
AcDbCircle
 10
22.42960166931152
 20
58.24371337890625
 30
0.0
 40
0.1875
100
AcDbArc
 50
45.0
 51
225.0
  0
ARC
  5
196
330
A
100
AcDbEntity
  8
TFR-TRI
  6
CONTINUOUS
 62
    30
100
AcDbCircle
 10
28.79266929626465
 20
53.0437126159668
 30
0.0
 40
0.1875
100
AcDbArc
 50
315.0
 51
134.9999999999999
  0
ARC
  5
197
330
A
100
AcDbEntity
  8
TFR-TRI
  6
CONTINUOUS
 62
    30
100
AcDbCircle
 10
26.67135047912597
 20
45.72239303588867
 30
0.0
 40
0.1875
100
AcDbArc
 50
135.0
 51
315.0
  0
ARC
  5
198
330
A
100
AcDbEntity
  8
TFR-TRI
  6
CONTINUOUS
 62
    30
100
AcDbCircle
 10
33.30092239379883
 20
43.12239074707031
 30
0.0
 40
0.1875
100
AcDbArc
 50
225.0
 51
45.0
  0
ARC
  5
199
330
A
100
AcDbEntity
  8
TFR-TRI
  6
CONTINUOUS
 62
    30
100
AcDbCircle
 10
26.67135047912597
 20
30.12239074707031
 30
0.0
 40
0.1875
100
AcDbArc
 50
135.0
 51
315.0
  0
ARC
  5
19A
330
A
100
AcDbEntity
  8
TFR-TRI
  6
CONTINUOUS
 62
    30
100
AcDbCircle
 10
20.04266929626465
 20
55.64371109008789
 30
0.0
 40
0.1875
100
AcDbArc
 50
315.0
 51
134.9999999999999
  0
ARC
  5
19B
330
A
100
AcDbEntity
  8
TFR-TRI
  6
CONTINUOUS
 62
    30
100
AcDbCircle
 10
17.92135047912597
 20
45.72239303588867
 30
0.0
 40
0.1875
100
AcDbArc
 50
135.0
 51
315.0
  0
ARC
  5
19C
330
A
100
AcDbEntity
  8
TFR-TRI
  6
CONTINUOUS
 62
    30
100
AcDbCircle
 10
31.17960166931152
 20
47.84371185302734
 30
0.0
 40
0.1875
100
AcDbArc
 50
45.0
 51
225.0
  0
ARC
  5
19D
330
A
100
AcDbEntity
  8
TFR-TRI
  6
CONTINUOUS
 62
    30
100
AcDbCircle
 10
34.70363616943359
 20
21.6010570526123
 30
0.0
 40
0.125
100
AcDbArc
 50
90.0
 51
270.0
  0
ARC
  5
19E
330
A
100
AcDbEntity
  8
TFR-TRI
  6
CONTINUOUS
 62
    30
100
AcDbCircle
 10
20.04266929626465
 20
37.44371032714843
 30
0.0
 40
0.1875
100
AcDbArc
 50
315.0
 51
134.9999999999999
  0
ARC
  5
19F
330
A
100
AcDbEntity
  8
TFR-TRI
  6
CONTINUOUS
 62
    30
100
AcDbCircle
 10
34.51113510131836
 20
21.71355628967285
 30
0.0
 40
0.125
100
AcDbArc
 50
90.0
 51
180.0
  0
ARC
  5
1A0
330
A
100
AcDbEntity
  8
TFR-TRI
  6
CONTINUOUS
 62
    30
100
AcDbCircle
 10
31.17960166931152
 20
34.84371185302734
 30
0.0
 40
0.1875
100
AcDbArc
 50
45.0
 51
225.0
  0
ARC
  5
1A1
330
A
100
AcDbEntity
  8
TFR-TRI
  6
CONTINUOUS
 62
    30
100
AcDbCircle
 10
16.23613548278808
 20
21.71355628967285
 30
0.0
 40
0.125
100
AcDbArc
 50
90.0
 51
180.0
  0
ARC
  5
1A2
330
A
100
AcDbEntity
  8
TFR-TRI
  6
CONTINUOUS
 62
    30
100
AcDbCircle
 10
34.22273635864257
 20
21.70015716552734
 30
0.0
 40
0.1384000033140182
100
AcDbArc
 50
0.0
 51
90.0
  0
ARC
  5
1A3
330
A
100
AcDbEntity
  8
TFR-TRI
  6
CONTINUOUS
 62
    30
100
AcDbCircle
 10
22.42960166931152
 20
50.44371032714844
 30
0.0
 40
0.1875
100
AcDbArc
 50
45.0
 51
225.0
  0
ARC
  5
1A4
330
A
100
AcDbEntity
  8
TFR-TRI
  6
CONTINUOUS
 62
    30
100
AcDbCircle
 10
17.92135047912597
 20
32.72239303588867
 30
0.0
 40
0.1875
100
AcDbArc
 50
135.0
 51
315.0
  0
ARC
  5
1A5
330
A
100
AcDbEntity
  8
TFR-TRI
  6
CONTINUOUS
 62
    30
100
AcDbCircle
 10
22.42960166931152
 20
37.44371032714843
 30
0.0
 40
0.1875
100
AcDbArc
 50
45.0
 51
225.0
  0
ARC
  5
1A6
330
A
100
AcDbEntity
  8
TFR-TRI
  6
CONTINUOUS
 62
    30
100
AcDbCircle
 10
22.42960166931152
 20
53.0437126159668
 30
0.0
 40
0.1875
100
AcDbArc
 50
45.0
 51
225.0
  0
ARC
  5
1A7
330
A
100
AcDbEntity
  8
TFR-TRI
  6
CONTINUOUS
 62
    30
100
AcDbCircle
 10
17.92135047912597
 20
40.52239227294921
 30
0.0
 40
0.1875
100
AcDbArc
 50
135.0
 51
315.0
  0
ARC
  5
1A8
330
A
100
AcDbEntity
  8
TFR-TRI
  6
CONTINUOUS
 62
    30
100
AcDbCircle
 10
26.67135047912597
 20
43.12239074707031
 30
0.0
 40
0.1875
100
AcDbArc
 50
135.0
 51
315.0
  0
ARC
  5
1A9
330
A
100
AcDbEntity
  8
TFR-TRI
  6
CONTINUOUS
 62
    30
100
AcDbCircle
 10
31.17960166931152
 20
58.24371337890625
 30
0.0
 40
0.1875
100
AcDbArc
 50
45.0
 51
225.0
  0
ARC
  5
1AA
330
A
100
AcDbEntity
  8
TFR-TRI
  6
CONTINUOUS
 62
    30
100
AcDbCircle
 10
20.04266929626465
 20
53.0437126159668
 30
0.0
 40
0.1875
100
AcDbArc
 50
315.0
 51
134.9999999999999
  0
ARC
  5
1AB
330
A
100
AcDbEntity
  8
TFR-TRI
  6
CONTINUOUS
 62
    30
100
AcDbCircle
 10
34.82863616943359
 20
20.3510570526123
 30
0.0
 40
0.125
100
AcDbArc
 50
270.0
 51
90.0
  0
ARC
  5
1AC
330
A
100
AcDbEntity
  8
TFR-TRI
  6
CONTINUOUS
 62
    30
100
AcDbCircle
 10
16.39363670349121
 20
20.3510570526123
 30
0.0
 40
0.125
100
AcDbArc
 50
90.0
 51
270.0
  0
ARC
  5
1AD
330
A
100
AcDbEntity
  8
TFR-TRI
  6
CONTINUOUS
 62
    30
100
AcDbCircle
 10
33.30092239379883
 20
37.92238998413086
 30
0.0
 40
0.1875
100
AcDbArc
 50
225.0
 51
45.0
  0
ARC
  5
1AE
330
A
100
AcDbEntity
  8
TFR-TRI
  6
CONTINUOUS
 62
    30
100
AcDbCircle
 10
34.98613739013672
 20
20.23855781555175
 30
0.0
 40
0.125
100
AcDbArc
 50
270.0
 51
0.0
  0
ARC
  5
1AF
330
A
100
AcDbEntity
  8
TFR-TRI
  6
CONTINUOUS
 62
    30
100
AcDbCircle
 10
24.55092239379883
 20
48.32239151000976
 30
0.0
 40
0.1875
100
AcDbArc
 50
225.0
 51
45.0
  0
ARC
  5
1B0
330
A
100
AcDbEntity
  8
TFR-TRI
  6
CONTINUOUS
 62
    30
100
AcDbCircle
 10
22.42960166931152
 20
32.24371337890625
 30
0.0
 40
0.1875
100
AcDbArc
 50
45.0
 51
225.0
  0
ARC
  5
1B1
330
A
100
AcDbEntity
  8
TFR-TRI
  6
CONTINUOUS
 62
    30
100
AcDbCircle
 10
26.67135047912597
 20
40.52239227294921
 30
0.0
 40
0.1875
100
AcDbArc
 50
135.0
 51
315.0
  0
ARC
  5
1B2
330
A
100
AcDbEntity
  8
TFR-TRI
  6
CONTINUOUS
 62
    30
100
AcDbCircle
 10
28.79266929626465
 20
37.44371032714843
 30
0.0
 40
0.1875
100
AcDbArc
 50
315.0
 51
134.9999999999999
  0
ARC
  5
1B3
330
A
100
AcDbEntity
  8
TFR-TRI
  6
CONTINUOUS
 62
    30
100
AcDbCircle
 10
26.67135047912597
 20
48.32239151000976
 30
0.0
 40
0.1875
100
AcDbArc
 50
135.0
 51
315.0
  0
ARC
  5
1B4
330
A
100
AcDbEntity
  8
TFR-TRI
  6
CONTINUOUS
 62
    30
100
AcDbCircle
 10
28.79266929626465
 20
34.84371185302734
 30
0.0
 40
0.1875
100
AcDbArc
 50
315.0
 51
134.9999999999999
  0
ARC
  5
1B5
330
A
100
AcDbEntity
  8
TFR-TRI
  6
CONTINUOUS
 62
    30
100
AcDbCircle
 10
17.92135047912597
 20
43.12239074707031
 30
0.0
 40
0.1875
100
AcDbArc
 50
135.0
 51
315.0
  0
ARC
  5
1B6
330
A
100
AcDbEntity
  8
TFR-TRI
  6
CONTINUOUS
 62
    30
100
AcDbCircle
 10
31.17960166931152
 20
55.64371109008789
 30
0.0
 40
0.1875
100
AcDbArc
 50
45.0
 51
225.0
  0
ARC
  5
1B7
330
A
100
AcDbEntity
  8
TFR-TRI
  6
CONTINUOUS
 62
    30
100
AcDbCircle
 10
20.04266929626465
 20
50.44371032714844
 30
0.0
 40
0.1875
100
AcDbArc
 50
315.0
 51
134.9999999999999
  0
ARC
  5
1B8
330
A
100
AcDbEntity
  8
TFR-TRI
  6
CONTINUOUS
 62
    30
100
AcDbCircle
 10
33.30092239379883
 20
48.32239151000976
 30
0.0
 40
0.1875
100
AcDbArc
 50
225.0
 51
45.0
  0
ARC
  5
1B9
330
A
100
AcDbEntity
  8
TFR-TRI
  6
CONTINUOUS
 62
    30
100
AcDbCircle
 10
34.82863616943359
 20
20.9760570526123
 30
0.0
 40
0.125
100
AcDbArc
 50
270.0
 51
90.0
  0
ARC
  5
1BA
330
A
100
AcDbEntity
  8
TFR-TRI
  6
CONTINUOUS
 62
    30
100
AcDbCircle
 10
28.79266929626465
 20
50.44371032714844
 30
0.0
 40
0.1875
100
AcDbArc
 50
315.0
 51
134.9999999999999
  0
ARC
  5
1BB
330
A
100
AcDbEntity
  8
TFR-TRI
  6
CONTINUOUS
 62
    30
100
AcDbCircle
 10
33.30092239379883
 20
35.32239151000976
 30
0.0
 40
0.1875
100
AcDbArc
 50
225.0
 51
45.0
  0
ARC
  5
1BC
330
A
100
AcDbEntity
  8
TFR-TRI
  6
CONTINUOUS
 62
    30
100
AcDbCircle
 10
24.55092239379883
 20
37.92238998413086
 30
0.0
 40
0.1875
100
AcDbArc
 50
225.0
 51
45.0
  0
ARC
  5
1BD
330
A
100
AcDbEntity
  8
TFR-TRI
  6
CONTINUOUS
 62
    30
100
AcDbCircle
 10
34.22273635864257
 20
21.70015716552734
 30
0.0
 40
0.0299999993294478
100
AcDbArc
 50
0.0
 51
90.0
  0
ARC
  5
1BE
330
A
100
AcDbEntity
  8
TFR-TRI
  6
CONTINUOUS
 62
    30
100
AcDbCircle
 10
24.55092239379883
 20
43.12239074707031
 30
0.0
 40
0.1875
100
AcDbArc
 50
225.0
 51
45.0
  0
ARC
  5
1BF
330
A
100
AcDbEntity
  8
TFR-TRI
  6
CONTINUOUS
 62
    30
100
AcDbCircle
 10
28.79266929626465
 20
45.24371337890625
 30
0.0
 40
0.1875
100
AcDbArc
 50
315.0
 51
134.9999999999999
  0
ARC
  5
1C0
330
A
100
AcDbEntity
  8
TFR-TRI
  6
CONTINUOUS
 62
    30
100
AcDbCircle
 10
28.79266929626465
 20
47.84371185302734
 30
0.0
 40
0.1875
100
AcDbArc
 50
315.0
 51
134.9999999999999
  0
ARC
  5
1C1
330
A
100
AcDbEntity
  8
TFR-TRI
  6
CONTINUOUS
 62
    30
100
AcDbCircle
 10
28.79266929626465
 20
32.24371337890625
 30
0.0
 40
0.1875
100
AcDbArc
 50
315.0
 51
134.9999999999999
  0
ARC
  5
1C2
330
A
100
AcDbEntity
  8
TFR-TRI
  6
CONTINUOUS
 62
    30
100
AcDbCircle
 10
17.92135047912597
 20
56.12239074707031
 30
0.0
 40
0.1875
100
AcDbArc
 50
135.0
 51
315.0
  0
ARC
  5
1C3
330
A
100
AcDbEntity
  8
TFR-TRI
  6
CONTINUOUS
 62
    30
100
AcDbCircle
 10
20.04266929626465
 20
32.24371337890625
 30
0.0
 40
0.1875
100
AcDbArc
 50
315.0
 51
134.9999999999999
  0
ARC
  5
1C4
330
A
100
AcDbEntity
  8
TFR-TRI
  6
CONTINUOUS
 62
    30
100
AcDbCircle
 10
34.82863616943359
 20
21.6010570526123
 30
0.0
 40
0.125
100
AcDbArc
 50
270.0
 51
90.0
  0
ARC
  5
1C5
330
A
100
AcDbEntity
  8
TFR-TRI
  6
CONTINUOUS
 62
    30
100
AcDbCircle
 10
17.92135047912597
 20
37.92238998413086
 30
0.0
 40
0.1875
100
AcDbArc
 50
135.0
 51
315.0
  0
ARC
  5
1C6
330
A
100
AcDbEntity
  8
TFR-TRI
  6
CONTINUOUS
 62
    30
100
AcDbCircle
 10
31.17960166931152
 20
32.24371337890625
 30
0.0
 40
0.1875
100
AcDbArc
 50
45.0
 51
225.0
  0
ARC
  5
1C7
330
A
100
AcDbEntity
  8
TFR-TRI
  6
CONTINUOUS
 62
    30
100
AcDbCircle
 10
16.39363670349121
 20
21.6010570526123
 30
0.0
 40
0.125
100
AcDbArc
 50
90.0
 51
270.0
  0
ARC
  5
1C8
330
A
100
AcDbEntity
  8
TFR-TRI
  6
CONTINUOUS
 62
    30
100
AcDbCircle
 10
24.55092239379883
 20
53.52239227294922
 30
0.0
 40
0.1875
100
AcDbArc
 50
225.0
 51
45.0
  0
ARC
  5
1C9
330
A
100
AcDbEntity
  8
TFR-TRI
  6
CONTINUOUS
 62
    30
100
AcDbCircle
 10
33.30092239379883
 20
32.72239303588867
 30
0.0
 40
0.1875
100
AcDbArc
 50
225.0
 51
45.0
  0
ARC
  5
1CA
330
A
100
AcDbEntity
  8
TFR-TRI
  6
CONTINUOUS
 62
    30
100
AcDbCircle
 10
16.71113586425781
 20
21.71355628967285
 30
0.0
 40
0.125
100
AcDbArc
 50
0.0
 51
90.0
  0
ARC
  5
1CB
330
A
100
AcDbEntity
  8
TFR-TRI
  6
CONTINUOUS
 62
     2
100
AcDbCircle
 10
64.92957305908203
 20
20.28195762634277
 30
0.0
 40
0.1684000045061111
100
AcDbArc
 50
270.0
 51
290.8729673910333
  0
ARC
  5
1CC
330
A
100
AcDbEntity
  8
TFR-TRI
  6
CONTINUOUS
 62
    30
100
AcDbCircle
 10
28.79266929626465
 20
40.0437126159668
 30
0.0
 40
0.1875
100
AcDbArc
 50
315.0
 51
134.9999999999999
  0
ARC
  5
1CD
330
A
100
AcDbEntity
  8
TFR-TRI
  6
CONTINUOUS
 62
    30
100
AcDbCircle
 10
22.42960166931152
 20
55.64371109008789
 30
0.0
 40
0.1875
100
AcDbArc
 50
45.0
 51
225.0
  0
ARC
  5
1CE
330
A
100
AcDbEntity
  8
TFR-TRI
  6
CONTINUOUS
 62
    30
100
AcDbCircle
 10
31.17960166931152
 20
45.24371337890625
 30
0.0
 40
0.1875
100
AcDbArc
 50
45.0
 51
225.0
  0
ARC
  5
1CF
330
A
100
AcDbEntity
  8
TFR-TRI
  6
CONTINUOUS
 62
    30
100
AcDbCircle
 10
26.67135047912597
 20
53.52239227294922
 30
0.0
 40
0.1875
100
AcDbArc
 50
135.0
 51
315.0
  0
ARC
  5
1D0
330
A
100
AcDbEntity
  8
TFR-TRI
  6
CONTINUOUS
 62
    30
100
AcDbCircle
 10
26.67135047912597
 20
50.92238998413086
 30
0.0
 40
0.1875
100
AcDbArc
 50
135.0
 51
315.0
  0
ARC
  5
1D1
330
A
100
AcDbEntity
  8
TFR-TRI
  6
CONTINUOUS
 62
    30
100
AcDbCircle
 10
33.30092239379883
 20
45.72239303588867
 30
0.0
 40
0.1875
100
AcDbArc
 50
225.0
 51
45.0
  0
ARC
  5
1D2
330
A
100
AcDbEntity
  8
TFR-TRI
  6
CONTINUOUS
 62
    30
100
AcDbCircle
 10
33.30092239379883
 20
50.92238998413086
 30
0.0
 40
0.1875
100
AcDbArc
 50
225.0
 51
45.0
  0
ARC
  5
1D3
330
A
100
AcDbEntity
  8
TFR-TRI
  6
CONTINUOUS
 62
    30
100
AcDbCircle
 10
33.30092239379883
 20
56.12239074707031
 30
0.0
 40
0.1875
100
AcDbArc
 50
225.0
 51
45.0
  0
ARC
  5
1D4
330
A
100
AcDbEntity
  8
TFR-TRI
  6
CONTINUOUS
 62
    30
100
AcDbCircle
 10
17.92135047912597
 20
53.52239227294922
 30
0.0
 40
0.1875
100
AcDbArc
 50
135.0
 51
315.0
  0
ARC
  5
1D5
330
A
100
AcDbEntity
  8
TFR-TRI
  6
CONTINUOUS
 62
    30
100
AcDbCircle
 10
20.04266929626465
 20
47.84371185302734
 30
0.0
 40
0.1875
100
AcDbArc
 50
315.0
 51
134.9999999999999
  0
ARC
  5
1D6
330
A
100
AcDbEntity
  8
TFR-TRI
  6
CONTINUOUS
 62
    30
100
AcDbCircle
 10
22.42960166931152
 20
34.84371185302734
 30
0.0
 40
0.1875
100
AcDbArc
 50
45.0
 51
225.0
  0
ARC
  5
1D7
330
A
100
AcDbEntity
  8
TFR-TRI
  6
CONTINUOUS
 62
    30
100
AcDbCircle
 10
20.04266929626465
 20
45.24371337890625
 30
0.0
 40
0.1875
100
AcDbArc
 50
315.0
 51
134.9999999999999
  0
ARC
  5
1D8
330
A
100
AcDbEntity
  8
TFR-TRI
  6
CONTINUOUS
 62
    30
100
AcDbCircle
 10
22.42960166931152
 20
40.0437126159668
 30
0.0
 40
0.1875
100
AcDbArc
 50
45.0
 51
225.0
  0
ARC
  5
1D9
330
A
100
AcDbEntity
  8
TFR-TRI
  6
CONTINUOUS
 62
    30
100
AcDbCircle
 10
16.51863670349121
 20
20.3510570526123
 30
0.0
 40
0.125
100
AcDbArc
 50
270.0
 51
90.0
  0
ARC
  5
1DA
330
A
100
AcDbEntity
  8
TFR-TRI
  6
CONTINUOUS
 62
    30
100
AcDbCircle
 10
31.17960166931152
 20
37.44371032714843
 30
0.0
 40
0.1875
100
AcDbArc
 50
45.0
 51
225.0
  0
ARC
  5
1DB
330
A
100
AcDbEntity
  8
TFR-TRI
  6
CONTINUOUS
 62
    30
100
AcDbCircle
 10
31.17960166931152
 20
42.64371109008789
 30
0.0
 40
0.1875
100
AcDbArc
 50
45.0
 51
225.0
  0
ARC
  5
1DC
330
A
100
AcDbEntity
  8
TFR-TRI
  6
CONTINUOUS
 62
    30
100
AcDbCircle
 10
22.42960166931152
 20
45.24371337890625
 30
0.0
 40
0.1875
100
AcDbArc
 50
45.0
 51
225.0
  0
ARC
  5
1DD
330
A
100
AcDbEntity
  8
TFR-TRI
  6
CONTINUOUS
 62
    30
100
AcDbCircle
 10
16.99953651428222
 20
21.70015716552734
 30
0.0
 40
0.0299999993294478
100
AcDbArc
 50
90.0
 51
180.0
  0
ARC
  5
1DE
330
A
100
AcDbEntity
  8
TFR-TRI
  6
CONTINUOUS
 62
    30
100
AcDbCircle
 10
34.98613739013672
 20
21.71355628967285
 30
0.0
 40
0.125
100
AcDbArc
 50
0.0
 51
90.0
  0
ARC
  5
1DF
330
A
100
AcDbEntity
  8
TFR-TRI
  6
CONTINUOUS
 62
    30
100
AcDbCircle
 10
48.76957321166992
 20
21.70015716552734
 30
0.0
 40
0.0299999993294478
100
AcDbArc
 50
90.0
 51
180.0
  0
ARC
  5
1E0
330
A
100
AcDbEntity
  8
TFR-TRI
  6
CONTINUOUS
 62
    30
100
AcDbCircle
 10
22.42960166931152
 20
47.84371185302734
 30
0.0
 40
0.1875
100
AcDbArc
 50
45.0
 51
225.0
  0
ARC
  5
1E1
330
A
100
AcDbEntity
  8
TFR-TRI
  6
CONTINUOUS
 62
    30
100
AcDbCircle
 10
28.79266929626465
 20
58.24371337890625
 30
0.0
 40
0.1875
100
AcDbArc
 50
315.0
 51
134.9999999999999
  0
ARC
  5
1E2
330
A
100
AcDbEntity
  8
TFR-TRI
  6
CONTINUOUS
 62
    30
100
AcDbCircle
 10
24.55092239379883
 20
35.32239151000976
 30
0.0
 40
0.1875
100
AcDbArc
 50
225.0
 51
45.0
  0
ARC
  5
1E3
330
A
100
AcDbEntity
  8
TFR-TRI
  6
CONTINUOUS
 62
    30
100
AcDbCircle
 10
16.23613548278808
 20
20.23855781555175
 30
0.0
 40
0.125
100
AcDbArc
 50
180.0
 51
270.0
  0
ARC
  5
1E4
330
A
100
AcDbEntity
  8
TFR-TRI
  6
CONTINUOUS
 62
    30
100
AcDbCircle
 10
17.92135047912597
 20
30.12239074707031
 30
0.0
 40
0.1875
100
AcDbArc
 50
135.0
 51
315.0
  0
ARC
  5
1E5
330
A
100
AcDbEntity
  8
TFR-TRI
  6
CONTINUOUS
 62
    30
100
AcDbCircle
 10
34.70363616943359
 20
20.9760570526123
 30
0.0
 40
0.125
100
AcDbArc
 50
90.0
 51
270.0
  0
ARC
  5
1E6
330
A
100
AcDbEntity
  8
TFR-TRI
  6
CONTINUOUS
 62
    30
100
AcDbCircle
 10
24.55092239379883
 20
50.92238998413086
 30
0.0
 40
0.1875
100
AcDbArc
 50
225.0
 51
45.0
  0
ARC
  5
1E7
330
A
100
AcDbEntity
  8
TFR-TRI
  6
CONTINUOUS
 62
    30
100
AcDbCircle
 10
26.67135047912597
 20
35.32239151000976
 30
0.0
 40
0.1875
100
AcDbArc
 50
135.0
 51
315.0
  0
ARC
  5
1E8
330
A
100
AcDbEntity
  8
TFR-TRI
  6
CONTINUOUS
 62
    30
100
AcDbCircle
 10
17.92135047912597
 20
35.32239151000976
 30
0.0
 40
0.1875
100
AcDbArc
 50
135.0
 51
315.0
  0
ARC
  5
1E9
330
A
100
AcDbEntity
  8
TFR-TRI
  6
CONTINUOUS
 62
    30
100
AcDbCircle
 10
28.79266929626465
 20
42.64371109008789
 30
0.0
 40
0.1875
100
AcDbArc
 50
315.0
 51
134.9999999999999
  0
ARC
  5
1EA
330
A
100
AcDbEntity
  8
TFR-TRI
  6
CONTINUOUS
 62
    30
100
AcDbCircle
 10
17.92135047912597
 20
50.92238998413086
 30
0.0
 40
0.1875
100
AcDbArc
 50
135.0
 51
315.0
  0
ARC
  5
1EB
330
A
100
AcDbEntity
  8
TFR-TRI
  6
CONTINUOUS
 62
    30
100
AcDbCircle
 10
20.04266929626465
 20
42.64371109008789
 30
0.0
 40
0.1875
100
AcDbArc
 50
315.0
 51
134.9999999999999
  0
ARC
  5
1EC
330
A
100
AcDbEntity
  8
TFR-TRI
  6
CONTINUOUS
 62
    30
100
AcDbCircle
 10
26.67135047912597
 20
37.92238998413086
 30
0.0
 40
0.1875
100
AcDbArc
 50
135.0
 51
315.0
  0
ARC
  5
1ED
330
A
100
AcDbEntity
  8
TFR-TRI
  6
CONTINUOUS
 62
    30
100
AcDbCircle
 10
16.51863670349121
 20
20.9760570526123
 30
0.0
 40
0.125
100
AcDbArc
 50
270.0
 51
90.0
  0
ARC
  5
1EE
330
A
100
AcDbEntity
  8
TFR-TRI
  6
CONTINUOUS
 62
    30
100
AcDbCircle
 10
31.17960166931152
 20
40.0437126159668
 30
0.0
 40
0.1875
100
AcDbArc
 50
45.0
 51
225.0
  0
ARC
  5
1EF
330
A
100
AcDbEntity
  8
TFR-TRI
  6
CONTINUOUS
 62
    30
100
AcDbCircle
 10
31.17960166931152
 20
53.0437126159668
 30
0.0
 40
0.1875
100
AcDbArc
 50
45.0
 51
225.0
  0
ARC
  5
1F0
330
A
100
AcDbEntity
  8
TFR-TRI
  6
CONTINUOUS
 62
    30
100
AcDbCircle
 10
24.55092239379883
 20
56.12239074707031
 30
0.0
 40
0.1875
100
AcDbArc
 50
225.0
 51
45.0
  0
ARC
  5
1F1
330
A
100
AcDbEntity
  8
TFR-TRI
  6
CONTINUOUS
 62
    30
100
AcDbCircle
 10
24.55092239379883
 20
30.12239074707031
 30
0.0
 40
0.1875
100
AcDbArc
 50
225.0
 51
45.0
  0
ARC
  5
1F2
330
A
100
AcDbEntity
  8
TFR-TRI
  6
CONTINUOUS
 62
    30
100
AcDbCircle
 10
16.39363670349121
 20
20.9760570526123
 30
0.0
 40
0.125
100
AcDbArc
 50
90.0
 51
270.0
  0
ARC
  5
1F3
330
A
100
AcDbEntity
  8
TFR-TRI
  6
CONTINUOUS
 62
    30
100
AcDbCircle
 10
20.04266929626465
 20
34.84371185302734
 30
0.0
 40
0.1875
100
AcDbArc
 50
315.0
 51
134.9999999999999
  0
ARC
  5
1F4
330
A
100
AcDbEntity
  8
TFR-TRI
  6
CONTINUOUS
 62
    30
100
AcDbCircle
 10
33.30092239379883
 20
30.12239074707031
 30
0.0
 40
0.1875
100
AcDbArc
 50
225.0
 51
45.0
  0
ARC
  5
1F5
330
A
100
AcDbEntity
  8
TFR-TRI
  6
CONTINUOUS
 62
    30
100
AcDbCircle
 10
33.30092239379883
 20
53.52239227294922
 30
0.0
 40
0.1875
100
AcDbArc
 50
225.0
 51
45.0
  0
ARC
  5
1F6
330
A
100
AcDbEntity
  8
TFR-TRI
  6
CONTINUOUS
 62
    30
100
AcDbCircle
 10
24.55092239379883
 20
32.72239303588867
 30
0.0
 40
0.1875
100
AcDbArc
 50
225.0
 51
45.0
  0
ARC
  5
1F7
330
A
100
AcDbEntity
  8
TFR-TRI
  6
CONTINUOUS
 62
    30
100
AcDbCircle
 10
34.70363616943359
 20
20.3510570526123
 30
0.0
 40
0.125
100
AcDbArc
 50
90.0
 51
270.0
  0
ARC
  5
1F8
330
A
100
AcDbEntity
  8
TFR-TRI
  6
CONTINUOUS
 62
    30
100
AcDbCircle
 10
26.67135047912597
 20
32.72239303588867
 30
0.0
 40
0.1875
100
AcDbArc
 50
135.0
 51
315.0
  0
ARC
  5
1F9
330
A
100
AcDbEntity
  8
TFR-TRI
  6
CONTINUOUS
 62
    30
100
AcDbCircle
 10
20.04266929626465
 20
58.24371337890625
 30
0.0
 40
0.1875
100
AcDbArc
 50
315.0
 51
134.9999999999999
  0
ARC
  5
1FA
330
A
100
AcDbEntity
  8
TFR-TRI
  6
CONTINUOUS
 62
    30
100
AcDbCircle
 10
24.55092239379883
 20
40.52239227294921
 30
0.0
 40
0.1875
100
AcDbArc
 50
225.0
 51
45.0
  0
ARC
  5
1FB
330
A
100
AcDbEntity
  8
TFR-TRI
  6
CONTINUOUS
 62
    30
100
AcDbCircle
 10
24.55092239379883
 20
45.72239303588867
 30
0.0
 40
0.1875
100
AcDbArc
 50
225.0
 51
45.0
  0
ARC
  5
1FC
330
A
100
AcDbEntity
  8
TFR-TRI
  6
CONTINUOUS
 62
    30
100
AcDbCircle
 10
17.92135047912597
 20
48.32239151000976
 30
0.0
 40
0.1875
100
AcDbArc
 50
135.0
 51
315.0
  0
ARC
  5
1FD
330
A
100
AcDbEntity
  8
TFR-TRI
  6
CONTINUOUS
 62
    30
100
AcDbCircle
 10
33.30092239379883
 20
40.52239227294921
 30
0.0
 40
0.1875
100
AcDbArc
 50
225.0
 51
45.0
  0
ARC
  5
1FE
330
A
100
AcDbEntity
  8
TFR-TRI
  6
CONTINUOUS
 62
     2
100
AcDbCircle
 10
64.92957305908203
 20
20.28195762634277
 30
0.0
 40
0.0599999986588955
100
AcDbArc
 50
270.0
 51
0.0
  0
ARC
  5
1FF
330
A
100
AcDbEntity
  8
TFR-TRI
  6
CONTINUOUS
 62
    30
100
AcDbCircle
 10
31.17960166931152
 20
50.44371032714844
 30
0.0
 40
0.1875
100
AcDbArc
 50
45.0
 51
225.0
  0
ARC
  5
200
330
A
100
AcDbEntity
  8
TFR-TRI
  6
CONTINUOUS
 62
    30
100
AcDbCircle
 10
20.04266929626465
 20
40.0437126159668
 30
0.0
 40
0.1875
100
AcDbArc
 50
315.0
 51
134.9999999999999
  0
ARC
  5
201
330
A
100
AcDbEntity
  8
TFR-TRI
  6
CONTINUOUS
 62
    30
100
AcDbCircle
 10
26.67135047912597
 20
56.12239074707031
 30
0.0
 40
0.1875
100
AcDbArc
 50
135.0
 51
315.0
  0
ARC
  5
202
330
A
100
AcDbEntity
  8
TFR-TRI
  6
CONTINUOUS
 62
    30
100
AcDbCircle
 10
16.51863670349121
 20
21.6010570526123
 30
0.0
 40
0.125
100
AcDbArc
 50
270.0
 51
90.0
  0
ARC
  5
203
330
A
100
AcDbEntity
  8
TFR-TRI
  6
CONTINUOUS
 62
    30
100
AcDbCircle
 10
16.99953651428222
 20
21.70015716552734
 30
0.0
 40
0.1384000033140182
100
AcDbArc
 50
90.0
 51
180.0
  0
ARC
  5
204
330
A
100
AcDbEntity
  8
TFR-TRI
  6
CONTINUOUS
 62
    30
100
AcDbCircle
 10
48.76957321166992
 20
21.70015716552734
 30
0.0
 40
0.1384000033140182
100
AcDbArc
 50
90.0
 51
102.5198440669588
  0
ARC
  5
205
330
A
100
AcDbEntity
  8
TFR-TRI
  6
CONTINUOUS
 62
    30
100
AcDbCircle
 10
22.42960166931152
 20
42.64371109008789
 30
0.0
 40
0.1875
100
AcDbArc
 50
45.0
 51
225.0
  0
VIEWPORT
  5
223
330
B
100
AcDbEntity
 67
     1
  8
0
  6
CONTINUOUS
100
AcDbViewport
 10
4.90563725490196
 20
2.25
 30
0.0
 40
10.81127450980392
 41
5.5
 68
     1
 69
     1
1001
ACAD
1000
MVIEW
1002
{
1070
    16
1010
0.0
1020
0.0
1030
0.0
1010
0.0
1020
0.0
1030
1.0
1040
0.0
1040
5.5
1040
4.90563725490196
1040
2.25
1040
50.0
1040
0.0
1040
0.0
1070
     0
1070
   100
1070
     1
1070
     1
1070
     0
1070
     0
1070
     0
1070
     0
1040
0.0
1040
0.0
1040
0.0
1040
1.0
1040
1.0
1040
0.0
1040
0.0
1070
     0
1002
{
1002
}
1002
}
  0
ENDSEC
  0
SECTION
  2
OBJECTS
  0
DICTIONARY
  5
19
330
0
100
AcDbDictionary
  3
ACAD_GROUP
350
1A
  3
ACAD_LAYOUT
350
1E
  3
ACAD_MLINESTYLE
350
1B
  3
ACAD_PLOTSETTINGS
350
22
  3
ACAD_WIPEOUT_VARS
350
23
1001
ACAD
1000
TREAT_AS_HARD
1070
     0
  0
DICTIONARY
  5
28B
330
A
100
AcDbDictionary
  3
ACAD_LAYOUTSELFREF
350
28C
  0
DICTIONARY
  5
28D
330
B
100
AcDbDictionary
  3
ACAD_LAYOUTSELFREF
350
28E
  0
DICTIONARY
  5
1A
102
{ACAD_REACTORS
330
19
102
}
330
19
100
AcDbDictionary
1001
ACAD
1000
TREAT_AS_HARD
1070
     0
  0
DICTIONARY
  5
1E
102
{ACAD_REACTORS
330
19
102
}
330
19
100
AcDbDictionary
1001
ACAD
1000
TREAT_AS_HARD
1070
     0
  0
DICTIONARY
  5
1B
102
{ACAD_REACTORS
330
19
102
}
330
19
100
AcDbDictionary
  3
STANDARD
350
1C
1001
ACAD
1000
TREAT_AS_HARD
1070
     0
  0
DICTIONARY
  5
22
102
{ACAD_REACTORS
330
19
102
}
330
19
100
AcDbDictionary
1001
ACAD
1000
TREAT_AS_HARD
1070
     0
  0
ACAD_ZOMBIE_OBJECT
  5
23
330
19
100
AcDbZombieObject
 90
      499
 91
      524
 93
       10
310
4042
 94
        0
1001
ACAD
1000
AcadProxyRoundTripData
1071
      521
1071
   655383
1070
     0
  0
XRECORD
  5
28C
102
{ACAD_REACTORS
330
28B
102
}
330
28B
100
AcDbXrecord
340
A
  0
XRECORD
  5
28E
102
{ACAD_REACTORS
330
28D
102
}
330
28D
100
AcDbXrecord
340
B
  0
MLINESTYLE
  5
1C
102
{ACAD_REACTORS
330
1B
102
}
330
1B
100
AcDbMlineStyle
  2
STANDARD
 70
     0
  3

 62
     0
 51
90.0
 52
90.0
 71
     2
 49
0.5
 62
   256
  6
BYLAYER
 49
-0.5
 62
   256
  6
BYLAYER
  0
ENDSEC
  0
EOF
