999
DXF file: C:\Vinayak\New 2D genarating\updateCreo8 with 3dPdf\CAD\NSYS3D6620_3D-CAD\drw0001_1.dxf
999
Pro/ENGINEER 2021284 by Parametric Technology Corporation
  0
SECTION
  2
HEADER
  9
$ACADVER
  1
AC1024
  9
$DWGCODEPAGE
  3
ANSI_1252
  9
$EXTMAX
 10
714.7535315029
 20
1010.8657088399
 30
0.0
  9
$EXTMIN
 10
0.0
 20
0.0
 30
0.0
  9
$LIMMIN
 10
0.0
 20
0.0
  9
$LIMMAX
 10
714.7535315029
 20
1010.8657088399
  9
$VIEWCTR
 10
357.3767657515
 20
505.4328544199
  9
$VIEWSIZE
 40
1010.8657088399
  9
$CLAYER
  8
0
  9
$LTSCALE
 40
65.8934684281
  9
$CELTYPE
  6
BYLAYER
  9
$DIMSCALE
 40
1.0
  9
$DIMASZ
 40
8.5089706131
  9
$DIMEXO
 40
1.0
  9
$DIMDLI
 40
45.5263963685
  9
$DIMEXE
 40
1.0
  9
$DIMCEN
 40
10.782567561
  9
$DIMLFAC
 40
1.0
  9
$DIMBLK
  1
_FILLED
  9
$DIMALT
 70
0
  9
$DIMALTF
 40
0.0393700787
  9
$DIMTXT
 40
11.9125588584
  9
$DIMTOL
 70
1
  9
$DIMLIM
 70
0
  9
$DIMTFAC
 40
1.0
  9
$DIMTP
 40
0.01
  9
$DIMTM
 40
0.01
  9
$DIMGAP
 40
0.625
  9
$DIMDSEP
 70
46
  9
$AUNITS
 70
0
  9
$PDMODE
 70
3
  9
$PDSIZE
 40
0.3125
  9
$HANDSEED
  5
40D
  9
$TILEMODE
 70
1
  9
$MEASUREMENT
 70
1
  9
$INSUNITS
 70
4
  0
ENDSEC
  0
SECTION
  2
CLASSES
  0
CLASS
  1
ACDBDICTIONARYWDFLT
  2
AcDbDictionaryWithDefault
  3
AutoCAD 2000
 90
0
 91
1
280
0
281
0
  0
CLASS
  1
ACDBPLACEHOLDER
  2
AcDbPlaceHolder
  3
AutoCAD 2000
 90
0
 91
1
280
0
281
0
  0
CLASS
  1
LAYOUT
  2
AcDbLayout
  3
AutoCAD 2000
 90
0
 91
0
280
0
281
0
  0
ENDSEC
  0
SECTION
  2
TABLES
  0
TABLE
  2
VPORT
  5
8
100
AcDbSymbolTable
 70
2
  0
VPORT
  5
1F4
100
AcDbSymbolTableRecord
100
AcDbViewportTableRecord
  2
*ACTIVE
 70
0
 10
0.0
 20
0.0
 11
1.0
 21
1.0
 12
357.3767657515
 22
505.4328544199
 13
0.0
 23
0.0
 14
1.0
 24
1.0
 15
0.0
 25
0.0
 16
0.0
 26
0.0
 36
1.0
 17
0.0
 27
0.0
 37
0.0
 40
1010.8657088399
 41
0.7070707071
 42
50.0
 43
0.0
 44
0.0
 50
0.0
 51
0.0
 71
0
 72
100
 73
1
 74
1
 75
0
 76
0
 77
0
 78
0
  0
ENDTAB
  0
TABLE
  2
LTYPE
  5
5
100
AcDbSymbolTable
 70
6
  0
LTYPE
  5
14
100
AcDbSymbolTableRecord
100
AcDbLinetypeTableRecord
  2
BYBLOCK
 70
0
  3

 72
65
 73
0
 40
0.0
  0
LTYPE
  5
15
100
AcDbSymbolTableRecord
100
AcDbLinetypeTableRecord
  2
BYLAYER
 70
0
  3

 72
65
 73
0
 40
0.0
  0
LTYPE
  5
16
100
AcDbSymbolTableRecord
100
AcDbLinetypeTableRecord
  2
CONTINUOUS
 70
64
  3
Solid line
 72
65
 73
0
 40
0.0
  0
LTYPE
  5
1F5
100
AcDbSymbolTableRecord
100
AcDbLinetypeTableRecord
  2
CENTER
 70
64
  3
____ _ ____ _ ____ _ ____ _ ____ _ ____ _ ____
 72
65
 73
4
 40
0.6
 49
0.375
 74
0
 49
-0.075
 74
0
 49
0.075
 74
0
 49
-0.075
 74
0
  0
LTYPE
  5
1F6
100
AcDbSymbolTableRecord
100
AcDbLinetypeTableRecord
  2
HIDDEN
 70
64
  3
- - - - - - - - - - - - - - - - - - - -
 72
65
 73
2
 40
0.2
 49
0.1
 74
0
 49
-0.1
 74
0
  0
LTYPE
  5
1F7
100
AcDbSymbolTableRecord
100
AcDbLinetypeTableRecord
  2
PHANTOM
 70
64
  3
_____ _ _ _____ _ _ _____ _ _ _____
 72
65
 73
6
 40
0.8
 49
0.45
 74
0
 49
-0.05
 74
0
 49
0.1
 74
0
 49
-0.05
 74
0
 49
0.1
 74
0
 49
-0.05
 74
0
  0
LTYPE
  5
1F8
100
AcDbSymbolTableRecord
100
AcDbLinetypeTableRecord
  2
DOT
 70
64
  3
. . . . . . . . . . . . . . . . . . . .
 72
65
 73
2
 40
0.2
 49
0.1
 74
0
 49
-0.1
 74
0
  0
LTYPE
  5
1F9
100
AcDbSymbolTableRecord
100
AcDbLinetypeTableRecord
  2
DASHED
 70
64
  3
- - - - - - - - - - - - - - - - - - - -
 72
65
 73
2
 40
0.2
 49
0.1
 74
0
 49
-0.1
 74
0
  0
ENDTAB
  0
TABLE
  2
LAYER
  5
2
100
AcDbSymbolTable
 70
36
  0
LAYER
  5
10
100
AcDbSymbolTableRecord
100
AcDbLayerTableRecord
  2
0
 70
0
 62
7
  6
CONTINUOUS
370
-3
390
F
  0
LAYER
  5
1FA
100
AcDbSymbolTableRecord
100
AcDbLayerTableRecord
  2
DEFAULT_1
 70
0
 62
7
  6
CENTER
370
-3
390
F
  0
LAYER
  5
1FB
100
AcDbSymbolTableRecord
100
AcDbLayerTableRecord
  2
DEFAULT_2
 70
0
 62
8
  6
HIDDEN
370
-3
390
F
  0
LAYER
  5
1FC
100
AcDbSymbolTableRecord
100
AcDbLayerTableRecord
  2
DEFAULT_3
 70
0
 62
7
  6
PHANTOM
370
-3
390
F
  0
LAYER
  5
1FD
100
AcDbSymbolTableRecord
100
AcDbLayerTableRecord
  2
00_COMPONENTS
 70
0
 62
7
  6
CONTINUOUS
370
-3
390
F
  0
LAYER
  5
1FE
100
AcDbSymbolTableRecord
100
AcDbLayerTableRecord
  2
00_COMPONENTS_1
 70
0
 62
7
  6
CONTINUOUS
370
-3
390
F
  0
LAYER
  5
1FF
100
AcDbSymbolTableRecord
100
AcDbLayerTableRecord
  2
00_COMPONENTS_10
 70
0
 62
7
  6
CONTINUOUS
370
-3
390
F
  0
LAYER
  5
200
100
AcDbSymbolTableRecord
100
AcDbLayerTableRecord
  2
00_COMPONENTS_12
 70
0
 62
7
  6
CONTINUOUS
370
-3
390
F
  0
LAYER
  5
201
100
AcDbSymbolTableRecord
100
AcDbLayerTableRecord
  2
00_COMPONENTS_16
 70
0
 62
7
  6
CONTINUOUS
370
-3
390
F
  0
LAYER
  5
202
100
AcDbSymbolTableRecord
100
AcDbLayerTableRecord
  2
00_COMPONENTS_17
 70
0
 62
7
  6
CONTINUOUS
370
-3
390
F
  0
LAYER
  5
203
100
AcDbSymbolTableRecord
100
AcDbLayerTableRecord
  2
00_COMPONENTS_19
 70
0
 62
7
  6
CONTINUOUS
370
-3
390
F
  0
LAYER
  5
204
100
AcDbSymbolTableRecord
100
AcDbLayerTableRecord
  2
00_COMPONENTS_2
 70
0
 62
7
  6
CONTINUOUS
370
-3
390
F
  0
LAYER
  5
205
100
AcDbSymbolTableRecord
100
AcDbLayerTableRecord
  2
00_COMPONENTS_20
 70
0
 62
7
  6
CONTINUOUS
370
-3
390
F
  0
LAYER
  5
206
100
AcDbSymbolTableRecord
100
AcDbLayerTableRecord
  2
00_COMPONENTS_21
 70
0
 62
7
  6
CONTINUOUS
370
-3
390
F
  0
LAYER
  5
207
100
AcDbSymbolTableRecord
100
AcDbLayerTableRecord
  2
00_COMPONENTS_22
 70
0
 62
7
  6
CONTINUOUS
370
-3
390
F
  0
LAYER
  5
208
100
AcDbSymbolTableRecord
100
AcDbLayerTableRecord
  2
00_COMPONENTS_24
 70
0
 62
7
  6
CONTINUOUS
370
-3
390
F
  0
LAYER
  5
209
100
AcDbSymbolTableRecord
100
AcDbLayerTableRecord
  2
00_COMPONENTS_26
 70
0
 62
7
  6
CONTINUOUS
370
-3
390
F
  0
LAYER
  5
20A
100
AcDbSymbolTableRecord
100
AcDbLayerTableRecord
  2
00_COMPONENTS_27
 70
0
 62
7
  6
CONTINUOUS
370
-3
390
F
  0
LAYER
  5
20B
100
AcDbSymbolTableRecord
100
AcDbLayerTableRecord
  2
00_COMPONENTS_28
 70
0
 62
7
  6
CONTINUOUS
370
-3
390
F
  0
LAYER
  5
20C
100
AcDbSymbolTableRecord
100
AcDbLayerTableRecord
  2
00_COMPONENTS_29
 70
0
 62
7
  6
CONTINUOUS
370
-3
390
F
  0
LAYER
  5
20D
100
AcDbSymbolTableRecord
100
AcDbLayerTableRecord
  2
00_COMPONENTS_3
 70
0
 62
7
  6
CONTINUOUS
370
-3
390
F
  0
LAYER
  5
20E
100
AcDbSymbolTableRecord
100
AcDbLayerTableRecord
  2
00_COMPONENTS_30
 70
0
 62
7
  6
CONTINUOUS
370
-3
390
F
  0
LAYER
  5
20F
100
AcDbSymbolTableRecord
100
AcDbLayerTableRecord
  2
00_COMPONENTS_32
 70
0
 62
7
  6
CONTINUOUS
370
-3
390
F
  0
LAYER
  5
210
100
AcDbSymbolTableRecord
100
AcDbLayerTableRecord
  2
00_COMPONENTS_35
 70
0
 62
7
  6
CONTINUOUS
370
-3
390
F
  0
LAYER
  5
211
100
AcDbSymbolTableRecord
100
AcDbLayerTableRecord
  2
00_COMPONENTS_36
 70
0
 62
7
  6
CONTINUOUS
370
-3
390
F
  0
LAYER
  5
212
100
AcDbSymbolTableRecord
100
AcDbLayerTableRecord
  2
00_COMPONENTS_37
 70
0
 62
7
  6
CONTINUOUS
370
-3
390
F
  0
LAYER
  5
213
100
AcDbSymbolTableRecord
100
AcDbLayerTableRecord
  2
00_COMPONENTS_38
 70
0
 62
7
  6
CONTINUOUS
370
-3
390
F
  0
LAYER
  5
214
100
AcDbSymbolTableRecord
100
AcDbLayerTableRecord
  2
00_COMPONENTS_4
 70
0
 62
7
  6
CONTINUOUS
370
-3
390
F
  0
LAYER
  5
215
100
AcDbSymbolTableRecord
100
AcDbLayerTableRecord
  2
00_COMPONENTS_5
 70
0
 62
7
  6
CONTINUOUS
370
-3
390
F
  0
LAYER
  5
216
100
AcDbSymbolTableRecord
100
AcDbLayerTableRecord
  2
00_COMPONENTS_6
 70
0
 62
7
  6
CONTINUOUS
370
-3
390
F
  0
LAYER
  5
217
100
AcDbSymbolTableRecord
100
AcDbLayerTableRecord
  2
00_COMPONENTS_7
 70
0
 62
7
  6
CONTINUOUS
370
-3
390
F
  0
LAYER
  5
218
100
AcDbSymbolTableRecord
100
AcDbLayerTableRecord
  2
00_COMPONENTS_8
 70
0
 62
7
  6
CONTINUOUS
370
-3
390
F
  0
LAYER
  5
219
100
AcDbSymbolTableRecord
100
AcDbLayerTableRecord
  2
00_COMPONENTS_9
 70
0
 62
7
  6
CONTINUOUS
370
-3
390
F
  0
LAYER
  5
21A
100
AcDbSymbolTableRecord
100
AcDbLayerTableRecord
  2
01_1_DEFAULT_DATUMS
 70
0
 62
7
  6
CONTINUOUS
370
-3
390
F
  0
LAYER
  5
21B
100
AcDbSymbolTableRecord
100
AcDbLayerTableRecord
  2
01_PLANES
 70
0
 62
7
  6
CONTINUOUS
370
-3
390
F
  0
LAYER
  5
21C
100
AcDbSymbolTableRecord
100
AcDbLayerTableRecord
  2
02_COORD_SYS
 70
0
 62
7
  6
CONTINUOUS
370
-3
390
F
  0
LAYER
  5
21D
100
AcDbSymbolTableRecord
100
AcDbLayerTableRecord
  2
03_AXES
 70
0
 62
7
  6
CONTINUOUS
370
-3
390
F
  0
LAYER
  5
21E
100
AcDbSymbolTableRecord
100
AcDbLayerTableRecord
  2
04_POINTS
 70
0
 62
7
  6
CONTINUOUS
370
-3
390
F
  0
LAYER
  5
21F
100
AcDbSymbolTableRecord
100
AcDbLayerTableRecord
  2
05_CURVES
 70
0
 62
7
  6
CONTINUOUS
370
-3
390
F
  0
LAYER
  5
220
100
AcDbSymbolTableRecord
100
AcDbLayerTableRecord
  2
06_SURFS
 70
0
 62
7
  6
CONTINUOUS
370
-3
390
F
  0
LAYER
  5
221
100
AcDbSymbolTableRecord
100
AcDbLayerTableRecord
  2
07_COSMETICS
 70
0
 62
7
  6
CONTINUOUS
370
-3
390
F
  0
LAYER
  5
222
100
AcDbSymbolTableRecord
100
AcDbLayerTableRecord
  2
10_NOTES
 70
0
 62
7
  6
CONTINUOUS
370
-3
390
F
  0
LAYER
  5
223
100
AcDbSymbolTableRecord
100
AcDbLayerTableRecord
  2
11_NOTES_PUB
 70
0
 62
7
  6
CONTINUOUS
370
-3
390
F
  0
LAYER
  5
224
100
AcDbSymbolTableRecord
100
AcDbLayerTableRecord
  2
13_REF_GTOL
 70
0
 62
7
  6
CONTINUOUS
370
-3
390
F
  0
LAYER
  5
225
100
AcDbSymbolTableRecord
100
AcDbLayerTableRecord
  2
16_MISC
 70
0
 62
7
  6
CONTINUOUS
370
-3
390
F
  0
LAYER
  5
226
100
AcDbSymbolTableRecord
100
AcDbLayerTableRecord
  2
17_NO_PRINT
 70
0
 62
7
  6
CONTINUOUS
370
-3
390
F
  0
LAYER
  5
227
100
AcDbSymbolTableRecord
100
AcDbLayerTableRecord
  2
18_DATUM_CAMS_JOINTS
 70
0
 62
7
  6
CONTINUOUS
370
-3
390
F
  0
LAYER
  5
228
100
AcDbSymbolTableRecord
100
AcDbLayerTableRecord
  2
19_DATUM_FUNCTIONAL
 70
0
 62
7
  6
CONTINUOUS
370
-3
390
F
  0
LAYER
  5
229
100
AcDbSymbolTableRecord
100
AcDbLayerTableRecord
  2
20_DATUM_KINEMATIC_SCHEME
 70
0
 62
7
  6
CONTINUOUS
370
-3
390
F
  0
ENDTAB
  0
TABLE
  2
STYLE
  5
3
100
AcDbSymbolTable
 70
1
  0
STYLE
  5
11
100
AcDbSymbolTableRecord
100
AcDbTextStyleTableRecord
  2
STANDARD
 70
0
 40
0.0
 41
0.8
 50
0.0
 71
0
 42
0.2
  3
txt
  4

  0
STYLE
  5
22A
100
AcDbSymbolTableRecord
100
AcDbTextStyleTableRecord
  2
TEXTSTYLE_1
 70
0
 40
0.0
 41
0.8
 50
0.0
 71
0
 42
0.2
  3
gdt
  4

  0
ENDTAB
  0
TABLE
  2
VIEW
  5
6
100
AcDbSymbolTable
 70
0
  0
ENDTAB
  0
TABLE
  2
UCS
  5
7
100
AcDbSymbolTable
 70
0
  0
ENDTAB
  0
TABLE
  2
APPID
  5
9
100
AcDbSymbolTable
 70
1
  0
APPID
  5
22B
100
AcDbSymbolTableRecord
100
AcDbRegAppTableRecord
  2
ACAD
 70
0
  0
ENDTAB
  0
TABLE
  2
BLOCK_RECORD
  5
1
100
AcDbSymbolTable
 70
0
  0
BLOCK_RECORD
  5
22C
100
AcDbSymbolTableRecord
100
AcDbBlockTableRecord
  2
*Model_Space
  0
BLOCK_RECORD
  5
22D
100
AcDbSymbolTableRecord
100
AcDbBlockTableRecord
  2
*Paper_Space
  0
BLOCK_RECORD
  5
22E
100
AcDbSymbolTableRecord
100
AcDbBlockTableRecord
  2
_FILLED
  0
ENDTAB
  0
TABLE
  2
DIMSTYLE
  5
A
100
AcDbSymbolTable
 70
1
100
AcDbDimStyleTable
 71
0
  0
DIMSTYLE
105
22F
100
AcDbSymbolTableRecord
100
AcDbDimStyleTableRecord
  2
STANDARD
 70
0
  3

  4

 40
1.0
 41
8.5089706131
 42
1.0
 43
0.38
 44
1.0
 45
0.0
 46
0.0
 47
0.01
 48
0.01
140
11.9125588584
141
0.09
142
0.0
143
25.4
144
1.0
145
0.0
146
1.0
147
0.625
 71
1
 72
0
 73
0
 74
0
 75
0
 76
0
 77
1
 78
8
 79
2
170
0
171
1
172
0
173
0
174
0
175
0
176
0
177
0
178
0
270
2
179
2
271
2
272
2
273
2
274
2
275
0
280
0
281
0
282
0
283
1
284
8
285
0
286
0
287
3
288
0
340
11
278
46
341
22E
342
22E
343
22E
344
22E
  0
ENDTAB
  0
ENDSEC
  0
SECTION
  2
BLOCKS
  0
BLOCK
  5
20
100
AcDbEntity
  8
0
100
AcDbBlockBegin
  2
*Model_Space
 70
0
 10
0.0
 20
0.0
 30
0.0
  3
*Model_Space
  1

  0
ENDBLK
  5
21
100
AcDbEntity
  8
0
100
AcDbBlockEnd
  0
BLOCK
  5
1C
100
AcDbEntity
  8
0
100
AcDbBlockBegin
  2
*Paper_Space
 70
0
 10
0.0
 20
0.0
 30
0.0
  3
*Paper_Space
  1

  0
ENDBLK
  5
1D
100
AcDbEntity
  8
0
100
AcDbBlockEnd
  0
BLOCK
  5
230
100
AcDbEntity
  8
0
100
AcDbBlockBegin
  2
_FILLED
 70
64
 10
0.0
 20
0.0
  3
_FILLED
  1

  0
SOLID
  5
231
100
AcDbEntity
  8
0
  6
BYBLOCK
 62
0
100
AcDbTrace
 10
0.0
 20
0.0
 11
-1.0
 21
0.25
 12
-1.0
 22
-0.25
 13
-1.0
 23
-0.25
  0
ENDBLK
  5
232
100
AcDbEntity
  8
0
  6
BYBLOCK
 62
0
100
AcDbBlockEnd
  0
ENDSEC
  0
SECTION
  2
ENTITIES
  0
LINE
  5
233
100
AcDbEntity
  8
00_COMPONENTS_27
100
AcDbLine
 62
7
  6
CONTINUOUS
 10
218.8152951289
 20
911.7924237792
 11
96.7691657603
 21
841.3294618105
  0
LINE
  5
234
100
AcDbEntity
  8
00_COMPONENTS_19
100
AcDbLine
 62
7
  6
CONTINUOUS
 10
502.6504688419
 20
101.4370044437
 11
504.4119764473
 21
101.7576655554
  0
LINE
  5
235
100
AcDbEntity
  8
00_COMPONENTS_19
100
AcDbLine
 62
7
  6
CONTINUOUS
 10
84.1162489902
 20
829.7078230267
 11
84.6716436
 21
830.7248180479
  0
LINE
  5
236
100
AcDbEntity
  8
00_COMPONENTS_19
100
AcDbLine
 62
7
  6
CONTINUOUS
 10
83.8231119298
 20
830.2349040528
 11
91.765384788
 21
834.8203678027
  0
LINE
  5
237
100
AcDbEntity
  8
00_COMPONENTS_19
100
AcDbLine
 62
7
  6
CONTINUOUS
 10
496.0752185862
 20
102.1063550305
 11
502.6504688419
 21
101.4370044437
  0
LINE
  5
238
100
AcDbEntity
  8
00_COMPONENTS_19
100
AcDbLine
 62
7
  6
CONTINUOUS
 10
502.4420959488
 20
101.7345217719
 11
497.5545884073
 21
102.2320626887
  0
LINE
  5
239
100
AcDbEntity
  8
00_COMPONENTS_27
100
AcDbLine
 62
7
  6
CONTINUOUS
 10
517.8793981413
 20
108.2029954875
 11
520.1864703264
 21
107.9532509121
  0
LINE
  5
23A
100
AcDbEntity
  8
00_COMPONENTS_19
100
AcDbLine
 62
7
  6
CONTINUOUS
 10
497.5545884073
 20
102.2320626887
 11
493.0539411692
 21
103.177193066
  0
LINE
  5
23B
100
AcDbEntity
  8
00_COMPONENTS_8
100
AcDbLine
 62
7
  6
CONTINUOUS
 10
513.9381984888
 20
155.5301478933
 11
514.9988589549
 21
155.5709764391
  0
LINE
  5
23C
100
AcDbEntity
  8
00_COMPONENTS_8
100
AcDbLine
 62
7
  6
CONTINUOUS
 10
513.938198094
 20
177.44418895
 11
514.9988593496
 21
177.485034374
  0
LINE
  5
23D
100
AcDbEntity
  8
00_COMPONENTS_8
100
AcDbLine
 62
7
  6
CONTINUOUS
 10
514.6150488952
 20
178.001430067
 11
513.5543884229
 21
177.960601471
  0
LINE
  5
23E
100
AcDbEntity
  8
00_COMPONENTS_8
100
AcDbLine
 62
7
  6
CONTINUOUS
 10
514.9988589549
 20
149.1190672527
 11
513.9381984888
 21
149.2415391903
  0
LINE
  5
23F
100
AcDbEntity
  8
00_COMPONENTS_8
100
AcDbLine
 62
7
  6
CONTINUOUS
 10
514.8184117392
 20
171.4744122058
 11
513.757751273
 21
171.5968841435
  0
LINE
  5
240
100
AcDbEntity
  8
00_COMPONENTS_8
100
AcDbLine
 62
7
  6
CONTINUOUS
 10
514.9988593499
 20
171.6227407793
 11
513.938198094
 21
171.7452296563
  0
LINE
  5
241
100
AcDbEntity
  8
00_COMPONENTS_19
100
AcDbLine
 62
7
  6
CONTINUOUS
 10
84.5899034122
 20
338.9986802244
 11
83.796299718
 21
341.1101178993
  0
LINE
  5
242
100
AcDbEntity
  8
00_COMPONENTS_19
100
AcDbLine
 62
7
  6
CONTINUOUS
 10
82.9344805541
 20
343.9318772108
 11
83.796299718
 21
341.1101178993
  0
LINE
  5
243
100
AcDbEntity
  8
00_COMPONENTS_19
100
AcDbLine
 62
7
  6
CONTINUOUS
 10
82.8858691884
 20
344.2490802207
 11
82.9344805541
 21
343.9318772108
  0
LINE
  5
244
100
AcDbEntity
  8
00_COMPONENTS_19
100
AcDbLine
 62
7
  6
CONTINUOUS
 10
82.8858630502
 20
344.2526988302
 11
82.8858630502
 21
828.9285336383
  0
LINE
  5
245
100
AcDbEntity
  8
00_COMPONENTS_19
100
AcDbLine
 62
7
  6
CONTINUOUS
 10
82.9344805541
 20
828.6077120189
 11
82.9344805541
 21
343.9318772108
  0
LINE
  5
246
100
AcDbEntity
  8
00_COMPONENTS_19
100
AcDbLine
 62
7
  6
CONTINUOUS
 10
84.1162489901
 20
829.7078230267
 11
84.1162489901
 21
828.7280201262
  0
LINE
  5
247
100
AcDbEntity
  8
00_COMPONENTS_19
100
AcDbLine
 62
7
  6
CONTINUOUS
 10
84.5899034122
 20
338.9986802244
 11
84.5899034122
 21
822.7005725176
  0
LINE
  5
248
100
AcDbEntity
  8
00_COMPONENTS_19
100
AcDbLine
 62
7
  6
CONTINUOUS
 10
85.4785536292
 20
820.5689792678
 11
85.4785536292
 21
339.1591541282
  0
LINE
  5
249
100
AcDbEntity
  8
00_COMPONENTS_27
100
AcDbLine
 62
7
  6
CONTINUOUS
 10
95.8319168808
 20
832.9122584563
 11
95.8319168808
 21
838.3900865618
  0
LINE
  5
24A
100
AcDbEntity
  8
00_COMPONENTS_27
100
AcDbLine
 62
7
  6
CONTINUOUS
 10
96.7691846017
 20
837.0837052694
 11
96.7691846017
 21
832.3711389271
  0
LINE
  5
24B
100
AcDbEntity
  8
00_COMPONENTS_5
100
AcDbLine
 62
7
  6
CONTINUOUS
 10
103.1208934643
 20
574.5818482462
 11
103.1208934643
 21
567.7032441386
  0
LINE
  5
24C
100
AcDbEntity
  8
00_COMPONENTS_5
100
AcDbLine
 62
7
  6
CONTINUOUS
 10
103.1209021126
 20
561.8881417718
 11
103.120912693
 21
547.1715153867
  0
LINE
  5
24D
100
AcDbEntity
  8
00_COMPONENTS_5
100
AcDbLine
 62
7
  6
CONTINUOUS
 10
103.2069978021
 20
574.5321528417
 11
103.2069978021
 21
567.8559013508
  0
LINE
  5
24E
100
AcDbEntity
  8
00_COMPONENTS_5
100
AcDbLine
 62
7
  6
CONTINUOUS
 10
103.2069978021
 20
561.6360847011
 11
103.2055766634
 21
547.1218362884
  0
LINE
  5
24F
100
AcDbEntity
  8
00_COMPONENTS_19
100
AcDbLine
 62
7
  6
CONTINUOUS
 10
85.0624804644
 20
338.3170886514
 11
492.6066051714
 21
103.0267015249
  0
LINE
  5
250
100
AcDbEntity
  8
00_COMPONENTS_19
100
AcDbLine
 62
7
  6
CONTINUOUS
 10
492.8769469531
 20
102.8706231555
 11
493.0884619557
 21
102.7485076744
  0
LINE
  5
251
100
AcDbEntity
  8
00_COMPONENTS_19
100
AcDbLine
 62
7
  6
CONTINUOUS
 10
85.4785536292
 20
339.1591541282
 11
491.3468699382
 21
104.8362735435
  0
LINE
  5
252
100
AcDbEntity
  8
00_COMPONENTS_27
100
AcDbLine
 62
7
  6
CONTINUOUS
 10
512.7350089907
 20
111.173042757
 11
517.1722768753
 21
108.611242905
  0
LINE
  5
253
100
AcDbEntity
  8
00_COMPONENTS_27
100
AcDbLine
 62
7
  6
CONTINUOUS
 10
512.7350089907
 20
112.2553227532
 11
516.5095174489
 21
110.0761585781
  0
LINE
  5
254
100
AcDbEntity
  8
00_COMPONENTS_5
100
AcDbLine
 62
7
  6
CONTINUOUS
 10
106.656438402
 20
554.2480565828
 11
106.656435446
 21
543.9634861558
  0
LINE
  5
255
100
AcDbEntity
  8
00_COMPONENTS_5
100
AcDbLine
 62
7
  6
CONTINUOUS
 10
106.6564401051
 20
573.7070862974
 11
106.6564401051
 21
571.2609543427
  0
LINE
  5
256
100
AcDbEntity
  8
00_COMPONENTS_5
100
AcDbLine
 62
7
  6
CONTINUOUS
 10
106.7425464278
 20
573.6573971247
 11
106.7425464278
 21
571.2560641824
  0
LINE
  5
257
100
AcDbEntity
  8
00_COMPONENTS_5
100
AcDbLine
 62
7
  6
CONTINUOUS
 10
106.7425464278
 20
554.1535133475
 11
106.7425464278
 21
543.9137646389
  0
LINE
  5
258
100
AcDbEntity
  8
00_COMPONENTS_5
100
AcDbLine
 62
7
  6
CONTINUOUS
 10
110.1919934127
 20
541.9222632504
 11
110.1919934127
 21
552.1620193766
  0
LINE
  5
259
100
AcDbEntity
  8
00_COMPONENTS_5
100
AcDbLine
 62
7
  6
CONTINUOUS
 10
110.1919934127
 20
569.2645700905
 11
110.1919934127
 21
571.665903033
  0
LINE
  5
25A
100
AcDbEntity
  8
00_COMPONENTS_5
100
AcDbLine
 62
7
  6
CONTINUOUS
 10
110.2781025651
 20
541.8725719437
 11
110.2781025651
 21
552.1571313452
  0
LINE
  5
25B
100
AcDbEntity
  8
00_COMPONENTS_5
100
AcDbLine
 62
7
  6
CONTINUOUS
 10
110.2780980145
 20
569.1700378569
 11
110.2780980145
 21
571.61616955
  0
LINE
  5
25C
100
AcDbEntity
  8
00_COMPONENTS_5
100
AcDbLine
 62
7
  6
CONTINUOUS
 10
113.7275420385
 20
541.0475074193
 11
113.7275420385
 21
555.5621821147
  0
LINE
  5
25D
100
AcDbEntity
  8
00_COMPONENTS_5
100
AcDbLine
 62
7
  6
CONTINUOUS
 10
113.8136489097
 20
540.9978134775
 11
113.8136489097
 21
555.7148407808
  0
LINE
  5
25E
100
AcDbEntity
  8
00_COMPONENTS_5
100
AcDbLine
 62
7
  6
CONTINUOUS
 10
113.8136321374
 20
561.5299384651
 11
113.8136116181
 21
568.4081359085
  0
LINE
  5
25F
100
AcDbEntity
  8
00_COMPONENTS_5
100
AcDbLine
 62
7
  6
CONTINUOUS
 10
113.7275420385
 20
561.7819987643
 11
113.7282822023
 21
568.4574305565
  0
LINE
  5
260
100
AcDbEntity
  8
00_COMPONENTS_19
100
AcDbLine
 62
7
  6
CONTINUOUS
 10
85.2073024765
 20
339.0423480775
 11
85.1180537641
 21
338.6308549449
  0
LWPOLYLINE
  5
261
100
AcDbEntity
  8
00_COMPONENTS_5
100
AcDbPolyline
 62
7
  6
CONTINUOUS
 90
4
 70
0
 10
103.0867863488
 20
582.5261887226
 10
101.9260190255
 20
581.1639318102
 10
100.6244354488
 20
578.9097590967
 10
99.8199418436
 20
576.2879929813
  0
LINE
  5
262
100
AcDbEntity
  8
00_COMPONENTS_3
100
AcDbLine
 62
7
  6
CONTINUOUS
 10
109.1062925559
 20
567.1754467004
 11
109.1715547046
 21
567.247256906
  0
LINE
  5
263
100
AcDbEntity
  8
00_COMPONENTS_5
100
AcDbLine
 62
7
  6
CONTINUOUS
 10
103.0866955037
 20
582.5261164084
 11
103.0875144837
 21
582.5269349987
  0
LINE
  5
264
100
AcDbEntity
  8
00_COMPONENTS_8
100
AcDbLine
 62
7
  6
CONTINUOUS
 10
512.7350089907
 20
144.3438991084
 11
515.024595858
 21
143.0220354189
  0
LINE
  5
265
100
AcDbEntity
  8
00_COMPONENTS_8
100
AcDbLine
 62
7
  6
CONTINUOUS
 10
512.7350089907
 20
149.9361852559
 11
513.9381984888
 21
149.2415391903
  0
LINE
  5
266
100
AcDbEntity
  8
00_COMPONENTS_8
100
AcDbLine
 62
7
  6
CONTINUOUS
 10
512.7350089907
 20
156.2247939588
 11
513.9381984888
 21
155.5301478933
  0
LINE
  5
267
100
AcDbEntity
  8
00_COMPONENTS_8
100
AcDbLine
 62
7
  6
CONTINUOUS
 10
512.7350089907
 20
156.8779812569
 11
514.9988589549
 21
155.5709764391
  0
LWPOLYLINE
  5
268
100
AcDbEntity
  8
00_COMPONENTS_5
100
AcDbPolyline
 62
7
  6
CONTINUOUS
 90
3
 70
0
 10
99.8029450789
 20
551.331801456
 10
100.6126579052
 20
548.5816591037
 10
101.4749250642
 20
547.1991628519
  0
LINE
  5
269
100
AcDbEntity
  8
00_COMPONENTS_19
100
AcDbLine
 62
7
  6
CONTINUOUS
 10
82.9344805541
 20
828.6077120189
 11
82.8858691884
 21
828.9249150288
  0
LINE
  5
26A
100
AcDbEntity
  8
00_COMPONENTS_19
100
AcDbLine
 62
7
  6
CONTINUOUS
 10
84.0858668866
 20
828.9262720074
 11
84.1162489902
 21
828.7280201262
  0
LWPOLYLINE
  5
26B
100
AcDbEntity
  8
00_COMPONENTS_5
100
AcDbPolyline
 62
7
  6
CONTINUOUS
 90
3
 70
0
 10
103.4864739892
 20
582.8698877723
 10
103.1754007153
 20
582.6111762075
 10
103.0875144837
 20
582.5269349987
  0
LINE
  5
26C
100
AcDbEntity
  8
00_COMPONENTS_8
100
AcDbLine
 62
7
  6
CONTINUOUS
 10
512.7350089907
 20
172.1450510018
 11
513.5543884229
 21
171.6719927681
  0
LINE
  5
26D
100
AcDbEntity
  8
00_COMPONENTS_8
100
AcDbLine
 62
7
  6
CONTINUOUS
 10
513.5543884229
 20
177.960601471
 11
512.7350089907
 21
178.4336597048
  0
LINE
  5
26E
100
AcDbEntity
  8
00_COMPONENTS_8
100
AcDbLine
 62
7
  6
CONTINUOUS
 10
514.6150488546
 20
178.0014300499
 11
512.7350089907
 21
179.0868470109
  0
LINE
  5
26F
100
AcDbEntity
  8
00_COMPONENTS_8
100
AcDbLine
 62
7
  6
CONTINUOUS
 10
515.024595858
 20
183.8471562753
 11
512.7350089907
 21
185.1690199649
  0
LINE
  5
270
100
AcDbEntity
  8
00_COMPONENTS_8
100
AcDbLine
 62
7
  6
CONTINUOUS
 10
512.7350089907
 20
186.3937422285
 11
517.3580491191
 21
183.724689148
  0
LINE
  5
271
100
AcDbEntity
  8
00_COMPONENTS_5
100
AcDbLine
 62
7
  6
CONTINUOUS
 10
99.8029479638
 20
551.3318889696
 11
100.1977175146
 21
550.6749413051
  0
LINE
  5
272
100
AcDbEntity
  8
00_COMPONENTS_5
100
AcDbLine
 62
7
  6
CONTINUOUS
 10
104.4478240466
 20
559.50433374
 11
107.514215072
 21
561.2451260813
  0
LINE
  5
273
100
AcDbEntity
  8
00_COMPONENTS_5
100
AcDbLine
 62
7
  6
CONTINUOUS
 10
107.5142093182
 20
570.7585239167
 11
104.447824106
 21
569.0732386538
  0
LWPOLYLINE
  5
274
100
AcDbEntity
  8
00_COMPONENTS_5
100
AcDbPolyline
 62
7
  6
CONTINUOUS
 90
4
 70
0
 10
107.8518787622
 20
570.9045125522
 10
107.8780147895
 20
570.9187892542
 10
108.0059422252
 20
570.9857006746
 10
108.0942582234
 20
571.0276746241
  0
LINE
  5
275
100
AcDbEntity
  8
00_COMPONENTS_5
100
AcDbLine
 62
7
  6
CONTINUOUS
 10
108.094022853
 20
571.0275700759
 11
108.0942648426
 21
571.027678121
  0
LINE
  5
276
100
AcDbEntity
  8
00_COMPONENTS_19
100
AcDbLine
 62
7
  6
CONTINUOUS
 10
82.9344805541
 20
828.6077120189
 11
83.7962997181
 21
825.7859527073
  0
LINE
  5
277
100
AcDbEntity
  8
00_COMPONENTS_19
100
AcDbLine
 62
7
  6
CONTINUOUS
 10
84.1162489901
 20
828.7280201262
 11
85.1691829703
 21
825.280514678
  0
LINE
  5
278
100
AcDbEntity
  8
00_COMPONENTS_19
100
AcDbLine
 62
7
  6
CONTINUOUS
 10
85.2756695394
 20
825.9116603656
 11
84.1162489902
 21
829.7078230267
  0
LINE
  5
279
100
AcDbEntity
  8
00_COMPONENTS_19
100
AcDbLine
 62
7
  6
CONTINUOUS
 10
83.7962997181
 20
825.7859527073
 11
84.5899034122
 21
822.7005725176
  0
LINE
  5
27A
100
AcDbEntity
  8
00_COMPONENTS_19
100
AcDbLine
 62
7
  6
CONTINUOUS
 10
85.1572345029
 20
825.2096961347
 11
84.9780681541
 21
825.9062608147
  0
LINE
  5
27B
100
AcDbEntity
  8
00_COMPONENTS_19
100
AcDbLine
 62
7
  6
CONTINUOUS
 10
84.5900437172
 20
338.9986945079
 11
84.5899034122
 21
338.9986802244
  0
LINE
  5
27C
100
AcDbEntity
  8
00_COMPONENTS_3
100
AcDbLine
 62
7
  6
CONTINUOUS
 10
106.9020845934
 20
565.7361340721
 11
108.9107123865
 21
564.5768398263
  0
LINE
  5
27D
100
AcDbEntity
  8
00_COMPONENTS_3
100
AcDbLine
 62
7
  6
CONTINUOUS
 10
108.9107121821
 20
567.1966734015
 11
106.9020845934
 21
568.356666556
  0
LINE
  5
27E
100
AcDbEntity
  8
00_COMPONENTS_27
100
AcDbLine
 62
7
  6
CONTINUOUS
 10
96.7691846017
 20
837.0837052694
 11
100.8503743838
 21
830.0149162127
  0
LINE
  5
27F
100
AcDbEntity
  8
00_COMPONENTS_27
100
AcDbLine
 62
7
  6
CONTINUOUS
 10
516.5095174489
 20
110.0761585781
 11
512.7350089907
 21
116.6137627095
  0
LINE
  5
280
100
AcDbEntity
  8
00_COMPONENTS_19
100
AcDbLine
 62
7
  6
CONTINUOUS
 10
491.3468699383
 20
586.2460986831
 11
491.9849125412
 21
586.6144705528
  0
LINE
  5
281
100
AcDbEntity
  8
00_COMPONENTS_27
100
AcDbLine
 62
7
  6
CONTINUOUS
 10
641.3840668768
 20
667.8277488779
 11
520.1864714744
 21
597.8547014753
  0
LINE
  5
282
100
AcDbEntity
  8
00_COMPONENTS_19
100
AcDbLine
 62
7
  6
CONTINUOUS
 10
504.4119764472
 20
588.3931061647
 11
511.5057199632
 21
592.4886564461
  0
LINE
  5
283
100
AcDbEntity
  8
00_COMPONENTS_27
100
AcDbLine
 62
7
  6
CONTINUOUS
 10
641.3840668768
 20
666.8479459774
 11
520.1864691783
 21
596.8748980038
  0
LINE
  5
284
100
AcDbEntity
  8
00_COMPONENTS_27
100
AcDbLine
 62
7
  6
CONTINUOUS
 10
642.2325844401
 20
667.3378179655
 11
641.6476719397
 21
667.0001205917
  0
LINE
  5
285
100
AcDbEntity
  8
00_COMPONENTS_27
100
AcDbLine
 62
7
  6
CONTINUOUS
 10
517.3580420536
 20
595.2418863708
 11
516.5095174489
 21
594.7519933862
  0
LINE
  5
286
100
AcDbEntity
  8
00_COMPONENTS_27
100
AcDbLine
 62
7
  6
CONTINUOUS
 10
516.5095174489
 20
594.7519933862
 11
511.5175448224
 21
591.8697942426
  0
LINE
  5
287
100
AcDbEntity
  8
00_COMPONENTS_19
100
AcDbLine
 62
7
  6
CONTINUOUS
 10
504.4119764472
 20
587.4133032641
 11
511.5057199632
 21
591.5088535455
  0
LINE
  5
288
100
AcDbEntity
  8
00_COMPONENTS_27
100
AcDbLine
 62
7
  6
CONTINUOUS
 10
642.2325985469
 20
666.3580570719
 11
521.0350008485
 21
596.3850090984
  0
LINE
  5
289
100
AcDbEntity
  8
00_COMPONENTS_19
100
AcDbLine
 62
7
  6
CONTINUOUS
 10
505.2605081174
 20
586.9234143587
 11
512.3542516334
 21
591.0189646401
  0
LWPOLYLINE
  5
28A
100
AcDbEntity
  8
00_COMPONENTS_19
100
AcDbPolyline
 62
7
  6
CONTINUOUS
 90
3
 70
0
 10
492.3786348704
 20
586.8720375899
 10
492.0297799508
 20
586.6407365497
 10
491.9849125412
 20
586.6144705528
  0
LINE
  5
28B
100
AcDbEntity
  8
00_COMPONENTS_8
100
AcDbLine
 62
7
  6
CONTINUOUS
 10
517.3580491191
 20
560.9488058619
 11
517.0044972005
 21
560.7446837849
  0
LINE
  5
28C
100
AcDbEntity
  8
00_COMPONENTS_8
100
AcDbLine
 62
7
  6
CONTINUOUS
 10
513.9381984888
 20
532.7542646071
 11
514.9988589549
 21
532.7950931529
  0
LINE
  5
28D
100
AcDbEntity
  8
00_COMPONENTS_5
100
AcDbLine
 62
7
  6
CONTINUOUS
 10
119.4526666783
 20
536.9469794777
 11
119.7714083133
 21
536.952188751
  0
LINE
  5
28E
100
AcDbEntity
  8
00_COMPONENTS_8
100
AcDbLine
 62
7
  6
CONTINUOUS
 10
514.9988589549
 20
526.3431839666
 11
513.9381984888
 21
526.4656559042
  0
LINE
  5
28F
100
AcDbEntity
  8
00_COMPONENTS_8
100
AcDbLine
 62
7
  6
CONTINUOUS
 10
517.0044972005
 20
519.9195629285
 11
517.3580491191
 21
520.1236850054
  0
LINE
  5
290
100
AcDbEntity
  8
00_COMPONENTS_19
100
AcDbLine
 62
7
  6
CONTINUOUS
 10
502.6504688419
 20
587.0926421524
 11
504.4119764472
 21
587.4133032641
  0
LINE
  5
291
100
AcDbEntity
  8
00_COMPONENTS_19
100
AcDbLine
 62
7
  6
CONTINUOUS
 10
504.4119764472
 20
588.3931061647
 11
502.6504688419
 21
588.072445053
  0
LWPOLYLINE
  5
292
100
AcDbEntity
  8
00_COMPONENTS_5
100
AcDbPolyline
 62
7
  6
CONTINUOUS
 90
4
 70
0
 10
119.7741941422
 20
536.9522903574
 10
120.477011817
 20
537.0505459122
 10
120.9513414087
 20
537.186749319
 10
121.7699967052
 20
537.5121131861
  0
LINE
  5
293
100
AcDbEntity
  8
00_COMPONENTS_8
100
AcDbLine
 62
7
  6
CONTINUOUS
 10
513.938198094
 20
554.6683056638
 11
514.9988593496
 21
554.7091510879
  0
LINE
  5
294
100
AcDbEntity
  8
00_COMPONENTS_8
100
AcDbLine
 62
7
  6
CONTINUOUS
 10
514.6150488952
 20
555.2255467808
 11
513.5543884229
 21
555.1847181849
  0
LINE
  5
295
100
AcDbEntity
  8
00_COMPONENTS_5
100
AcDbLine
 62
7
  6
CONTINUOUS
 10
119.7742977627
 20
536.9522782836
 11
119.7714083133
 21
536.952188751
  0
LINE
  5
296
100
AcDbEntity
  8
00_COMPONENTS_8
100
AcDbLine
 62
7
  6
CONTINUOUS
 10
514.8184117392
 20
548.6985289197
 11
513.757751273
 21
548.8210008573
  0
LINE
  5
297
100
AcDbEntity
  8
00_COMPONENTS_8
100
AcDbLine
 62
7
  6
CONTINUOUS
 10
514.9988593499
 20
548.8468574932
 11
513.938198094
 21
548.9693463702
  0
LINE
  5
298
100
AcDbEntity
  8
00_COMPONENTS_19
100
AcDbLine
 62
7
  6
CONTINUOUS
 10
493.2623140623
 20
587.5613709316
 11
493.0539411692
 21
586.8790853592
  0
LINE
  5
299
100
AcDbEntity
  8
00_COMPONENTS_5
100
AcDbLine
 62
7
  6
CONTINUOUS
 10
106.6564401051
 20
571.2609543427
 11
105.7096758796
 21
571.1355276932
  0
LINE
  5
29A
100
AcDbEntity
  8
00_COMPONENTS_19
100
AcDbLine
 62
7
  6
CONTINUOUS
 10
493.0539411692
 20
586.8790853592
 11
497.5545884075
 21
586.9078974968
  0
LINE
  5
29B
100
AcDbEntity
  8
00_COMPONENTS_19
100
AcDbLine
 62
7
  6
CONTINUOUS
 10
497.7629613003
 20
587.5901830693
 11
493.9549381327
 21
587.5658049561
  0
LINE
  5
29C
100
AcDbEntity
  8
00_COMPONENTS_19
100
AcDbLine
 62
7
  6
CONTINUOUS
 10
502.4420959488
 20
586.41035658
 11
497.5545884075
 21
586.9078974968
  0
LINE
  5
29D
100
AcDbEntity
  8
00_COMPONENTS_19
100
AcDbLine
 62
7
  6
CONTINUOUS
 10
496.0752185862
 20
587.7619927392
 11
502.6504688419
 21
587.0926421524
  0
LINE
  5
29E
100
AcDbEntity
  8
00_COMPONENTS_19
100
AcDbLine
 62
7
  6
CONTINUOUS
 10
502.6504688419
 20
588.072445053
 11
496.0752185862
 21
588.7417956397
  0
LINE
  5
29F
100
AcDbEntity
  8
00_COMPONENTS_8
100
AcDbLine
 62
7
  6
CONTINUOUS
 10
512.7350089907
 20
521.5680158223
 11
515.024595858
 21
520.2461521327
  0
LINE
  5
2A0
100
AcDbEntity
  8
00_COMPONENTS_8
100
AcDbLine
 62
7
  6
CONTINUOUS
 10
512.7350089907
 20
527.1603019698
 11
513.9381984888
 21
526.4656559042
  0
LINE
  5
2A1
100
AcDbEntity
  8
00_COMPONENTS_8
100
AcDbLine
 62
7
  6
CONTINUOUS
 10
512.7350089907
 20
533.4489106727
 11
513.9381984888
 21
532.7542646071
  0
LINE
  5
2A2
100
AcDbEntity
  8
00_COMPONENTS_8
100
AcDbLine
 62
7
  6
CONTINUOUS
 10
512.7350089907
 20
534.1020979708
 11
514.9988589549
 21
532.7950931529
  0
LINE
  5
2A3
100
AcDbEntity
  8
00_COMPONENTS_19
100
AcDbLine
 62
7
  6
CONTINUOUS
 10
491.3468699382
 20
104.8362735435
 11
491.3468699382
 21
586.2460986831
  0
LINE
  5
2A4
100
AcDbEntity
  8
00_COMPONENTS_19
100
AcDbLine
 62
7
  6
CONTINUOUS
 10
493.0539411692
 20
586.8790853592
 11
493.0539411692
 21
103.177193066
  0
LINE
  5
2A5
100
AcDbEntity
  8
00_COMPONENTS_19
100
AcDbLine
 62
7
  6
CONTINUOUS
 10
496.0752185862
 20
588.7417956397
 11
496.0752185862
 21
587.7619927392
  0
LINE
  5
2A6
100
AcDbEntity
  8
00_COMPONENTS_19
100
AcDbLine
 62
7
  6
CONTINUOUS
 10
496.0752185862
 20
102.5427285292
 11
496.0752185862
 21
102.1063550305
  0
LINE
  5
2A7
100
AcDbEntity
  8
00_COMPONENTS_19
100
AcDbLine
 62
7
  6
CONTINUOUS
 10
497.5545884075
 20
586.9078974968
 11
497.7629613005
 21
587.5901830692
  0
LINE
  5
2A8
100
AcDbEntity
  8
00_COMPONENTS_19
100
AcDbLine
 62
7
  6
CONTINUOUS
 10
512.2158479011
 20
591.1844392889
 11
512.0821148288
 21
591.2138057688
  0
LINE
  5
2A9
100
AcDbEntity
  8
00_COMPONENTS_19
100
AcDbLine
 62
7
  6
CONTINUOUS
 10
492.5267185392
 20
587.536081973
 11
493.0752266001
 21
587.4092711087
  0
LINE
  5
2AA
100
AcDbEntity
  8
00_COMPONENTS_8
100
AcDbLine
 62
7
  6
CONTINUOUS
 10
512.7350089907
 20
549.3691677157
 11
513.5543884229
 21
548.896109482
  0
LINE
  5
2AB
100
AcDbEntity
  8
00_COMPONENTS_8
100
AcDbLine
 62
7
  6
CONTINUOUS
 10
513.5543884229
 20
555.1847181849
 11
512.7350089907
 21
555.6577764186
  0
LINE
  5
2AC
100
AcDbEntity
  8
00_COMPONENTS_8
100
AcDbLine
 62
7
  6
CONTINUOUS
 10
514.6150488546
 20
555.2255467638
 11
512.7350089907
 21
556.3109637247
  0
LINE
  5
2AD
100
AcDbEntity
  8
00_COMPONENTS_8
100
AcDbLine
 62
7
  6
CONTINUOUS
 10
515.024595858
 20
561.0712729892
 11
512.7350089907
 21
562.3931366788
  0
LINE
  5
2AE
100
AcDbEntity
  8
00_COMPONENTS_8
100
AcDbLine
 62
7
  6
CONTINUOUS
 10
512.7350089907
 20
563.6178589424
 11
517.3580491191
 21
560.9488058619
  0
LINE
  5
2AF
100
AcDbEntity
  8
00_COMPONENTS_19
100
AcDbLine
 62
7
  6
CONTINUOUS
 10
491.3468699382
 20
586.2460986831
 11
85.4785536292
 21
820.5689792678
  0
LINE
  5
2B0
100
AcDbEntity
  8
00_COMPONENTS_19
100
AcDbLine
 62
7
  6
CONTINUOUS
 10
502.4420959488
 20
101.7345217719
 11
502.4420959488
 21
586.41035658
  0
LINE
  5
2B1
100
AcDbEntity
  8
00_COMPONENTS_19
100
AcDbLine
 62
7
  6
CONTINUOUS
 10
502.6504688419
 20
588.072445053
 11
502.6504688419
 21
587.0926421524
  0
LINE
  5
2B2
100
AcDbEntity
  8
00_COMPONENTS_19
100
AcDbLine
 62
7
  6
CONTINUOUS
 10
502.6504688419
 20
101.4370044437
 11
502.6504688419
 21
101.7345217719
  0
LINE
  5
2B3
100
AcDbEntity
  8
00_COMPONENTS_19
100
AcDbLine
 62
7
  6
CONTINUOUS
 10
504.4119764472
 20
588.3931061646
 11
504.4119764472
 21
587.4133032641
  0
LINE
  5
2B4
100
AcDbEntity
  8
00_COMPONENTS_19
100
AcDbLine
 62
7
  6
CONTINUOUS
 10
504.4119764472
 20
101.7576655554
 11
504.4119764472
 21
101.8989987174
  0
LINE
  5
2B5
100
AcDbEntity
  8
00_COMPONENTS_19
100
AcDbLine
 62
7
  6
CONTINUOUS
 10
505.2605081174
 20
586.9234143587
 11
505.2605081174
 21
102.2475795506
  0
LINE
  5
2B6
100
AcDbEntity
  8
00_COMPONENTS_19
100
AcDbLine
 62
7
  6
CONTINUOUS
 10
511.5057199632
 20
591.5088535455
 11
511.5057199632
 21
592.4886564461
  0
LINE
  5
2B7
100
AcDbEntity
  8
00_COMPONENTS_19
100
AcDbLine
 62
7
  6
CONTINUOUS
 10
512.3542516334
 20
106.343129832
 11
512.3542516334
 21
591.0189646401
  0
LINE
  5
2B8
100
AcDbEntity
  8
00_COMPONENTS_19
100
AcDbLine
 62
7
  6
CONTINUOUS
 10
512.7350089907
 20
107.2377991712
 11
512.7350089907
 21
591.1857212283
  0
LINE
  5
2B9
100
AcDbEntity
  8
00_COMPONENTS_8
100
AcDbLine
 62
7
  6
CONTINUOUS
 10
513.9381984888
 20
149.2415391903
 11
513.9381984888
 21
155.5301478933
  0
LINE
  5
2BA
100
AcDbEntity
  8
00_COMPONENTS_8
100
AcDbLine
 62
7
  6
CONTINUOUS
 10
513.938198094
 20
171.7452296563
 11
513.938198094
 21
177.44418895
  0
LINE
  5
2BB
100
AcDbEntity
  8
00_COMPONENTS_8
100
AcDbLine
 62
7
  6
CONTINUOUS
 10
513.9381984888
 20
526.4656559042
 11
513.9381984888
 21
532.7542646071
  0
LINE
  5
2BC
100
AcDbEntity
  8
00_COMPONENTS_8
100
AcDbLine
 62
7
  6
CONTINUOUS
 10
513.938198094
 20
548.9693463702
 11
513.938198094
 21
554.6683056638
  0
LINE
  5
2BD
100
AcDbEntity
  8
00_COMPONENTS_8
100
AcDbLine
 62
7
  6
CONTINUOUS
 10
514.9988589549
 20
532.7950931529
 11
514.9988589549
 21
526.3431839666
  0
LINE
  5
2BE
100
AcDbEntity
  8
00_COMPONENTS_8
100
AcDbLine
 62
7
  6
CONTINUOUS
 10
514.9988589549
 20
155.5709764391
 11
514.9988589549
 21
149.1190672527
  0
LINE
  5
2BF
100
AcDbEntity
  8
00_COMPONENTS_8
100
AcDbLine
 62
7
  6
CONTINUOUS
 10
514.9988591655
 20
171.6227406729
 11
514.9988591654
 21
177.4850342677
  0
LINE
  5
2C0
100
AcDbEntity
  8
00_COMPONENTS_8
100
AcDbLine
 62
7
  6
CONTINUOUS
 10
514.9988591655
 20
548.8468573868
 11
514.9988591654
 21
554.7091509816
  0
LINE
  5
2C1
100
AcDbEntity
  8
00_COMPONENTS_8
100
AcDbLine
 62
7
  6
CONTINUOUS
 10
515.024595858
 20
143.0220354189
 11
515.024595858
 21
183.8471562753
  0
LINE
  5
2C2
100
AcDbEntity
  8
00_COMPONENTS_8
100
AcDbLine
 62
7
  6
CONTINUOUS
 10
515.024595858
 20
520.2461521327
 11
515.024595858
 21
561.0712729892
  0
LINE
  5
2C3
100
AcDbEntity
  8
00_COMPONENTS_27
100
AcDbLine
 62
7
  6
CONTINUOUS
 10
516.5095174489
 20
110.0761585781
 11
516.5095174489
 21
142.6954462146
  0
LINE
  5
2C4
100
AcDbEntity
  8
00_COMPONENTS_27
100
AcDbLine
 62
7
  6
CONTINUOUS
 10
516.5095174489
 20
184.2145780534
 11
516.5095174489
 21
519.9195629285
  0
LINE
  5
2C5
100
AcDbEntity
  8
00_COMPONENTS_27
100
AcDbLine
 62
7
  6
CONTINUOUS
 10
516.5095174489
 20
561.4386947673
 11
516.5095174489
 21
594.7519933862
  0
LINE
  5
2C6
100
AcDbEntity
  8
00_COMPONENTS_8
100
AcDbLine
 62
7
  6
CONTINUOUS
 10
517.0044972005
 20
560.7446837849
 11
517.0044972005
 21
519.9195629285
  0
LINE
  5
2C7
100
AcDbEntity
  8
00_COMPONENTS_8
100
AcDbLine
 62
7
  6
CONTINUOUS
 10
517.0044972005
 20
183.5205670711
 11
517.0044972005
 21
142.6954462146
  0
LINE
  5
2C8
100
AcDbEntity
  8
00_COMPONENTS_8
100
AcDbLine
 62
7
  6
CONTINUOUS
 10
517.3580491191
 20
142.8995682915
 11
517.3580491191
 21
183.724689148
  0
LINE
  5
2C9
100
AcDbEntity
  8
00_COMPONENTS_8
100
AcDbLine
 62
7
  6
CONTINUOUS
 10
517.3580491191
 20
520.1236850054
 11
517.3580491191
 21
560.9488058619
  0
LINE
  5
2CA
100
AcDbEntity
  8
00_COMPONENTS_27
100
AcDbLine
 62
7
  6
CONTINUOUS
 10
520.1864708208
 20
597.8547018526
 11
520.1864691783
 21
596.8748980038
  0
LINE
  5
2CB
100
AcDbEntity
  8
00_COMPONENTS_27
100
AcDbLine
 62
7
  6
CONTINUOUS
 10
520.1864691783
 20
108.4431631124
 11
520.1864691783
 21
107.9532506266
  0
LINE
  5
2CC
100
AcDbEntity
  8
00_COMPONENTS_27
100
AcDbLine
 62
7
  6
CONTINUOUS
 10
521.0350008485
 20
596.3850090984
 11
521.035002491
 21
108.4431640607
  0
LINE
  5
2CD
100
AcDbEntity
  8
00_COMPONENTS_19
100
AcDbLine
 62
7
  6
CONTINUOUS
 10
511.5057199632
 20
591.8902749138
 11
511.5260943098
 21
592.1008259142
  0
LINE
  5
2CE
100
AcDbEntity
  8
00_COMPONENTS_19
100
AcDbLine
 62
7
  6
CONTINUOUS
 10
512.0821148288
 20
591.2138057688
 11
511.83595147
 21
591.3181986093
  0
LINE
  5
2CF
100
AcDbEntity
  8
00_COMPONENTS_19
100
AcDbLine
 62
7
  6
CONTINUOUS
 10
85.2756695394
 20
825.9116603656
 11
496.0752185862
 21
588.7417956397
  0
LINE
  5
2D0
100
AcDbEntity
  8
00_COMPONENTS_19
100
AcDbLine
 62
7
  6
CONTINUOUS
 10
512.3542516334
 20
591.0189646401
 11
511.5057199632
 21
591.5088535455
  0
LINE
  5
2D1
100
AcDbEntity
  8
00_COMPONENTS_19
100
AcDbLine
 62
7
  6
CONTINUOUS
 10
511.5057199632
 20
592.4886564461
 11
91.765384788
 21
834.8203678027
  0
LINE
  5
2D2
100
AcDbEntity
  8
00_COMPONENTS_19
100
AcDbLine
 62
7
  6
CONTINUOUS
 10
511.8405178714
 20
592.7350142245
 11
92.730567207
 21
834.7027830183
  0
LINE
  5
2D3
100
AcDbEntity
  8
00_COMPONENTS_27
100
AcDbLine
 62
7
  6
CONTINUOUS
 10
516.5095174489
 20
594.7519933862
 11
96.7691846017
 21
837.0837052694
  0
LINE
  5
2D4
100
AcDbEntity
  8
00_COMPONENTS_27
100
AcDbLine
 62
7
  6
CONTINUOUS
 10
96.7691657603
 20
841.3294618105
 11
97.1934352122
 21
841.0845152697
  0
LINE
  5
2D5
100
AcDbEntity
  8
00_COMPONENTS_27
100
AcDbLine
 62
7
  6
CONTINUOUS
 10
520.1864691783
 20
596.8748980038
 11
521.0350008485
 21
596.3850090984
  0
LINE
  5
2D6
100
AcDbEntity
  8
00_COMPONENTS_27
100
AcDbLine
 62
7
  6
CONTINUOUS
 10
97.6176974305
 20
841.8193758057
 11
520.1864714744
 21
597.8547014753
  0
LINE
  5
2D7
100
AcDbEntity
  8
00_COMPONENTS_27
100
AcDbLine
 62
7
  6
CONTINUOUS
 10
642.2325844159
 20
667.3378179515
 11
642.1597876168
 21
668.1915562889
  0
LINE
  5
2D8
100
AcDbEntity
  8
00_COMPONENTS_27
100
AcDbLine
 62
7
  6
CONTINUOUS
 10
641.3840668768
 20
666.8479459774
 11
641.3840668768
 21
667.8277488779
  0
LINE
  5
2D9
100
AcDbEntity
  8
00_COMPONENTS_27
100
AcDbLine
 62
7
  6
CONTINUOUS
 10
642.2325985469
 20
178.4162125953
 11
642.2325985469
 21
666.3580570719
  0
LINE
  5
2DA
100
AcDbEntity
  8
00_COMPONENTS_27
100
AcDbLine
 62
7
  6
CONTINUOUS
 10
642.9355352066
 20
666.8479360298
 11
642.9355352066
 21
179.8858892591
  0
LINE
  5
2DB
100
AcDbEntity
  8
00_COMPONENTS_27
100
AcDbLine
 62
7
  6
CONTINUOUS
 10
642.2325985469
 20
666.3580570719
 11
641.3840668768
 21
666.8479459774
  0
LINE
  5
2DC
100
AcDbEntity
  8
00_COMPONENTS_27
100
AcDbLine
 62
7
  6
CONTINUOUS
 10
641.3840668768
 20
667.8277488779
 11
218.8152951289
 21
911.7924237792
  0
LINE
  5
2DD
100
AcDbEntity
  8
00_COMPONENTS_27
100
AcDbLine
 62
7
  6
CONTINUOUS
 10
220.4395336863
 20
911.6663502431
 11
642.1597875985
 21
668.19155626
  0
LINE
  5
2DE
100
AcDbEntity
  8
00_COMPONENTS_27
100
AcDbLine
 62
7
  6
CONTINUOUS
 10
642.9355352407
 20
666.8479360299
 11
642.2325844159
 21
667.3378179515
  0
LINE
  5
2DF
100
AcDbEntity
  8
00_COMPONENTS_19
100
AcDbLine
 62
7
  6
CONTINUOUS
 10
492.5267185393
 20
103.1289669347
 11
492.7301158832
 21
103.4108524639
  0
LINE
  5
2E0
100
AcDbEntity
  8
00_COMPONENTS_8
100
AcDbLine
 62
7
  6
CONTINUOUS
 10
517.3580491191
 20
183.724689148
 11
517.0044972005
 21
183.5205670711
  0
LINE
  5
2E1
100
AcDbEntity
  8
00_COMPONENTS_19
100
AcDbLine
 62
7
  6
CONTINUOUS
 10
84.5899034122
 20
822.7005725176
 11
85.1165772116
 21
822.7541897289
  0
LINE
  5
2E2
100
AcDbEntity
  8
00_COMPONENTS_19
100
AcDbLine
 62
7
  6
CONTINUOUS
 10
83.796299718
 20
825.7859527074
 11
84.9780681541
 21
825.9062608147
  0
LINE
  5
2E3
100
AcDbEntity
  8
00_COMPONENTS_8
100
AcDbLine
 62
7
  6
CONTINUOUS
 10
517.0044972005
 20
142.6954462146
 11
517.3580491191
 21
142.8995682915
  0
LINE
  5
2E4
100
AcDbEntity
  8
00_COMPONENTS_27
100
AcDbLine
 62
7
  6
CONTINUOUS
 10
218.8152951289
 20
911.7924237792
 11
220.4395337052
 21
911.6663502715
  0
LINE
  5
2E5
100
AcDbEntity
  8
00_COMPONENTS_19
100
AcDbLine
 62
7
  6
CONTINUOUS
 10
505.2605081174
 20
102.2475795506
 11
512.3542516334
 21
106.343129832
  0
LINE
  5
2E6
100
AcDbEntity
  8
00_COMPONENTS_27
100
AcDbLine
 62
7
  6
CONTINUOUS
 10
642.2325985469
 20
178.4162125953
 11
520.1864691783
 21
107.9532506266
  0
ARC
  5
2E7
100
AcDbEntity
  8
00_COMPONENTS_19
100
AcDbCircle
 62
7
  6
CONTINUOUS
 10
89.0232787235
 20
336.7854176883
 40
4.2661107206
100
AcDbArc
 50
146.1916316541
 51
147.4681612958
  0
ARC
  5
2E8
100
AcDbEntity
  8
00_COMPONENTS_5
100
AcDbCircle
 62
7
  6
CONTINUOUS
 10
119.4175978038
 20
548.8468342819
 40
11.8999064779
100
AcDbArc
 50
270.1688731206
 51
271.7037811936
  0
ARC
  5
2E9
100
AcDbEntity
  8
00_COMPONENTS_5
100
AcDbCircle
 62
7
  6
CONTINUOUS
 10
99.3110393106
 20
578.2602433026
 40
11.141622154
100
AcDbArc
 50
319.9425044704
 51
320.201271073
  0
ARC
  5
2EA
100
AcDbEntity
  8
00_COMPONENTS_19
100
AcDbCircle
 62
7
  6
CONTINUOUS
 10
95.2269558761
 20
823.7848519294
 40
10.1760215153
100
AcDbArc
 50
167.9361290604
 51
171.4187621256
  0
ARC
  5
2EB
100
AcDbEntity
  8
00_COMPONENTS_19
100
AcDbCircle
 62
7
  6
CONTINUOUS
 10
95.137425219
 20
823.7987540277
 40
10.0854187812
100
AcDbArc
 50
171.420963304
 51
171.8582283668
  0
ARC
  5
2EC
100
AcDbEntity
  8
00_COMPONENTS_19
100
AcDbCircle
 62
7
  6
CONTINUOUS
 10
95.0674704969
 20
823.8086183522
 40
10.0147721418
100
AcDbArc
 50
171.8574142674
 51
172.9260980578
  0
ARC
  5
2ED
100
AcDbEntity
  8
00_COMPONENTS_5
100
AcDbCircle
 62
7
  6
CONTINUOUS
 10
117.2905840659
 20
546.2298383924
 40
9.7233571727
100
AcDbArc
 50
297.2349953777
 51
299.395910447
  0
ARC
  5
2EE
100
AcDbEntity
  8
00_COMPONENTS_19
100
AcDbCircle
 62
7
  6
CONTINUOUS
 10
94.2365184103
 20
823.8281798303
 40
9.1830485624
100
AcDbArc
 50
179.1640924212
 51
186.7501856744
  0
ARC
  5
2EF
100
AcDbEntity
  8
00_COMPONENTS_5
100
AcDbCircle
 62
7
  6
CONTINUOUS
 10
115.8430158384
 20
563.6675075626
 40
7.7131107816
100
AcDbArc
 50
239.9992508973
 51
240.7210877709
  0
ARC
  5
2F0
100
AcDbEntity
  8
00_COMPONENTS_27
100
AcDbCircle
 62
7
  6
CONTINUOUS
 10
102.9624674107
 20
838.3954709504
 40
6.3771697523
100
AcDbArc
 50
167.9977305101
 51
172.5175631959
  0
ARC
  5
2F1
100
AcDbEntity
  8
00_COMPONENTS_19
100
AcDbCircle
 62
7
  6
CONTINUOUS
 10
89.1197930725
 20
823.390499624
 40
4.5823202
100
AcDbArc
 50
190.6176728987
 51
198.2264807563
  0
ARC
  5
2F2
100
AcDbEntity
  8
00_COMPONENTS_19
100
AcDbCircle
 62
7
  6
CONTINUOUS
 10
88.9621901922
 20
823.3582363178
 40
4.4214718546
100
AcDbArc
 50
188.5540992425
 51
190.5830494174
  0
ARC
  5
2F3
100
AcDbEntity
  8
00_COMPONENTS_27
100
AcDbCircle
 62
7
  6
CONTINUOUS
 10
101.0135590871
 20
838.2978072584
 40
4.4146073905
100
AcDbArc
 50
190.1866000059
 51
195.9631610084
  0
ARC
  5
2F4
100
AcDbEntity
  8
00_COMPONENTS_27
100
AcDbCircle
 62
7
  6
CONTINUOUS
 10
99.7119266595
 20
839.9223344256
 40
4.0887096137
100
AcDbArc
 50
222.4664590283
 51
223.9683096064
  0
ARC
  5
2F5
100
AcDbEntity
  8
00_COMPONENTS_5
100
AcDbCircle
 62
7
  6
CONTINUOUS
 10
119.741502733
 20
540.1857568462
 40
3.2341030048
100
AcDbArc
 50
264.9200033995
 51
269.9542648925
  0
ARC
  5
2F6
100
AcDbEntity
  8
00_COMPONENTS_19
100
AcDbCircle
 62
7
  6
CONTINUOUS
 10
85.2653297613
 20
827.7359608463
 40
2.8852572542
100
AcDbArc
 50
119.9905808296
 51
122.1207691547
  0
ARC
  5
2F7
100
AcDbEntity
  8
00_COMPONENTS_5
100
AcDbCircle
 62
7
  6
CONTINUOUS
 10
109.1779036291
 20
568.6070036989
 40
2.6521571743
100
AcDbArc
 50
112.6185267793
 51
114.1161468354
  0
ARC
  5
2F8
100
AcDbEntity
  8
00_COMPONENTS_27
100
AcDbCircle
 62
7
  6
CONTINUOUS
 10
98.460027193
 20
839.2044544206
 40
2.6281111825
100
AcDbArc
 50
170.0362022646
 51
179.9533698492
  0
ARC
  5
2F9
100
AcDbEntity
  8
00_COMPONENTS_27
100
AcDbCircle
 62
7
  6
CONTINUOUS
 10
98.460025141
 20
839.2087319637
 40
2.6281091304
100
AcDbArc
 50
180.046625146
 51
189.9638793451
  0
ARC
  5
2FA
100
AcDbEntity
  8
00_COMPONENTS_3
100
AcDbCircle
 62
7
  6
CONTINUOUS
 10
109.7107824768
 20
568.4218106406
 40
2.618660144
100
AcDbArc
 50
112.8243466539
 51
121.2091995925
  0
ARC
  5
2FB
100
AcDbEntity
  8
00_COMPONENTS_5
100
AcDbCircle
 62
7
  6
CONTINUOUS
 10
103.2794660957
 20
548.6388488944
 40
2.3084712599
100
AcDbArc
 50
218.5946518685
 51
219.8522482798
  0
ARC
  5
2FC
100
AcDbEntity
  8
00_COMPONENTS_5
100
AcDbCircle
 62
7
  6
CONTINUOUS
 10
119.6815951888
 20
539.0659492782
 40
2.1150535735
100
AcDbArc
 50
271.5521802754
 51
272.3469164966
  0
ARC
  5
2FD
100
AcDbEntity
  8
00_COMPONENTS_19
100
AcDbCircle
 62
7
  6
CONTINUOUS
 10
84.7714373237
 20
828.9275971199
 40
0.685424556
100
AcDbArc
 50
165.7909431331
 51
180.1107547708
  0
ARC
  5
2FE
100
AcDbEntity
  8
00_COMPONENTS_19
100
AcDbCircle
 62
7
  6
CONTINUOUS
 10
497.5104841046
 20
109.5800490588
 40
7.8011114465
100
AcDbArc
 50
229.3461244205
 51
235.1611478307
  0
ARC
  5
2FF
100
AcDbEntity
  8
00_COMPONENTS_19
100
AcDbCircle
 62
7
  6
CONTINUOUS
 10
497.001263557
 20
108.9896369435
 40
7.0214391421
100
AcDbArc
 50
222.8211451534
 51
229.3598206798
  0
ARC
  5
300
100
AcDbEntity
  8
00_COMPONENTS_27
100
AcDbCircle
 62
7
  6
CONTINUOUS
 10
520.7422393221
 20
114.7840474129
 40
6.3773937036
100
AcDbArc
 50
247.4837911041
 51
252.0116495074
  0
ARC
  5
301
100
AcDbEntity
  8
00_COMPONENTS_19
100
AcDbCircle
 62
7
  6
CONTINUOUS
 10
502.9978569294
 20
107.2212499558
 40
5.5148033901
100
AcDbArc
 50
264.2161302009
 51
274.8221488764
  0
ARC
  5
302
100
AcDbEntity
  8
00_COMPONENTS_19
100
AcDbCircle
 62
7
  6
CONTINUOUS
 10
495.4664670192
 20
106.8671921032
 40
4.7557142914
100
AcDbArc
 50
238.9672597101
 51
239.9992453969
  0
ARC
  5
303
100
AcDbEntity
  8
00_COMPONENTS_19
100
AcDbCircle
 62
7
  6
CONTINUOUS
 10
495.4659580079
 20
106.8663490478
 40
4.7547294907
100
AcDbArc
 50
236.7600909937
 51
238.9672782607
  0
ARC
  5
304
100
AcDbEntity
  8
00_COMPONENTS_19
100
AcDbCircle
 62
7
  6
CONTINUOUS
 10
495.464848597
 20
106.8644781593
 40
4.7525547356
100
AcDbArc
 50
239.9997828582
 51
246.8184522224
  0
ARC
  5
305
100
AcDbEntity
  8
00_COMPONENTS_19
100
AcDbCircle
 62
7
  6
CONTINUOUS
 10
495.4607693923
 20
106.8585084275
 40
4.7453276131
100
AcDbArc
 50
231.8076753208
 51
236.7605964695
  0
ARC
  5
306
100
AcDbEntity
  8
00_COMPONENTS_27
100
AcDbCircle
 62
7
  6
CONTINUOUS
 10
519.6830928042
 20
113.1448317899
 40
4.4145595269
100
AcDbArc
 50
224.0372244396
 51
229.8146463047
  0
ARC
  5
307
100
AcDbEntity
  8
00_COMPONENTS_27
100
AcDbCircle
 62
7
  6
CONTINUOUS
 10
520.4070525484
 20
111.1961541678
 40
4.0552644763
100
AcDbArc
 50
196.032532713
 51
197.5470461538
  0
ARC
  5
308
100
AcDbEntity
  8
00_COMPONENTS_19
100
AcDbCircle
 62
7
  6
CONTINUOUS
 10
494.7691900196
 20
105.8364409093
 40
3.5155502647
100
AcDbArc
 50
227.2644812046
 51
230.3666691927
  0
ARC
  5
309
100
AcDbEntity
  8
00_COMPONENTS_27
100
AcDbCircle
 62
7
  6
CONTINUOUS
 10
519.1965764788
 20
110.4805666373
 40
2.6310243468
100
AcDbArc
 50
230.0525896718
 51
239.9580937535
  0
ARC
  5
30A
100
AcDbEntity
  8
00_COMPONENTS_19
100
AcDbCircle
 62
7
  6
CONTINUOUS
 10
451.6069055777
 20
642.0625474968
 40
68.6172449698
100
AcDbArc
 50
306.4549705729
 51
306.5920722969
  0
ARC
  5
30B
100
AcDbEntity
  8
00_COMPONENTS_19
100
AcDbCircle
 62
7
  6
CONTINUOUS
 10
497.4762184912
 20
579.4292675203
 40
9.4983151319
100
AcDbArc
 50
118.2235341709
 51
121.4055569673
  0
ARC
  5
30C
100
AcDbEntity
  8
00_COMPONENTS_19
100
AcDbCircle
 62
7
  6
CONTINUOUS
 10
497.4048734715
 20
579.5610222391
 40
9.3484848759
100
AcDbArc
 50
117.4638422476
 51
118.220137075
  0
ARC
  5
30D
100
AcDbEntity
  8
00_COMPONENTS_19
100
AcDbCircle
 62
7
  6
CONTINUOUS
 10
495.9796192147
 20
578.6850423586
 40
9.1143929314
100
AcDbArc
 50
101.8965642322
 51
102.8756940383
  0
ARC
  5
30E
100
AcDbEntity
  8
00_COMPONENTS_19
100
AcDbCircle
 62
7
  6
CONTINUOUS
 10
497.2560843116
 20
579.8537068837
 40
9.0201657889
100
AcDbArc
 50
113.9529177634
 51
117.4826563844
  0
ARC
  5
30F
100
AcDbEntity
  8
00_COMPONENTS_19
100
AcDbCircle
 62
7
  6
CONTINUOUS
 10
489.0932518332
 20
594.9050790244
 40
8.9500633702
100
AcDbArc
 50
291.8768084437
 51
296.2655438659
  0
ARC
  5
310
100
AcDbEntity
  8
00_COMPONENTS_19
100
AcDbCircle
 62
7
  6
CONTINUOUS
 10
489.1741229118
 20
594.6973842944
 40
8.7271920936
100
AcDbArc
 50
287.8634505192
 51
291.8921858989
  0
ARC
  5
311
100
AcDbEntity
  8
00_COMPONENTS_19
100
AcDbCircle
 62
7
  6
CONTINUOUS
 10
489.3654746306
 20
594.0960568034
 40
8.0961577218
100
AcDbArc
 50
284.1660432966
 51
287.8799412552
  0
ARC
  5
312
100
AcDbEntity
  8
00_COMPONENTS_19
100
AcDbCircle
 62
7
  6
CONTINUOUS
 10
496.521251348
 20
582.4864264501
 40
6.2712509855
100
AcDbArc
 50
94.0785147751
 51
95.5685801668
  0
ARC
  5
313
100
AcDbEntity
  8
00_COMPONENTS_19
100
AcDbCircle
 62
7
  6
CONTINUOUS
 10
502.9978569294
 20
591.8970847638
 40
5.5148033901
100
AcDbArc
 50
264.2161302009
 51
274.8221488765
  0
ARC
  5
314
100
AcDbEntity
  8
00_COMPONENTS_27
100
AcDbCircle
 62
7
  6
CONTINUOUS
 10
517.8614249991
 20
599.4536427376
 40
4.4145323743
100
AcDbArc
 50
310.1856463868
 51
315.9631492463
  0
ARC
  5
315
100
AcDbEntity
  8
00_COMPONENTS_27
100
AcDbCircle
 62
7
  6
CONTINUOUS
 10
521.2570999739
 20
593.5722470282
 40
4.4142566179
100
AcDbArc
 50
104.0364462913
 51
109.8136169498
  0
SPLINE
  5
316
100
AcDbEntity
  8
00_COMPONENTS_3
100
AcDbSpline
 62
7
  6
CONTINUOUS
 70
0
 71
3
 72
11
 73
7
 74
0
 42
0.0000001
 43
0.0000001
 44
0.0000000001
 40
0.0
 40
0.0
 40
0.0
 40
0.0
 40
0.2893690783
 40
0.548744373
 40
0.7822501882
 40
1.0
 40
1.0
 40
1.0
 40
1.0
 10
111.3204292635
 20
564.4955255379
 30
0.0
 10
111.3204292635
 20
564.5651827251
 30
0.0
 10
111.3308094037
 20
564.6977148511
 30
0.0
 10
111.3836236602
 20
564.8801313535
 30
0.0
 10
111.472359974
 20
565.0289806896
 30
0.0
 10
111.5559497508
 20
565.1019534728
 30
0.0
 10
111.6007653779
 20
565.1291397631
 30
0.0
  0
SPLINE
  5
317
100
AcDbEntity
  8
00_COMPONENTS_3
100
AcDbSpline
 62
7
  6
CONTINUOUS
 70
0
 71
3
 72
15
 73
11
 74
0
 42
0.0000001
 43
0.0000001
 44
0.0000000001
 40
0.0
 40
0.0
 40
0.0
 40
0.0
 40
0.0983135956
 40
0.2090598621
 40
0.3312927666
 40
0.4624667268
 40
0.5990322038
 40
0.7369014814
 40
0.871865041
 40
1.0
 40
1.0
 40
1.0
 40
1.0
 10
114.2301372199
 20
556.837579656
 30
0.0
 10
113.8364067967
 20
556.8960153539
 30
0.0
 10
113.0161233229
 20
557.1427400998
 30
0.0
 10
111.8362417387
 20
557.7953391841
 30
0.0
 10
110.680258821
 20
558.7203082572
 30
0.0
 10
109.598432301
 20
559.8768356955
 30
0.0
 10
108.6376315284
 20
561.2138956506
 30
0.0
 10
107.8406247302
 20
562.6720948588
 30
0.0
 10
107.2430539312
 20
564.1859088656
 30
0.0
 10
106.9863132825
 20
565.2242361498
 30
0.0
 10
106.9020845934
 20
565.7361340721
 30
0.0
  0
SPLINE
  5
318
100
AcDbEntity
  8
00_COMPONENTS_3
100
AcDbSpline
 62
7
  6
CONTINUOUS
 70
0
 71
3
 72
16
 73
12
 74
0
 42
0.0000001
 43
0.0000001
 44
0.0000000001
 40
0.0
 40
0.0
 40
0.0
 40
0.0
 40
0.04288491
 40
0.0876544231
 40
0.1874572099
 40
0.3050900018
 40
0.4389212979
 40
0.5832136922
 40
0.7301676611
 40
0.8715079435
 40
1.0
 40
1.0
 40
1.0
 40
1.0
 10
112.9961049898
 20
562.7127582962
 30
0.0
 10
112.9614125378
 20
562.6936898685
 30
0.0
 10
112.8851198909
 20
562.6638236056
 30
0.0
 10
112.7120459329
 20
562.641531162
 30
0.0
 10
112.4689252661
 20
562.6920571815
 30
0.0
 10
112.183026501
 20
562.8514731908
 30
0.0
 10
111.9086501929
 20
563.0964049526
 30
0.0
 10
111.6669268402
 20
563.4079076722
 30
0.0
 10
111.4767379564
 20
563.7611959806
 30
0.0
 10
111.3534383194
 20
564.1275436715
 30
0.0
 10
111.3204292635
 20
564.3769131654
 30
0.0
 10
111.3204292635
 20
564.4955255379
 30
0.0
  0
SPLINE
  5
319
100
AcDbEntity
  8
00_COMPONENTS_3
100
AcDbSpline
 62
7
  6
CONTINUOUS
 70
0
 71
3
 72
10
 73
6
 74
0
 42
0.0000001
 43
0.0000001
 44
0.0000000001
 40
0.0
 40
0.0
 40
0.0
 40
0.0
 40
0.5202757808
 40
0.7631513708
 40
1.0
 40
1.0
 40
1.0
 40
1.0
 10
111.1804148782
 20
568.2774510917
 30
0.0
 10
110.9618085641
 20
568.3149405935
 30
0.0
 10
110.629678555
 20
568.3284306614
 30
0.0
 10
110.2121312799
 20
568.2338501993
 30
0.0
 10
110.0229735555
 20
568.1523231983
 30
0.0
 10
109.9344730634
 20
568.1037157122
 30
0.0
  0
SPLINE
  5
31A
100
AcDbEntity
  8
00_COMPONENTS_3
100
AcDbSpline
 62
7
  6
CONTINUOUS
 70
0
 71
3
 72
11
 73
7
 74
0
 42
0.0000001
 43
0.0000001
 44
0.0000000001
 40
0.0
 40
0.0
 40
0.0
 40
0.0
 40
0.276450076
 40
0.5317937076
 40
0.770633174
 40
1.0
 40
1.0
 40
1.0
 40
1.0
 10
106.9020845934
 20
568.356666556
 30
0.0
 10
106.9534338669
 20
568.6094488935
 30
0.0
 10
107.0881163203
 20
569.0897368682
 30
0.0
 10
107.4051170787
 20
569.740131131
 30
0.0
 10
107.8243441224
 20
570.2762216919
 30
0.0
 10
108.1708799199
 20
570.5505484866
 30
0.0
 10
108.3538861645
 20
570.6615010985
 30
0.0
  0
SPLINE
  5
31B
100
AcDbEntity
  8
00_COMPONENTS_3
100
AcDbSpline
 62
7
  6
CONTINUOUS
 70
0
 71
3
 72
9
 73
5
 74
0
 42
0.0000001
 43
0.0000001
 44
0.0000000001
 40
0.0
 40
0.0
 40
0.0
 40
0.0
 40
0.5509683078
 40
1.0
 40
1.0
 40
1.0
 40
1.0
 10
108.9107121821
 20
567.1966734015
 30
0.0
 10
108.943157865
 20
567.1781196843
 30
0.0
 10
109.0074675548
 20
567.1503620948
 30
0.0
 10
109.0795326047
 20
567.1608947215
 30
0.0
 10
109.1062980498
 20
567.1754369921
 30
0.0
  0
SPLINE
  5
31C
100
AcDbEntity
  8
00_COMPONENTS_3
100
AcDbSpline
 62
7
  6
CONTINUOUS
 70
0
 71
3
 72
13
 73
9
 74
0
 42
0.0000001
 43
0.0000001
 44
0.0000000001
 40
0.0
 40
0.0
 40
0.0
 40
0.0
 40
0.09394027
 40
0.1928163066
 40
0.3007103438
 40
0.4198633768
 40
0.6919701783
 40
1.0
 40
1.0
 40
1.0
 40
1.0
 10
111.6007653779
 20
565.1291397631
 30
0.0
 10
111.6407116254
 20
565.1533721648
 30
0.0
 10
111.7309157918
 20
565.1906400986
 30
0.0
 10
111.881445162
 20
565.2058264665
 30
0.0
 10
112.0431725278
 20
565.1819458651
 30
0.0
 10
112.2776645408
 20
565.0964637695
 30
0.0
 10
112.5683381972
 20
564.8963044987
 30
0.0
 10
112.7632532027
 20
564.6805759482
 30
0.0
 10
112.854541599
 20
564.5575446435
 30
0.0
  0
SPLINE
  5
31D
100
AcDbEntity
  8
00_COMPONENTS_3
100
AcDbSpline
 62
7
  6
CONTINUOUS
 70
0
 71
3
 72
9
 73
5
 74
0
 42
0.0000001
 43
0.0000001
 44
0.0000000001
 40
0.0
 40
0.0
 40
0.0
 40
0.0
 40
0.4830745632
 40
1.0
 40
1.0
 40
1.0
 40
1.0
 10
109.9344730634
 20
568.1037157122
 30
0.0
 10
109.7704488548
 20
568.0136280272
 30
0.0
 10
109.4627428693
 20
567.763919784
 30
0.0
 10
109.2547537323
 20
567.4294039465
 30
0.0
 10
109.1715547046
 20
567.247256906
 30
0.0
  0
SPLINE
  5
31E
100
AcDbEntity
  8
00_COMPONENTS_3
100
AcDbSpline
 62
7
  6
CONTINUOUS
 70
0
 71
3
 72
11
 73
7
 74
0
 42
0.0000001
 43
0.0000001
 44
0.0000000001
 40
0.0
 40
0.0
 40
0.0
 40
0.0
 40
0.2863215173
 40
0.5440211632
 40
0.7784827921
 40
1.0
 40
1.0
 40
1.0
 40
1.0
 10
113.2914829507
 20
563.2822924039
 30
0.0
 10
113.2876990928
 20
563.21863343
 30
0.0
 10
113.2708790562
 20
563.0978334181
 30
0.0
 10
113.211748635
 20
562.9332448852
 30
0.0
 10
113.1208607701
 20
562.8003880662
 30
0.0
 10
113.0393420082
 20
562.7365231763
 30
0.0
 10
112.9961049898
 20
562.7127582962
 30
0.0
  0
SPLINE
  5
31F
100
AcDbEntity
  8
00_COMPONENTS_8
100
AcDbSpline
 62
7
  6
CONTINUOUS
 70
0
 71
3
 72
9
 73
5
 74
0
 42
0.0000001
 43
0.0000001
 44
0.0000000001
 40
0.0
 40
0.0
 40
0.0
 40
0.0
 40
0.2302211019
 40
1.0
 40
1.0
 40
1.0
 40
1.0
 10
513.7577518471
 20
171.5968820695
 30
0.0
 10
513.7411564236
 20
171.5987974866
 30
0.0
 10
513.6697488796
 20
171.6129557337
 30
0.0
 10
513.6027628584
 20
171.6440644066
 30
0.0
 10
513.5543884229
 20
171.6719927681
 30
0.0
  0
SPLINE
  5
320
100
AcDbEntity
  8
00_COMPONENTS_8
100
AcDbSpline
 62
7
  6
CONTINUOUS
 70
0
 71
3
 72
9
 73
5
 74
0
 42
0.0000001
 43
0.0000001
 44
0.0000000001
 40
0.0
 40
0.0
 40
0.0
 40
0.0
 40
0.4765598746
 40
1.0
 40
1.0
 40
1.0
 40
1.0
 10
515.024595858
 20
143.0220354189
 30
0.0
 10
515.304066541
 20
142.860686595
 30
0.0
 10
515.9671075464
 20
142.6566768626
 30
0.0
 10
516.653210006
 20
142.6482149331
 30
0.0
 10
517.0044972005
 20
142.6954462146
 30
0.0
  0
SPLINE
  5
321
100
AcDbEntity
  8
00_COMPONENTS_8
100
AcDbSpline
 62
7
  6
CONTINUOUS
 70
0
 71
3
 72
9
 73
5
 74
0
 42
0.0000001
 43
0.0000001
 44
0.0000000001
 40
0.0
 40
0.0
 40
0.0
 40
0.0
 40
0.5234401254
 40
1.0
 40
1.0
 40
1.0
 40
1.0
 10
517.0044972005
 20
183.5205670711
 30
0.0
 10
516.653210006
 20
183.4733357896
 30
0.0
 10
515.9671075464
 20
183.4817977191
 30
0.0
 10
515.304066541
 20
183.6858074515
 30
0.0
 10
515.024595858
 20
183.8471562753
 30
0.0
  0
SPLINE
  5
322
100
AcDbEntity
  8
00_COMPONENTS_8
100
AcDbSpline
 62
7
  6
CONTINUOUS
 70
0
 71
3
 72
10
 73
6
 74
0
 42
0.0000001
 43
0.0000001
 44
0.0000000001
 40
0.0
 40
0.0
 40
0.0
 40
0.0
 40
0.248769923
 40
0.5168126368
 40
1.0
 40
1.0
 40
1.0
 40
1.0
 10
514.9988591654
 20
177.4850342677
 30
0.0
 10
514.998861945
 20
177.5401503964
 30
0.0
 10
514.96317217
 20
177.6537559317
 30
0.0
 10
514.838662694
 20
177.8376694725
 30
0.0
 10
514.7077594755
 20
177.9479047589
 30
0.0
 10
514.6150488546
 20
178.0014300499
 30
0.0
  0
SPLINE
  5
323
100
AcDbEntity
  8
00_COMPONENTS_8
100
AcDbSpline
 62
7
  6
CONTINUOUS
 70
0
 71
3
 72
10
 73
6
 74
0
 42
0.0000001
 43
0.0000001
 44
0.0000000001
 40
0.0
 40
0.0
 40
0.0
 40
0.0
 40
0.2487653052
 40
0.5168094966
 40
1.0
 40
1.0
 40
1.0
 40
1.0
 10
513.9381982782
 20
177.4441890564
 30
0.0
 10
513.9382010578
 20
177.4993054927
 30
0.0
 10
513.9025204837
 20
177.6129152501
 30
0.0
 10
513.778007653
 20
177.7968350108
 30
0.0
 10
513.6471018849
 20
177.9070745397
 30
0.0
 10
513.5543884229
 20
177.9606014711
 30
0.0
  0
SPLINE
  5
324
100
AcDbEntity
  8
00_COMPONENTS_8
100
AcDbSpline
 62
7
  6
CONTINUOUS
 70
0
 71
3
 72
10
 73
6
 74
0
 42
0.0000001
 43
0.0000001
 44
0.0000000001
 40
0.0
 40
0.0
 40
0.0
 40
0.0
 40
0.2891705478
 40
0.5271977423
 40
1.0
 40
1.0
 40
1.0
 40
1.0
 10
513.9381982782
 20
171.7452297627
 30
0.0
 10
513.938199581
 20
171.7193948087
 30
0.0
 10
513.9312576276
 20
171.6708492175
 30
0.0
 10
513.8716074735
 20
171.5979826796
 30
0.0
 10
513.7997141745
 20
171.5920388453
 30
0.0
 10
513.7577518471
 20
171.5968820695
 30
0.0
  0
SPLINE
  5
325
100
AcDbEntity
  8
00_COMPONENTS_8
100
AcDbSpline
 62
7
  6
CONTINUOUS
 70
0
 71
3
 72
10
 73
6
 74
0
 42
0.0000001
 43
0.0000001
 44
0.0000000001
 40
0.0
 40
0.0
 40
0.0
 40
0.0
 40
0.2891625807
 40
0.527189212
 40
1.0
 40
1.0
 40
1.0
 40
1.0
 10
514.9988591655
 20
171.6227406729
 30
0.0
 10
514.9988604683
 20
171.5969080128
 30
0.0
 10
514.9919121258
 20
171.5483667523
 30
0.0
 10
514.9322617591
 20
171.4755095338
 30
0.0
 10
514.8603728362
 20
171.469567211
 30
0.0
 10
514.818412311
 20
171.4744101346
 30
0.0
  0
SPLINE
  5
326
100
AcDbEntity
  8
00_COMPONENTS_5
100
AcDbSpline
 62
7
  6
CONTINUOUS
 70
0
 71
3
 72
9
 73
5
 74
0
 42
0.0000001
 43
0.0000001
 44
0.0000000001
 40
0.0
 40
0.0
 40
0.0
 40
0.0
 40
0.2584279849
 40
1.0
 40
1.0
 40
1.0
 40
1.0
 10
122.0632067712
 20
537.7583827341
 30
0.0
 10
122.0441875487
 20
537.7311542574
 30
0.0
 10
121.9643819268
 20
537.6302875729
 30
0.0
 10
121.8569425448
 20
537.5511507128
 30
0.0
 10
121.7699989438
 20
537.5121089876
 30
0.0
  0
SPLINE
  5
327
100
AcDbEntity
  8
00_COMPONENTS_5
100
AcDbSpline
 62
7
  6
CONTINUOUS
 70
0
 71
3
 72
9
 73
5
 74
0
 42
0.0000001
 43
0.0000001
 44
0.0000000001
 40
0.0
 40
0.0
 40
0.0
 40
0.0
 40
0.2659216679
 40
1.0
 40
1.0
 40
1.0
 40
1.0
 10
122.4001752517
 20
538.5612321485
 30
0.0
 10
122.38281787
 20
538.4857755212
 30
0.0
 10
122.3076268733
 20
538.2047439472
 30
0.0
 10
122.1855974039
 20
537.9336101446
 30
0.0
 10
122.0632067712
 20
537.7583827341
 30
0.0
  0
SPLINE
  5
328
100
AcDbEntity
  8
00_COMPONENTS_5
100
AcDbSpline
 62
7
  6
CONTINUOUS
 70
0
 71
3
 72
9
 73
5
 74
0
 42
0.0000001
 43
0.0000001
 44
0.0000000001
 40
0.0
 40
0.0
 40
0.0
 40
0.0
 40
0.2185524377
 40
1.0
 40
1.0
 40
1.0
 40
1.0
 10
113.7275420385
 20
555.5621821147
 30
0.0
 10
113.7328798835
 20
555.5737872093
 30
0.0
 10
113.7589829126
 20
555.6261091164
 30
0.0
 10
113.7891309452
 20
555.6763032982
 30
0.0
 10
113.8136489097
 20
555.7148383325
 30
0.0
  0
SPLINE
  5
329
100
AcDbEntity
  8
00_COMPONENTS_5
100
AcDbSpline
 62
7
  6
CONTINUOUS
 70
0
 71
3
 72
9
 73
5
 74
0
 42
0.0000001
 43
0.0000001
 44
0.0000000001
 40
0.0
 40
0.0
 40
0.0
 40
0.0
 40
0.2958373269
 40
1.0
 40
1.0
 40
1.0
 40
1.0
 10
112.9355731246
 20
554.6040965592
 30
0.0
 10
112.9364920756
 20
554.6110808453
 30
0.0
 10
112.9409509692
 20
554.6342462616
 30
0.0
 10
112.9538547391
 20
554.6574284134
 30
0.0
 10
112.9679340115
 20
554.6665346826
 30
0.0
  0
SPLINE
  5
32A
100
AcDbEntity
  8
00_COMPONENTS_5
100
AcDbSpline
 62
7
  6
CONTINUOUS
 70
0
 71
3
 72
9
 73
5
 74
0
 42
0.0000001
 43
0.0000001
 44
0.0000000001
 40
0.0
 40
0.0
 40
0.0
 40
0.0
 40
0.4940863381
 40
1.0
 40
1.0
 40
1.0
 40
1.0
 10
112.9679340115
 20
554.6665346826
 30
0.0
 10
113.1324192636
 20
554.7722165895
 30
0.0
 10
113.4362789329
 20
555.0368042142
 30
0.0
 10
113.6438914973
 20
555.3803157404
 30
0.0
 10
113.7275454241
 20
555.5621892806
 30
0.0
  0
SPLINE
  5
32B
100
AcDbEntity
  8
00_COMPONENTS_5
100
AcDbSpline
 62
7
  6
CONTINUOUS
 70
0
 71
3
 72
9
 73
5
 74
0
 42
0.0000001
 43
0.0000001
 44
0.0000000001
 40
0.0
 40
0.0
 40
0.0
 40
0.0
 40
0.4922710158
 40
1.0
 40
1.0
 40
1.0
 40
1.0
 10
103.4864727336
 20
582.869889741
 30
0.0
 10
103.540258001
 20
582.9108476037
 30
0.0
 10
103.6626891492
 20
582.9780424612
 30
0.0
 10
103.7988872132
 20
583.0069221448
 30
0.0
 10
103.868345212
 20
583.0130481517
 30
0.0
  0
SPLINE
  5
32C
100
AcDbEntity
  8
00_COMPONENTS_5
100
AcDbSpline
 62
7
  6
CONTINUOUS
 70
0
 71
3
 72
9
 73
5
 74
0
 42
0.0000001
 43
0.0000001
 44
0.0000000001
 40
0.0
 40
0.0
 40
0.0
 40
0.0
 40
0.5196451095
 40
1.0
 40
1.0
 40
1.0
 40
1.0
 10
99.8029479638
 20
551.3318889696
 30
0.0
 10
99.1901329673
 20
555.624086908
 30
0.0
 10
98.5285107713
 20
563.9702851417
 30
0.0
 10
99.1446102558
 20
572.3376545319
 30
0.0
 10
99.8199940401
 20
576.288240647
 30
0.0
  0
SPLINE
  5
32D
100
AcDbEntity
  8
00_COMPONENTS_5
100
AcDbSpline
 62
7
  6
CONTINUOUS
 70
0
 71
3
 72
11
 73
7
 74
0
 42
0.0000001
 43
0.0000001
 44
0.0000000001
 40
0.0
 40
0.0
 40
0.0
 40
0.0
 40
0.2373235709
 40
0.4731956694
 40
0.7239223023
 40
1.0
 40
1.0
 40
1.0
 40
1.0
 10
111.7933423789
 20
552.6116727296
 30
0.0
 10
111.9541261806
 20
552.7090092885
 30
0.0
 10
112.2528130359
 20
552.9439372201
 30
0.0
 10
112.5935318625
 20
553.4129676452
 30
0.0
 10
112.8234869703
 20
553.9763932603
 30
0.0
 10
112.9066794172
 20
554.3873705631
 30
0.0
 10
112.9355731246
 20
554.6040965592
 30
0.0
  0
SPLINE
  5
32E
100
AcDbEntity
  8
00_COMPONENTS_5
100
AcDbSpline
 62
7
  6
CONTINUOUS
 70
0
 71
3
 72
9
 73
5
 74
0
 42
0.0000001
 43
0.0000001
 44
0.0000000001
 40
0.0
 40
0.0
 40
0.0
 40
0.0
 40
0.2555158961
 40
1.0
 40
1.0
 40
1.0
 40
1.0
 10
101.4751322763
 20
547.1989420047
 30
0.0
 10
101.8844058935
 20
546.6863312386
 30
0.0
 10
103.5393537422
 20
544.723757324
 30
0.0
 10
105.4114444729
 20
542.9399276531
 30
0.0
 10
106.9173666325
 20
541.7630862389
 30
0.0
  0
SPLINE
  5
32F
100
AcDbEntity
  8
00_COMPONENTS_5
100
AcDbSpline
 62
7
  6
CONTINUOUS
 70
0
 71
3
 72
11
 73
7
 74
0
 42
0.0000001
 43
0.0000001
 44
0.0000000001
 40
0.0
 40
0.0
 40
0.0
 40
0.0
 40
0.2606395413
 40
0.5127030192
 40
0.7582340256
 40
1.0
 40
1.0
 40
1.0
 40
1.0
 10
106.9173666325
 20
541.7630862389
 30
0.0
 10
107.8526980834
 20
541.0321475377
 30
0.0
 10
109.7835743713
 20
539.7050444852
 30
0.0
 10
112.8895353212
 20
538.1656668124
 30
0.0
 10
116.1262348051
 20
537.1788194572
 30
0.0
 10
118.3515561873
 20
536.9436806883
 30
0.0
 10
119.4526551367
 20
536.9469794431
 30
0.0
  0
SPLINE
  5
330
100
AcDbEntity
  8
00_COMPONENTS_5
100
AcDbSpline
 62
7
  6
CONTINUOUS
 70
0
 71
3
 72
9
 73
5
 74
0
 42
0.0000001
 43
0.0000001
 44
0.0000000001
 40
0.0
 40
0.0
 40
0.0
 40
0.0
 40
0.5225978584
 40
1.0
 40
1.0
 40
1.0
 40
1.0
 10
121.5235450643
 20
572.8200442786
 30
0.0
 10
120.2301050645
 20
574.4276260054
 30
0.0
 10
117.5180072508
 20
577.3223069708
 30
0.0
 10
114.3283100331
 20
579.7013777081
 30
0.0
 10
112.6959450847
 20
580.64380273
 30
0.0
  0
SPLINE
  5
331
100
AcDbEntity
  8
00_COMPONENTS_5
100
AcDbSpline
 62
7
  6
CONTINUOUS
 70
0
 71
3
 72
11
 73
7
 74
0
 42
0.0000001
 43
0.0000001
 44
0.0000000001
 40
0.0
 40
0.0
 40
0.0
 40
0.0
 40
0.2780330338
 40
0.5366649029
 40
0.7765658579
 40
1.0
 40
1.0
 40
1.0
 40
1.0
 10
112.6959450847
 20
580.64380273
 30
0.0
 10
111.9517450824
 20
581.0734570816
 30
0.0
 10
110.4682619794
 20
581.8256933244
 30
0.0
 10
108.198334356
 20
582.6287836555
 30
0.0
 10
105.9982029163
 20
583.0521744317
 30
0.0
 10
104.5562479947
 20
583.0737202228
 30
0.0
 10
103.868345212
 20
583.0130481517
 30
0.0
  0
SPLINE
  5
332
100
AcDbEntity
  8
00_COMPONENTS_5
100
AcDbSpline
 62
7
  6
CONTINUOUS
 70
0
 71
3
 72
11
 73
7
 74
0
 42
0.0000001
 43
0.0000001
 44
0.0000000001
 40
0.0
 40
0.0
 40
0.0
 40
0.0
 40
0.2283159715
 40
0.4715167488
 40
0.7291149296
 40
1.0
 40
1.0
 40
1.0
 40
1.0
 10
122.4001752517
 20
538.5612321485
 30
0.0
 10
122.9518870931
 20
540.9596482446
 30
0.0
 10
123.7648412578
 20
545.9915769045
 30
0.0
 10
124.14351762
 20
553.8551936273
 30
0.0
 10
123.7187979173
 20
562.1745016676
 30
0.0
 10
122.9223304746
 20
567.8231800804
 30
0.0
 10
122.4001752472
 20
570.6960261737
 30
0.0
  0
SPLINE
  5
333
100
AcDbEntity
  8
00_COMPONENTS_5
100
AcDbSpline
 62
7
  6
CONTINUOUS
 70
0
 71
3
 72
9
 73
5
 74
0
 42
0.0000001
 43
0.0000001
 44
0.0000000001
 40
0.0
 40
0.0
 40
0.0
 40
0.0
 40
0.2488621273
 40
1.0
 40
1.0
 40
1.0
 40
1.0
 10
121.5235450643
 20
572.8200442786
 30
0.0
 10
121.5796753863
 20
572.7502814746
 30
0.0
 10
121.794271257
 20
572.4613681598
 30
0.0
 10
121.9657516291
 20
572.1400179252
 30
0.0
 10
122.0632142199
 20
571.8879451576
 30
0.0
  0
SPLINE
  5
334
100
AcDbEntity
  8
00_COMPONENTS_5
100
AcDbSpline
 62
7
  6
CONTINUOUS
 70
0
 71
3
 72
9
 73
5
 74
0
 42
0.0000001
 43
0.0000001
 44
0.0000000001
 40
0.0
 40
0.0
 40
0.0
 40
0.0
 40
0.2573310239
 40
1.0
 40
1.0
 40
1.0
 40
1.0
 10
122.0632142199
 20
571.8879451576
 30
0.0
 10
122.1015613183
 20
571.7887640782
 30
0.0
 10
122.2415813855
 20
571.3999294142
 30
0.0
 10
122.3452953518
 20
570.9979704171
 30
0.0
 10
122.4001752472
 20
570.6960261737
 30
0.0
  0
SPLINE
  5
335
100
AcDbEntity
  8
00_COMPONENTS_5
100
AcDbSpline
 62
7
  6
CONTINUOUS
 70
0
 71
3
 72
11
 73
7
 74
0
 42
0.0000001
 43
0.0000001
 44
0.0000000001
 40
0.0
 40
0.0
 40
0.0
 40
0.0
 40
0.2239872699
 40
0.4624590824
 40
0.721990376
 40
1.0
 40
1.0
 40
1.0
 40
1.0
 10
113.8136489097
 20
555.7148407808
 30
0.0
 10
114.0554456662
 20
556.0948799839
 30
0.0
 10
114.4217477913
 20
556.9694951157
 30
0.0
 10
114.5790877353
 20
558.4276131683
 30
0.0
 10
114.3947122075
 20
559.9882174537
 30
0.0
 10
114.0478789217
 20
561.0222997808
 30
0.0
 10
113.8136321374
 20
561.5299384651
 30
0.0
  0
SPLINE
  5
336
100
AcDbEntity
  8
00_COMPONENTS_5
100
AcDbSpline
 62
7
  6
CONTINUOUS
 70
0
 71
3
 72
9
 73
5
 74
0
 42
0.0000001
 43
0.0000001
 44
0.0000000001
 40
0.0
 40
0.0
 40
0.0
 40
0.0
 40
0.2449994127
 40
1.0
 40
1.0
 40
1.0
 40
1.0
 10
113.8136218783
 20
561.529980219
 30
0.0
 10
113.8045015223
 20
561.5497475924
 30
0.0
 10
113.7694651268
 20
561.6314124965
 30
0.0
 10
113.7423669
 20
561.7165701106
 30
0.0
 10
113.7275420385
 20
561.7819987643
 30
0.0
  0
SPLINE
  5
337
100
AcDbEntity
  8
00_COMPONENTS_5
100
AcDbSpline
 62
7
  6
CONTINUOUS
 70
0
 71
3
 72
9
 73
5
 74
0
 42
0.0000001
 43
0.0000001
 44
0.0000000001
 40
0.0
 40
0.0
 40
0.0
 40
0.0
 40
0.2487156073
 40
1.0
 40
1.0
 40
1.0
 40
1.0
 10
113.7275420385
 20
561.7819987643
 30
0.0
 10
113.6834721051
 20
561.9764988212
 30
0.0
 10
113.4897359609
 20
562.7544580419
 30
0.0
 10
113.2219297773
 20
563.5157214906
 30
0.0
 10
112.9679340115
 20
564.0619671632
 30
0.0
  0
SPLINE
  5
338
100
AcDbEntity
  8
00_COMPONENTS_5
100
AcDbSpline
 62
7
  6
CONTINUOUS
 70
0
 71
3
 72
9
 73
5
 74
0
 42
0.0000001
 43
0.0000001
 44
0.0000000001
 40
0.0
 40
0.0
 40
0.0
 40
0.0
 40
0.2596909107
 40
1.0
 40
1.0
 40
1.0
 40
1.0
 10
112.9679340115
 20
564.0619671632
 30
0.0
 10
112.9637145309
 20
564.0710596968
 30
0.0
 10
112.9487591956
 20
564.106630212
 30
0.0
 10
112.9386986352
 20
564.144472087
 30
0.0
 10
112.9355731245
 20
564.1728760355
 30
0.0
  0
SPLINE
  5
339
100
AcDbEntity
  8
00_COMPONENTS_5
100
AcDbSpline
 62
7
  6
CONTINUOUS
 70
0
 71
3
 72
11
 73
7
 74
0
 42
0.0000001
 43
0.0000001
 44
0.0000000001
 40
0.0
 40
0.0
 40
0.0
 40
0.0
 40
0.2373753215
 40
0.4884764532
 40
0.7444372057
 40
1.0
 40
1.0
 40
1.0
 40
1.0
 10
112.9355731245
 20
564.1728760355
 30
0.0
 10
112.8847036559
 20
564.6301121771
 30
0.0
 10
112.7016432912
 20
565.5636755927
 30
0.0
 10
112.1956074709
 20
566.9227030973
 30
0.0
 10
111.4097454212
 20
568.1884382668
 30
0.0
 10
110.6821200502
 20
568.8835164229
 30
0.0
 10
110.2780980145
 20
569.1700378569
 30
0.0
  0
SPLINE
  5
33A
100
AcDbEntity
  8
00_COMPONENTS_5
100
AcDbSpline
 62
7
  6
CONTINUOUS
 70
0
 71
3
 72
9
 73
5
 74
0
 42
0.0000001
 43
0.0000001
 44
0.0000000001
 40
0.0
 40
0.0
 40
0.0
 40
0.0
 40
0.2601008781
 40
1.0
 40
1.0
 40
1.0
 40
1.0
 10
110.2780980145
 20
569.1700380272
 30
0.0
 10
110.2690127262
 20
569.1764809027
 30
0.0
 10
110.2354217642
 20
569.20301504
 30
0.0
 10
110.207046501
 20
569.2366907965
 30
0.0
 10
110.1919934127
 20
569.2645700905
 30
0.0
  0
SPLINE
  5
33B
100
AcDbEntity
  8
00_COMPONENTS_5
100
AcDbSpline
 62
7
  6
CONTINUOUS
 70
0
 71
3
 72
11
 73
7
 74
0
 42
0.0000001
 43
0.0000001
 44
0.0000000001
 40
0.0
 40
0.0
 40
0.0
 40
0.0
 40
0.2615330361
 40
0.5110177498
 40
0.7546738975
 40
1.0
 40
1.0
 40
1.0
 40
1.0
 10
110.191988187
 20
569.2645788597
 30
0.0
 10
110.0172245293
 20
569.5882514977
 30
0.0
 10
109.6055327766
 20
570.1879631751
 30
0.0
 10
108.7718885643
 20
570.8715237869
 30
0.0
 10
107.7846098899
 20
571.2476873626
 30
0.0
 10
107.0865056966
 20
571.2835649618
 30
0.0
 10
106.7425579897
 20
571.2560640876
 30
0.0
  0
SPLINE
  5
33C
100
AcDbEntity
  8
00_COMPONENTS_5
100
AcDbSpline
 62
7
  6
CONTINUOUS
 70
0
 71
3
 72
9
 73
5
 74
0
 42
0.0000001
 43
0.0000001
 44
0.0000000001
 40
0.0
 40
0.0
 40
0.0
 40
0.0
 40
0.3064815807
 40
1.0
 40
1.0
 40
1.0
 40
1.0
 10
106.7425464278
 20
571.2560641824
 30
0.0
 10
106.7337412337
 20
571.2553601437
 30
0.0
 10
106.7050725169
 20
571.2539800284
 30
0.0
 10
106.6754678625
 20
571.254833199
 30
0.0
 10
106.6564401053
 20
571.2609550923
 30
0.0
  0
SPLINE
  5
33D
100
AcDbEntity
  8
00_COMPONENTS_5
100
AcDbSpline
 62
7
  6
CONTINUOUS
 70
0
 71
3
 72
9
 73
5
 74
0
 42
0.0000001
 43
0.0000001
 44
0.0000000001
 40
0.0
 40
0.0
 40
0.0
 40
0.0
 40
0.2185966263
 40
1.0
 40
1.0
 40
1.0
 40
1.0
 10
100.1976928607
 20
550.6749327077
 30
0.0
 10
100.2018929484
 20
550.6707848068
 30
0.0
 10
100.2230498708
 20
550.6537939871
 30
0.0
 10
100.2489525203
 20
550.6436266856
 30
0.0
 10
100.2693834387
 20
550.6383504903
 30
0.0
  0
SPLINE
  5
33E
100
AcDbEntity
  8
00_COMPONENTS_5
100
AcDbSpline
 62
7
  6
CONTINUOUS
 70
0
 71
3
 72
9
 73
5
 74
0
 42
0.0000001
 43
0.0000001
 44
0.0000000001
 40
0.0
 40
0.0
 40
0.0
 40
0.0
 40
0.2415413383
 40
1.0
 40
1.0
 40
1.0
 40
1.0
 10
106.6564384024
 20
554.2480556274
 30
0.0
 10
106.6612260768
 20
554.2388730819
 30
0.0
 10
106.683667715
 20
554.20224926
 30
0.0
 10
106.7155984048
 20
554.1717125149
 30
0.0
 10
106.7425464278
 20
554.1535133475
 30
0.0
  0
SPLINE
  5
33F
100
AcDbEntity
  8
00_COMPONENTS_5
100
AcDbSpline
 62
7
  6
CONTINUOUS
 70
0
 71
3
 72
8
 73
4
 74
0
 42
0.0000001
 43
0.0000001
 44
0.0000000001
 40
0.0
 40
0.0
 40
0.0
 40
0.0
 40
1.0
 40
1.0
 40
1.0
 40
1.0
 10
106.6919820354
 20
543.9268453292
 30
0.0
 10
106.6785075375
 20
543.9372178409
 30
0.0
 10
106.666185507
 20
543.9495109905
 30
0.0
 10
106.6564632496
 20
543.9634619332
 30
0.0
  0
SPLINE
  5
340
100
AcDbEntity
  8
00_COMPONENTS_5
100
AcDbSpline
 62
7
  6
CONTINUOUS
 70
0
 71
3
 72
9
 73
5
 74
0
 42
0.0000001
 43
0.0000001
 44
0.0000000001
 40
0.0
 40
0.0
 40
0.0
 40
0.0
 40
0.2219013554
 40
1.0
 40
1.0
 40
1.0
 40
1.0
 10
106.6564384024
 20
543.9634769566
 30
0.0
 10
106.6613737052
 20
543.9579511537
 30
0.0
 10
106.6860869708
 20
543.9352523638
 30
0.0
 10
106.7176469786
 20
543.9211770251
 30
0.0
 10
106.7425464278
 20
543.9137646389
 30
0.0
  0
SPLINE
  5
341
100
AcDbEntity
  8
00_COMPONENTS_5
100
AcDbSpline
 62
7
  6
CONTINUOUS
 70
0
 71
3
 72
20
 73
16
 74
0
 42
0.0000001
 43
0.0000001
 44
0.0000000001
 40
0.0
 40
0.0
 40
0.0
 40
0.0
 40
0.0510561369
 40
0.091838231
 40
0.1256504193
 40
0.161529203
 40
0.2072651743
 40
0.2641023417
 40
0.3301871398
 40
0.4026988443
 40
0.4789533602
 40
0.5568564371
 40
0.7119548976
 40
0.8608648363
 40
1.0
 40
1.0
 40
1.0
 40
1.0
 10
106.6919522212
 20
543.9268331297
 30
0.0
 10
106.6778308745
 20
543.8250838351
 30
0.0
 10
106.6478654794
 20
543.6424796683
 30
0.0
 10
106.5460385939
 20
543.4047837227
 30
0.0
 10
106.3613704239
 20
543.2590840675
 30
0.0
 10
106.1177419869
 20
543.2511008204
 30
0.0
 10
105.8543084862
 20
543.3494803651
 30
0.0
 10
105.5620581673
 20
543.5240083357
 30
0.0
 10
105.2509347333
 20
543.7655667348
 30
0.0
 10
104.932024816
 20
544.0578932808
 30
0.0
 10
104.6167000946
 20
544.3878041543
 30
0.0
 10
104.2145171981
 20
544.8630068428
 30
0.0
 10
103.7731478207
 20
545.4944228214
 30
0.0
 10
103.3615212273
 20
546.2897701709
 30
0.0
 10
103.2016019731
 20
546.8519347128
 30
0.0
 10
103.1531574985
 20
547.1276499436
 30
0.0
  0
SPLINE
  5
342
100
AcDbEntity
  8
00_COMPONENTS_5
100
AcDbSpline
 62
7
  6
CONTINUOUS
 70
0
 71
3
 72
8
 73
4
 74
0
 42
0.0000001
 43
0.0000001
 44
0.0000000001
 40
0.0
 40
0.0
 40
0.0
 40
0.0
 40
1.0
 40
1.0
 40
1.0
 40
1.0
 10
103.1533056591
 20
547.1337281226
 30
0.0
 10
103.162644674
 20
547.1314341063
 30
0.0
 10
103.1720932011
 20
547.1292473817
 30
0.0
 10
103.1816827872
 20
547.1285265844
 30
0.0
  0
SPLINE
  5
343
100
AcDbEntity
  8
00_COMPONENTS_5
100
AcDbSpline
 62
7
  6
CONTINUOUS
 70
0
 71
3
 72
9
 73
5
 74
0
 42
0.0000001
 43
0.0000001
 44
0.0000000001
 40
0.0
 40
0.0
 40
0.0
 40
0.0
 40
0.4522508982
 40
1.0
 40
1.0
 40
1.0
 40
1.0
 10
105.7099754313
 20
571.134921379
 30
0.0
 10
105.3826597724
 20
570.9554169244
 30
0.0
 10
104.7922444449
 20
570.3200373255
 30
0.0
 10
104.5227776091
 20
569.5190345771
 30
0.0
 10
104.4478553374
 20
569.0731513257
 30
0.0
  0
SPLINE
  5
344
100
AcDbEntity
  8
00_COMPONENTS_5
100
AcDbSpline
 62
7
  6
CONTINUOUS
 70
0
 71
3
 72
8
 73
4
 74
0
 42
0.0000001
 43
0.0000001
 44
0.0000000001
 40
0.0
 40
0.0
 40
0.0
 40
0.0
 40
1.0
 40
1.0
 40
1.0
 40
1.0
 10
103.1816751956
 20
547.1294529517
 30
0.0
 10
103.1898201429
 20
547.127560504
 30
0.0
 10
103.1975753172
 20
547.1242652768
 30
0.0
 10
103.2055766634
 20
547.1218362884
 30
0.0
  0
SPLINE
  5
345
100
AcDbEntity
  8
00_COMPONENTS_5
100
AcDbSpline
 62
7
  6
CONTINUOUS
 70
0
 71
3
 72
9
 73
5
 74
0
 42
0.0000001
 43
0.0000001
 44
0.0000000001
 40
0.0
 40
0.0
 40
0.0
 40
0.0
 40
0.2286542521
 40
1.0
 40
1.0
 40
1.0
 40
1.0
 10
103.1257271002
 20
547.1660280527
 30
0.0
 10
103.1293490272
 20
547.1624224658
 30
0.0
 10
103.1461531479
 20
547.1475737048
 30
0.0
 10
103.1662629547
 20
547.1371789359
 30
0.0
 10
103.1816751956
 20
547.1294529517
 30
0.0
  0
SPLINE
  5
346
100
AcDbEntity
  8
00_COMPONENTS_5
100
AcDbSpline
 62
7
  6
CONTINUOUS
 70
0
 71
3
 72
9
 73
5
 74
0
 42
0.0000001
 43
0.0000001
 44
0.0000000001
 40
0.0
 40
0.0
 40
0.0
 40
0.0
 40
0.2811087826
 40
1.0
 40
1.0
 40
1.0
 40
1.0
 10
103.1533056591
 20
547.1337281226
 30
0.0
 10
103.1510601204
 20
547.1370195929
 30
0.0
 10
103.1429446367
 20
547.148690349
 30
0.0
 10
103.1320445734
 20
547.1580330565
 30
0.0
 10
103.1257271002
 20
547.1660280527
 30
0.0
  0
LINE
  5
347
100
AcDbEntity
  8
00_COMPONENTS_5
100
AcDbLine
 62
7
  6
CONTINUOUS
 10
103.1257271002
 20
547.1660280527
 11
103.1209074043
 21
547.1715212323
  0
SPLINE
  5
348
100
AcDbEntity
  8
00_COMPONENTS_5
100
AcDbSpline
 62
7
  6
CONTINUOUS
 70
0
 71
3
 72
9
 73
5
 74
0
 42
0.0000001
 43
0.0000001
 44
0.0000000001
 40
0.0
 40
0.0
 40
0.0
 40
0.0
 40
0.2535213196
 40
1.0
 40
1.0
 40
1.0
 40
1.0
 10
103.1209074043
 20
561.8880971499
 30
0.0
 10
103.1255559121
 20
561.8660442926
 30
0.0
 10
103.1464921645
 20
561.779656921
 30
0.0
 10
103.1772739963
 20
561.6954157722
 30
0.0
 10
103.2069978021
 20
561.6360847011
 30
0.0
  0
SPLINE
  5
349
100
AcDbEntity
  8
00_COMPONENTS_5
100
AcDbSpline
 62
7
  6
CONTINUOUS
 70
0
 71
3
 72
25
 73
21
 74
0
 42
0.0000001
 43
0.0000001
 44
0.0000000001
 40
0.0
 40
0.0
 40
0.0
 40
0.0
 40
0.0510041818
 40
0.0726460424
 40
0.0918924994
 40
0.109334375
 40
0.1260626257
 40
0.1621913413
 40
0.1838999923
 40
0.2084625707
 40
0.2656264772
 40
0.3320181794
 40
0.4045229161
 40
0.4806346517
 40
0.5582483832
 40
0.6359712719
 40
0.7127550042
 40
0.8611544629
 40
0.931969835
 40
1.0
 40
1.0
 40
1.0
 40
1.0
 10
106.656435446
 20
543.9634861558
 30
0.0
 10
106.6452986749
 20
543.8633885231
 30
0.0
 10
106.6207198094
 20
543.720671388
 30
0.0
 10
106.5547897849
 20
543.5509585972
 30
0.0
 10
106.4945433884
 20
543.451818801
 30
0.0
 10
106.4188617167
 20
543.3765205076
 30
0.0
 10
106.2946216301
 20
543.3100243417
 30
0.0
 10
106.1399765869
 20
543.3049300396
 30
0.0
 10
105.98288736
 20
543.3474683594
 30
0.0
 10
105.7939485346
 20
543.4266196734
 30
0.0
 10
105.5427486697
 20
543.5790094186
 30
0.0
 10
105.2390244633
 20
543.8198969738
 30
0.0
 10
104.9271123894
 20
544.108497153
 30
0.0
 10
104.6221780769
 20
544.4354190537
 30
0.0
 10
104.3294411746
 20
544.786610839
 30
0.0
 10
104.0560770897
 20
545.1550567089
 30
0.0
 10
103.7363812829
 20
545.6607887459
 30
0.0
 10
103.4695837417
 20
546.1842056645
 30
0.0
 10
103.2858286675
 20
546.7214237508
 30
0.0
 10
103.2235783138
 20
546.9895710673
 30
0.0
 10
103.2055783865
 20
547.1226952493
 30
0.0
  0
SPLINE
  5
34A
100
AcDbEntity
  8
00_COMPONENTS_5
100
AcDbSpline
 62
7
  6
CONTINUOUS
 70
0
 71
3
 72
9
 73
5
 74
0
 42
0.0000001
 43
0.0000001
 44
0.0000000001
 40
0.0
 40
0.0
 40
0.0
 40
0.0
 40
0.244385064
 40
1.0
 40
1.0
 40
1.0
 40
1.0
 10
103.2069978021
 20
561.6360847011
 30
0.0
 10
103.2929400658
 20
561.4645371342
 30
0.0
 10
103.6603873144
 20
560.7704414002
 30
0.0
 10
104.0785123084
 20
560.1044758253
 30
0.0
 10
104.4058775679
 20
559.6097284451
 30
0.0
  0
SPLINE
  5
34B
100
AcDbEntity
  8
00_COMPONENTS_5
100
AcDbSpline
 62
7
  6
CONTINUOUS
 70
0
 71
3
 72
9
 73
5
 74
0
 42
0.0000001
 43
0.0000001
 44
0.0000000001
 40
0.0
 40
0.0
 40
0.0
 40
0.0
 40
0.2619670986
 40
1.0
 40
1.0
 40
1.0
 40
1.0
 10
104.4058775679
 20
559.6097284451
 30
0.0
 10
104.4113574338
 20
559.6014287423
 30
0.0
 10
104.4306951559
 20
559.5687793989
 30
0.0
 10
104.4438505609
 20
559.5321035097
 30
0.0
 10
104.4478553374
 20
559.5043718493
 30
0.0
  0
SPLINE
  5
34C
100
AcDbEntity
  8
00_COMPONENTS_5
100
AcDbSpline
 62
7
  6
CONTINUOUS
 70
0
 71
3
 72
11
 73
7
 74
0
 42
0.0000001
 43
0.0000001
 44
0.0000000001
 40
0.0
 40
0.0
 40
0.0
 40
0.0
 40
0.2373667082
 40
0.491382435
 40
0.7513811445
 40
1.0
 40
1.0
 40
1.0
 40
1.0
 10
104.4478553374
 20
559.5043718493
 30
0.0
 10
104.5133508706
 20
559.05588957
 30
0.0
 10
104.7489519062
 20
558.1415489738
 30
0.0
 10
105.3013416419
 20
556.8148922407
 30
0.0
 10
105.9697938038
 20
555.5204113462
 30
0.0
 10
106.4369366107
 20
554.6689872933
 30
0.0
 10
106.656438402
 20
554.2480565828
 30
0.0
  0
SPLINE
  5
34D
100
AcDbEntity
  8
00_COMPONENTS_5
100
AcDbSpline
 62
7
  6
CONTINUOUS
 70
0
 71
3
 72
8
 73
4
 74
0
 42
0.0000001
 43
0.0000001
 44
0.0000000001
 40
0.0
 40
0.0
 40
0.0
 40
0.0
 40
1.0
 40
1.0
 40
1.0
 40
1.0
 10
107.4766452764
 20
561.3543332885
 30
0.0
 10
106.4533039388
 20
560.7723842812
 30
0.0
 10
105.4292482314
 20
560.191692072
 30
0.0
 10
104.4059069057
 20
559.6097430438
 30
0.0
  0
LINE
  5
34E
100
AcDbEntity
  8
00_COMPONENTS_5
100
AcDbLine
 62
7
  6
CONTINUOUS
 10
104.4059069057
 20
569.0051049238
 11
107.4766395205
 21
570.6927316637
  0
SPLINE
  5
34F
100
AcDbEntity
  8
00_COMPONENTS_5
100
AcDbSpline
 62
7
  6
CONTINUOUS
 70
0
 71
3
 72
9
 73
5
 74
0
 42
0.0000001
 43
0.0000001
 44
0.0000000001
 40
0.0
 40
0.0
 40
0.0
 40
0.0
 40
0.2471828243
 40
1.0
 40
1.0
 40
1.0
 40
1.0
 10
107.4766846569
 20
570.6926481754
 30
0.0
 10
107.5078501473
 20
570.709647275
 30
0.0
 10
107.6328021971
 20
570.7804672526
 30
0.0
 10
107.7570946961
 20
570.852447517
 30
0.0
 10
107.8518584435
 20
570.9045002366
 30
0.0
  0
SPLINE
  5
350
100
AcDbEntity
  8
00_COMPONENTS_5
100
AcDbSpline
 62
7
  6
CONTINUOUS
 70
0
 71
3
 72
9
 73
5
 74
0
 42
0.0000001
 43
0.0000001
 44
0.0000000001
 40
0.0
 40
0.0
 40
0.0
 40
0.0
 40
0.5205155786
 40
1.0
 40
1.0
 40
1.0
 40
1.0
 10
100.9049517673
 20
548.5526931523
 30
0.0
 10
100.9492536239
 20
548.290762267
 30
0.0
 10
101.0860995709
 20
547.7937408607
 30
0.0
 10
101.3504366189
 20
547.3474175503
 30
0.0
 10
101.5072538977
 20
547.1595573469
 30
0.0
  0
SPLINE
  5
351
100
AcDbEntity
  8
00_COMPONENTS_5
100
AcDbSpline
 62
7
  6
CONTINUOUS
 70
0
 71
3
 72
18
 73
14
 74
0
 42
0.0000001
 43
0.0000001
 44
0.0000000001
 40
0.0
 40
0.0
 40
0.0
 40
0.0
 40
0.0556522499
 40
0.1028391077
 40
0.1431028397
 40
0.179971491
 40
0.2623797537
 40
0.3160190709
 40
0.3787141771
 40
0.526245369
 40
0.6890082499
 40
0.8504354392
 40
1.0
 40
1.0
 40
1.0
 40
1.0
 10
110.19199956
 20
541.9222675941
 30
0.0
 10
110.1816530348
 20
541.8223875772
 30
0.0
 10
110.1518623213
 20
541.6384716572
 30
0.0
 10
110.0663679069
 20
541.3929500278
 30
0.0
 10
109.9395527593
 20
541.2036486915
 30
0.0
 10
109.69671134
 20
541.0337919246
 30
0.0
 10
109.3591875671
 20
541.0424275282
 30
0.0
 10
109.0218081661
 20
541.158373179
 30
0.0
 10
108.5954485355
 20
541.3754159065
 30
0.0
 10
108.0531783979
 20
541.7804607483
 30
0.0
 10
107.458701341
 20
542.3950985665
 30
0.0
 10
106.9828254136
 20
543.1112557823
 30
0.0
 10
106.787881289
 20
543.6477486186
 30
0.0
 10
106.7425668225
 20
543.9137792516
 30
0.0
  0
SPLINE
  5
352
100
AcDbEntity
  8
00_COMPONENTS_5
100
AcDbSpline
 62
7
  6
CONTINUOUS
 70
0
 71
3
 72
11
 73
7
 74
0
 42
0.0000001
 43
0.0000001
 44
0.0000000001
 40
0.0
 40
0.0
 40
0.0
 40
0.0
 40
0.3091006294
 40
0.5903010629
 40
0.8245509844
 40
1.0
 40
1.0
 40
1.0
 40
1.0
 10
106.7425482884
 20
554.1535123903
 30
0.0
 10
107.0830963794
 20
553.9235254164
 30
0.0
 10
107.7410556624
 20
553.4955265931
 30
0.0
 10
108.678797751
 20
552.9272003821
 30
0.0
 10
109.482275995
 20
552.4821514142
 30
0.0
 10
109.9744832036
 20
552.2462542533
 30
0.0
 10
110.1919930592
 20
552.1620196016
 30
0.0
  0
SPLINE
  5
353
100
AcDbEntity
  8
00_COMPONENTS_5
100
AcDbSpline
 62
7
  6
CONTINUOUS
 70
0
 71
3
 72
18
 73
14
 74
0
 42
0.0000001
 43
0.0000001
 44
0.0000000001
 40
0.0
 40
0.0
 40
0.0
 40
0.0
 40
0.055514569
 40
0.1025298614
 40
0.1425519425
 40
0.1791502517
 40
0.2612991364
 40
0.3150381669
 40
0.3780580729
 40
0.5263404325
 40
0.689558935
 40
0.850903815
 40
1.0
 40
1.0
 40
1.0
 40
1.0
 10
110.2295579122
 20
541.8844512753
 30
0.0
 10
110.2194748098
 20
541.782272141
 30
0.0
 10
110.1900232426
 20
541.5941869277
 30
0.0
 10
110.1048032085
 20
541.3428006412
 30
0.0
 10
109.9769830837
 20
541.1487974809
 30
0.0
 10
109.7297180064
 20
540.9744627876
 30
0.0
 10
109.3842098271
 20
540.9849695155
 30
0.0
 10
109.0384634077
 20
541.1044489758
 30
0.0
 10
108.5996200849
 20
541.3282749631
 30
0.0
 10
108.0408226906
 20
541.7440024202
 30
0.0
 10
107.4278691763
 20
542.3734618595
 30
0.0
 10
106.9377628924
 20
543.1058870806
 30
0.0
 10
106.7379185651
 20
543.6549345053
 30
0.0
 10
106.6919522212
 20
543.9268331297
 30
0.0
  0
SPLINE
  5
354
100
AcDbEntity
  8
00_COMPONENTS_5
100
AcDbSpline
 62
7
  6
CONTINUOUS
 70
0
 71
3
 72
10
 73
6
 74
0
 42
0.0000001
 43
0.0000001
 44
0.0000000001
 40
0.0
 40
0.0
 40
0.0
 40
0.0
 40
0.2136742683
 40
0.4613043544
 40
1.0
 40
1.0
 40
1.0
 40
1.0
 10
119.7682065622
 20
536.9526698151
 30
0.0
 10
119.9165125009
 20
536.9587410941
 30
0.0
 10
120.2353785462
 20
537.0039405145
 30
0.0
 10
120.9063443815
 20
537.1880561393
 30
0.0
 10
121.4076485873
 20
537.4132288358
 30
0.0
 10
121.7403917782
 20
537.5844415807
 30
0.0
  0
SPLINE
  5
355
100
AcDbEntity
  8
00_COMPONENTS_5
100
AcDbSpline
 62
7
  6
CONTINUOUS
 70
0
 71
3
 72
9
 73
5
 74
0
 42
0.0000001
 43
0.0000001
 44
0.0000000001
 40
0.0
 40
0.0
 40
0.0
 40
0.0
 40
0.2331512599
 40
1.0
 40
1.0
 40
1.0
 40
1.0
 10
106.6919867297
 20
543.9268528917
 30
0.0
 10
106.6957518045
 20
543.9253189883
 30
0.0
 10
106.7121547812
 20
543.9193678569
 30
0.0
 10
106.729319656
 20
543.9156502639
 30
0.0
 10
106.7425583982
 20
543.9137684167
 30
0.0
  0
SPLINE
  5
356
100
AcDbEntity
  8
00_COMPONENTS_5
100
AcDbSpline
 62
7
  6
CONTINUOUS
 70
0
 71
3
 72
18
 73
14
 74
0
 42
0.0000001
 43
0.0000001
 44
0.0000000001
 40
0.0
 40
0.0
 40
0.0
 40
0.0
 40
0.1588373888
 40
0.3303887903
 40
0.4902522779
 40
0.5585029494
 40
0.6175564888
 40
0.7120936834
 40
0.753175296
 40
0.7940721519
 40
0.8375625918
 40
0.8856388158
 40
1.0
 40
1.0
 40
1.0
 40
1.0
 10
110.2295579122
 20
541.8844512753
 30
0.0
 10
110.2811746954
 20
541.6004361572
 30
0.0
 10
110.5195054776
 20
541.0310491475
 30
0.0
 10
111.115132971
 20
540.3541813536
 30
0.0
 10
111.7225192353
 20
539.9403808405
 30
0.0
 10
112.2069002257
 20
539.7404020988
 30
0.0
 10
112.5985221433
 20
539.644449393
 30
0.0
 10
112.9679349128
 20
539.653847778
 30
0.0
 10
113.2590590044
 20
539.7988874645
 30
0.0
 10
113.4285457306
 20
539.9554498108
 30
0.0
 10
113.5614005903
 20
540.1585278283
 30
0.0
 10
113.7030389014
 20
540.5066343374
 30
0.0
 10
113.7505496052
 20
540.8019814116
 30
0.0
 10
113.767163868
 20
541.0091536738
 30
0.0
  0
SPLINE
  5
357
100
AcDbEntity
  8
00_COMPONENTS_5
100
AcDbSpline
 62
7
  6
CONTINUOUS
 70
0
 71
3
 72
11
 73
7
 74
0
 42
0.0000001
 43
0.0000001
 44
0.0000000001
 40
0.0
 40
0.0
 40
0.0
 40
0.0
 40
0.2560848565
 40
0.5244960837
 40
0.7792232009
 40
1.0
 40
1.0
 40
1.0
 40
1.0
 10
117.0007133823
 20
540.9739256001
 30
0.0
 10
117.3614981915
 20
540.8153719287
 30
0.0
 10
118.137581892
 20
540.5705396038
 30
0.0
 10
119.3384785013
 20
540.4451579198
 30
0.0
 10
120.485638946
 20
540.5673579153
 30
0.0
 10
121.1842004646
 20
540.8152820626
 30
0.0
 10
121.4841369159
 20
540.9748741344
 30
0.0
  0
SPLINE
  5
358
100
AcDbEntity
  8
00_COMPONENTS_5
100
AcDbSpline
 62
7
  6
CONTINUOUS
 70
0
 71
3
 72
15
 73
11
 74
0
 42
0.0000001
 43
0.0000001
 44
0.0000000001
 40
0.0
 40
0.0
 40
0.0
 40
0.0
 40
0.1441383631
 40
0.299786012
 40
0.457765353
 40
0.6018014224
 40
0.7240971432
 40
0.8271372298
 40
0.9170110323
 40
1.0
 40
1.0
 40
1.0
 40
1.0
 10
113.767163868
 20
541.0091536738
 30
0.0
 10
113.7981962921
 20
540.838515999
 30
0.0
 10
113.9093234471
 20
540.4903119036
 30
0.0
 10
114.214500489
 20
540.0237623481
 30
0.0
 10
114.6309863675
 20
539.6538964586
 30
0.0
 10
115.0882753016
 20
539.4159884542
 30
0.0
 10
115.5234764113
 20
539.3073099987
 30
0.0
 10
115.9066680042
 20
539.3059220829
 30
0.0
 10
116.2316696882
 20
539.3894444634
 30
0.0
 10
116.4152720816
 20
539.4924800943
 30
0.0
 10
116.4957593386
 20
539.5515846745
 30
0.0
  0
SPLINE
  5
359
100
AcDbEntity
  8
00_COMPONENTS_5
100
AcDbSpline
 62
7
  6
CONTINUOUS
 70
0
 71
3
 72
11
 73
7
 74
0
 42
0.0000001
 43
0.0000001
 44
0.0000000001
 40
0.0
 40
0.0
 40
0.0
 40
0.0
 40
0.2365054459
 40
0.472719211
 40
0.7242042871
 40
1.0
 40
1.0
 40
1.0
 40
1.0
 10
119.4551340747
 20
536.9643572687
 30
0.0
 10
119.1303103678
 20
536.9933645678
 30
0.0
 10
118.4842279318
 20
537.1568447635
 30
0.0
 10
117.6403844258
 20
537.7213816902
 30
0.0
 10
116.9638438834
 20
538.5430502099
 30
0.0
 10
116.6370310658
 20
539.1985047176
 30
0.0
 10
116.4957593386
 20
539.5515846745
 30
0.0
  0
SPLINE
  5
35A
100
AcDbEntity
  8
00_COMPONENTS_5
100
AcDbSpline
 62
7
  6
CONTINUOUS
 70
0
 71
3
 72
10
 73
6
 74
0
 42
0.0000001
 43
0.0000001
 44
0.0000000001
 40
0.0
 40
0.0
 40
0.0
 40
0.0
 40
0.5530287596
 40
0.7902623654
 40
1.0
 40
1.0
 40
1.0
 40
1.0
 10
117.0007125664
 20
540.9739249661
 30
0.0
 10
116.9794914667
 20
540.6897294447
 30
0.0
 10
116.9234099964
 20
540.2804231257
 30
0.0
 10
116.7337464816
 20
539.8002149572
 30
0.0
 10
116.5856819358
 20
539.6115032306
 30
0.0
 10
116.4957425743
 20
539.5515647254
 30
0.0
  0
SPLINE
  5
35B
100
AcDbEntity
  8
00_COMPONENTS_5
100
AcDbSpline
 62
7
  6
CONTINUOUS
 70
0
 71
3
 72
8
 73
4
 74
0
 42
0.0000001
 43
0.0000001
 44
0.0000000001
 40
0.0
 40
0.0
 40
0.0
 40
0.0
 40
1.0
 40
1.0
 40
1.0
 40
1.0
 10
116.4957425743
 20
539.5515647254
 30
0.0
 10
116.47721918
 20
539.5692506811
 30
0.0
 10
116.4614425605
 20
539.5903183914
 30
0.0
 10
116.4497236413
 20
539.6130906574
 30
0.0
  0
SPLINE
  5
35C
100
AcDbEntity
  8
00_COMPONENTS_5
100
AcDbSpline
 62
7
  6
CONTINUOUS
 70
0
 71
3
 72
9
 73
5
 74
0
 42
0.0000001
 43
0.0000001
 44
0.0000000001
 40
0.0
 40
0.0
 40
0.0
 40
0.0
 40
0.2219102025
 40
1.0
 40
1.0
 40
1.0
 40
1.0
 10
113.7275420385
 20
541.0475074193
 30
0.0
 10
113.732477352
 20
541.0419813774
 30
0.0
 10
113.7571905015
 20
541.0192831547
 30
0.0
 10
113.788749929
 20
541.0052077542
 30
0.0
 10
113.8136489097
 20
540.9977961814
 30
0.0
  0
SPLINE
  5
35D
100
AcDbEntity
  8
00_COMPONENTS_5
100
AcDbSpline
 62
7
  6
CONTINUOUS
 70
0
 71
3
 72
13
 73
9
 74
0
 42
0.0000001
 43
0.0000001
 44
0.0000000001
 40
0.0
 40
0.0
 40
0.0
 40
0.0
 40
0.1019566935
 40
0.2158864471
 40
0.3402594295
 40
0.4722606838
 40
0.7438610364
 40
1.0
 40
1.0
 40
1.0
 40
1.0
 10
112.850897202
 20
554.1989357802
 30
0.0
 10
112.5458886931
 20
554.2766261699
 30
0.0
 10
111.920591072
 20
554.5251205635
 30
0.0
 10
111.0323891558
 20
555.0943518119
 30
0.0
 10
110.174384961
 20
555.8561166325
 30
0.0
 10
109.1106453773
 20
557.0963610906
 30
0.0
 10
108.0802170313
 20
558.8751764071
 30
0.0
 10
107.6125340092
 20
560.4605221653
 30
0.0
 10
107.5141628444
 20
561.2450982918
 30
0.0
  0
SPLINE
  5
35E
100
AcDbEntity
  8
00_COMPONENTS_5
100
AcDbSpline
 62
7
  6
CONTINUOUS
 70
0
 71
3
 72
8
 73
4
 74
0
 42
0.0000001
 43
0.0000001
 44
0.0000000001
 40
0.0
 40
0.0
 40
0.0
 40
0.0
 40
1.0
 40
1.0
 40
1.0
 40
1.0
 10
113.8136517585
 20
540.9978106906
 30
0.0
 10
113.7978525693
 20
541.0000248478
 30
0.0
 10
113.7820992315
 20
541.0035779757
 30
0.0
 10
113.7671599593
 20
541.0091757449
 30
0.0
  0
SPLINE
  5
35F
100
AcDbEntity
  8
00_COMPONENTS_5
100
AcDbSpline
 62
7
  6
CONTINUOUS
 70
0
 71
3
 72
8
 73
4
 74
0
 42
0.0000001
 43
0.0000001
 44
0.0000000001
 40
0.0
 40
0.0
 40
0.0
 40
0.0
 40
1.0
 40
1.0
 40
1.0
 40
1.0
 10
113.7671599593
 20
541.0091757449
 30
0.0
 10
113.7521303597
 20
541.0197492202
 30
0.0
 10
113.7382927693
 20
541.0326073159
 30
0.0
 10
113.7275403054
 20
541.0475093883
 30
0.0
  0
SPLINE
  5
360
100
AcDbEntity
  8
00_COMPONENTS_5
100
AcDbSpline
 62
7
  6
CONTINUOUS
 70
0
 71
3
 72
20
 73
16
 74
0
 42
0.0000001
 43
0.0000001
 44
0.0000000001
 40
0.0
 40
0.0
 40
0.0
 40
0.0
 40
0.0551005513
 40
0.1032716535
 40
0.143436576
 40
0.1781781183
 40
0.2138734589
 40
0.2572186485
 40
0.3105500811
 40
0.3729170194
 40
0.4422883948
 40
0.516548111
 40
0.6739049425
 40
0.8365552616
 40
1.0
 40
1.0
 40
1.0
 40
1.0
 10
103.1531574985
 20
547.1276499436
 30
0.0
 10
103.1437878664
 20
547.0636844137
 30
0.0
 10
103.1241953952
 20
546.9440386705
 30
0.0
 10
103.0775651935
 20
546.7814917521
 30
0.0
 10
103.0039730677
 20
546.6545142035
 30
0.0
 10
102.8954086039
 20
546.5739611579
 30
0.0
 10
102.7568182439
 20
546.561909778
 30
0.0
 10
102.6071170673
 20
546.6109811061
 30
0.0
 10
102.4456884907
 20
546.7059772001
 30
0.0
 10
102.2742608763
 20
546.8399263026
 30
0.0
 10
102.0969274224
 20
547.0044103342
 30
0.0
 10
101.8525913326
 20
547.2595814856
 30
0.0
 10
101.555311517
 20
547.6146057033
 30
0.0
 10
101.2179589198
 20
548.0709371984
 30
0.0
 10
101.0075509575
 20
548.3906824077
 30
0.0
 10
100.9049517673
 20
548.5526931523
 30
0.0
  0
SPLINE
  5
361
100
AcDbEntity
  8
00_COMPONENTS_5
100
AcDbSpline
 62
7
  6
CONTINUOUS
 70
0
 71
3
 72
18
 73
14
 74
0
 42
0.0000001
 43
0.0000001
 44
0.0000000001
 40
0.0
 40
0.0
 40
0.0
 40
0.0
 40
0.1147705899
 40
0.1632458331
 40
0.2072120027
 40
0.2485849994
 40
0.2899956455
 40
0.3843751862
 40
0.4430185505
 40
0.5105172204
 40
0.6692090781
 40
0.8406174686
 40
1.0
 40
1.0
 40
1.0
 40
1.0
 10
113.7275418241
 20
541.0474973149
 30
0.0
 10
113.7093011738
 20
540.8450947829
 30
0.0
 10
113.6595559781
 20
540.5564990556
 30
0.0
 10
113.5180404849
 20
540.2163680991
 30
0.0
 10
113.3865065314
 20
540.0171162523
 30
0.0
 10
113.220370644
 20
539.8625210506
 30
0.0
 10
112.9375022543
 20
539.7175374097
 30
0.0
 10
112.5783244434
 20
539.7020436067
 30
0.0
 10
112.1978364949
 20
539.7907242423
 30
0.0
 10
111.7281338529
 20
539.980142329
 30
0.0
 10
111.1378047037
 20
540.3795533714
 30
0.0
 10
110.5586849841
 20
541.0385175089
 30
0.0
 10
110.3275772585
 20
541.5947294003
 30
0.0
 10
110.2780916645
 20
541.8725735623
 30
0.0
  0
SPLINE
  5
362
100
AcDbEntity
  8
00_COMPONENTS_5
100
AcDbSpline
 62
7
  6
CONTINUOUS
 70
0
 71
3
 72
10
 73
6
 74
0
 42
0.0000001
 43
0.0000001
 44
0.0000000001
 40
0.0
 40
0.0
 40
0.0
 40
0.0
 40
0.5257410467
 40
0.7717056661
 40
1.0
 40
1.0
 40
1.0
 40
1.0
 10
107.8711229435
 20
560.7838793859
 30
0.0
 10
108.410524825
 20
559.9195645088
 30
0.0
 10
109.3374856781
 20
558.7245456156
 30
0.0
 10
110.7833593599
 20
557.4288995129
 30
0.0
 10
111.5480269629
 20
556.911445191
 30
0.0
 10
111.9339200849
 20
556.6950904506
 30
0.0
  0
SPLINE
  5
363
100
AcDbEntity
  8
00_COMPONENTS_5
100
AcDbSpline
 62
7
  6
CONTINUOUS
 70
0
 71
3
 72
13
 73
9
 74
0
 42
0.0000001
 43
0.0000001
 44
0.0000000001
 40
0.0
 40
0.0
 40
0.0
 40
0.0
 40
0.101762647
 40
0.2147633645
 40
0.3377278595
 40
0.4682819699
 40
0.7390258825
 40
1.0
 40
1.0
 40
1.0
 40
1.0
 10
112.9210936993
 20
554.4663699034
 30
0.0
 10
112.6445635263
 20
554.5394531912
 30
0.0
 10
112.0788400506
 20
554.7642205774
 30
0.0
 10
111.271126169
 20
555.2699910836
 30
0.0
 10
110.4863367796
 20
555.9427016164
 30
0.0
 10
109.4990723953
 20
557.0411085606
 30
0.0
 10
108.5081993522
 20
558.6357696943
 30
0.0
 10
108.0121826376
 20
560.0640494578
 30
0.0
 10
107.8711229435
 20
560.7838793859
 30
0.0
  0
SPLINE
  5
364
100
AcDbEntity
  8
00_COMPONENTS_5
100
AcDbSpline
 62
7
  6
CONTINUOUS
 70
0
 71
3
 72
9
 73
5
 74
0
 42
0.0000001
 43
0.0000001
 44
0.0000000001
 40
0.0
 40
0.0
 40
0.0
 40
0.0
 40
0.2685014315
 40
1.0
 40
1.0
 40
1.0
 40
1.0
 10
111.9339200849
 20
556.6950904506
 30
0.0
 10
112.099439305
 20
556.6022904864
 30
0.0
 10
112.7276544174
 20
556.2794606423
 30
0.0
 10
113.4103623146
 20
556.0520018968
 30
0.0
 10
113.9215356338
 20
555.9747723833
 30
0.0
  0
SPLINE
  5
365
100
AcDbEntity
  8
00_COMPONENTS_5
100
AcDbSpline
 62
7
  6
CONTINUOUS
 70
0
 71
3
 72
9
 73
5
 74
0
 42
0.0000001
 43
0.0000001
 44
0.0000000001
 40
0.0
 40
0.0
 40
0.0
 40
0.0
 40
0.2781593664
 40
1.0
 40
1.0
 40
1.0
 40
1.0
 10
110.2781025651
 20
552.1571313452
 30
0.0
 10
110.4244041344
 20
552.1737783585
 30
0.0
 10
110.9470060119
 20
552.250219328
 30
0.0
 10
111.4664640839
 20
552.4137845837
 30
0.0
 10
111.7933423789
 20
552.6116727296
 30
0.0
  0
SPLINE
  5
366
100
AcDbEntity
  8
00_COMPONENTS_5
100
AcDbSpline
 62
7
  6
CONTINUOUS
 70
0
 71
3
 72
9
 73
5
 74
0
 42
0.0000001
 43
0.0000001
 44
0.0000000001
 40
0.0
 40
0.0
 40
0.0
 40
0.0
 40
0.5253965103
 40
1.0
 40
1.0
 40
1.0
 40
1.0
 10
108.1039461218
 20
560.9320145909
 30
0.0
 10
108.6207574832
 20
560.1038978187
 30
0.0
 10
109.7654132654
 20
558.6225974807
 30
0.0
 10
111.2227237922
 20
557.4286912737
 30
0.0
 10
111.9863731148
 20
556.9878081059
 30
0.0
  0
SPLINE
  5
367
100
AcDbEntity
  8
00_COMPONENTS_5
100
AcDbSpline
 62
7
  6
CONTINUOUS
 70
0
 71
3
 72
9
 73
5
 74
0
 42
0.0000001
 43
0.0000001
 44
0.0000000001
 40
0.0
 40
0.0
 40
0.0
 40
0.0
 40
0.193592995
 40
1.0
 40
1.0
 40
1.0
 40
1.0
 10
107.8711229038
 20
560.7838798209
 30
0.0
 10
107.8855532293
 20
560.7943194536
 30
0.0
 10
107.9616096646
 20
560.8461126777
 30
0.0
 10
108.0397422072
 20
560.8948391353
 30
0.0
 10
108.1039460786
 20
560.932014555
 30
0.0
  0
SPLINE
  5
368
100
AcDbEntity
  8
00_COMPONENTS_5
100
AcDbSpline
 62
7
  6
CONTINUOUS
 70
0
 71
3
 72
9
 73
5
 74
0
 42
0.0000001
 43
0.0000001
 44
0.0000000001
 40
0.0
 40
0.0
 40
0.0
 40
0.0
 40
0.2685050931
 40
1.0
 40
1.0
 40
1.0
 40
1.0
 10
112.0708306754
 20
556.9397518428
 30
0.0
 10
112.2330103148
 20
556.848824247
 30
0.0
 10
112.848595923
 20
556.5326326402
 30
0.0
 10
113.5177828367
 20
556.3101845501
 30
0.0
 10
114.0187567165
 20
556.2353368653
 30
0.0
  0
SPLINE
  5
369
100
AcDbEntity
  8
00_COMPONENTS_5
100
AcDbSpline
 62
7
  6
CONTINUOUS
 70
0
 71
3
 72
9
 73
5
 74
0
 42
0.0000001
 43
0.0000001
 44
0.0000000001
 40
0.0
 40
0.0
 40
0.0
 40
0.0
 40
0.1859940614
 40
1.0
 40
1.0
 40
1.0
 40
1.0
 10
100.9049479676
 20
548.5526966465
 30
0.0
 10
100.9071930955
 20
548.5533848804
 30
0.0
 10
100.9190966757
 20
548.5576205123
 30
0.0
 10
100.9305426788
 20
548.5630200594
 30
0.0
 10
100.9397628699
 20
548.5675596307
 30
0.0
  0
SPLINE
  5
36A
100
AcDbEntity
  8
00_COMPONENTS_5
100
AcDbSpline
 62
7
  6
CONTINUOUS
 70
0
 71
3
 72
12
 73
8
 74
0
 42
0.0000001
 43
0.0000001
 44
0.0000000001
 40
0.0
 40
0.0
 40
0.0
 40
0.0
 40
0.1098935254
 40
0.2265522077
 40
0.4756106405
 40
0.7362654161
 40
1.0
 40
1.0
 40
1.0
 40
1.0
 10
107.4766864339
 20
561.3543547176
 30
0.0
 10
107.500885149
 20
561.3715870341
 30
0.0
 10
107.5663652383
 20
561.3816127467
 30
0.0
 10
107.6925739335
 20
561.3549644211
 30
0.0
 10
107.8374228943
 20
561.2581494617
 30
0.0
 10
107.9838526439
 20
561.1087530437
 30
0.0
 10
108.0651269996
 20
560.99181485
 30
0.0
 10
108.1039461218
 20
560.9320145909
 30
0.0
  0
SPLINE
  5
36B
100
AcDbEntity
  8
00_COMPONENTS_5
100
AcDbSpline
 62
7
  6
CONTINUOUS
 70
0
 71
3
 72
9
 73
5
 74
0
 42
0.0000001
 43
0.0000001
 44
0.0000000001
 40
0.0
 40
0.0
 40
0.0
 40
0.0
 40
0.2225482987
 40
1.0
 40
1.0
 40
1.0
 40
1.0
 10
107.5141508043
 20
561.2451528586
 30
0.0
 10
107.5130396115
 20
561.2536716222
 30
0.0
 10
107.5057974334
 20
561.2916322274
 30
0.0
 10
107.4912294578
 20
561.3281023497
 30
0.0
 10
107.476684233
 20
561.3543536988
 30
0.0
  0
SPLINE
  5
36C
100
AcDbEntity
  8
00_COMPONENTS_5
100
AcDbSpline
 62
7
  6
CONTINUOUS
 70
0
 71
3
 72
13
 73
9
 74
0
 42
0.0000001
 43
0.0000001
 44
0.0000000001
 40
0.0
 40
0.0
 40
0.0
 40
0.0
 40
0.0782426332
 40
0.1789711352
 40
0.2977717062
 40
0.4283456401
 40
0.7072502226
 40
1.0
 40
1.0
 40
1.0
 40
1.0
 10
107.5141656755
 20
561.2450895975
 30
0.0
 10
107.527996016
 20
561.2530998184
 30
0.0
 10
107.5698548058
 20
561.2501581139
 30
0.0
 10
107.6176702666
 20
561.2114638501
 30
0.0
 10
107.6661708714
 20
561.1587644874
 30
0.0
 10
107.7281895502
 20
561.0701719885
 30
0.0
 10
107.7987731903
 20
560.9450441661
 30
0.0
 10
107.8477478993
 20
560.8389215932
 30
0.0
 10
107.8711221302
 20
560.783879308
 30
0.0
  0
SPLINE
  5
36D
100
AcDbEntity
  8
00_COMPONENTS_5
100
AcDbSpline
 62
7
  6
CONTINUOUS
 70
0
 71
3
 72
9
 73
5
 74
0
 42
0.0000001
 43
0.0000001
 44
0.0000000001
 40
0.0
 40
0.0
 40
0.0
 40
0.0
 40
0.2642533895
 40
1.0
 40
1.0
 40
1.0
 40
1.0
 10
119.7389358652
 20
572.7966380441
 30
0.0
 10
119.7883051393
 20
572.8339575321
 30
0.0
 10
119.9769012836
 20
572.9727924923
 30
0.0
 10
120.1720818679
 20
573.1029383777
 30
0.0
 10
120.3202214414
 20
573.1909467702
 30
0.0
  0
SPLINE
  5
36E
100
AcDbEntity
  8
00_COMPONENTS_5
100
AcDbSpline
 62
7
  6
CONTINUOUS
 70
0
 71
3
 72
9
 73
5
 74
0
 42
0.0000001
 43
0.0000001
 44
0.0000000001
 40
0.0
 40
0.0
 40
0.0
 40
0.0
 40
0.4886042404
 40
1.0
 40
1.0
 40
1.0
 40
1.0
 10
116.4957397814
 20
567.2960983164
 30
0.0
 10
116.8349814493
 20
568.285066605
 30
0.0
 10
117.7293062034
 20
570.2427728576
 30
0.0
 10
118.9872179765
 20
572.001398112
 30
0.0
 10
119.7389143936
 20
572.7966692056
 30
0.0
  0
SPLINE
  5
36F
100
AcDbEntity
  8
00_COMPONENTS_5
100
AcDbSpline
 62
7
  6
CONTINUOUS
 70
0
 71
3
 72
11
 73
7
 74
0
 42
0.0000001
 43
0.0000001
 44
0.0000000001
 40
0.0
 40
0.0
 40
0.0
 40
0.0
 40
0.2602030811
 40
0.5200368502
 40
0.7681886977
 40
1.0
 40
1.0
 40
1.0
 40
1.0
 10
119.7388796255
 20
572.7966279724
 30
0.0
 10
119.8949723667
 20
572.6389139973
 30
0.0
 10
120.2515788415
 20
572.3674030198
 30
0.0
 10
120.841235981
 20
572.0745793727
 30
0.0
 10
121.454120607
 20
571.9073660574
 30
0.0
 10
121.8656174964
 20
571.8818742223
 30
0.0
 10
122.0632099319
 20
571.8879451633
 30
0.0
  0
SPLINE
  5
370
100
AcDbEntity
  8
00_COMPONENTS_5
100
AcDbSpline
 62
7
  6
CONTINUOUS
 70
0
 71
3
 72
10
 73
6
 74
0
 42
0.0000001
 43
0.0000001
 44
0.0000000001
 40
0.0
 40
0.0
 40
0.0
 40
0.0
 40
0.2660965228
 40
0.5214216717
 40
1.0
 40
1.0
 40
1.0
 40
1.0
 10
100.9049273849
 20
548.5526817695
 30
0.0
 10
100.7976151235
 20
548.7212392299
 30
0.0
 10
100.615851446
 20
549.0700727894
 30
0.0
 10
100.3514875479
 20
549.7737611424
 30
0.0
 10
100.236239002
 20
550.3176300979
 30
0.0
 10
100.1976927464
 20
550.6749337609
 30
0.0
  0
SPLINE
  5
371
100
AcDbEntity
  8
00_COMPONENTS_5
100
AcDbSpline
 62
7
  6
CONTINUOUS
 70
0
 71
3
 72
11
 73
7
 74
0
 42
0.0000001
 43
0.0000001
 44
0.0000000001
 40
0.0
 40
0.0
 40
0.0
 40
0.0
 40
0.2257609501
 40
0.4870856689
 40
0.7556616302
 40
1.0
 40
1.0
 40
1.0
 40
1.0
 10
121.4841367449
 20
565.846226857
 30
0.0
 10
121.1793305141
 20
565.6798418342
 30
0.0
 10
120.4847141966
 20
565.3877298839
 30
0.0
 10
119.3537237859
 20
565.1035984519
 30
0.0
 10
118.1656312239
 20
564.9778978699
 30
0.0
 10
117.3734273415
 20
565.0087201088
 30
0.0
 10
117.0007132038
 20
565.0570719546
 30
0.0
  0
SPLINE
  5
372
100
AcDbEntity
  8
00_COMPONENTS_5
100
AcDbSpline
 62
7
  6
CONTINUOUS
 70
0
 71
3
 72
10
 73
6
 74
0
 42
0.0000001
 43
0.0000001
 44
0.0000000001
 40
0.0
 40
0.0
 40
0.0
 40
0.0
 40
0.2632372325
 40
0.5191408753
 40
1.0
 40
1.0
 40
1.0
 40
1.0
 10
116.4957207345
 20
567.2960846254
 30
0.0
 10
116.5823781458
 20
567.1132493168
 30
0.0
 10
116.7192391449
 20
566.7365361391
 30
0.0
 10
116.9043793325
 20
565.9900390838
 30
0.0
 10
116.9765775873
 20
565.4258823335
 30
0.0
 10
117.0007125975
 20
565.0570684101
 30
0.0
  0
SPLINE
  5
373
100
AcDbEntity
  8
00_COMPONENTS_5
100
AcDbSpline
 62
7
  6
CONTINUOUS
 70
0
 71
3
 72
9
 73
5
 74
0
 42
0.0000001
 43
0.0000001
 44
0.0000000001
 40
0.0
 40
0.0
 40
0.0
 40
0.0
 40
0.2781197344
 40
1.0
 40
1.0
 40
1.0
 40
1.0
 10
117.0007125255
 20
565.0570694877
 30
0.0
 10
116.9929107237
 20
565.0586517866
 30
0.0
 10
116.9651992399
 20
565.0655552788
 30
0.0
 10
116.9380127818
 20
565.0769017585
 30
0.0
 10
116.9214825915
 20
565.0892988819
 30
0.0
  0
SPLINE
  5
374
100
AcDbEntity
  8
00_COMPONENTS_5
100
AcDbSpline
 62
7
  6
CONTINUOUS
 70
0
 71
3
 72
18
 73
14
 74
0
 42
0.0000001
 43
0.0000001
 44
0.0000000001
 40
0.0
 40
0.0
 40
0.0
 40
0.0
 40
0.0659539793
 40
0.1312516275
 40
0.2600355444
 40
0.3869710775
 40
0.5126046115
 40
0.6371691297
 40
0.760386193
 40
0.8212959044
 40
0.881607916
 40
0.9411907795
 40
1.0
 40
1.0
 40
1.0
 40
1.0
 10
117.0007249958
 20
565.0570823239
 30
0.0
 10
117.0319385041
 20
564.5283055303
 30
0.0
 10
117.0912250118
 20
563.4758273814
 30
0.0
 10
117.1795459239
 20
561.3892000466
 30
0.0
 10
117.2423547364
 20
558.8116147721
 30
0.0
 10
117.2785000815
 20
555.7490281784
 30
0.0
 10
117.2876795188
 20
552.7201323178
 30
0.0
 10
117.2785523943
 20
549.7211173101
 30
0.0
 10
117.2493553238
 20
547.2420247965
 30
0.0
 10
117.2046048082
 20
545.2793518288
 30
0.0
 10
117.1586008478
 20
543.8279498875
 30
0.0
 10
117.092035425
 20
542.3941969721
 30
0.0
 10
117.0322466097
 20
541.445203568
 30
0.0
 10
117.0007251322
 20
540.9739411475
 30
0.0
  0
SPLINE
  5
375
100
AcDbEntity
  8
00_COMPONENTS_5
100
AcDbSpline
 62
7
  6
CONTINUOUS
 70
0
 71
3
 72
9
 73
5
 74
0
 42
0.0000001
 43
0.0000001
 44
0.0000000001
 40
0.0
 40
0.0
 40
0.0
 40
0.0
 40
0.2674299033
 40
1.0
 40
1.0
 40
1.0
 40
1.0
 10
117.0007251451
 20
540.9739415805
 30
0.0
 10
116.9928369927
 20
540.976880532
 30
0.0
 10
116.9639811286
 20
540.9893622949
 30
0.0
 10
116.9371121874
 20
541.007532562
 30
0.0
 10
116.9214738917
 20
541.0244784292
 30
0.0
  0
SPLINE
  5
376
100
AcDbEntity
  8
00_COMPONENTS_5
100
AcDbSpline
 62
7
  6
CONTINUOUS
 70
0
 71
3
 72
9
 73
5
 74
0
 42
0.0000001
 43
0.0000001
 44
0.0000000001
 40
0.0
 40
0.0
 40
0.0
 40
0.0
 40
0.252951003
 40
1.0
 40
1.0
 40
1.0
 40
1.0
 10
121.4841385879
 20
565.8462245778
 30
0.0
 10
121.5516695058
 20
565.3732333755
 30
0.0
 10
121.8056509477
 20
563.5015163401
 30
0.0
 10
122.0071559593
 20
561.6226209628
 30
0.0
 10
122.1259843241
 20
560.2165661486
 30
0.0
  0
SPLINE
  5
377
100
AcDbEntity
  8
00_COMPONENTS_5
100
AcDbSpline
 62
7
  6
CONTINUOUS
 70
0
 71
3
 72
9
 73
5
 74
0
 42
0.0000001
 43
0.0000001
 44
0.0000000001
 40
0.0
 40
0.0
 40
0.0
 40
0.0
 40
0.5180914583
 40
1.0
 40
1.0
 40
1.0
 40
1.0
 10
122.1259843241
 20
560.2165661486
 30
0.0
 10
122.4065318825
 20
556.8969442238
 30
0.0
 10
122.6096051776
 20
550.4543692318
 30
0.0
 10
122.0063253737
 20
544.0293499693
 30
0.0
 10
121.484138715
 20
540.9748738904
 30
0.0
  0
SPLINE
  5
378
100
AcDbEntity
  8
00_COMPONENTS_5
100
AcDbSpline
 62
7
  6
CONTINUOUS
 70
0
 71
3
 72
14
 73
10
 74
0
 42
0.0000001
 43
0.0000001
 44
0.0000000001
 40
0.0
 40
0.0
 40
0.0
 40
0.0
 40
0.1056678399
 40
0.202624469
 40
0.3014171954
 40
0.4104949246
 40
0.5341641948
 40
0.6739400193
 40
1.0
 40
1.0
 40
1.0
 40
1.0
 10
122.4001761229
 20
538.5612333926
 30
0.0
 10
122.29612085
 20
538.5591934233
 30
0.0
 10
122.0936059093
 20
538.5828481728
 30
0.0
 10
121.8245857056
 20
538.7241533851
 30
0.0
 10
121.6246943742
 20
538.9559667845
 30
0.0
 10
121.4906611692
 20
539.257267137
 30
0.0
 10
121.4137656841
 20
539.6179513674
 30
0.0
 10
121.3790026123
 20
540.1989576451
 30
0.0
 10
121.4300205237
 20
540.6583213034
 30
0.0
 10
121.4841362252
 20
540.9748747677
 30
0.0
  0
SPLINE
  5
379
100
AcDbEntity
  8
00_COMPONENTS_5
100
AcDbSpline
 62
7
  6
CONTINUOUS
 70
0
 71
3
 72
11
 73
7
 74
0
 42
0.0000001
 43
0.0000001
 44
0.0000000001
 40
0.0
 40
0.0
 40
0.0
 40
0.0
 40
0.2526300683
 40
0.5098782853
 40
0.7631198207
 40
1.0
 40
1.0
 40
1.0
 40
1.0
 10
121.4841360947
 20
565.8462247479
 30
0.0
 10
121.4241280177
 20
566.2665371838
 30
0.0
 10
121.3648730818
 20
567.124895148
 30
0.0
 10
121.4691123511
 20
568.4086432224
 30
0.0
 10
121.784600655
 20
569.6310244726
 30
0.0
 10
122.1641284578
 20
570.3754494067
 30
0.0
 10
122.4001761275
 20
570.6960255512
 30
0.0
  0
SPLINE
  5
37A
100
AcDbEntity
  8
00_COMPONENTS_5
100
AcDbSpline
 62
7
  6
CONTINUOUS
 70
0
 71
3
 72
16
 73
12
 74
0
 42
0.0000001
 43
0.0000001
 44
0.0000000001
 40
0.0
 40
0.0
 40
0.0
 40
0.0
 40
0.1078028095
 40
0.2096965432
 40
0.3169028092
 40
0.3760936709
 40
0.4389128868
 40
0.5720888692
 40
0.7119909991
 40
0.8551834779
 40
1.0
 40
1.0
 40
1.0
 40
1.0
 10
113.8135576225
 20
568.4081660594
 30
0.0
 10
113.839943937
 20
568.5455727369
 30
0.0
 10
113.9296452475
 20
568.8106195908
 30
0.0
 10
114.2471462104
 20
569.1079383304
 30
0.0
 10
114.6149431405
 20
569.1493745849
 30
0.0
 10
114.904249687
 20
569.0757033769
 30
0.0
 10
115.2061074507
 20
568.9349706926
 30
0.0
 10
115.5523292989
 20
568.661769256
 30
0.0
 10
115.9050714512
 20
568.2499933321
 30
0.0
 10
116.2055656233
 20
567.7812494696
 30
0.0
 10
116.3726935038
 20
567.4462094108
 30
0.0
 10
116.4497084911
 20
567.2747549082
 30
0.0
  0
SPLINE
  5
37B
100
AcDbEntity
  8
00_COMPONENTS_5
100
AcDbSpline
 62
7
  6
CONTINUOUS
 70
0
 71
3
 72
10
 73
6
 74
0
 42
0.0000001
 43
0.0000001
 44
0.0000000001
 40
0.0
 40
0.0
 40
0.0
 40
0.0
 40
0.2623181506
 40
0.5178525531
 40
1.0
 40
1.0
 40
1.0
 40
1.0
 10
116.4497522141
 20
567.2747742238
 30
0.0
 10
116.530167764
 20
567.0956912174
 30
0.0
 10
116.6577412159
 20
566.7280873533
 30
0.0
 10
116.8292191256
 20
565.9991854017
 30
0.0
 10
116.8980272323
 20
565.4493396806
 30
0.0
 10
116.9215054788
 20
565.0892826455
 30
0.0
  0
SPLINE
  5
37C
100
AcDbEntity
  8
00_COMPONENTS_5
100
AcDbSpline
 62
7
  6
CONTINUOUS
 70
0
 71
3
 72
11
 73
7
 74
0
 42
0.0000001
 43
0.0000001
 44
0.0000000001
 40
0.0
 40
0.0
 40
0.0
 40
0.0
 40
0.2600838246
 40
0.5127685777
 40
0.7604770648
 40
1.0
 40
1.0
 40
1.0
 40
1.0
 10
116.9214739946
 20
565.0893039148
 30
0.0
 10
117.0574098768
 20
563.0064828244
 30
0.0
 10
117.2011694156
 20
558.8922035843
 30
0.0
 10
117.2425939841
 20
552.7891433867
 30
0.0
 10
117.2033057677
 20
546.851372955
 30
0.0
 10
117.0635824987
 20
542.9414642117
 30
0.0
 10
116.9214739672
 20
541.0244794481
 30
0.0
  0
SPLINE
  5
37D
100
AcDbEntity
  8
00_COMPONENTS_5
100
AcDbSpline
 62
7
  6
CONTINUOUS
 70
0
 71
3
 72
10
 73
6
 74
0
 42
0.0000001
 43
0.0000001
 44
0.0000000001
 40
0.0
 40
0.0
 40
0.0
 40
0.0
 40
0.5532475477
 40
0.7911191981
 40
1.0
 40
1.0
 40
1.0
 40
1.0
 10
116.9215059427
 20
541.0244484257
 30
0.0
 10
116.900810685
 20
540.7450305989
 30
0.0
 10
116.8462310617
 20
540.3430900876
 30
0.0
 10
116.671179063
 20
539.8672226342
 30
0.0
 10
116.5342783855
 20
539.6766402425
 30
0.0
 10
116.4497539761
 20
539.6130325706
 30
0.0
  0
SPLINE
  5
37E
100
AcDbEntity
  8
00_COMPONENTS_5
100
AcDbSpline
 62
7
  6
CONTINUOUS
 70
0
 71
3
 72
14
 73
10
 74
0
 42
0.0000001
 43
0.0000001
 44
0.0000000001
 40
0.0
 40
0.0
 40
0.0
 40
0.0
 40
0.0841394424
 40
0.1744796698
 40
0.3970185007
 40
0.5402460389
 40
0.698322099
 40
0.8548392832
 40
1.0
 40
1.0
 40
1.0
 40
1.0
 10
116.4497120494
 20
539.6131000938
 30
0.0
 10
116.3714637196
 20
539.5542617125
 30
0.0
 10
116.1941508949
 20
539.450535441
 30
0.0
 10
115.7445389802
 20
539.325753785
 30
0.0
 10
115.1934352232
 20
539.4013505689
 30
0.0
 10
114.6473037919
 20
539.6801739454
 30
0.0
 10
114.24251043
 20
540.0371231123
 30
0.0
 10
113.9478393323
 20
540.4915702426
 30
0.0
 10
113.842376048
 20
540.8313748766
 30
0.0
 10
113.8136354241
 20
540.9978157001
 30
0.0
  0
SPLINE
  5
37F
100
AcDbEntity
  8
00_COMPONENTS_5
100
AcDbSpline
 62
7
  6
CONTINUOUS
 70
0
 71
3
 72
8
 73
4
 74
0
 42
0.0000001
 43
0.0000001
 44
0.0000000001
 40
0.0
 40
0.0
 40
0.0
 40
0.0
 40
1.0
 40
1.0
 40
1.0
 40
1.0
 10
113.8048261888
 20
568.4113305855
 30
0.0
 10
113.8077117158
 20
568.4101448957
 30
0.0
 10
113.8106007152
 20
568.4089105572
 30
0.0
 10
113.8136218783
 20
568.4081329331
 30
0.0
  0
SPLINE
  5
380
100
AcDbEntity
  8
00_COMPONENTS_5
100
AcDbSpline
 62
7
  6
CONTINUOUS
 70
0
 71
3
 72
22
 73
18
 74
0
 42
0.0000001
 43
0.0000001
 44
0.0000000001
 40
0.0
 40
0.0
 40
0.0
 40
0.0
 40
0.0533859505
 40
0.1043274505
 40
0.154465294
 40
0.2058525652
 40
0.2604336834
 40
0.3188648998
 40
0.3813112791
 40
0.447012778
 40
0.5152860925
 40
0.5851978319
 40
0.6560487214
 40
0.7271780906
 40
0.867497336
 40
0.935231047
 40
1.0
 40
1.0
 40
1.0
 40
1.0
 10
110.2780980145
 20
571.61616955
 30
0.0
 10
110.3010999382
 20
571.7291808103
 30
0.0
 10
110.3726876404
 20
571.9462990833
 30
0.0
 10
110.5713839149
 20
572.2220256507
 30
0.0
 10
110.8507342925
 20
572.4095332381
 30
0.0
 10
111.1855434478
 20
572.4903164355
 30
0.0
 10
111.5442114759
 20
572.4506311963
 30
0.0
 10
111.9003837436
 20
572.3104292673
 30
0.0
 10
112.2334379432
 20
572.0784125577
 30
0.0
 10
112.5363527713
 20
571.7788779124
 30
0.0
 10
112.8009927682
 20
571.4251886406
 30
0.0
 10
113.0303231924
 20
571.0353836254
 30
0.0
 10
113.2250191852
 20
570.6203663058
 30
0.0
 10
113.4351139863
 20
570.0473515604
 30
0.0
 10
113.5883480337
 20
569.4621596486
 30
0.0
 10
113.6865731002
 20
568.8808880861
 30
0.0
 10
113.7188997617
 20
568.5961721344
 30
0.0
 10
113.7282738597
 20
568.4565677082
 30
0.0
  0
SPLINE
  5
381
100
AcDbEntity
  8
00_COMPONENTS_5
100
AcDbSpline
 62
7
  6
CONTINUOUS
 70
0
 71
3
 72
8
 73
4
 74
0
 42
0.0000001
 43
0.0000001
 44
0.0000000001
 40
0.0
 40
0.0
 40
0.0
 40
0.0
 40
1.0
 40
1.0
 40
1.0
 40
1.0
 10
110.2295638197
 20
541.8844538184
 30
0.0
 10
110.2152973001
 20
541.8950386638
 30
0.0
 10
110.2022218999
 20
541.9077286544
 30
0.0
 10
110.1920000338
 20
541.9222574529
 30
0.0
  0
SPLINE
  5
382
100
AcDbEntity
  8
00_COMPONENTS_5
100
AcDbSpline
 62
7
  6
CONTINUOUS
 70
0
 71
3
 72
18
 73
14
 74
0
 42
0.0000001
 43
0.0000001
 44
0.0000000001
 40
0.0
 40
0.0
 40
0.0
 40
0.0
 40
0.0534856076
 40
0.10467121
 40
0.1550664427
 40
0.2066933134
 40
0.2612848938
 40
0.3196821357
 40
0.4469254836
 40
0.5847033203
 40
0.7266785453
 40
0.8672023181
 40
1.0
 40
1.0
 40
1.0
 40
1.0
 10
110.2295735404
 20
571.6453356296
 30
0.0
 10
110.2562068105
 20
571.7603534355
 30
0.0
 10
110.3276154531
 20
571.983064216
 30
0.0
 10
110.5323061463
 20
572.2657015676
 30
0.0
 10
110.8180802717
 20
572.4591367332
 30
0.0
 10
111.1601456071
 20
572.5452384612
 30
0.0
 10
111.5277630535
 20
572.5115448203
 30
0.0
 10
112.028458319
 20
572.3213580135
 30
0.0
 10
112.5843888943
 20
571.8443367828
 30
0.0
 10
113.08171972
 20
571.0886920594
 30
0.0
 10
113.4341170218
 20
570.2260737265
 30
0.0
 10
113.6670388082
 20
569.3367787793
 30
0.0
 10
113.7412809581
 20
568.7368133547
 30
0.0
 10
113.7692808746
 20
568.4450235861
 30
0.0
  0
SPLINE
  5
383
100
AcDbEntity
  8
00_COMPONENTS_5
100
AcDbSpline
 62
7
  6
CONTINUOUS
 70
0
 71
3
 72
8
 73
4
 74
0
 42
0.0000001
 43
0.0000001
 44
0.0000000001
 40
0.0
 40
0.0
 40
0.0
 40
0.0
 40
1.0
 40
1.0
 40
1.0
 40
1.0
 10
113.7686348005
 20
568.4386579196
 30
0.0
 10
113.759934264
 20
568.4400667843
 30
0.0
 10
113.7514869937
 20
568.4428090055
 30
0.0
 10
113.7430927541
 20
568.4454961928
 30
0.0
  0
SPLINE
  5
384
100
AcDbEntity
  8
00_COMPONENTS_5
100
AcDbSpline
 62
7
  6
CONTINUOUS
 70
0
 71
3
 72
8
 73
4
 74
0
 42
0.0000001
 43
0.0000001
 44
0.0000000001
 40
0.0
 40
0.0
 40
0.0
 40
0.0
 40
1.0
 40
1.0
 40
1.0
 40
1.0
 10
113.7430822268
 20
568.444559372
 30
0.0
 10
113.7373425729
 20
568.4476901418
 30
0.0
 10
113.7326845621
 20
568.4525968649
 30
0.0
 10
113.7282822023
 20
568.4574305565
 30
0.0
  0
SPLINE
  5
385
100
AcDbEntity
  8
00_COMPONENTS_5
100
AcDbSpline
 62
7
  6
CONTINUOUS
 70
0
 71
3
 72
15
 73
11
 74
0
 42
0.0000001
 43
0.0000001
 44
0.0000000001
 40
0.0
 40
0.0
 40
0.0
 40
0.0
 40
0.151779504
 40
0.311787495
 40
0.4625898247
 40
0.5903509053
 40
0.6987654984
 40
0.7988191085
 40
0.8981038939
 40
1.0
 40
1.0
 40
1.0
 40
1.0
 10
103.1543558143
 20
574.5629894402
 30
0.0
 10
103.1377536819
 20
574.7438754237
 30
0.0
 10
103.0810319476
 20
575.1138465655
 30
0.0
 10
102.9185449343
 20
575.6457312634
 30
0.0
 10
102.6634689981
 20
576.1108407313
 30
0.0
 10
102.3225811242
 20
576.4386845339
 30
0.0
 10
101.9393662747
 20
576.5917390231
 30
0.0
 10
101.5639686608
 20
576.5935921178
 30
0.0
 10
101.21516739
 20
576.4880706408
 30
0.0
 10
101.0048487483
 20
576.3670883541
 30
0.0
 10
100.9049168375
 20
576.2971979189
 30
0.0
  0
SPLINE
  5
386
100
AcDbEntity
  8
00_COMPONENTS_5
100
AcDbSpline
 62
7
  6
CONTINUOUS
 70
0
 71
3
 72
16
 73
12
 74
0
 42
0.0000001
 43
0.0000001
 44
0.0000000001
 40
0.0
 40
0.0
 40
0.0
 40
0.0
 40
0.1518122091
 40
0.306534157
 40
0.4415614076
 40
0.5008133329
 40
0.556235278
 40
0.6618007735
 40
0.7687670706
 40
0.8808479178
 40
1.0
 40
1.0
 40
1.0
 40
1.0
 10
106.6919628474
 20
573.6876851642
 30
0.0
 10
106.6652152838
 20
573.9887143314
 30
0.0
 10
106.5500574773
 20
574.5925356591
 30
0.0
 10
106.2055337917
 20
575.410718305
 30
0.0
 10
105.7241254597
 20
575.9435192966
 30
0.0
 10
105.2738641561
 20
576.1663824935
 30
0.0
 10
104.8404284424
 20
576.2570787197
 30
0.0
 10
104.2938438503
 20
576.1636277303
 30
0.0
 10
103.7459450282
 20
575.7935028738
 30
0.0
 10
103.3390467739
 20
575.2433778201
 30
0.0
 10
103.1916330453
 20
574.7972400188
 30
0.0
 10
103.1543558143
 20
574.5629894402
 30
0.0
  0
SPLINE
  5
387
100
AcDbEntity
  8
00_COMPONENTS_5
100
AcDbSpline
 62
7
  6
CONTINUOUS
 70
0
 71
3
 72
9
 73
5
 74
0
 42
0.0000001
 43
0.0000001
 44
0.0000000001
 40
0.0
 40
0.0
 40
0.0
 40
0.0
 40
0.2789175955
 40
1.0
 40
1.0
 40
1.0
 40
1.0
 10
103.2069978021
 20
574.5321528417
 30
0.0
 10
103.1980820426
 20
574.5348069473
 30
0.0
 10
103.1667316292
 20
574.5458865703
 30
0.0
 10
103.1369126059
 20
574.563927796
 30
0.0
 10
103.1208934643
 20
574.5818655423
 30
0.0
  0
SPLINE
  5
388
100
AcDbEntity
  8
00_COMPONENTS_5
100
AcDbSpline
 62
7
  6
CONTINUOUS
 70
0
 71
3
 72
9
 73
5
 74
0
 42
0.0000001
 43
0.0000001
 44
0.0000000001
 40
0.0
 40
0.0
 40
0.0
 40
0.0
 40
0.2276254454
 40
1.0
 40
1.0
 40
1.0
 40
1.0
 10
103.1208919966
 20
574.5818518305
 30
0.0
 10
103.1231578034
 20
574.5800065945
 30
0.0
 10
103.1335215303
 20
574.5724024953
 30
0.0
 10
103.1451561686
 20
574.5666597973
 30
0.0
 10
103.1543578372
 20
574.5629662804
 30
0.0
  0
SPLINE
  5
389
100
AcDbEntity
  8
00_COMPONENTS_5
100
AcDbSpline
 62
7
  6
CONTINUOUS
 70
0
 71
3
 72
8
 73
4
 74
0
 42
0.0000001
 43
0.0000001
 44
0.0000000001
 40
0.0
 40
0.0
 40
0.0
 40
0.0
 40
1.0
 40
1.0
 40
1.0
 40
1.0
 10
103.1543578372
 20
574.5629662804
 30
0.0
 10
103.1703968873
 20
574.5504692095
 30
0.0
 10
103.1883561052
 20
574.5402628993
 30
0.0
 10
103.2070011631
 20
574.5321518126
 30
0.0
  0
SPLINE
  5
38A
100
AcDbEntity
  8
00_COMPONENTS_5
100
AcDbSpline
 62
7
  6
CONTINUOUS
 70
0
 71
3
 72
9
 73
5
 74
0
 42
0.0000001
 43
0.0000001
 44
0.0000000001
 40
0.0
 40
0.0
 40
0.0
 40
0.0
 40
0.2773034439
 40
1.0
 40
1.0
 40
1.0
 40
1.0
 10
103.2069978021
 20
567.8559013508
 30
0.0
 10
103.1975728566
 20
567.8426998553
 30
0.0
 10
103.1648239088
 20
567.7942594104
 30
0.0
 10
103.1365615699
 20
567.742509337
 30
0.0
 10
103.1208934643
 20
567.703246596
 30
0.0
  0
SPLINE
  5
38B
100
AcDbEntity
  8
00_COMPONENTS_5
100
AcDbSpline
 62
7
  6
CONTINUOUS
 70
0
 71
3
 72
16
 73
12
 74
0
 42
0.0000001
 43
0.0000001
 44
0.0000000001
 40
0.0
 40
0.0
 40
0.0
 40
0.0
 40
0.1194750089
 40
0.2317994252
 40
0.3388191565
 40
0.4441621794
 40
0.4993639948
 40
0.5582341528
 40
0.6926378501
 40
0.8474674053
 40
1.0
 40
1.0
 40
1.0
 40
1.0
 10
103.2069980799
 20
574.5321631972
 30
0.0
 10
103.2450069236
 20
574.7602709376
 30
0.0
 10
103.3908873137
 20
575.1940777962
 30
0.0
 10
103.7868988792
 20
575.7297620853
 30
0.0
 10
104.3172200288
 20
576.0924605795
 30
0.0
 10
104.8465681582
 20
576.18940969
 30
0.0
 10
105.2673618483
 20
576.1063201141
 30
0.0
 10
105.706005487
 20
575.8969180438
 30
0.0
 10
106.1782531138
 20
575.384305341
 30
0.0
 10
106.5176943367
 20
574.5899579951
 30
0.0
 10
106.6307092619
 20
574.0011947162
 30
0.0
 10
106.6564472965
 20
573.7070806371
 30
0.0
  0
SPLINE
  5
38C
100
AcDbEntity
  8
00_COMPONENTS_5
100
AcDbSpline
 62
7
  6
CONTINUOUS
 70
0
 71
3
 72
9
 73
5
 74
0
 42
0.0000001
 43
0.0000001
 44
0.0000000001
 40
0.0
 40
0.0
 40
0.0
 40
0.0
 40
0.2721741582
 40
1.0
 40
1.0
 40
1.0
 40
1.0
 10
104.4478553374
 20
569.0731513257
 30
0.0
 10
104.4466489981
 20
569.0658789187
 30
0.0
 10
104.4402161619
 20
569.039581636
 30
0.0
 10
104.4225527281
 20
569.0156748182
 30
0.0
 10
104.4058775679
 20
569.0051609257
 30
0.0
  0
SPLINE
  5
38D
100
AcDbEntity
  8
00_COMPONENTS_5
100
AcDbSpline
 62
7
  6
CONTINUOUS
 70
0
 71
3
 72
9
 73
5
 74
0
 42
0.0000001
 43
0.0000001
 44
0.0000000001
 40
0.0
 40
0.0
 40
0.0
 40
0.0
 40
0.2395446791
 40
1.0
 40
1.0
 40
1.0
 40
1.0
 10
104.4058775679
 20
569.0051609257
 30
0.0
 10
104.2931342678
 20
568.9344447559
 30
0.0
 10
103.8388120498
 20
568.6135422427
 30
0.0
 10
103.4524790495
 20
568.1997462975
 30
0.0
 10
103.2069912362
 20
567.8558923487
 30
0.0
  0
SPLINE
  5
38E
100
AcDbEntity
  8
00_COMPONENTS_5
100
AcDbSpline
 62
7
  6
CONTINUOUS
 70
0
 71
3
 72
9
 73
5
 74
0
 42
0.0000001
 43
0.0000001
 44
0.0000000001
 40
0.0
 40
0.0
 40
0.0
 40
0.0
 40
0.2789190874
 40
1.0
 40
1.0
 40
1.0
 40
1.0
 10
106.7425464278
 20
573.6573971247
 30
0.0
 10
106.733630377
 20
573.6600513722
 30
0.0
 10
106.7022793054
 20
573.6711314845
 30
0.0
 10
106.6724579327
 20
573.6891722593
 30
0.0
 10
106.6564401053
 20
573.7071120479
 30
0.0
  0
SPLINE
  5
38F
100
AcDbEntity
  8
00_COMPONENTS_5
100
AcDbSpline
 62
7
  6
CONTINUOUS
 70
0
 71
3
 72
9
 73
5
 74
0
 42
0.0000001
 43
0.0000001
 44
0.0000000001
 40
0.0
 40
0.0
 40
0.0
 40
0.0
 40
0.2256394975
 40
1.0
 40
1.0
 40
1.0
 40
1.0
 10
106.6564273738
 20
573.7071260219
 30
0.0
 10
106.6588068566
 20
573.7052121464
 30
0.0
 10
106.6698062228
 20
573.6972948422
 30
0.0
 10
106.682168366
 20
573.6914166876
 30
0.0
 10
106.6919616498
 20
573.6876862895
 30
0.0
  0
SPLINE
  5
390
100
AcDbEntity
  8
00_COMPONENTS_5
100
AcDbSpline
 62
7
  6
CONTINUOUS
 70
0
 71
3
 72
15
 73
11
 74
0
 42
0.0000001
 43
0.0000001
 44
0.0000000001
 40
0.0
 40
0.0
 40
0.0
 40
0.0
 40
0.1107380851
 40
0.2153347411
 40
0.3205507177
 40
0.4349124283
 40
0.5647737214
 40
0.7086840867
 40
0.8579441521
 40
1.0
 40
1.0
 40
1.0
 40
1.0
 10
106.6919628474
 20
573.6876851642
 30
0.0
 10
106.7334360212
 20
573.9092148502
 30
0.0
 10
106.9072854593
 20
574.3303674336
 30
0.0
 10
107.4227580577
 20
574.7713825834
 30
0.0
 10
108.1006590747
 20
574.9032200343
 30
0.0
 10
108.8007185675
 20
574.667002405
 30
0.0
 10
109.3921819683
 20
574.1180576097
 30
0.0
 10
109.8286473658
 20
573.3659891484
 30
0.0
 10
110.1083330135
 20
572.5210826352
 30
0.0
 10
110.2064729902
 20
571.933528803
 30
0.0
 10
110.2295735404
 20
571.6453356296
 30
0.0
  0
SPLINE
  5
391
100
AcDbEntity
  8
00_COMPONENTS_5
100
AcDbSpline
 62
7
  6
CONTINUOUS
 70
0
 71
3
 72
8
 73
4
 74
0
 42
0.0000001
 43
0.0000001
 44
0.0000000001
 40
0.0
 40
0.0
 40
0.0
 40
0.0
 40
1.0
 40
1.0
 40
1.0
 40
1.0
 10
106.7425477373
 20
573.6573985066
 30
0.0
 10
106.7246496688
 20
573.6655122371
 30
0.0
 10
106.7074305274
 20
573.6755562452
 30
0.0
 10
106.6919664468
 20
573.6876820727
 30
0.0
  0
SPLINE
  5
392
100
AcDbEntity
  8
00_COMPONENTS_5
100
AcDbSpline
 62
7
  6
CONTINUOUS
 70
0
 71
3
 72
9
 73
5
 74
0
 42
0.0000001
 43
0.0000001
 44
0.0000000001
 40
0.0
 40
0.0
 40
0.0
 40
0.0
 40
0.2789152435
 40
1.0
 40
1.0
 40
1.0
 40
1.0
 10
110.2780980145
 20
571.6161924707
 30
0.0
 10
110.2691826821
 20
571.6188474129
 30
0.0
 10
110.2378322981
 20
571.6299253149
 30
0.0
 10
110.2080119103
 20
571.647964926
 30
0.0
 10
110.1919934127
 20
571.665903033
 30
0.0
  0
SPLINE
  5
393
100
AcDbEntity
  8
00_COMPONENTS_5
100
AcDbSpline
 62
7
  6
CONTINUOUS
 70
0
 71
3
 72
9
 73
5
 74
0
 42
0.0000001
 43
0.0000001
 44
0.0000000001
 40
0.0
 40
0.0
 40
0.0
 40
0.0
 40
0.2254250893
 40
1.0
 40
1.0
 40
1.0
 40
1.0
 10
110.1919842018
 20
571.665913165
 30
0.0
 10
110.1944849236
 20
571.6638673499
 30
0.0
 10
110.2060875093
 20
571.6554150036
 30
0.0
 10
110.2191986466
 20
571.6492017218
 30
0.0
 10
110.2295874153
 20
571.6452874521
 30
0.0
  0
SPLINE
  5
394
100
AcDbEntity
  8
00_COMPONENTS_5
100
AcDbSpline
 62
7
  6
CONTINUOUS
 70
0
 71
3
 72
8
 73
4
 74
0
 42
0.0000001
 43
0.0000001
 44
0.0000000001
 40
0.0
 40
0.0
 40
0.0
 40
0.0
 40
1.0
 40
1.0
 40
1.0
 40
1.0
 10
110.2295915892
 20
571.6452788532
 30
0.0
 10
110.2444841997
 20
571.6337487687
 30
0.0
 10
110.2609438766
 20
571.6241021613
 30
0.0
 10
110.2780494563
 20
571.6162197862
 30
0.0
  0
SPLINE
  5
395
100
AcDbEntity
  8
00_COMPONENTS_5
100
AcDbSpline
 62
7
  6
CONTINUOUS
 70
0
 71
3
 72
15
 73
11
 74
0
 42
0.0000001
 43
0.0000001
 44
0.0000000001
 40
0.0
 40
0.0
 40
0.0
 40
0.0
 40
0.1109186669
 40
0.2153439843
 40
0.320137058
 40
0.4340571618
 40
0.5636157522
 40
0.70752591
 40
0.8571864574
 40
1.0
 40
1.0
 40
1.0
 40
1.0
 10
106.7425740417
 20
573.6573895558
 30
0.0
 10
106.7835316482
 20
573.8732328624
 30
0.0
 10
106.9535248693
 20
574.282733674
 30
0.0
 10
107.4550165871
 20
574.7107354143
 30
0.0
 10
108.1128491448
 20
574.8377532592
 30
0.0
 10
108.7913630306
 20
574.6076064289
 30
0.0
 10
109.3663346005
 20
574.0753448907
 30
0.0
 10
109.7935668719
 20
573.3447357651
 30
0.0
 10
110.0699347265
 20
572.5214743764
 30
0.0
 10
110.1683031736
 20
571.9477934014
 30
0.0
 10
110.1919824644
 20
571.6659176375
 30
0.0
  0
SPLINE
  5
396
100
AcDbEntity
  8
00_COMPONENTS_5
100
AcDbSpline
 62
7
  6
CONTINUOUS
 70
0
 71
3
 72
9
 73
5
 74
0
 42
0.0000001
 43
0.0000001
 44
0.0000000001
 40
0.0
 40
0.0
 40
0.0
 40
0.0
 40
0.2402963583
 40
1.0
 40
1.0
 40
1.0
 40
1.0
 10
107.8388260885
 20
571.0899855043
 30
0.0
 10
107.8321178084
 20
571.0820087371
 30
0.0
 10
107.8041466582
 20
571.0488592145
 30
0.0
 10
107.7759500226
 20
571.01589843
 30
0.0
 10
107.7543015799
 20
570.9910563638
 30
0.0
  0
SPLINE
  5
397
100
AcDbEntity
  8
00_COMPONENTS_5
100
AcDbSpline
 62
7
  6
CONTINUOUS
 70
0
 71
3
 72
10
 73
6
 74
0
 42
0.0000001
 43
0.0000001
 44
0.0000000001
 40
0.0
 40
0.0
 40
0.0
 40
0.0
 40
0.5098542062
 40
0.7739677441
 40
1.0
 40
1.0
 40
1.0
 40
1.0
 10
107.7543015799
 20
570.9910563638
 30
0.0
 10
107.7168759663
 20
570.9481096456
 30
0.0
 10
107.6592709417
 20
570.8833793213
 30
0.0
 10
107.5791844345
 20
570.8057456057
 30
0.0
 10
107.5363494826
 20
570.7707001411
 30
0.0
 10
107.514163615
 20
570.7586346719
 30
0.0
  0
SPLINE
  5
398
100
AcDbEntity
  8
00_COMPONENTS_5
100
AcDbSpline
 62
7
  6
CONTINUOUS
 70
0
 71
3
 72
9
 73
5
 74
0
 42
0.0000001
 43
0.0000001
 44
0.0000000001
 40
0.0
 40
0.0
 40
0.0
 40
0.0
 40
0.2546046066
 40
1.0
 40
1.0
 40
1.0
 40
1.0
 10
107.5141629406
 20
570.7586331566
 30
0.0
 10
107.5189447379
 20
570.7912497271
 30
0.0
 10
107.53916765
 20
570.9191389732
 30
0.0
 10
107.5652425353
 20
571.0461186494
 30
0.0
 10
107.5882274912
 20
571.139852596
 30
0.0
  0
SPLINE
  5
399
100
AcDbEntity
  8
00_COMPONENTS_5
100
AcDbSpline
 62
7
  6
CONTINUOUS
 70
0
 71
3
 72
8
 73
4
 74
0
 42
0.0000001
 43
0.0000001
 44
0.0000000001
 40
0.0
 40
0.0
 40
0.0
 40
0.0
 40
1.0
 40
1.0
 40
1.0
 40
1.0
 10
107.8711231196
 20
571.1285715996
 30
0.0
 10
107.8837757272
 20
571.1048083305
 30
0.0
 10
107.9006023616
 20
571.0827533285
 30
0.0
 10
107.9206187874
 20
571.0647498805
 30
0.0
  0
SPLINE
  5
39A
100
AcDbEntity
  8
00_COMPONENTS_5
100
AcDbSpline
 62
7
  6
CONTINUOUS
 70
0
 71
3
 72
9
 73
5
 74
0
 42
0.0000001
 43
0.0000001
 44
0.0000000001
 40
0.0
 40
0.0
 40
0.0
 40
0.0
 40
0.5363680133
 40
1.0
 40
1.0
 40
1.0
 40
1.0
 10
107.9206187874
 20
571.0647498805
 30
0.0
 10
107.9452169003
 20
571.0426255087
 30
0.0
 10
108.0018287662
 20
571.0104136413
 30
0.0
 10
108.0678863074
 20
571.0159639287
 30
0.0
 10
108.0940203852
 20
571.0275756328
 30
0.0
  0
SPLINE
  5
39B
100
AcDbEntity
  8
00_COMPONENTS_5
100
AcDbSpline
 62
7
  6
CONTINUOUS
 70
0
 71
3
 72
9
 73
5
 74
0
 42
0.0000001
 43
0.0000001
 44
0.0000000001
 40
0.0
 40
0.0
 40
0.0
 40
0.0
 40
0.268217799
 40
1.0
 40
1.0
 40
1.0
 40
1.0
 10
107.5141490725
 20
570.7585783923
 30
0.0
 10
107.5131157626
 20
570.7517736398
 30
0.0
 10
107.5075454915
 20
570.7268859481
 30
0.0
 10
107.4925542107
 20
570.7026786
 30
0.0
 10
107.4766778399
 20
570.6926503207
 30
0.0
  0
SPLINE
  5
39C
100
AcDbEntity
  8
00_COMPONENTS_5
100
AcDbSpline
 62
7
  6
CONTINUOUS
 70
0
 71
3
 72
9
 73
5
 74
0
 42
0.0000001
 43
0.0000001
 44
0.0000000001
 40
0.0
 40
0.0
 40
0.0
 40
0.0
 40
0.221909976
 40
1.0
 40
1.0
 40
1.0
 40
1.0
 10
110.1919934127
 20
541.9222632504
 30
0.0
 10
110.1969289039
 20
541.9167371438
 30
0.0
 10
110.2216425791
 20
541.8940385045
 30
0.0
 10
110.2532024602
 20
541.8799612959
 30
0.0
 10
110.2781025652
 20
541.8725513334
 30
0.0
  0
SPLINE
  5
39D
100
AcDbEntity
  8
00_COMPONENTS_5
100
AcDbSpline
 62
7
  6
CONTINUOUS
 70
0
 71
3
 72
10
 73
6
 74
0
 42
0.0000001
 43
0.0000001
 44
0.0000000001
 40
0.0
 40
0.0
 40
0.0
 40
0.0
 40
0.1949636614
 40
0.4320999865
 40
1.0
 40
1.0
 40
1.0
 40
1.0
 10
103.1208934643
 20
567.7032441386
 30
0.0
 10
102.9791248438
 20
567.3479995177
 30
0.0
 10
102.7670726073
 20
566.519573674
 30
0.0
 10
102.6310952077
 20
564.5544437934
 30
0.0
 10
102.891155077
 20
562.9783265877
 30
0.0
 10
103.1209021126
 20
561.8881417718
 30
0.0
  0
SPLINE
  5
39E
100
AcDbEntity
  8
00_COMPONENTS_5
100
AcDbSpline
 62
7
  6
CONTINUOUS
 70
0
 71
3
 72
20
 73
16
 74
0
 42
0.0000001
 43
0.0000001
 44
0.0000000001
 40
0.0
 40
0.0
 40
0.0
 40
0.0
 40
0.0560251525
 40
0.104511753
 40
0.1450366058
 40
0.1797637349
 40
0.2153176109
 40
0.2584083844
 40
0.3115995247
 40
0.3739483208
 40
0.4431738241
 40
0.5173940973
 40
0.6744781693
 40
0.8366952657
 40
1.0
 40
1.0
 40
1.0
 40
1.0
 10
103.1209495975
 20
547.1714753681
 30
0.0
 10
103.1142343621
 20
547.1073488182
 30
0.0
 10
103.0968446467
 20
546.9880556329
 30
0.0
 10
103.0502429212
 20
546.827023064
 30
0.0
 10
102.9807698214
 20
546.7004794542
 30
0.0
 10
102.8758618615
 20
546.6182419788
 30
0.0
 10
102.7399855504
 20
546.6070462872
 30
0.0
 10
102.5937857797
 20
546.6546217375
 30
0.0
 10
102.4364504656
 20
546.748885766
 30
0.0
 10
102.2695727348
 20
546.8812275067
 30
0.0
 10
102.0968293777
 20
547.0435405573
 30
0.0
 10
101.8593742506
 20
547.2952094331
 30
0.0
 10
101.5708040638
 20
547.6448521496
 30
0.0
 10
101.2432488665
 20
548.0936776457
 30
0.0
 10
101.0385676573
 20
548.4076848874
 30
0.0
 10
100.9397722925
 20
548.5675640608
 30
0.0
  0
SPLINE
  5
39F
100
AcDbEntity
  8
00_COMPONENTS_5
100
AcDbSpline
 62
7
  6
CONTINUOUS
 70
0
 71
3
 72
10
 73
6
 74
0
 42
0.0000001
 43
0.0000001
 44
0.0000000001
 40
0.0
 40
0.0
 40
0.0
 40
0.0
 40
0.2648324835
 40
0.5196227837
 40
1.0
 40
1.0
 40
1.0
 40
1.0
 10
100.9397292108
 20
548.5675451156
 30
0.0
 10
100.8380701965
 20
548.732112008
 30
0.0
 10
100.6658797842
 20
549.0722249832
 30
0.0
 10
100.4156936651
 20
549.7592264198
 30
0.0
 10
100.3063132242
 20
550.2894430395
 30
0.0
 10
100.2693470917
 20
550.6383589558
 30
0.0
  0
SPLINE
  5
3A0
100
AcDbEntity
  8
00_COMPONENTS_5
100
AcDbSpline
 62
7
  6
CONTINUOUS
 70
0
 71
3
 72
13
 73
9
 74
0
 42
0.0000001
 43
0.0000001
 44
0.0000000001
 40
0.0
 40
0.0
 40
0.0
 40
0.0
 40
0.2560142688
 40
0.3820480559
 40
0.5073553861
 40
0.632056975
 40
0.7560285038
 40
1.0
 40
1.0
 40
1.0
 40
1.0
 10
100.2693921924
 20
550.638345548
 30
0.0
 10
100.0527279162
 20
552.6833559568
 30
0.0
 10
99.8525160336
 20
555.7487510014
 30
0.0
 10
99.7519678757
 20
559.8228516714
 30
0.0
 10
99.7289053358
 20
562.8435109039
 30
0.0
 10
99.751673817
 20
565.8476517554
 30
0.0
 10
99.8506362607
 20
569.8034383426
 30
0.0
 10
100.0458921519
 20
572.756234994
 30
0.0
 10
100.2693920452
 20
574.7031699138
 30
0.0
  0
SPLINE
  5
3A1
100
AcDbEntity
  8
00_COMPONENTS_5
100
AcDbSpline
 62
7
  6
CONTINUOUS
 70
0
 71
3
 72
10
 73
6
 74
0
 42
0.0000001
 43
0.0000001
 44
0.0000000001
 40
0.0
 40
0.0
 40
0.0
 40
0.0
 40
0.5265588127
 40
0.7710541348
 40
1.0
 40
1.0
 40
1.0
 40
1.0
 10
100.269346649
 20
574.7031931879
 30
0.0
 10
100.3034433845
 20
575.0002478548
 30
0.0
 10
100.3992990525
 20
575.4353109109
 30
0.0
 10
100.6535469963
 20
575.9450385745
 30
0.0
 10
100.8339494266
 20
576.1537037856
 30
0.0
 10
100.9397270211
 20
576.2292865218
 30
0.0
  0
SPLINE
  5
3A2
100
AcDbEntity
  8
00_COMPONENTS_5
100
AcDbSpline
 62
7
  6
CONTINUOUS
 70
0
 71
3
 72
15
 73
11
 74
0
 42
0.0000001
 43
0.0000001
 44
0.0000000001
 40
0.0
 40
0.0
 40
0.0
 40
0.0
 40
0.1024861838
 40
0.201970214
 40
0.3018531429
 40
0.4094949849
 40
0.5362054689
 40
0.6867091281
 40
0.8473685169
 40
1.0
 40
1.0
 40
1.0
 40
1.0
 10
100.9397694649
 20
576.2292192971
 30
0.0
 10
101.0364482179
 20
576.2982554084
 30
0.0
 10
101.239204149
 20
576.4187870444
 30
0.0
 10
101.5759857685
 20
576.5263338246
 30
0.0
 10
101.9384211016
 20
576.5329646276
 30
0.0
 10
102.3109509138
 20
576.3943374888
 30
0.0
 10
102.6448748013
 20
576.0837067685
 30
0.0
 10
102.8947214648
 20
575.6352226059
 30
0.0
 10
103.0524433494
 20
575.1185338696
 30
0.0
 10
103.105917958
 20
574.7581302311
 30
0.0
 10
103.1209009621
 20
574.5818425666
 30
0.0
  0
SPLINE
  5
3A3
100
AcDbEntity
  8
00_COMPONENTS_5
100
AcDbSpline
 62
7
  6
CONTINUOUS
 70
0
 71
3
 72
15
 73
11
 74
0
 42
0.0000001
 43
0.0000001
 44
0.0000000001
 40
0.0
 40
0.0
 40
0.0
 40
0.0
 40
0.1287043585
 40
0.2556545449
 40
0.381548058
 40
0.5067784218
 40
0.6315061043
 40
0.7555829049
 40
0.8786440683
 40
1.0
 40
1.0
 40
1.0
 40
1.0
 10
100.1977175146
 20
550.6749413051
 30
0.0
 10
100.0897585019
 20
551.7039734101
 30
0.0
 10
99.9106927782
 20
553.7519973048
 30
0.0
 10
99.7585963276
 20
556.816073808
 30
0.0
 10
99.6847190137
 20
559.854792823
 30
0.0
 10
99.6645393502
 20
562.8763749969
 30
0.0
 10
99.684488793
 20
565.8833585427
 30
0.0
 10
99.7579109712
 20
568.8721588397
 30
0.0
 10
99.9076977205
 20
571.8313252802
 30
0.0
 10
100.088389433
 20
573.7886232379
 30
0.0
 10
100.1977173402
 20
574.7580824596
 30
0.0
  0
SPLINE
  5
3A4
100
AcDbEntity
  8
00_COMPONENTS_5
100
AcDbSpline
 62
7
  6
CONTINUOUS
 70
0
 71
3
 72
9
 73
5
 74
0
 42
0.0000001
 43
0.0000001
 44
0.0000000001
 40
0.0
 40
0.0
 40
0.0
 40
0.0
 40
0.2277235859
 40
1.0
 40
1.0
 40
1.0
 40
1.0
 10
100.1977172537
 20
574.7580819841
 30
0.0
 10
100.2018604712
 20
574.7525742583
 30
0.0
 10
100.2221129731
 20
574.7299535945
 30
0.0
 10
100.2482292544
 20
574.7130924473
 30
0.0
 10
100.2693921651
 20
574.7031709584
 30
0.0
  0
SPLINE
  5
3A5
100
AcDbEntity
  8
00_COMPONENTS_5
100
AcDbSpline
 62
7
  6
CONTINUOUS
 70
0
 71
3
 72
9
 73
5
 74
0
 42
0.0000001
 43
0.0000001
 44
0.0000000001
 40
0.0
 40
0.0
 40
0.0
 40
0.0
 40
0.7658068961
 40
1.0
 40
1.0
 40
1.0
 40
1.0
 10
110.278135366
 20
541.8725417283
 30
0.0
 10
110.2654650642
 20
541.8742489116
 30
0.0
 10
110.2490070361
 20
541.8776347136
 30
0.0
 10
110.2332053879
 20
541.8830520315
 30
0.0
 10
110.2295556289
 20
541.8844539518
 30
0.0
  0
SPLINE
  5
3A6
100
AcDbEntity
  8
00_COMPONENTS_5
100
AcDbSpline
 62
7
  6
CONTINUOUS
 70
0
 71
3
 72
9
 73
5
 74
0
 42
0.0000001
 43
0.0000001
 44
0.0000000001
 40
0.0
 40
0.0
 40
0.0
 40
0.0
 40
0.5113216042
 40
1.0
 40
1.0
 40
1.0
 40
1.0
 10
100.1976946605
 20
574.7580781292
 30
0.0
 10
100.0448615012
 20
574.9850884381
 30
0.0
 10
99.8062518722
 20
575.4772455558
 30
0.0
 10
99.7762895153
 20
576.0302881043
 30
0.0
 10
99.8200533417
 20
576.2881452167
 30
0.0
  0
SPLINE
  5
3A7
100
AcDbEntity
  8
00_COMPONENTS_5
100
AcDbSpline
 62
7
  6
CONTINUOUS
 70
0
 71
3
 72
10
 73
6
 74
0
 42
0.0000001
 43
0.0000001
 44
0.0000000001
 40
0.0
 40
0.0
 40
0.0
 40
0.0
 40
0.2487387991
 40
0.5028600758
 40
1.0
 40
1.0
 40
1.0
 40
1.0
 10
103.4170110574
 20
582.2199068387
 30
0.0
 10
103.0732106302
 20
581.8041027207
 30
0.0
 10
102.4435026664
 20
580.9071168152
 30
0.0
 10
101.4579518742
 20
578.9708513809
 30
0.0
 10
101.0224761016
 20
577.3690966402
 30
0.0
 10
100.9049168375
 20
576.2971979189
 30
0.0
  0
SPLINE
  5
3A8
100
AcDbEntity
  8
00_COMPONENTS_5
100
AcDbSpline
 62
7
  6
CONTINUOUS
 70
0
 71
3
 72
10
 73
6
 74
0
 42
0.0000001
 43
0.0000001
 44
0.0000000001
 40
0.0
 40
0.0
 40
0.0
 40
0.0
 40
0.5267989265
 40
0.7708018995
 40
1.0
 40
1.0
 40
1.0
 40
1.0
 10
100.1976926115
 20
574.7580771091
 30
0.0
 10
100.2331073642
 20
575.0607320448
 30
0.0
 10
100.3328229072
 20
575.5041993575
 30
0.0
 10
100.6027014432
 20
576.0181326703
 30
0.0
 10
100.7936603955
 20
576.2250567431
 30
0.0
 10
100.9048930739
 20
576.2971944693
 30
0.0
  0
SPLINE
  5
3A9
100
AcDbEntity
  8
00_COMPONENTS_5
100
AcDbSpline
 62
7
  6
CONTINUOUS
 70
0
 71
3
 72
8
 73
4
 74
0
 42
0.0000001
 43
0.0000001
 44
0.0000000001
 40
0.0
 40
0.0
 40
0.0
 40
0.0
 40
1.0
 40
1.0
 40
1.0
 40
1.0
 10
100.9048930739
 20
576.2971944693
 30
0.0
 10
100.9129276688
 20
576.2730333572
 30
0.0
 10
100.9249314165
 20
576.2499276402
 30
0.0
 10
100.9397657688
 20
576.2292332921
 30
0.0
  0
SPLINE
  5
3AA
100
AcDbEntity
  8
00_COMPONENTS_5
100
AcDbSpline
 62
7
  6
CONTINUOUS
 70
0
 71
3
 72
14
 73
10
 74
0
 42
0.0000001
 43
0.0000001
 44
0.0000000001
 40
0.0
 40
0.0
 40
0.0
 40
0.0
 40
0.388659495
 40
0.5279379358
 40
0.6336777834
 40
0.7158039796
 40
0.7927098135
 40
0.8836766952
 40
1.0
 40
1.0
 40
1.0
 40
1.0
 10
103.4169867451
 20
582.2198559637
 30
0.0
 10
103.3373229926
 20
582.2283594977
 30
0.0
 10
103.228317637
 20
582.2414262312
 30
0.0
 10
103.104725611
 20
582.2856753944
 30
0.0
 10
103.0472131807
 20
582.3225420757
 30
0.0
 10
103.0147750465
 20
582.3694749059
 30
0.0
 10
103.0143875429
 20
582.4237006483
 30
0.0
 10
103.0415547159
 20
582.4770215435
 30
0.0
 10
103.0699049596
 20
582.5092574142
 30
0.0
 10
103.0868408303
 20
582.5262319596
 30
0.0
  0
SPLINE
  5
3AB
100
AcDbEntity
  8
00_COMPONENTS_5
100
AcDbSpline
 62
7
  6
CONTINUOUS
 70
0
 71
3
 72
9
 73
5
 74
0
 42
0.0000001
 43
0.0000001
 44
0.0000000001
 40
0.0
 40
0.0
 40
0.0
 40
0.0
 40
0.1957728422
 40
1.0
 40
1.0
 40
1.0
 40
1.0
 10
110.1919934127
 20
552.1620193766
 30
0.0
 10
110.1972702792
 20
552.1599758132
 30
0.0
 10
110.225479426
 20
552.1528821685
 30
0.0
 10
110.2550057195
 20
552.1545022321
 30
0.0
 10
110.2781025652
 20
552.1571307266
 30
0.0
  0
SPLINE
  5
3AC
100
AcDbEntity
  8
00_COMPONENTS_5
100
AcDbSpline
 62
7
  6
CONTINUOUS
 70
0
 71
3
 72
9
 73
5
 74
0
 42
0.0000001
 43
0.0000001
 44
0.0000000001
 40
0.0
 40
0.0
 40
0.0
 40
0.0
 40
0.2400617096
 40
1.0
 40
1.0
 40
1.0
 40
1.0
 10
103.8856882615
 20
582.679211659
 30
0.0
 10
103.841141639
 20
582.6510276806
 30
0.0
 10
103.6623695477
 20
582.5230342443
 30
0.0
 10
103.5116875527
 20
582.3572987393
 30
0.0
 10
103.4169991037
 20
582.2198948795
 30
0.0
  0
SPLINE
  5
3AD
100
AcDbEntity
  8
00_COMPONENTS_5
100
AcDbSpline
 62
7
  6
CONTINUOUS
 70
0
 71
3
 72
11
 73
7
 74
0
 42
0.0000001
 43
0.0000001
 44
0.0000000001
 40
0.0
 40
0.0
 40
0.0
 40
0.0
 40
0.2501760153
 40
0.4982776924
 40
0.7486007007
 40
1.0
 40
1.0
 40
1.0
 40
1.0
 10
121.5235445523
 20
572.8200455793
 30
0.0
 10
121.4156538764
 20
572.7967040857
 30
0.0
 10
121.1954353756
 20
572.7695220381
 30
0.0
 10
120.8637191866
 20
572.8144809346
 30
0.0
 10
120.5591019997
 20
572.9558996371
 30
0.0
 10
120.3917743709
 20
573.1062430091
 30
0.0
 10
120.3202037032
 20
573.1909915675
 30
0.0
  0
SPLINE
  5
3AE
100
AcDbEntity
  8
00_COMPONENTS_5
100
AcDbSpline
 62
7
  6
CONTINUOUS
 70
0
 71
3
 72
14
 73
10
 74
0
 42
0.0000001
 43
0.0000001
 44
0.0000000001
 40
0.0
 40
0.0
 40
0.0
 40
0.0
 40
0.1629064623
 40
0.2850660669
 40
0.3703811401
 40
0.4405457417
 40
0.5291682023
 40
0.6519143551
 40
1.0
 40
1.0
 40
1.0
 40
1.0
 10
103.8857386297
 20
582.6792209516
 30
0.0
 10
103.8539027859
 20
582.6782754305
 30
0.0
 10
103.7978033914
 20
582.6790786125
 30
0.0
 10
103.7266794959
 20
582.6911331104
 30
0.0
 10
103.6754199837
 20
582.717512733
 30
0.0
 10
103.659106841
 20
582.7671784822
 30
0.0
 10
103.6811152195
 20
582.8203833937
 30
0.0
 10
103.74570609
 20
582.9081762059
 30
0.0
 10
103.8160181013
 20
582.9695380252
 30
0.0
 10
103.8683462593
 20
583.0130484001
 30
0.0
  0
SPLINE
  5
3AF
100
AcDbEntity
  8
00_COMPONENTS_5
100
AcDbSpline
 62
7
  6
CONTINUOUS
 70
0
 71
3
 72
13
 73
9
 74
0
 42
0.0000001
 43
0.0000001
 44
0.0000000001
 40
0.0
 40
0.0
 40
0.0
 40
0.0
 40
0.2906601229
 40
0.4275572509
 40
0.5574632009
 40
0.6797509616
 40
0.7941583252
 40
1.0
 40
1.0
 40
1.0
 40
1.0
 10
119.7389230064
 20
572.796659004
 30
0.0
 10
118.5256290969
 20
574.2337694344
 30
0.0
 10
116.58498573
 20
576.2271491495
 30
0.0
 10
113.7553201824
 20
578.4704709096
 30
0.0
 10
111.6424102631
 20
579.8467052124
 30
0.0
 10
109.525195517
 20
580.929937087
 30
0.0
 10
106.838472431
 20
581.9264316786
 30
0.0
 10
104.7483633114
 20
582.2595759281
 30
0.0
 10
103.417003918
 20
582.219906626
 30
0.0
  0
SPLINE
  5
3B0
100
AcDbEntity
  8
00_COMPONENTS_5
100
AcDbSpline
 62
7
  6
CONTINUOUS
 70
0
 71
3
 72
10
 73
6
 74
0
 42
0.0000001
 43
0.0000001
 44
0.0000000001
 40
0.0
 40
0.0
 40
0.0
 40
0.0
 40
0.2252528211
 40
0.592765099
 40
1.0
 40
1.0
 40
1.0
 40
1.0
 10
103.8857256009
 20
582.6792130444
 30
0.0
 10
104.53540601
 20
582.698569517
 30
0.0
 10
106.2517982816
 20
582.5918984647
 30
0.0
 10
109.0611920465
 20
581.842341382
 30
0.0
 10
111.0853026777
 20
580.8650613003
 30
0.0
 10
112.1029569995
 20
580.2775315954
 30
0.0
  0
SPLINE
  5
3B1
100
AcDbEntity
  8
00_COMPONENTS_5
100
AcDbSpline
 62
7
  6
CONTINUOUS
 70
0
 71
3
 72
9
 73
5
 74
0
 42
0.0000001
 43
0.0000001
 44
0.0000000001
 40
0.0
 40
0.0
 40
0.0
 40
0.0
 40
0.4783284493
 40
1.0
 40
1.0
 40
1.0
 40
1.0
 10
112.1029569995
 20
580.2775315954
 30
0.0
 10
113.6067437325
 20
579.4093395614
 30
0.0
 10
116.5556213911
 20
577.2499325787
 30
0.0
 10
119.0985302893
 20
574.6380012734
 30
0.0
 10
120.3201904236
 20
573.1909837777
 30
0.0
  0
SPLINE
  5
3B2
100
AcDbEntity
  8
00_COMPONENTS_5
100
AcDbSpline
 62
7
  6
CONTINUOUS
 70
0
 71
3
 72
17
 73
13
 74
0
 42
0.0000001
 43
0.0000001
 44
0.0000000001
 40
0.0
 40
0.0
 40
0.0
 40
0.0
 40
0.1070354579
 40
0.1586320105
 40
0.2101600835
 40
0.2631678608
 40
0.319130984
 40
0.4408990921
 40
0.5738776192
 40
0.7132897552
 40
0.8559750858
 40
1.0
 40
1.0
 40
1.0
 40
1.0
 10
113.7692808746
 20
568.4450235861
 30
0.0
 10
113.8025154533
 20
568.5835332587
 30
0.0
 10
113.8734091206
 20
568.7895133713
 30
0.0
 10
114.0595465345
 20
569.0028129943
 30
0.0
 10
114.2359529513
 20
569.1178702575
 30
0.0
 10
114.4439812318
 20
569.1784417684
 30
0.0
 10
114.7545106618
 20
569.1793731776
 30
0.0
 10
115.1530402291
 20
569.0306815473
 30
0.0
 10
115.5716387677
 20
568.7079114174
 30
0.0
 10
115.9366540609
 20
568.2897816155
 30
0.0
 10
116.2452513802
 20
567.8122170472
 30
0.0
 10
116.414758592
 20
567.4698162908
 30
0.0
 10
116.4957397814
 20
567.2960983164
 30
0.0
  0
LINE
  5
3B3
100
AcDbEntity
  8
00_COMPONENTS_5
100
AcDbLine
 62
7
  6
CONTINUOUS
 10
116.4957444565
 20
567.2960953276
 11
116.4497158715
 21
567.2747581593
  0
SPLINE
  5
3B4
100
AcDbEntity
  8
00_COMPONENTS_5
100
AcDbSpline
 62
7
  6
CONTINUOUS
 70
0
 71
3
 72
9
 73
5
 74
0
 42
0.0000001
 43
0.0000001
 44
0.0000000001
 40
0.0
 40
0.0
 40
0.0
 40
0.0
 40
0.2670096781
 40
1.0
 40
1.0
 40
1.0
 40
1.0
 10
113.8048261888
 20
568.4113305855
 30
0.0
 10
113.7988926964
 20
568.4133272957
 30
0.0
 10
113.7770378774
 20
568.4216436571
 30
0.0
 10
113.7557400176
 20
568.4329343454
 30
0.0
 10
113.7430822268
 20
568.444559372
 30
0.0
  0
SPLINE
  5
3B5
100
AcDbEntity
  8
00_COMPONENTS_5
100
AcDbSpline
 62
7
  6
CONTINUOUS
 70
0
 71
3
 72
9
 73
5
 74
0
 42
0.0000001
 43
0.0000001
 44
0.0000000001
 40
0.0
 40
0.0
 40
0.0
 40
0.0
 40
0.2612400032
 40
1.0
 40
1.0
 40
1.0
 40
1.0
 10
113.7686348005
 20
568.4386579196
 30
0.0
 10
113.7707766311
 20
568.4352813055
 30
0.0
 10
113.7800048362
 20
568.4227888415
 30
0.0
 10
113.7946857382
 20
568.4163340908
 30
0.0
 10
113.8048261888
 20
568.4113305855
 30
0.0
  0
SPLINE
  5
3B6
100
AcDbEntity
  8
00_COMPONENTS_8
100
AcDbSpline
 62
7
  6
CONTINUOUS
 70
0
 71
3
 72
9
 73
5
 74
0
 42
0.0000001
 43
0.0000001
 44
0.0000000001
 40
0.0
 40
0.0
 40
0.0
 40
0.0
 40
0.2302211019
 40
1.0
 40
1.0
 40
1.0
 40
1.0
 10
513.7577518471
 20
548.8209987834
 30
0.0
 10
513.7411564236
 20
548.8229142004
 30
0.0
 10
513.6697488796
 20
548.8370724475
 30
0.0
 10
513.6027628584
 20
548.8681811205
 30
0.0
 10
513.5543884229
 20
548.896109482
 30
0.0
  0
SPLINE
  5
3B7
100
AcDbEntity
  8
00_COMPONENTS_8
100
AcDbSpline
 62
7
  6
CONTINUOUS
 70
0
 71
3
 72
9
 73
5
 74
0
 42
0.0000001
 43
0.0000001
 44
0.0000000001
 40
0.0
 40
0.0
 40
0.0
 40
0.0
 40
0.4765598746
 40
1.0
 40
1.0
 40
1.0
 40
1.0
 10
515.024595858
 20
520.2461521327
 30
0.0
 10
515.304066541
 20
520.0848033089
 30
0.0
 10
515.9671075464
 20
519.8807935765
 30
0.0
 10
516.653210006
 20
519.8723316469
 30
0.0
 10
517.0044972005
 20
519.9195629285
 30
0.0
  0
SPLINE
  5
3B8
100
AcDbEntity
  8
00_COMPONENTS_8
100
AcDbSpline
 62
7
  6
CONTINUOUS
 70
0
 71
3
 72
9
 73
5
 74
0
 42
0.0000001
 43
0.0000001
 44
0.0000000001
 40
0.0
 40
0.0
 40
0.0
 40
0.0
 40
0.5234401254
 40
1.0
 40
1.0
 40
1.0
 40
1.0
 10
517.0044972005
 20
560.7446837849
 30
0.0
 10
516.653210006
 20
560.6974525034
 30
0.0
 10
515.9671075464
 20
560.705914433
 30
0.0
 10
515.304066541
 20
560.9099241653
 30
0.0
 10
515.024595858
 20
561.0712729892
 30
0.0
  0
SPLINE
  5
3B9
100
AcDbEntity
  8
00_COMPONENTS_8
100
AcDbSpline
 62
7
  6
CONTINUOUS
 70
0
 71
3
 72
10
 73
6
 74
0
 42
0.0000001
 43
0.0000001
 44
0.0000000001
 40
0.0
 40
0.0
 40
0.0
 40
0.0
 40
0.248769923
 40
0.5168126368
 40
1.0
 40
1.0
 40
1.0
 40
1.0
 10
514.9988591654
 20
554.7091509816
 30
0.0
 10
514.998861945
 20
554.7642671102
 30
0.0
 10
514.96317217
 20
554.8778726456
 30
0.0
 10
514.838662694
 20
555.0617861864
 30
0.0
 10
514.7077594755
 20
555.1720214727
 30
0.0
 10
514.6150488546
 20
555.2255467638
 30
0.0
  0
SPLINE
  5
3BA
100
AcDbEntity
  8
00_COMPONENTS_8
100
AcDbSpline
 62
7
  6
CONTINUOUS
 70
0
 71
3
 72
10
 73
6
 74
0
 42
0.0000001
 43
0.0000001
 44
0.0000000001
 40
0.0
 40
0.0
 40
0.0
 40
0.0
 40
0.2487653052
 40
0.5168094966
 40
1.0
 40
1.0
 40
1.0
 40
1.0
 10
513.9381982782
 20
554.6683057702
 30
0.0
 10
513.9382010578
 20
554.7234222066
 30
0.0
 10
513.9025204837
 20
554.8370319639
 30
0.0
 10
513.778007653
 20
555.0209517247
 30
0.0
 10
513.6471018849
 20
555.1311912536
 30
0.0
 10
513.5543884229
 20
555.1847181849
 30
0.0
  0
SPLINE
  5
3BB
100
AcDbEntity
  8
00_COMPONENTS_8
100
AcDbSpline
 62
7
  6
CONTINUOUS
 70
0
 71
3
 72
10
 73
6
 74
0
 42
0.0000001
 43
0.0000001
 44
0.0000000001
 40
0.0
 40
0.0
 40
0.0
 40
0.0
 40
0.2891705478
 40
0.5271977423
 40
1.0
 40
1.0
 40
1.0
 40
1.0
 10
513.9381982782
 20
548.9693464765
 30
0.0
 10
513.938199581
 20
548.9435115226
 30
0.0
 10
513.9312576276
 20
548.8949659314
 30
0.0
 10
513.8716074735
 20
548.8220993935
 30
0.0
 10
513.7997141745
 20
548.8161555592
 30
0.0
 10
513.7577518471
 20
548.8209987834
 30
0.0
  0
SPLINE
  5
3BC
100
AcDbEntity
  8
00_COMPONENTS_8
100
AcDbSpline
 62
7
  6
CONTINUOUS
 70
0
 71
3
 72
10
 73
6
 74
0
 42
0.0000001
 43
0.0000001
 44
0.0000000001
 40
0.0
 40
0.0
 40
0.0
 40
0.0
 40
0.2891625807
 40
0.527189212
 40
1.0
 40
1.0
 40
1.0
 40
1.0
 10
514.9988591655
 20
548.8468573868
 30
0.0
 10
514.9988604683
 20
548.8210247267
 30
0.0
 10
514.9919121258
 20
548.7724834662
 30
0.0
 10
514.9322617591
 20
548.6996262477
 30
0.0
 10
514.8603728362
 20
548.6936839249
 30
0.0
 10
514.818412311
 20
548.6985268484
 30
0.0
  0
SPLINE
  5
3BD
100
AcDbEntity
  8
00_COMPONENTS_19
100
AcDbSpline
 62
7
  6
CONTINUOUS
 70
0
 71
3
 72
9
 73
5
 74
0
 42
0.0000001
 43
0.0000001
 44
0.0000000001
 40
0.0
 40
0.0
 40
0.0
 40
0.0
 40
0.274247458
 40
1.0
 40
1.0
 40
1.0
 40
1.0
 10
85.4785536292
 20
339.1591541282
 30
0.0
 10
85.4412515349
 20
339.149762263
 30
0.0
 10
85.3049764715
 20
339.1165550231
 30
0.0
 10
85.1677534927
 20
339.0872215388
 30
0.0
 10
85.0677320214
 20
339.0683032002
 30
0.0
  0
SPLINE
  5
3BE
100
AcDbEntity
  8
00_COMPONENTS_19
100
AcDbSpline
 62
7
  6
CONTINUOUS
 70
0
 71
3
 72
9
 73
5
 74
0
 42
0.0000001
 43
0.0000001
 44
0.0000000001
 40
0.0
 40
0.0
 40
0.0
 40
0.0
 40
0.2873032563
 40
1.0
 40
1.0
 40
1.0
 40
1.0
 10
85.0677320214
 20
339.0683032002
 30
0.0
 10
85.0390948177
 20
339.06288668
 30
0.0
 10
84.9392907828
 20
339.0447191933
 30
0.0
 10
84.8390302142
 20
339.0290492
 30
0.0
 10
84.7673788917
 20
339.0193993738
 30
0.0
  0
SPLINE
  5
3BF
100
AcDbEntity
  8
00_COMPONENTS_19
100
AcDbSpline
 62
7
  6
CONTINUOUS
 70
0
 71
3
 72
9
 73
5
 74
0
 42
0.0000001
 43
0.0000001
 44
0.0000000001
 40
0.0
 40
0.0
 40
0.0
 40
0.0
 40
0.317474723
 40
1.0
 40
1.0
 40
1.0
 40
1.0
 10
84.7673788917
 20
339.0193993738
 30
0.0
 10
84.7486385723
 20
339.016875473
 30
0.0
 10
84.6895667243
 20
339.009234906
 30
0.0
 10
84.6303464907
 20
339.0028037345
 30
0.0
 10
84.5899034122
 20
338.9986802244
 30
0.0
  0
SPLINE
  5
3C0
100
AcDbEntity
  8
00_COMPONENTS_19
100
AcDbSpline
 62
7
  6
CONTINUOUS
 70
0
 71
3
 72
8
 73
4
 74
0
 42
0.0000001
 43
0.0000001
 44
0.0000000001
 40
0.0
 40
0.0
 40
0.0
 40
0.0
 40
1.0
 40
1.0
 40
1.0
 40
1.0
 10
85.4785536292
 20
820.5689792678
 30
0.0
 10
85.3920857963
 20
820.7979844393
 30
0.0
 10
85.3224870152
 20
821.0338900151
 30
0.0
 10
85.2684209613
 20
821.272630285
 30
0.0
  0
SPLINE
  5
3C1
100
AcDbEntity
  8
00_COMPONENTS_19
100
AcDbSpline
 62
7
  6
CONTINUOUS
 70
0
 71
3
 72
8
 73
4
 74
0
 42
0.0000001
 43
0.0000001
 44
0.0000000001
 40
0.0
 40
0.0
 40
0.0
 40
0.0
 40
1.0
 40
1.0
 40
1.0
 40
1.0
 10
85.2684209613
 20
821.272630285
 30
0.0
 10
85.159170735
 20
821.7550481173
 30
0.0
 10
85.112163709
 20
822.254189761
 30
0.0
 10
85.1171260422
 20
822.748798649
 30
0.0
  0
SPLINE
  5
3C2
100
AcDbEntity
  8
00_COMPONENTS_19
100
AcDbSpline
 62
7
  6
CONTINUOUS
 70
0
 71
3
 72
9
 73
5
 74
0
 42
0.0000001
 43
0.0000001
 44
0.0000000001
 40
0.0
 40
0.0
 40
0.0
 40
0.0
 40
0.2640943119
 40
1.0
 40
1.0
 40
1.0
 40
1.0
 10
85.0544471312
 20
823.9621496907
 30
0.0
 10
85.0557263494
 20
824.0574499016
 30
0.0
 10
85.0659919687
 20
824.4182199607
 30
0.0
 10
85.0962278346
 20
824.7783726915
 30
0.0
 10
85.1289294481
 20
825.0419321303
 30
0.0
  0
SPLINE
  5
3C3
100
AcDbEntity
  8
00_COMPONENTS_19
100
AcDbSpline
 62
7
  6
CONTINUOUS
 70
0
 71
3
 72
8
 73
4
 74
0
 42
0.0000001
 43
0.0000001
 44
0.0000000001
 40
0.0
 40
0.0
 40
0.0
 40
0.0
 40
1.0
 40
1.0
 40
1.0
 40
1.0
 10
493.2217892038
 20
587.3753869568
 30
0.0
 10
493.4616891204
 20
587.4486147623
 30
0.0
 10
493.704074968
 20
587.5143840736
 30
0.0
 10
493.9485990317
 20
587.5702612937
 30
0.0
  0
SPLINE
  5
3C4
100
AcDbEntity
  8
00_COMPONENTS_19
100
AcDbSpline
 62
7
  6
CONTINUOUS
 70
0
 71
3
 72
9
 73
5
 74
0
 42
0.0000001
 43
0.0000001
 44
0.0000000001
 40
0.0
 40
0.0
 40
0.0
 40
0.0
 40
0.2428205918
 40
1.0
 40
1.0
 40
1.0
 40
1.0
 10
494.1007280511
 20
587.6036704204
 30
0.0
 10
494.2578649501
 20
587.6367635571
 30
0.0
 10
494.9082898375
 20
587.7556574445
 30
0.0
 10
495.5754919536
 20
587.7938836028
 30
0.0
 10
496.0752185862
 20
587.7619927392
 30
0.0
  0
SPLINE
  5
3C5
100
AcDbEntity
  8
00_COMPONENTS_19
100
AcDbSpline
 62
7
  6
CONTINUOUS
 70
0
 71
3
 72
9
 73
5
 74
0
 42
0.0000001
 43
0.0000001
 44
0.0000000001
 40
0.0
 40
0.0
 40
0.0
 40
0.0
 40
0.3180294702
 40
1.0
 40
1.0
 40
1.0
 40
1.0
 10
511.7884538286
 20
592.3094374598
 30
0.0
 10
511.8054797083
 20
592.3436936592
 30
0.0
 10
511.8532908063
 20
592.4528721692
 30
0.0
 10
511.8911770485
 20
592.5743988123
 30
0.0
 10
511.8820376807
 20
592.6559185237
 30
0.0
  0
SPLINE
  5
3C6
100
AcDbEntity
  8
00_COMPONENTS_19
100
AcDbSpline
 62
7
  6
CONTINUOUS
 70
0
 71
3
 72
9
 73
5
 74
0
 42
0.0000001
 43
0.0000001
 44
0.0000000001
 40
0.0
 40
0.0
 40
0.0
 40
0.0
 40
0.5594889717
 40
1.0
 40
1.0
 40
1.0
 40
1.0
 10
511.8820376807
 20
592.6559185237
 30
0.0
 10
511.8801283882
 20
592.6729486916
 30
0.0
 10
511.8734100764
 20
592.7036047519
 30
0.0
 10
511.8522815363
 20
592.7283559162
 30
0.0
 10
511.8405970849
 20
592.735103108
 30
0.0
  0
SPLINE
  5
3C7
100
AcDbEntity
  8
00_COMPONENTS_19
100
AcDbSpline
 62
7
  6
CONTINUOUS
 70
0
 71
3
 72
8
 73
4
 74
0
 42
0.0000001
 43
0.0000001
 44
0.0000000001
 40
0.0
 40
0.0
 40
0.0
 40
0.0
 40
1.0
 40
1.0
 40
1.0
 40
1.0
 10
511.5105036913
 20
591.8976324944
 30
0.0
 10
511.5837472604
 20
591.9839002126
 30
0.0
 10
511.6515529583
 20
592.0752912619
 30
0.0
 10
511.711177291
 20
592.1714769083
 30
0.0
  0
SPLINE
  5
3C8
100
AcDbEntity
  8
00_COMPONENTS_19
100
AcDbSpline
 62
7
  6
CONTINUOUS
 70
0
 71
3
 72
8
 73
4
 74
0
 42
0.0000001
 43
0.0000001
 44
0.0000000001
 40
0.0
 40
0.0
 40
0.0
 40
0.0
 40
1.0
 40
1.0
 40
1.0
 40
1.0
 10
511.711177291
 20
592.1714769083
 30
0.0
 10
511.7389484804
 20
592.2162772386
 30
0.0
 10
511.7649940962
 20
592.2622362997
 30
0.0
 10
511.7884538286
 20
592.3094374598
 30
0.0
  0
SPLINE
  5
3C9
100
AcDbEntity
  8
00_COMPONENTS_19
100
AcDbSpline
 62
7
  6
CONTINUOUS
 70
0
 71
3
 72
9
 73
5
 74
0
 42
0.0000001
 43
0.0000001
 44
0.0000000001
 40
0.0
 40
0.0
 40
0.0
 40
0.0
 40
0.2366295691
 40
1.0
 40
1.0
 40
1.0
 40
1.0
 10
82.8861046471
 20
828.9249152903
 30
0.0
 10
82.8858529349
 20
829.0004650013
 30
0.0
 10
82.9180638154
 20
829.320459075
 30
0.0
 10
83.0930048233
 20
829.6135239913
 30
0.0
 10
83.2578745426
 20
829.7930239925
 30
0.0
  0
SPLINE
  5
3CA
100
AcDbEntity
  8
00_COMPONENTS_19
100
AcDbSpline
 62
7
  6
CONTINUOUS
 70
0
 71
3
 72
8
 73
4
 74
0
 42
0.0000001
 43
0.0000001
 44
0.0000000001
 40
0.0
 40
0.0
 40
0.0
 40
0.0
 40
1.0
 40
1.0
 40
1.0
 40
1.0
 10
83.2578745426
 20
829.7930239925
 30
0.0
 10
83.3956745368
 20
829.9430521433
 30
0.0
 10
83.5587131885
 20
830.0712279818
 30
0.0
 10
83.73122227
 20
830.1795695768
 30
0.0
  0
SPLINE
  5
3CB
100
AcDbEntity
  8
00_COMPONENTS_19
100
AcDbSpline
 62
7
  6
CONTINUOUS
 70
0
 71
3
 72
8
 73
4
 74
0
 42
0.0000001
 43
0.0000001
 44
0.0000000001
 40
0.0
 40
0.0
 40
0.0
 40
0.0
 40
1.0
 40
1.0
 40
1.0
 40
1.0
 10
491.8511849401
 20
104.2170802003
 30
0.0
 10
491.6704711059
 20
104.4125331241
 30
0.0
 10
491.5011210079
 20
104.6193266773
 30
0.0
 10
491.3468699382
 20
104.8362735435
 30
0.0
  0
SPLINE
  5
3CC
100
AcDbEntity
  8
00_COMPONENTS_19
100
AcDbSpline
 62
7
  6
CONTINUOUS
 70
0
 71
3
 72
8
 73
4
 74
0
 42
0.0000001
 43
0.0000001
 44
0.0000000001
 40
0.0
 40
0.0
 40
0.0
 40
0.0
 40
1.0
 40
1.0
 40
1.0
 40
1.0
 10
503.4614481343
 20
101.7259665576
 30
0.0
 10
503.7897989422
 20
101.7536326148
 30
0.0
 10
504.1175616582
 20
101.8111326032
 30
0.0
 10
504.4340080753
 20
101.9030093083
 30
0.0
  0
SPLINE
  5
3CD
100
AcDbEntity
  8
00_COMPONENTS_19
100
AcDbSpline
 62
7
  6
CONTINUOUS
 70
0
 71
3
 72
9
 73
5
 74
0
 42
0.0000001
 43
0.0000001
 44
0.0000000001
 40
0.0
 40
0.0
 40
0.0
 40
0.0
 40
0.2623997079
 40
1.0
 40
1.0
 40
1.0
 40
1.0
 10
504.4340080753
 20
101.9030093083
 30
0.0
 10
504.5093212864
 20
101.9248756633
 30
0.0
 10
504.7939735108
 20
102.0158311629
 30
0.0
 10
505.0695956718
 20
102.1373568567
 30
0.0
 10
505.2605081174
 20
102.2475795506
 30
0.0
  0
SPLINE
  5
3CE
100
AcDbEntity
  8
00_COMPONENTS_19
100
AcDbSpline
 62
7
  6
CONTINUOUS
 70
0
 71
3
 72
9
 73
5
 74
0
 42
0.0000001
 43
0.0000001
 44
0.0000000001
 40
0.0
 40
0.0
 40
0.0
 40
0.0
 40
0.2215329084
 40
1.0
 40
1.0
 40
1.0
 40
1.0
 10
512.3404230972
 20
591.3534039495
 30
0.0
 10
512.3054415776
 20
591.355586931
 30
0.0
 10
512.1471921865
 20
591.3596008323
 30
0.0
 10
511.9887367101
 20
591.3435702722
 30
0.0
 10
511.8673719322
 20
591.32259355
 30
0.0
  0
SPLINE
  5
3CF
100
AcDbEntity
  8
00_COMPONENTS_19
100
AcDbSpline
 62
7
  6
CONTINUOUS
 70
0
 71
3
 72
9
 73
5
 74
0
 42
0.0000001
 43
0.0000001
 44
0.0000000001
 40
0.0
 40
0.0
 40
0.0
 40
0.0
 40
0.2649077636
 40
1.0
 40
1.0
 40
1.0
 40
1.0
 10
502.6504688419
 20
587.0926421524
 30
0.0
 10
502.8090274509
 20
587.0765011245
 30
0.0
 10
503.4091586023
 20
587.0585564335
 30
0.0
 10
504.0289692284
 20
587.1921752632
 30
0.0
 10
504.4119764472
 20
587.4133032641
 30
0.0
  0
SPLINE
  5
3D0
100
AcDbEntity
  8
00_COMPONENTS_19
100
AcDbSpline
 62
7
  6
CONTINUOUS
 70
0
 71
3
 72
9
 73
5
 74
0
 42
0.0000001
 43
0.0000001
 44
0.0000000001
 40
0.0
 40
0.0
 40
0.0
 40
0.0
 40
0.3378064322
 40
1.0
 40
1.0
 40
1.0
 40
1.0
 10
85.1180475596
 20
338.6308391692
 30
0.0
 10
85.1100045635
 20
338.6006395096
 30
0.0
 10
85.0869918708
 20
338.5112009453
 30
0.0
 10
85.0603139902
 20
338.4217153357
 30
0.0
 10
85.0544471312
 20
338.3607337007
 30
0.0
  0
SPLINE
  5
3D1
100
AcDbEntity
  8
00_COMPONENTS_19
100
AcDbSpline
 62
7
  6
CONTINUOUS
 70
0
 71
3
 72
9
 73
5
 74
0
 42
0.0000001
 43
0.0000001
 44
0.0000000001
 40
0.0
 40
0.0
 40
0.0
 40
0.0
 40
0.6410788947
 40
1.0
 40
1.0
 40
1.0
 40
1.0
 10
85.0544471312
 20
338.3607337007
 30
0.0
 10
85.0535147288
 20
338.3510420719
 30
0.0
 10
85.0520255457
 20
338.336387944
 30
0.0
 10
85.0578455072
 20
338.3199620876
 30
0.0
 10
85.062567604
 20
338.3172387813
 30
0.0
  0
SPLINE
  5
3D2
100
AcDbEntity
  8
00_COMPONENTS_19
100
AcDbSpline
 62
7
  6
CONTINUOUS
 70
0
 71
3
 72
9
 73
5
 74
0
 42
0.0000001
 43
0.0000001
 44
0.0000000001
 40
0.0
 40
0.0
 40
0.0
 40
0.0
 40
0.2694635781
 40
1.0
 40
1.0
 40
1.0
 40
1.0
 10
493.2623140623
 20
587.5613709316
 30
0.0
 10
493.1968606309
 20
587.5056888566
 30
0.0
 10
492.9514209708
 20
587.3020135511
 30
0.0
 10
492.6975938637
 20
587.1087127133
 30
0.0
 10
492.5105913852
 20
586.9697639893
 30
0.0
  0
SPLINE
  5
3D3
100
AcDbEntity
  8
00_COMPONENTS_19
100
AcDbSpline
 62
7
  6
CONTINUOUS
 70
0
 71
3
 72
9
 73
5
 74
0
 42
0.0000001
 43
0.0000001
 44
0.0000000001
 40
0.0
 40
0.0
 40
0.0
 40
0.0
 40
0.7454732801
 40
1.0
 40
1.0
 40
1.0
 40
1.0
 10
493.594025007
 20
102.495634421
 30
0.0
 10
494.1707101184
 20
102.2487522889
 30
0.0
 10
495.0202792608
 20
102.0739670099
 30
0.0
 10
495.8615780203
 20
102.0911367306
 30
0.0
 10
496.0752185862
 20
102.1063550305
 30
0.0
  0
SPLINE
  5
3D4
100
AcDbEntity
  8
00_COMPONENTS_19
100
AcDbSpline
 62
7
  6
CONTINUOUS
 70
0
 71
3
 72
9
 73
5
 74
0
 42
0.0000001
 43
0.0000001
 44
0.0000000001
 40
0.0
 40
0.0
 40
0.0
 40
0.0
 40
0.1643883653
 40
1.0
 40
1.0
 40
1.0
 40
1.0
 10
85.1171260422
 20
338.3416836106
 30
0.0
 10
85.1156539368
 20
338.3685574217
 30
0.0
 10
85.13449336
 20
338.5327173453
 30
0.0
 10
85.2059373382
 20
338.6843871374
 30
0.0
 10
85.2684209613
 20
338.8060932558
 30
0.0
  0
SPLINE
  5
3D5
100
AcDbEntity
  8
00_COMPONENTS_19
100
AcDbSpline
 62
7
  6
CONTINUOUS
 70
0
 71
3
 72
8
 73
4
 74
0
 42
0.0000001
 43
0.0000001
 44
0.0000000001
 40
0.0
 40
0.0
 40
0.0
 40
0.0
 40
1.0
 40
1.0
 40
1.0
 40
1.0
 10
85.2684209613
 20
338.8060932558
 30
0.0
 10
85.3165178647
 20
338.8997768023
 30
0.0
 10
85.3699332602
 20
338.9908029291
 30
0.0
 10
85.4265517321
 20
339.0795963278
 30
0.0
  0
SPLINE
  5
3D6
100
AcDbEntity
  8
00_COMPONENTS_19
100
AcDbSpline
 62
7
  6
CONTINUOUS
 70
0
 71
3
 72
9
 73
5
 74
0
 42
0.0000001
 43
0.0000001
 44
0.0000000001
 40
0.0
 40
0.0
 40
0.0
 40
0.0
 40
0.3331422146
 40
1.0
 40
1.0
 40
1.0
 40
1.0
 10
512.7351253733
 20
591.1857457652
 30
0.0
 10
512.7351217366
 20
591.2353045164
 30
0.0
 10
512.5763390415
 20
591.3363152114
 30
0.0
 10
512.4394332957
 20
591.3472253319
 30
0.0
 10
512.3404230972
 20
591.3534039495
 30
0.0
  0
SPLINE
  5
3D7
100
AcDbEntity
  8
00_COMPONENTS_19
100
AcDbSpline
 62
7
  6
CONTINUOUS
 70
0
 71
3
 72
8
 73
4
 74
0
 42
0.0000001
 43
0.0000001
 44
0.0000000001
 40
0.0
 40
0.0
 40
0.0
 40
0.0
 40
1.0
 40
1.0
 40
1.0
 40
1.0
 10
92.7305639679
 20
834.7027818355
 30
0.0
 10
92.6459850316
 20
834.7516279833
 30
0.0
 10
92.5543073596
 20
834.7896493472
 30
0.0
 10
92.4601574555
 20
834.8156366168
 30
0.0
  0
SPLINE
  5
3D8
100
AcDbEntity
  8
00_COMPONENTS_19
100
AcDbSpline
 62
7
  6
CONTINUOUS
 70
0
 71
3
 72
8
 73
4
 74
0
 42
0.0000001
 43
0.0000001
 44
0.0000000001
 40
0.0
 40
0.0
 40
0.0
 40
0.0
 40
1.0
 40
1.0
 40
1.0
 40
1.0
 10
92.4601574555
 20
834.8156366168
 30
0.0
 10
92.2369097938
 20
834.8772574674
 30
0.0
 10
91.9912643754
 20
834.8715108605
 30
0.0
 10
91.7653859518
 20
834.8203680661
 30
0.0
  0
SPLINE
  5
3D9
100
AcDbEntity
  8
00_COMPONENTS_19
100
AcDbSpline
 62
7
  6
CONTINUOUS
 70
0
 71
3
 72
9
 73
5
 74
0
 42
0.0000001
 43
0.0000001
 44
0.0000000001
 40
0.0
 40
0.0
 40
0.0
 40
0.0
 40
0.2636758077
 40
1.0
 40
1.0
 40
1.0
 40
1.0
 10
512.3542516334
 20
106.343129832
 30
0.0
 10
512.4130035156
 20
106.4066681189
 30
0.0
 10
512.6178275313
 20
106.6626462721
 30
0.0
 10
512.7351012914
 20
106.9961291908
 30
0.0
 10
512.7351041738
 20
107.237790837
 30
0.0
  0
SPLINE
  5
3DA
100
AcDbEntity
  8
00_COMPONENTS_19
100
AcDbSpline
 62
7
  6
CONTINUOUS
 70
0
 71
3
 72
8
 73
4
 74
0
 42
0.0000001
 43
0.0000001
 44
0.0000000001
 40
0.0
 40
0.0
 40
0.0
 40
0.0
 40
1.0
 40
1.0
 40
1.0
 40
1.0
 10
491.3468699382
 20
104.8362735435
 30
0.0
 10
491.4313083664
 20
104.6126431358
 30
0.0
 10
491.5323466844
 20
104.3944013781
 30
0.0
 10
491.6504960002
 20
104.1866006404
 30
0.0
  0
SPLINE
  5
3DB
100
AcDbEntity
  8
00_COMPONENTS_19
100
AcDbSpline
 62
7
  6
CONTINUOUS
 70
0
 71
3
 72
8
 73
4
 74
0
 42
0.0000001
 43
0.0000001
 44
0.0000000001
 40
0.0
 40
0.0
 40
0.0
 40
0.0
 40
1.0
 40
1.0
 40
1.0
 40
1.0
 10
491.6504960002
 20
104.1866006404
 30
0.0
 10
491.8458868753
 20
103.8429476306
 30
0.0
 10
492.0930977675
 20
103.5225261993
 30
0.0
 10
492.3834844277
 20
103.2542901599
 30
0.0
  0
SPLINE
  5
3DC
100
AcDbEntity
  8
00_COMPONENTS_19
100
AcDbSpline
 62
7
  6
CONTINUOUS
 70
0
 71
3
 72
8
 73
4
 74
0
 42
0.0000001
 43
0.0000001
 44
0.0000000001
 40
0.0
 40
0.0
 40
0.0
 40
0.0
 40
1.0
 40
1.0
 40
1.0
 40
1.0
 10
495.9127071962
 20
588.7280819147
 30
0.0
 10
495.5369300333
 20
588.6914709823
 30
0.0
 10
495.1633465784
 20
588.6215613587
 30
0.0
 10
494.7984928357
 20
588.5244501701
 30
0.0
  0
SPLINE
  5
3DD
100
AcDbEntity
  8
00_COMPONENTS_19
100
AcDbSpline
 62
7
  6
CONTINUOUS
 70
0
 71
3
 72
8
 73
4
 74
0
 42
0.0000001
 43
0.0000001
 44
0.0000000001
 40
0.0
 40
0.0
 40
0.0
 40
0.0
 40
1.0
 40
1.0
 40
1.0
 40
1.0
 10
494.7984928357
 20
588.5244501701
 30
0.0
 10
494.3868090554
 20
588.4148744784
 30
0.0
 10
493.9834142071
 20
588.2698694434
 30
0.0
 10
493.594025007
 20
588.097050411
 30
0.0
  0
SPLINE
  5
3DE
100
AcDbEntity
  8
00_COMPONENTS_19
100
AcDbSpline
 62
7
  6
CONTINUOUS
 70
0
 71
3
 72
9
 73
5
 74
0
 42
0.0000001
 43
0.0000001
 44
0.0000000001
 40
0.0
 40
0.0
 40
0.0
 40
0.0
 40
0.2687718882
 40
1.0
 40
1.0
 40
1.0
 40
1.0
 10
492.5267185392
 20
587.536081973
 30
0.0
 10
492.4415052018
 20
587.464124607
 30
0.0
 10
492.1306549016
 20
587.189192119
 30
0.0
 10
491.8429878182
 20
586.887699693
 30
0.0
 10
491.6504960002
 20
586.6531376696
 30
0.0
  0
SPLINE
  5
3DF
100
AcDbEntity
  8
00_COMPONENTS_19
100
AcDbSpline
 62
7
  6
CONTINUOUS
 70
0
 71
3
 72
8
 73
4
 74
0
 42
0.0000001
 43
0.0000001
 44
0.0000000001
 40
0.0
 40
0.0
 40
0.0
 40
0.0
 40
1.0
 40
1.0
 40
1.0
 40
1.0
 10
491.6504960002
 20
586.6531376696
 30
0.0
 10
491.5431153092
 20
586.5222883046
 30
0.0
 10
491.4410343967
 20
586.3867586415
 30
0.0
 10
491.3468699382
 20
586.2460986831
 30
0.0
  0
SPLINE
  5
3E0
100
AcDbEntity
  8
00_COMPONENTS_19
100
AcDbSpline
 62
7
  6
CONTINUOUS
 70
0
 71
3
 72
9
 73
5
 74
0
 42
0.0000001
 43
0.0000001
 44
0.0000000001
 40
0.0
 40
0.0
 40
0.0
 40
0.0
 40
0.3198956196
 40
1.0
 40
1.0
 40
1.0
 40
1.0
 10
512.3542516334
 20
591.0189646401
 30
0.0
 10
512.3918190293
 20
591.021714901
 30
0.0
 10
512.5074977948
 20
591.035943088
 30
0.0
 10
512.6293967478
 20
591.0646546326
 30
0.0
 10
512.6923319562
 20
591.1141764361
 30
0.0
  0
SPLINE
  5
3E1
100
AcDbEntity
  8
00_COMPONENTS_19
100
AcDbSpline
 62
7
  6
CONTINUOUS
 70
0
 71
3
 72
9
 73
5
 74
0
 42
0.0000001
 43
0.0000001
 44
0.0000000001
 40
0.0
 40
0.0
 40
0.0
 40
0.0
 40
0.5205788651
 40
1.0
 40
1.0
 40
1.0
 40
1.0
 10
512.6923319562
 20
591.1141764361
 30
0.0
 10
512.6964718818
 20
591.1174340178
 30
0.0
 10
512.7041693583
 20
591.1240268904
 30
0.0
 10
512.7111727696
 20
591.1313630886
 30
0.0
 10
512.7143055237
 20
591.1350674232
 30
0.0
  0
SPLINE
  5
3E2
100
AcDbEntity
  8
00_COMPONENTS_19
100
AcDbSpline
 62
7
  6
CONTINUOUS
 70
0
 71
3
 72
9
 73
5
 74
0
 42
0.0000001
 43
0.0000001
 44
0.0000000001
 40
0.0
 40
0.0
 40
0.0
 40
0.0
 40
0.530598333
 40
1.0
 40
1.0
 40
1.0
 40
1.0
 10
512.7143055237
 20
591.1350674232
 30
0.0
 10
512.7206633005
 20
591.1425851959
 30
0.0
 10
512.7310767918
 20
591.1583529519
 30
0.0
 10
512.7351260125
 20
591.177035602
 30
0.0
 10
512.7351253733
 20
591.1857457652
 30
0.0
  0
SPLINE
  5
3E3
100
AcDbEntity
  8
00_COMPONENTS_19
100
AcDbSpline
 62
7
  6
CONTINUOUS
 70
0
 71
3
 72
9
 73
5
 74
0
 42
0.0000001
 43
0.0000001
 44
0.0000000001
 40
0.0
 40
0.0
 40
0.0
 40
0.0
 40
0.1512335259
 40
1.0
 40
1.0
 40
1.0
 40
1.0
 10
511.8405970849
 20
592.735103108
 30
0.0
 10
511.8259293399
 20
592.743573004
 30
0.0
 10
511.7055386784
 20
592.7506424399
 30
0.0
 10
511.6244635993
 20
592.6426616714
 30
0.0
 10
511.5647950387
 20
592.5686629404
 30
0.0
  0
SPLINE
  5
3E4
100
AcDbEntity
  8
00_COMPONENTS_19
100
AcDbSpline
 62
7
  6
CONTINUOUS
 70
0
 71
3
 72
9
 73
5
 74
0
 42
0.0000001
 43
0.0000001
 44
0.0000000001
 40
0.0
 40
0.0
 40
0.0
 40
0.0
 40
0.4855049228
 40
1.0
 40
1.0
 40
1.0
 40
1.0
 10
511.5647950387
 20
592.5686629404
 30
0.0
 10
511.5546899909
 20
592.5561310358
 30
0.0
 10
511.5344542241
 20
592.5298493901
 30
0.0
 10
511.515305493
 20
592.5027675841
 30
0.0
 10
511.5057195067
 20
592.4886557743
 30
0.0
  0
SPLINE
  5
3E5
100
AcDbEntity
  8
00_COMPONENTS_19
100
AcDbSpline
 62
7
  6
CONTINUOUS
 70
0
 71
3
 72
9
 73
5
 74
0
 42
0.0000001
 43
0.0000001
 44
0.0000000001
 40
0.0
 40
0.0
 40
0.0
 40
0.0
 40
0.2370361311
 40
1.0
 40
1.0
 40
1.0
 40
1.0
 10
505.2605081174
 20
586.9234143587
 30
0.0
 10
505.1991508159
 20
586.8879899156
 30
0.0
 10
504.9349526529
 20
586.7478573512
 30
0.0
 10
504.6530112093
 20
586.6424292457
 30
0.0
 10
504.4340080753
 20
586.5788441164
 30
0.0
  0
SPLINE
  5
3E6
100
AcDbEntity
  8
00_COMPONENTS_19
100
AcDbSpline
 62
7
  6
CONTINUOUS
 70
0
 71
3
 72
8
 73
4
 74
0
 42
0.0000001
 43
0.0000001
 44
0.0000000001
 40
0.0
 40
0.0
 40
0.0
 40
0.0
 40
1.0
 40
1.0
 40
1.0
 40
1.0
 10
504.4340080753
 20
586.5788441164
 30
0.0
 10
504.1175616582
 20
586.4869674114
 30
0.0
 10
503.7897989422
 20
586.429467423
 30
0.0
 10
503.4614481343
 20
586.4018013657
 30
0.0
  0
SPLINE
  5
3E7
100
AcDbEntity
  8
00_COMPONENTS_19
100
AcDbSpline
 62
7
  6
CONTINUOUS
 70
0
 71
3
 72
8
 73
4
 74
0
 42
0.0000001
 43
0.0000001
 44
0.0000000001
 40
0.0
 40
0.0
 40
0.0
 40
0.0
 40
1.0
 40
1.0
 40
1.0
 40
1.0
 10
84.7673788917
 20
821.9572692817
 30
0.0
 10
84.8481215676
 20
821.711656186
 30
0.0
 10
84.9494847629
 20
821.4720697507
 30
0.0
 10
85.0677320214
 20
821.242150725
 30
0.0
  0
SPLINE
  5
3E8
100
AcDbEntity
  8
00_COMPONENTS_19
100
AcDbSpline
 62
7
  6
CONTINUOUS
 70
0
 71
3
 72
8
 73
4
 74
0
 42
0.0000001
 43
0.0000001
 44
0.0000000001
 40
0.0
 40
0.0
 40
0.0
 40
0.0
 40
1.0
 40
1.0
 40
1.0
 40
1.0
 10
85.0677320214
 20
821.242150725
 30
0.0
 10
85.187960409
 20
821.0083796077
 30
0.0
 10
85.3262253227
 20
820.7832218582
 30
0.0
 10
85.4785536292
 20
820.5689792678
 30
0.0
  0
SPLINE
  5
3E9
100
AcDbEntity
  8
00_COMPONENTS_27
100
AcDbSpline
 62
7
  6
CONTINUOUS
 70
0
 71
3
 72
9
 73
5
 74
0
 42
0.0000001
 43
0.0000001
 44
0.0000000001
 40
0.0
 40
0.0
 40
0.0
 40
0.0
 40
0.2997467947
 40
1.0
 40
1.0
 40
1.0
 40
1.0
 10
641.7355674755
 20
666.8479360493
 30
0.0
 10
641.7355674725
 20
666.8434360696
 30
0.0
 10
641.7177225634
 20
666.8353282247
 30
0.0
 10
641.7050355381
 20
666.8334193316
 30
0.0
 10
641.6946295588
 20
666.83192573
 30
0.0
  0
SPLINE
  5
3EA
100
AcDbEntity
  8
00_COMPONENTS_27
100
AcDbSpline
 62
7
  6
CONTINUOUS
 70
0
 71
3
 72
8
 73
4
 74
0
 42
0.0000001
 43
0.0000001
 44
0.0000000001
 40
0.0
 40
0.0
 40
0.0
 40
0.0
 40
1.0
 40
1.0
 40
1.0
 40
1.0
 10
641.6946295588
 20
666.83192573
 30
0.0
 10
641.6563747169
 20
666.8264348973
 30
0.0
 10
641.61737327
 20
666.8267460971
 30
0.0
 10
641.5787510978
 20
666.8281281202
 30
0.0
  0
SPLINE
  5
3EB
100
AcDbEntity
  8
00_COMPONENTS_27
100
AcDbSpline
 62
7
  6
CONTINUOUS
 70
0
 71
3
 72
8
 73
4
 74
0
 42
0.0000001
 43
0.0000001
 44
0.0000000001
 40
0.0
 40
0.0
 40
0.0
 40
0.0
 40
1.0
 40
1.0
 40
1.0
 40
1.0
 10
641.5787510978
 20
666.8281281202
 30
0.0
 10
641.5135627193
 20
666.8304607659
 30
0.0
 10
641.4485000242
 20
666.8377805732
 30
0.0
 10
641.3840668768
 20
666.8479459774
 30
0.0
  0
SPLINE
  5
3EC
100
AcDbEntity
  8
00_COMPONENTS_27
100
AcDbSpline
 62
7
  6
CONTINUOUS
 70
0
 71
3
 72
9
 73
5
 74
0
 42
0.0000001
 43
0.0000001
 44
0.0000000001
 40
0.0
 40
0.0
 40
0.0
 40
0.0
 40
0.2634183802
 40
1.0
 40
1.0
 40
1.0
 40
1.0
 10
96.7691657603
 20
841.3294618105
 30
0.0
 10
96.6526588096
 20
841.2086682468
 30
0.0
 10
96.2382123103
 20
840.7254656042
 30
0.0
 10
95.9525264065
 20
840.1214244001
 30
0.0
 10
95.8715550866
 20
839.6591857062
 30
0.0
  0
SPLINE
  5
3ED
100
AcDbEntity
  8
00_COMPONENTS_27
100
AcDbSpline
 62
7
  6
CONTINUOUS
 70
0
 71
3
 72
9
 73
5
 74
0
 42
0.0000001
 43
0.0000001
 44
0.0000000001
 40
0.0
 40
0.0
 40
0.0
 40
0.0
 40
0.3329177094
 40
1.0
 40
1.0
 40
1.0
 40
1.0
 10
641.3840668768
 20
666.8479459774
 30
0.0
 10
641.3964725296
 20
666.8802047496
 30
0.0
 10
641.4366872986
 20
666.9756366763
 30
0.0
 10
641.4826802711
 20
667.0704631363
 30
0.0
 10
641.5254804736
 20
667.124907321
 30
0.0
  0
SPLINE
  5
3EE
100
AcDbEntity
  8
00_COMPONENTS_27
100
AcDbSpline
 62
7
  6
CONTINUOUS
 70
0
 71
3
 72
9
 73
5
 74
0
 42
0.0000001
 43
0.0000001
 44
0.0000000001
 40
0.0
 40
0.0
 40
0.0
 40
0.0
 40
0.7002273793
 40
1.0
 40
1.0
 40
1.0
 40
1.0
 10
641.5254804736
 20
667.124907321
 30
0.0
 10
641.5319765405
 20
667.1331706714
 30
0.0
 10
641.5399733285
 20
667.1432030839
 30
0.0
 10
641.555916901
 20
667.1545977464
 30
0.0
 10
641.5598139055
 20
667.1523478501
 30
0.0
  0
SPLINE
  5
3EF
100
AcDbEntity
  8
00_COMPONENTS_27
100
AcDbSpline
 62
7
  6
CONTINUOUS
 70
0
 71
3
 72
9
 73
5
 74
0
 42
0.0000001
 43
0.0000001
 44
0.0000000001
 40
0.0
 40
0.0
 40
0.0
 40
0.0
 40
0.2141999138
 40
1.0
 40
1.0
 40
1.0
 40
1.0
 10
517.3580420536
 20
595.2418863708
 30
0.0
 10
517.3998079203
 20
595.2935284928
 30
0.0
 10
517.6019324879
 20
595.5287778275
 30
0.0
 10
517.829493866
 20
595.7419833521
 30
0.0
 10
518.018729637
 20
595.8954686549
 30
0.0
  0
SPLINE
  5
3F0
100
AcDbEntity
  8
00_COMPONENTS_27
100
AcDbSpline
 62
7
  6
CONTINUOUS
 70
0
 71
3
 72
9
 73
5
 74
0
 42
0.0000001
 43
0.0000001
 44
0.0000000001
 40
0.0
 40
0.0
 40
0.0
 40
0.0
 40
0.2371420962
 40
1.0
 40
1.0
 40
1.0
 40
1.0
 10
518.018729637
 20
595.8954686549
 30
0.0
 10
518.1656768523
 20
596.0146545662
 30
0.0
 10
518.8118731063
 20
596.4810004898
 30
0.0
 10
519.5827581196
 20
596.7975018816
 30
0.0
 10
520.1864691783
 20
596.8748980038
 30
0.0
  0
SPLINE
  5
3F1
100
AcDbEntity
  8
00_COMPONENTS_27
100
AcDbSpline
 62
7
  6
CONTINUOUS
 70
0
 71
3
 72
8
 73
4
 74
0
 42
0.0000001
 43
0.0000001
 44
0.0000000001
 40
0.0
 40
0.0
 40
0.0
 40
0.0
 40
1.0
 40
1.0
 40
1.0
 40
1.0
 10
642.9355352066
 20
179.8858892799
 30
0.0
 10
642.9355351933
 20
179.7221661215
 30
0.0
 10
642.9107831269
 20
179.5569519755
 30
0.0
 10
642.8646570111
 20
179.3998607472
 30
0.0
  0
SPLINE
  5
3F2
100
AcDbEntity
  8
00_COMPONENTS_27
100
AcDbSpline
 62
7
  6
CONTINUOUS
 70
0
 71
3
 72
9
 73
5
 74
0
 42
0.0000001
 43
0.0000001
 44
0.0000000001
 40
0.0
 40
0.0
 40
0.0
 40
0.0
 40
0.23897159
 40
1.0
 40
1.0
 40
1.0
 40
1.0
 10
642.8646570111
 20
179.3998607472
 30
0.0
 10
642.8382361452
 20
179.3098794813
 30
0.0
 10
642.6983792293
 20
178.9418514122
 30
0.0
 10
642.4496724445
 20
178.6213264965
 30
0.0
 10
642.2325985469
 20
178.4162125953
 30
0.0
  0
SPLINE
  5
3F3
100
AcDbEntity
  8
00_COMPONENTS_27
100
AcDbSpline
 62
7
  6
CONTINUOUS
 70
0
 71
3
 72
8
 73
4
 74
0
 42
0.0000001
 43
0.0000001
 44
0.0000000001
 40
0.0
 40
0.0
 40
0.0
 40
0.0
 40
1.0
 40
1.0
 40
1.0
 40
1.0
 10
96.668539168
 20
837.517063821
 30
0.0
 10
96.5671194898
 20
838.0776641947
 30
0.0
 10
96.565465898
 20
838.6610640396
 30
0.0
 10
96.6396003703
 20
839.2259204906
 30
0.0
  0
SPLINE
  5
3F4
100
AcDbEntity
  8
00_COMPONENTS_27
100
AcDbSpline
 62
7
  6
CONTINUOUS
 70
0
 71
3
 72
9
 73
5
 74
0
 42
0.0000001
 43
0.0000001
 44
0.0000000001
 40
0.0
 40
0.0
 40
0.0
 40
0.0
 40
0.2662606755
 40
1.0
 40
1.0
 40
1.0
 40
1.0
 10
96.7247066415
 20
839.7216061754
 30
0.0
 10
96.7546435475
 20
839.8624648129
 30
0.0
 10
96.884997281
 20
840.3873973686
 30
0.0
 10
97.0806825704
 20
840.8970502586
 30
0.0
 10
97.2641408342
 20
841.2489341878
 30
0.0
  0
SPLINE
  5
3F5
100
AcDbEntity
  8
00_COMPONENTS_27
100
AcDbSpline
 62
7
  6
CONTINUOUS
 70
0
 71
3
 72
9
 73
5
 74
0
 42
0.0000001
 43
0.0000001
 44
0.0000000001
 40
0.0
 40
0.0
 40
0.0
 40
0.0
 40
0.2687441724
 40
1.0
 40
1.0
 40
1.0
 40
1.0
 10
97.2641408342
 20
841.2489341878
 30
0.0
 10
97.2919505525
 20
841.3022748919
 30
0.0
 10
97.3989701024
 20
841.4988533174
 30
0.0
 10
97.5198206669
 20
841.6881824179
 30
0.0
 10
97.617697925
 20
841.8193764685
 30
0.0
  0
SPLINE
  5
3F6
100
AcDbEntity
  8
00_COMPONENTS_27
100
AcDbSpline
 62
7
  6
CONTINUOUS
 70
0
 71
3
 72
9
 73
5
 74
0
 42
0.0000001
 43
0.0000001
 44
0.0000000001
 40
0.0
 40
0.0
 40
0.0
 40
0.0
 40
0.2789310291
 40
1.0
 40
1.0
 40
1.0
 40
1.0
 10
520.1864691783
 20
596.8748980038
 30
0.0
 10
519.9998506096
 20
596.6299685352
 30
0.0
 10
519.2103374622
 20
595.8480486187
 30
0.0
 10
518.1443343183
 20
595.3659398427
 30
0.0
 10
517.3580420536
 20
595.2418863708
 30
0.0
  0
SPLINE
  5
3F7
100
AcDbEntity
  8
00_COMPONENTS_27
100
AcDbSpline
 62
7
  6
CONTINUOUS
 70
0
 71
3
 72
9
 73
5
 74
0
 42
0.0000001
 43
0.0000001
 44
0.0000000001
 40
0.0
 40
0.0
 40
0.0
 40
0.0
 40
0.2305284926
 40
1.0
 40
1.0
 40
1.0
 40
1.0
 10
521.0350008485
 20
108.4431631124
 30
0.0
 10
520.9837459655
 20
108.4371191436
 30
0.0
 10
520.7607924244
 20
108.4162163124
 30
0.0
 10
520.5362103894
 20
108.4147897753
 30
0.0
 10
520.3641030254
 20
108.4222018721
 30
0.0
  0
SPLINE
  5
3F8
100
AcDbEntity
  8
00_COMPONENTS_27
100
AcDbSpline
 62
7
  6
CONTINUOUS
 70
0
 71
3
 72
9
 73
5
 74
0
 42
0.0000001
 43
0.0000001
 44
0.0000000001
 40
0.0
 40
0.0
 40
0.0
 40
0.0
 40
0.2314023821
 40
1.0
 40
1.0
 40
1.0
 40
1.0
 10
520.3641030254
 20
108.4222018721
 30
0.0
 10
520.2391545528
 20
108.4275829909
 30
0.0
 10
519.700181272
 20
108.4708663687
 30
0.0
 10
519.1678345623
 20
108.5900751237
 30
0.0
 10
518.7727495314
 20
108.7183850077
 30
0.0
  0
SPLINE
  5
3F9
100
AcDbEntity
  8
00_COMPONENTS_27
100
AcDbSpline
 62
7
  6
CONTINUOUS
 70
0
 71
3
 72
8
 73
4
 74
0
 42
0.0000001
 43
0.0000001
 44
0.0000000001
 40
0.0
 40
0.0
 40
0.0
 40
0.0
 40
1.0
 40
1.0
 40
1.0
 40
1.0
 10
518.3000496852
 20
108.8927945557
 30
0.0
 10
517.7737815005
 20
109.1110146867
 30
0.0
 10
517.2693485885
 20
109.4041463887
 30
0.0
 10
516.8345434392
 20
109.7722804809
 30
0.0
  0
SPLINE
  5
3FA
100
AcDbEntity
  8
00_COMPONENTS_27
100
AcDbSpline
 62
7
  6
CONTINUOUS
 70
0
 71
3
 72
9
 73
5
 74
0
 42
0.0000001
 43
0.0000001
 44
0.0000000001
 40
0.0
 40
0.0
 40
0.0
 40
0.0
 40
0.2621155543
 40
1.0
 40
1.0
 40
1.0
 40
1.0
 10
516.5404806773
 20
109.9735373275
 30
0.0
 10
516.5880604021
 20
109.8230864556
 30
0.0
 10
516.8016384848
 20
109.2606646656
 30
0.0
 10
517.1665708176
 20
108.7486118192
 30
0.0
 10
517.5072372758
 20
108.4635336255
 30
0.0
  0
SPLINE
  5
3FB
100
AcDbEntity
  8
00_COMPONENTS_27
100
AcDbSpline
 62
7
  6
CONTINUOUS
 70
0
 71
3
 72
9
 73
5
 74
0
 42
0.0000001
 43
0.0000001
 44
0.0000000001
 40
0.0
 40
0.0
 40
0.0
 40
0.0
 40
0.3072430614
 40
1.0
 40
1.0
 40
1.0
 40
1.0
 10
642.2325985469
 20
666.3580570719
 30
0.0
 10
642.3015929524
 20
666.3725314133
 30
0.0
 10
642.5214794739
 20
666.4303061918
 30
0.0
 10
642.7453862137
 20
666.5302158697
 30
0.0
 10
642.8507587965
 20
666.6492212782
 30
0.0
  0
SPLINE
  5
3FC
100
AcDbEntity
  8
00_COMPONENTS_27
100
AcDbSpline
 62
7
  6
CONTINUOUS
 70
0
 71
3
 72
8
 73
4
 74
0
 42
0.0000001
 43
0.0000001
 44
0.0000000001
 40
0.0
 40
0.0
 40
0.0
 40
0.0
 40
1.0
 40
1.0
 40
1.0
 40
1.0
 10
642.8507587965
 20
666.6492212782
 30
0.0
 10
642.8984986607
 20
666.7031375997
 30
0.0
 10
642.9355352025
 20
666.7759216628
 30
0.0
 10
642.9355352066
 20
666.8479359972
 30
0.0
  0
SPLINE
  5
3FD
100
AcDbEntity
  8
00_COMPONENTS_27
100
AcDbSpline
 62
7
  6
CONTINUOUS
 70
0
 71
3
 72
8
 73
4
 74
0
 42
0.0000001
 43
0.0000001
 44
0.0000000001
 40
0.0
 40
0.0
 40
0.0
 40
0.0
 40
1.0
 40
1.0
 40
1.0
 40
1.0
 10
642.1597875724
 20
668.191556275
 30
0.0
 10
642.0974253334
 20
668.2275602776
 30
0.0
 10
642.0158821833
 20
668.2318820339
 30
0.0
 10
641.9453234157
 20
668.2175015828
 30
0.0
  0
SPLINE
  5
3FE
100
AcDbEntity
  8
00_COMPONENTS_27
100
AcDbSpline
 62
7
  6
CONTINUOUS
 70
0
 71
3
 72
9
 73
5
 74
0
 42
0.0000001
 43
0.0000001
 44
0.0000000001
 40
0.0
 40
0.0
 40
0.0
 40
0.0
 40
0.1953826685
 40
1.0
 40
1.0
 40
1.0
 40
1.0
 10
641.9453234157
 20
668.2175015828
 30
0.0
 10
641.9013006108
 20
668.2085293768
 30
0.0
 10
641.6830704209
 20
668.1291486115
 30
0.0
 10
641.5075060964
 20
667.9655717424
 30
0.0
 10
641.3840668768
 20
667.8277488779
 30
0.0
  0
SPLINE
  5
3FF
100
AcDbEntity
  8
00_COMPONENTS_27
100
AcDbSpline
 62
7
  6
CONTINUOUS
 70
0
 71
3
 72
9
 73
5
 74
0
 42
0.0000001
 43
0.0000001
 44
0.0000000001
 40
0.0
 40
0.0
 40
0.0
 40
0.0
 40
0.2997615761
 40
1.0
 40
1.0
 40
1.0
 40
1.0
 10
641.5598139055
 20
667.1523478501
 30
0.0
 10
641.5637118457
 20
667.1500974136
 30
0.0
 10
641.5618133316
 20
667.1305866789
 30
0.0
 10
641.557122239
 20
667.1186422615
 30
0.0
 10
641.553212624
 20
667.1088820645
 30
0.0
  0
SPLINE
  5
400
100
AcDbEntity
  8
00_COMPONENTS_27
100
AcDbSpline
 62
7
  6
CONTINUOUS
 70
0
 71
3
 72
9
 73
5
 74
0
 42
0.0000001
 43
0.0000001
 44
0.0000000001
 40
0.0
 40
0.0
 40
0.0
 40
0.0
 40
0.4352069431
 40
1.0
 40
1.0
 40
1.0
 40
1.0
 10
641.553212624
 20
667.1088820645
 30
0.0
 10
641.5485836608
 20
667.0973260437
 30
0.0
 10
641.5363503721
 20
667.0714213896
 30
0.0
 10
641.5224507386
 20
667.0464073734
 30
0.0
 10
641.5142654044
 20
667.032479165
 30
0.0
  0
SPLINE
  5
401
100
AcDbEntity
  8
00_COMPONENTS_27
100
AcDbSpline
 62
7
  6
CONTINUOUS
 70
0
 71
3
 72
8
 73
4
 74
0
 42
0.0000001
 43
0.0000001
 44
0.0000000001
 40
0.0
 40
0.0
 40
0.0
 40
0.0
 40
1.0
 40
1.0
 40
1.0
 40
1.0
 10
641.5142654044
 20
667.032479165
 30
0.0
 10
641.4761199364
 20
666.9675706328
 30
0.0
 10
641.431403343
 20
666.9064637086
 30
0.0
 10
641.3840598113
 20
666.8479249669
 30
0.0
  0
SPLINE
  5
402
100
AcDbEntity
  8
00_COMPONENTS_27
100
AcDbSpline
 62
7
  6
CONTINUOUS
 70
0
 71
3
 72
9
 73
5
 74
0
 42
0.0000001
 43
0.0000001
 44
0.0000000001
 40
0.0
 40
0.0
 40
0.0
 40
0.0
 40
0.2412064832
 40
1.0
 40
1.0
 40
1.0
 40
1.0
 10
95.8715557035
 20
838.7539973462
 30
0.0
 10
95.8966283996
 20
838.6108667295
 30
0.0
 10
96.0482382653
 20
838.0256041084
 30
0.0
 10
96.3871856606
 20
837.4990279788
 30
0.0
 10
96.6957971943
 20
837.161807419
 30
0.0
  0
SPLINE
  5
403
100
AcDbEntity
  8
00_COMPONENTS_27
100
AcDbSpline
 62
7
  6
CONTINUOUS
 70
0
 71
3
 72
8
 73
4
 74
0
 42
0.0000001
 43
0.0000001
 44
0.0000000001
 40
0.0
 40
0.0
 40
0.0
 40
0.0
 40
1.0
 40
1.0
 40
1.0
 40
1.0
 10
519.7608368368
 20
597.7251807037
 30
0.0
 10
519.0689767912
 20
597.4768377768
 30
0.0
 10
518.4260307849
 20
597.0661178897
 30
0.0
 10
517.8797498945
 20
596.5742625038
 30
0.0
  0
SPLINE
  5
404
100
AcDbEntity
  8
00_COMPONENTS_27
100
AcDbSpline
 62
7
  6
CONTINUOUS
 70
0
 71
3
 72
9
 73
5
 74
0
 42
0.0000001
 43
0.0000001
 44
0.0000000001
 40
0.0
 40
0.0
 40
0.0
 40
0.0
 40
0.26425889
 40
1.0
 40
1.0
 40
1.0
 40
1.0
 10
517.8797498945
 20
596.5742625038
 30
0.0
 10
517.7812792992
 20
596.4856024509
 30
0.0
 10
517.4192940593
 20
596.1385779658
 30
0.0
 10
517.0967770577
 20
595.7495166589
 30
0.0
 10
516.8916652073
 20
595.4428828443
 30
0.0
  0
SPLINE
  5
405
100
AcDbEntity
  8
00_COMPONENTS_27
100
AcDbSpline
 62
7
  6
CONTINUOUS
 70
0
 71
3
 72
9
 73
5
 74
0
 42
0.0000001
 43
0.0000001
 44
0.0000000001
 40
0.0
 40
0.0
 40
0.0
 40
0.0
 40
0.2708318288
 40
1.0
 40
1.0
 40
1.0
 40
1.0
 10
516.8916652073
 20
595.4428828443
 30
0.0
 10
516.852005935
 20
595.3835938568
 30
0.0
 10
516.7101112822
 20
595.1617429591
 30
0.0
 10
516.5854034955
 20
594.928409505
 30
0.0
 10
516.5095174489
 20
594.7519933862
 30
0.0
  0
SPLINE
  5
406
100
AcDbEntity
  8
00_COMPONENTS_27
100
AcDbSpline
 62
7
  6
CONTINUOUS
 70
0
 71
3
 72
9
 73
5
 74
0
 42
0.0000001
 43
0.0000001
 44
0.0000000001
 40
0.0
 40
0.0
 40
0.0
 40
0.0
 40
0.332914873
 40
1.0
 40
1.0
 40
1.0
 40
1.0
 10
641.3840598113
 20
666.8479249669
 30
0.0
 10
641.4182002245
 20
666.853311306
 30
0.0
 10
641.5209570951
 20
666.8662024055
 30
0.0
 10
641.6260781524
 20
666.8737861226
 30
0.0
 10
641.6946312794
 20
666.8639460972
 30
0.0
  0
SPLINE
  5
407
100
AcDbEntity
  8
00_COMPONENTS_27
100
AcDbSpline
 62
7
  6
CONTINUOUS
 70
0
 71
3
 72
9
 73
5
 74
0
 42
0.0000001
 43
0.0000001
 44
0.0000000001
 40
0.0
 40
0.0
 40
0.0
 40
0.0
 40
0.700251845
 40
1.0
 40
1.0
 40
1.0
 40
1.0
 10
641.6946312794
 20
666.8639460972
 30
0.0
 10
641.7050368332
 20
666.8624524978
 30
0.0
 10
641.7177234389
 20
666.860543635
 30
0.0
 10
641.7355674785
 20
666.8524358777
 30
0.0
 10
641.7355674755
 20
666.8479360493
 30
0.0
  0
SPLINE
  5
408
100
AcDbEntity
  8
00_COMPONENTS_27
100
AcDbSpline
 62
7
  6
CONTINUOUS
 70
0
 71
3
 72
9
 73
5
 74
0
 42
0.0000001
 43
0.0000001
 44
0.0000000001
 40
0.0
 40
0.0
 40
0.0
 40
0.0
 40
0.228198217
 40
1.0
 40
1.0
 40
1.0
 40
1.0
 10
516.5095174489
 20
594.7519933862
 30
0.0
 10
516.5692115021
 20
594.7449557504
 30
0.0
 10
516.831642674
 20
594.7213940003
 30
0.0
 10
517.0961153493
 20
594.7241094505
 30
0.0
 10
517.2989657716
 20
594.737513521
 30
0.0
  0
SPLINE
  5
409
100
AcDbEntity
  8
00_COMPONENTS_27
100
AcDbSpline
 62
7
  6
CONTINUOUS
 70
0
 71
3
 72
9
 73
5
 74
0
 42
0.0000001
 43
0.0000001
 44
0.0000000001
 40
0.0
 40
0.0
 40
0.0
 40
0.0
 40
0.2337878851
 40
1.0
 40
1.0
 40
1.0
 40
1.0
 10
517.2989657716
 20
594.737513521
 30
0.0
 10
517.4158491682
 20
594.7452370114
 30
0.0
 10
517.9145891658
 20
594.7950700094
 30
0.0
 10
518.4066397269
 20
594.9086388677
 30
0.0
 10
518.7717728657
 20
595.0272234363
 30
0.0
  0
SPLINE
  5
40A
100
AcDbEntity
  8
00_COMPONENTS_27
100
AcDbSpline
 62
7
  6
CONTINUOUS
 70
0
 71
3
 72
8
 73
4
 74
0
 42
0.0000001
 43
0.0000001
 44
0.0000000001
 40
0.0
 40
0.0
 40
0.0
 40
0.0
 40
1.0
 40
1.0
 40
1.0
 40
1.0
 10
518.7717728657
 20
595.0272234363
 30
0.0
 10
519.4712117015
 20
595.2543807215
 30
0.0
 10
520.1487225749
 20
595.6059300545
 30
0.0
 10
520.7099740719
 20
596.0811267237
 30
0.0
  0
ENDSEC
  0
SECTION
  2
OBJECTS
  0
DICTIONARY
  5
C
100
AcDbDictionary
280
0
281
1
  3
ACAD_GROUP
350
D
  3
ACAD_MLINESTYLE
350
17
  3
ACAD_LAYOUT
350
1A
  3
ACAD_PLOTSETTINGS
350
19
  3
ACAD_PLOTSTYLENAME
350
E
  0
DICTIONARY
  5
D
102
{ACAD_REACTORS
330
C
102
}
100
AcDbDictionary
280
0
281
1
  0
ACDBDICTIONARYWDFLT
  5
E
102
{ACAD_REACTORS
330
C
102
}
100
AcDbDictionary
281
1
  3
Normal
350
F
100
AcDbDictionaryWithDefault
340
F
  0
DICTIONARY
  5
17
102
{ACAD_REACTORS
330
C
102
}
100
AcDbDictionary
280
0
281
1
  3
Standard
350
18
  0
DICTIONARY
  5
19
102
{ACAD_REACTORS
330
C
102
}
100
AcDbDictionary
281
1
  0
DICTIONARY
  5
1A
102
{ACAD_REACTORS
330
C
102
}
100
AcDbDictionary
281
1
  3
Model
350
40B
  3
Layout1
350
40C
  0
ACDBPLACEHOLDER
  5
F
102
{ACAD_REACTORS
330
E
102
}
  0
MLINESTYLE
  5
18
102
{ACAD_REACTORS
330
17
102
}
100
AcDbMlineStyle
  2
STANDARD
 70
0
  3

 62
256
 51
90.0
 52
90.0
 71
2
 49
0.5
 62
256
  6
BYLAYER
 49
-0.5
 62
256
  6
BYLAYER
  0
LAYOUT
  5
40B
102
{ACAD_REACTORS
330
1A
102
}
100
AcDbPlotSettings
  1

  2
none_device
  4

  6

 40
0.0
 41
0.0
 42
0.0
 43
0.0
 44
210.0
 45
297.0
 46
0.0
 47
0.0
 48
0.0
 49
0.0
140
0.0
141
0.0
142
1.0
143
1.0
 70
1024
 72
1
 73
0
 74
0
  7

 75
0
147
1.0
148
0.0
149
0.0
100
AcDbLayout
  1
Model
 70
0
 71
0
 10
0.0
 20
0.0
 11
210.0
 21
297.0
 12
0.0
 22
0.0
 32
0.0
 14
0.0
 24
0.0
 34
0.0
 15
0.0
 25
0.0
 35
0.0
146
0.0
 13
0.0
 23
0.0
 33
0.0
 16
1.0
 26
0.0
 36
0.0
 17
0.0
 27
1.0
 37
0.0
 76
0
330
22C
345
0
346
0
  0
LAYOUT
  5
40C
102
{ACAD_REACTORS
330
1A
102
}
100
AcDbPlotSettings
  1

  2
none_device
  4

  6

 40
0.0
 41
0.0
 42
0.0
 43
0.0
 44
210.0
 45
297.0
 46
0.0
 47
0.0
 48
0.0
 49
0.0
140
0.0
141
0.0
142
1.0
143
1.0
 70
0
 72
1
 73
0
 74
0
  7

 75
0
147
1.0
148
0.0
149
0.0
100
AcDbLayout
  1
Layout1
 70
0
 71
1
 10
0.0
 20
0.0
 11
210.0
 21
297.0
 12
0.0
 22
0.0
 32
0.0
 14
0.0
 24
0.0
 34
0.0
 15
0.0
 25
0.0
 35
0.0
146
0.0
 13
0.0
 23
0.0
 33
0.0
 16
1.0
 26
0.0
 36
0.0
 17
0.0
 27
1.0
 37
0.0
 76
0
330
22D
345
0
346
0
  0
ENDSEC
  0
EOF
