999
DXF file: C:\Vinayak\New 2D genarating\updateCreo8 with 3dPdf\CAD\NSYCRN68300_3D-CAD\drw0001_6.dxf
999
Pro/ENGINEER 2021284 by Parametric Technology Corporation
  0
SECTION
  2
HEADER
  9
$ACADVER
  1
AC1024
  9
$DWGCODEPAGE
  3
ANSI_1252
  9
$EXTMAX
 10
511.0402245978
 20
722.7568890741
 30
0.0
  9
$EXTMIN
 10
0.0
 20
0.0
 30
0.0
  9
$LIMMIN
 10
0.0
 20
0.0
  9
$LIMMAX
 10
511.0402245978
 20
722.7568890741
  9
$VIEWCTR
 10
255.5201122989
 20
361.378444537
  9
$VIEWSIZE
 40
722.7568890741
  9
$CLAYER
  8
0
  9
$LTSCALE
 40
47.1130416582
  9
$CELTYPE
  6
BYLAYER
  9
$DIMSCALE
 40
1.0
  9
$DIMASZ
 40
6.0838121976
  9
$DIMEXO
 40
1.0
  9
$DIMDLI
 40
32.550828782
  9
$DIMEXE
 40
1.0
  9
$DIMCEN
 40
7.7094068168
  9
$DIMLFAC
 40
1.0
  9
$DIMBLK
  1
_FILLED
  9
$DIMALT
 70
0
  9
$DIMALTF
 40
0.0393700787
  9
$DIMTXT
 40
8.5173370766
  9
$DIMTOL
 70
1
  9
$DIMLIM
 70
0
  9
$DIMTFAC
 40
1.0
  9
$DIMTP
 40
0.01
  9
$DIMTM
 40
0.01
  9
$DIMGAP
 40
0.625
  9
$DIMDSEP
 70
46
  9
$AUNITS
 70
0
  9
$PDMODE
 70
3
  9
$PDSIZE
 40
0.3125
  9
$HANDSEED
  5
3A0
  9
$TILEMODE
 70
1
  9
$MEASUREMENT
 70
1
  9
$INSUNITS
 70
4
  0
ENDSEC
  0
SECTION
  2
CLASSES
  0
CLASS
  1
ACDBDICTIONARYWDFLT
  2
AcDbDictionaryWithDefault
  3
AutoCAD 2000
 90
0
 91
1
280
0
281
0
  0
CLASS
  1
ACDBPLACEHOLDER
  2
AcDbPlaceHolder
  3
AutoCAD 2000
 90
0
 91
1
280
0
281
0
  0
CLASS
  1
LAYOUT
  2
AcDbLayout
  3
AutoCAD 2000
 90
0
 91
0
280
0
281
0
  0
ENDSEC
  0
SECTION
  2
TABLES
  0
TABLE
  2
VPORT
  5
8
100
AcDbSymbolTable
 70
2
  0
VPORT
  5
1F4
100
AcDbSymbolTableRecord
100
AcDbViewportTableRecord
  2
*ACTIVE
 70
0
 10
0.0
 20
0.0
 11
1.0
 21
1.0
 12
255.5201122989
 22
361.378444537
 13
0.0
 23
0.0
 14
1.0
 24
1.0
 15
0.0
 25
0.0
 16
0.0
 26
0.0
 36
1.0
 17
0.0
 27
0.0
 37
0.0
 40
722.7568890741
 41
0.7070707071
 42
50.0
 43
0.0
 44
0.0
 50
0.0
 51
0.0
 71
0
 72
100
 73
1
 74
1
 75
0
 76
0
 77
0
 78
0
  0
ENDTAB
  0
TABLE
  2
LTYPE
  5
5
100
AcDbSymbolTable
 70
6
  0
LTYPE
  5
14
100
AcDbSymbolTableRecord
100
AcDbLinetypeTableRecord
  2
BYBLOCK
 70
0
  3

 72
65
 73
0
 40
0.0
  0
LTYPE
  5
15
100
AcDbSymbolTableRecord
100
AcDbLinetypeTableRecord
  2
BYLAYER
 70
0
  3

 72
65
 73
0
 40
0.0
  0
LTYPE
  5
16
100
AcDbSymbolTableRecord
100
AcDbLinetypeTableRecord
  2
CONTINUOUS
 70
64
  3
Solid line
 72
65
 73
0
 40
0.0
  0
LTYPE
  5
1F5
100
AcDbSymbolTableRecord
100
AcDbLinetypeTableRecord
  2
CENTER
 70
64
  3
____ _ ____ _ ____ _ ____ _ ____ _ ____ _ ____
 72
65
 73
4
 40
0.6
 49
0.375
 74
0
 49
-0.075
 74
0
 49
0.075
 74
0
 49
-0.075
 74
0
  0
LTYPE
  5
1F6
100
AcDbSymbolTableRecord
100
AcDbLinetypeTableRecord
  2
HIDDEN
 70
64
  3
- - - - - - - - - - - - - - - - - - - -
 72
65
 73
2
 40
0.2
 49
0.1
 74
0
 49
-0.1
 74
0
  0
LTYPE
  5
1F7
100
AcDbSymbolTableRecord
100
AcDbLinetypeTableRecord
  2
PHANTOM
 70
64
  3
_____ _ _ _____ _ _ _____ _ _ _____
 72
65
 73
6
 40
0.8
 49
0.45
 74
0
 49
-0.05
 74
0
 49
0.1
 74
0
 49
-0.05
 74
0
 49
0.1
 74
0
 49
-0.05
 74
0
  0
LTYPE
  5
1F8
100
AcDbSymbolTableRecord
100
AcDbLinetypeTableRecord
  2
DOT
 70
64
  3
. . . . . . . . . . . . . . . . . . . .
 72
65
 73
2
 40
0.2
 49
0.1
 74
0
 49
-0.1
 74
0
  0
LTYPE
  5
1F9
100
AcDbSymbolTableRecord
100
AcDbLinetypeTableRecord
  2
DASHED
 70
64
  3
- - - - - - - - - - - - - - - - - - - -
 72
65
 73
2
 40
0.2
 49
0.1
 74
0
 49
-0.1
 74
0
  0
ENDTAB
  0
TABLE
  2
LAYER
  5
2
100
AcDbSymbolTable
 70
36
  0
LAYER
  5
10
100
AcDbSymbolTableRecord
100
AcDbLayerTableRecord
  2
0
 70
0
 62
7
  6
CONTINUOUS
370
-3
390
F
  0
LAYER
  5
1FA
100
AcDbSymbolTableRecord
100
AcDbLayerTableRecord
  2
DEFAULT_1
 70
0
 62
7
  6
CENTER
370
-3
390
F
  0
LAYER
  5
1FB
100
AcDbSymbolTableRecord
100
AcDbLayerTableRecord
  2
DEFAULT_2
 70
0
 62
8
  6
HIDDEN
370
-3
390
F
  0
LAYER
  5
1FC
100
AcDbSymbolTableRecord
100
AcDbLayerTableRecord
  2
DEFAULT_3
 70
0
 62
7
  6
PHANTOM
370
-3
390
F
  0
LAYER
  5
1FD
100
AcDbSymbolTableRecord
100
AcDbLayerTableRecord
  2
00_COMPONENTS
 70
0
 62
7
  6
CONTINUOUS
370
-3
390
F
  0
LAYER
  5
1FE
100
AcDbSymbolTableRecord
100
AcDbLayerTableRecord
  2
00_COMPONENTS_14
 70
0
 62
7
  6
CONTINUOUS
370
-3
390
F
  0
LAYER
  5
1FF
100
AcDbSymbolTableRecord
100
AcDbLayerTableRecord
  2
01_1_DEFAULT_DATUMS
 70
0
 62
7
  6
CONTINUOUS
370
-3
390
F
  0
LAYER
  5
200
100
AcDbSymbolTableRecord
100
AcDbLayerTableRecord
  2
01_PLANES
 70
0
 62
7
  6
CONTINUOUS
370
-3
390
F
  0
LAYER
  5
201
100
AcDbSymbolTableRecord
100
AcDbLayerTableRecord
  2
02_COORD_SYS
 70
0
 62
7
  6
CONTINUOUS
370
-3
390
F
  0
LAYER
  5
202
100
AcDbSymbolTableRecord
100
AcDbLayerTableRecord
  2
03_AXES
 70
0
 62
7
  6
CONTINUOUS
370
-3
390
F
  0
LAYER
  5
203
100
AcDbSymbolTableRecord
100
AcDbLayerTableRecord
  2
04_POINTS
 70
0
 62
7
  6
CONTINUOUS
370
-3
390
F
  0
LAYER
  5
204
100
AcDbSymbolTableRecord
100
AcDbLayerTableRecord
  2
05_CURVES
 70
0
 62
7
  6
CONTINUOUS
370
-3
390
F
  0
LAYER
  5
205
100
AcDbSymbolTableRecord
100
AcDbLayerTableRecord
  2
06_SURFS
 70
0
 62
7
  6
CONTINUOUS
370
-3
390
F
  0
LAYER
  5
206
100
AcDbSymbolTableRecord
100
AcDbLayerTableRecord
  2
07_COSMETICS
 70
0
 62
7
  6
CONTINUOUS
370
-3
390
F
  0
LAYER
  5
207
100
AcDbSymbolTableRecord
100
AcDbLayerTableRecord
  2
10_NOTES
 70
0
 62
7
  6
CONTINUOUS
370
-3
390
F
  0
LAYER
  5
208
100
AcDbSymbolTableRecord
100
AcDbLayerTableRecord
  2
11_NOTES_PUB
 70
0
 62
7
  6
CONTINUOUS
370
-3
390
F
  0
LAYER
  5
209
100
AcDbSymbolTableRecord
100
AcDbLayerTableRecord
  2
13_REF_GTOL
 70
0
 62
7
  6
CONTINUOUS
370
-3
390
F
  0
LAYER
  5
20A
100
AcDbSymbolTableRecord
100
AcDbLayerTableRecord
  2
16_MISC
 70
0
 62
7
  6
CONTINUOUS
370
-3
390
F
  0
LAYER
  5
20B
100
AcDbSymbolTableRecord
100
AcDbLayerTableRecord
  2
17_NO_PRINT
 70
0
 62
7
  6
CONTINUOUS
370
-3
390
F
  0
LAYER
  5
20C
100
AcDbSymbolTableRecord
100
AcDbLayerTableRecord
  2
18_DATUM_CAMS_JOINTS
 70
0
 62
7
  6
CONTINUOUS
370
-3
390
F
  0
LAYER
  5
20D
100
AcDbSymbolTableRecord
100
AcDbLayerTableRecord
  2
19_DATUM_FUNCTIONAL
 70
0
 62
7
  6
CONTINUOUS
370
-3
390
F
  0
LAYER
  5
20E
100
AcDbSymbolTableRecord
100
AcDbLayerTableRecord
  2
20_DATUM_KINEMATIC_SCHEME
 70
0
 62
7
  6
CONTINUOUS
370
-3
390
F
  0
LAYER
  5
20F
100
AcDbSymbolTableRecord
100
AcDbLayerTableRecord
  2
PART
 70
0
 62
7
  6
CONTINUOUS
370
-3
390
F
  0
LAYER
  5
210
100
AcDbSymbolTableRecord
100
AcDbLayerTableRecord
  2
PART_1
 70
0
 62
7
  6
CONTINUOUS
370
-3
390
F
  0
ENDTAB
  0
TABLE
  2
STYLE
  5
3
100
AcDbSymbolTable
 70
1
  0
STYLE
  5
11
100
AcDbSymbolTableRecord
100
AcDbTextStyleTableRecord
  2
STANDARD
 70
0
 40
0.0
 41
0.8
 50
0.0
 71
0
 42
0.2
  3
txt
  4

  0
STYLE
  5
211
100
AcDbSymbolTableRecord
100
AcDbTextStyleTableRecord
  2
TEXTSTYLE_1
 70
0
 40
0.0
 41
0.8
 50
0.0
 71
0
 42
0.2
  3
gdt
  4

  0
ENDTAB
  0
TABLE
  2
VIEW
  5
6
100
AcDbSymbolTable
 70
0
  0
ENDTAB
  0
TABLE
  2
UCS
  5
7
100
AcDbSymbolTable
 70
0
  0
ENDTAB
  0
TABLE
  2
APPID
  5
9
100
AcDbSymbolTable
 70
1
  0
APPID
  5
212
100
AcDbSymbolTableRecord
100
AcDbRegAppTableRecord
  2
ACAD
 70
0
  0
ENDTAB
  0
TABLE
  2
BLOCK_RECORD
  5
1
100
AcDbSymbolTable
 70
0
  0
BLOCK_RECORD
  5
213
100
AcDbSymbolTableRecord
100
AcDbBlockTableRecord
  2
*Model_Space
  0
BLOCK_RECORD
  5
214
100
AcDbSymbolTableRecord
100
AcDbBlockTableRecord
  2
*Paper_Space
  0
BLOCK_RECORD
  5
215
100
AcDbSymbolTableRecord
100
AcDbBlockTableRecord
  2
_FILLED
  0
ENDTAB
  0
TABLE
  2
DIMSTYLE
  5
A
100
AcDbSymbolTable
 70
1
100
AcDbDimStyleTable
 71
0
  0
DIMSTYLE
105
216
100
AcDbSymbolTableRecord
100
AcDbDimStyleTableRecord
  2
STANDARD
 70
0
  3

  4

 40
1.0
 41
6.0838121976
 42
1.0
 43
0.38
 44
1.0
 45
0.0
 46
0.0
 47
0.01
 48
0.01
140
8.5173370766
141
0.09
142
0.0
143
25.4
144
1.0
145
0.0
146
1.0
147
0.625
 71
1
 72
0
 73
0
 74
0
 75
0
 76
0
 77
1
 78
8
 79
2
170
0
171
1
172
0
173
0
174
0
175
0
176
0
177
0
178
0
270
2
179
2
271
2
272
2
273
2
274
2
275
0
280
0
281
0
282
0
283
1
284
8
285
0
286
0
287
3
288
0
340
11
278
46
341
215
342
215
343
215
344
215
  0
ENDTAB
  0
ENDSEC
  0
SECTION
  2
BLOCKS
  0
BLOCK
  5
20
100
AcDbEntity
  8
0
100
AcDbBlockBegin
  2
*Model_Space
 70
0
 10
0.0
 20
0.0
 30
0.0
  3
*Model_Space
  1

  0
ENDBLK
  5
21
100
AcDbEntity
  8
0
100
AcDbBlockEnd
  0
BLOCK
  5
1C
100
AcDbEntity
  8
0
100
AcDbBlockBegin
  2
*Paper_Space
 70
0
 10
0.0
 20
0.0
 30
0.0
  3
*Paper_Space
  1

  0
ENDBLK
  5
1D
100
AcDbEntity
  8
0
100
AcDbBlockEnd
  0
BLOCK
  5
217
100
AcDbEntity
  8
0
100
AcDbBlockBegin
  2
_FILLED
 70
64
 10
0.0
 20
0.0
  3
_FILLED
  1

  0
SOLID
  5
218
100
AcDbEntity
  8
0
  6
BYBLOCK
 62
0
100
AcDbTrace
 10
0.0
 20
0.0
 11
-1.0
 21
0.25
 12
-1.0
 22
-0.25
 13
-1.0
 23
-0.25
  0
ENDBLK
  5
219
100
AcDbEntity
  8
0
  6
BYBLOCK
 62
0
100
AcDbBlockEnd
  0
ENDSEC
  0
SECTION
  2
ENTITIES
  0
LINE
  5
21A
100
AcDbEntity
  8
00_COMPONENTS_14
100
AcDbLine
 62
7
  6
CONTINUOUS
 10
390.2203542127
 20
59.7448183722
 11
390.2152959441
 21
59.743777623
  0
LINE
  5
21B
100
AcDbEntity
  8
00_COMPONENTS_14
100
AcDbLine
 62
7
  6
CONTINUOUS
 10
390.2162795696
 20
59.7390970421
 11
390.2206262943
 21
59.7399746303
  0
LINE
  5
21C
100
AcDbEntity
  8
00_COMPONENTS_14
100
AcDbLine
 62
7
  6
CONTINUOUS
 10
390.2165107291
 20
59.7398813584
 11
390.2208510676
 21
59.7407391904
  0
LINE
  5
21D
100
AcDbEntity
  8
00_COMPONENTS_14
100
AcDbLine
 62
7
  6
CONTINUOUS
 10
390.2206895147
 20
59.7459720195
 11
390.2156458622
 21
59.7449780253
  0
LWPOLYLINE
  5
21E
100
AcDbEntity
  8
00_COMPONENTS_14
100
AcDbPolyline
 62
7
  6
CONTINUOUS
 90
3
 70
0
 10
391.944776305
 20
60.0771517439
 10
391.9746565909
 20
60.080237204
 10
392.0056255713
 20
60.0884169249
  0
LINE
  5
21F
100
AcDbEntity
  8
00_COMPONENTS_14
100
AcDbLine
 62
7
  6
CONTINUOUS
 10
325.2203542127
 20
59.7448183722
 11
325.2152959441
 21
59.743777623
  0
LINE
  5
220
100
AcDbEntity
  8
00_COMPONENTS_14
100
AcDbLine
 62
7
  6
CONTINUOUS
 10
260.2203542127
 20
59.7448183722
 11
260.2152959441
 21
59.743777623
  0
LINE
  5
221
100
AcDbEntity
  8
00_COMPONENTS_14
100
AcDbLine
 62
7
  6
CONTINUOUS
 10
325.2162795696
 20
59.7390970421
 11
325.2206262943
 21
59.7399746303
  0
LINE
  5
222
100
AcDbEntity
  8
00_COMPONENTS_14
100
AcDbLine
 62
7
  6
CONTINUOUS
 10
260.2162795696
 20
59.7390970421
 11
260.2206262943
 21
59.7399746303
  0
LINE
  5
223
100
AcDbEntity
  8
00_COMPONENTS_14
100
AcDbLine
 62
7
  6
CONTINUOUS
 10
325.2165107291
 20
59.7398813584
 11
325.2208510676
 21
59.7407391904
  0
LINE
  5
224
100
AcDbEntity
  8
00_COMPONENTS_14
100
AcDbLine
 62
7
  6
CONTINUOUS
 10
260.2165107291
 20
59.7398813584
 11
260.2208510676
 21
59.7407391904
  0
LINE
  5
225
100
AcDbEntity
  8
00_COMPONENTS_14
100
AcDbLine
 62
7
  6
CONTINUOUS
 10
325.2206895147
 20
59.7459720195
 11
325.2156458622
 21
59.7449780253
  0
LINE
  5
226
100
AcDbEntity
  8
00_COMPONENTS_14
100
AcDbLine
 62
7
  6
CONTINUOUS
 10
260.2206895147
 20
59.7459720195
 11
260.2156458622
 21
59.7449780253
  0
LWPOLYLINE
  5
227
100
AcDbEntity
  8
00_COMPONENTS_14
100
AcDbPolyline
 62
7
  6
CONTINUOUS
 90
3
 70
0
 10
326.944776305
 20
60.0771517439
 10
326.9746565909
 20
60.080237204
 10
327.0056255713
 20
60.0884169249
  0
LWPOLYLINE
  5
228
100
AcDbEntity
  8
00_COMPONENTS_14
100
AcDbPolyline
 62
7
  6
CONTINUOUS
 90
3
 70
0
 10
261.944776305
 20
60.0771517439
 10
261.9746565909
 20
60.080237204
 10
262.0056255713
 20
60.0884169249
  0
LINE
  5
229
100
AcDbEntity
  8
00_COMPONENTS_14
100
AcDbLine
 62
7
  6
CONTINUOUS
 10
390.1094086171
 20
59.7187135132
 11
390.0902699795
 21
59.7169942047
  0
LINE
  5
22A
100
AcDbEntity
  8
00_COMPONENTS_14
100
AcDbLine
 62
7
  6
CONTINUOUS
 10
325.1094086171
 20
59.7187135132
 11
325.0902699795
 21
59.7169942047
  0
LINE
  5
22B
100
AcDbEntity
  8
00_COMPONENTS_14
100
AcDbLine
 62
7
  6
CONTINUOUS
 10
260.1094086171
 20
59.7187135132
 11
260.0902699795
 21
59.7169942047
  0
LINE
  5
22C
100
AcDbEntity
  8
00_COMPONENTS_14
100
AcDbLine
 62
7
  6
CONTINUOUS
 10
390.0519803288
 20
59.7136964657
 11
390.0606042978
 21
59.7144227037
  0
LINE
  5
22D
100
AcDbEntity
  8
00_COMPONENTS_14
100
AcDbLine
 62
7
  6
CONTINUOUS
 10
325.0519803288
 20
59.7136964657
 11
325.0606042978
 21
59.7144227037
  0
LINE
  5
22E
100
AcDbEntity
  8
00_COMPONENTS_14
100
AcDbLine
 62
7
  6
CONTINUOUS
 10
260.0519803288
 20
59.7136964657
 11
260.0606042978
 21
59.7144227037
  0
LINE
  5
22F
100
AcDbEntity
  8
00_COMPONENTS_14
100
AcDbLine
 62
7
  6
CONTINUOUS
 10
391.9151381135
 20
60.0763037856
 11
391.944776305
 21
60.0771517439
  0
LINE
  5
230
100
AcDbEntity
  8
00_COMPONENTS_14
100
AcDbLine
 62
7
  6
CONTINUOUS
 10
392.0056337739
 20
60.0884184765
 11
391.9495829384
 21
60.0868118982
  0
LINE
  5
231
100
AcDbEntity
  8
00_COMPONENTS_14
100
AcDbLine
 62
7
  6
CONTINUOUS
 10
326.9151381135
 20
60.0763037856
 11
326.944776305
 21
60.0771517439
  0
LINE
  5
232
100
AcDbEntity
  8
00_COMPONENTS_14
100
AcDbLine
 62
7
  6
CONTINUOUS
 10
327.0056337739
 20
60.0884184765
 11
326.9495829384
 21
60.0868118982
  0
LINE
  5
233
100
AcDbEntity
  8
00_COMPONENTS_14
100
AcDbLine
 62
7
  6
CONTINUOUS
 10
261.9151381627
 20
60.0763038006
 11
261.944776305
 21
60.0771517439
  0
LINE
  5
234
100
AcDbEntity
  8
00_COMPONENTS_14
100
AcDbLine
 62
7
  6
CONTINUOUS
 10
262.005635215
 20
60.0884179356
 11
261.9495829384
 21
60.0868118982
  0
LINE
  5
235
100
AcDbEntity
  8
00_COMPONENTS_14
100
AcDbLine
 62
7
  6
CONTINUOUS
 10
388.8843882533
 20
60.075424234
 11
389.2216894283
 21
60.0768807235
  0
LINE
  5
236
100
AcDbEntity
  8
00_COMPONENTS_14
100
AcDbLine
 62
7
  6
CONTINUOUS
 10
323.8843882533
 20
60.0754243177
 11
324.2216894283
 21
60.0768807235
  0
LINE
  5
237
100
AcDbEntity
  8
00_COMPONENTS_14
100
AcDbLine
 62
7
  6
CONTINUOUS
 10
389.1186216906
 20
60.0765208652
 11
389.3993882526
 21
60.0770754187
  0
LINE
  5
238
100
AcDbEntity
  8
00_COMPONENTS_14
100
AcDbLine
 62
7
  6
CONTINUOUS
 10
324.1186216906
 20
60.0765208652
 11
324.3993882526
 21
60.0770754187
  0
LINE
  5
239
100
AcDbEntity
  8
00_COMPONENTS_14
100
AcDbLine
 62
7
  6
CONTINUOUS
 10
258.8843882533
 20
60.075424234
 11
259.3993882526
 21
60.0770754187
  0
LINE
  5
23A
100
AcDbEntity
  8
00_COMPONENTS_14
100
AcDbLine
 62
7
  6
CONTINUOUS
 10
254.7304461486
 20
61.1824173262
 11
264.068330358
 21
61.1824173262
  0
LINE
  5
23B
100
AcDbEntity
  8
00_COMPONENTS_14
100
AcDbLine
 62
7
  6
CONTINUOUS
 10
319.7304461486
 20
61.1824173262
 11
329.068330358
 21
61.1824173262
  0
LINE
  5
23C
100
AcDbEntity
  8
00_COMPONENTS_14
100
AcDbLine
 62
7
  6
CONTINUOUS
 10
384.7304461486
 20
61.1824173262
 11
394.068330358
 21
61.1824173262
  0
LINE
  5
23D
100
AcDbEntity
  8
00_COMPONENTS_14
100
AcDbLine
 62
7
  6
CONTINUOUS
 10
254.6493882533
 20
61.3432053097
 11
264.1493882533
 21
61.3432053097
  0
LINE
  5
23E
100
AcDbEntity
  8
00_COMPONENTS_14
100
AcDbLine
 62
7
  6
CONTINUOUS
 10
319.6493882533
 20
61.3432053097
 11
329.1493882533
 21
61.3432053097
  0
LINE
  5
23F
100
AcDbEntity
  8
00_COMPONENTS_14
100
AcDbLine
 62
7
  6
CONTINUOUS
 10
384.6493882533
 20
61.3432053097
 11
394.1493882533
 21
61.3432053097
  0
LINE
  5
240
100
AcDbEntity
  8
00_COMPONENTS_14
100
AcDbLine
 62
7
  6
CONTINUOUS
 10
394.1493882533
 20
61.6431926083
 11
393.9690874076
 21
61.6431926083
  0
LINE
  5
241
100
AcDbEntity
  8
00_COMPONENTS_14
100
AcDbLine
 62
7
  6
CONTINUOUS
 10
393.5472640193
 20
61.6431926083
 11
391.7140430073
 21
61.6431926083
  0
LINE
  5
242
100
AcDbEntity
  8
00_COMPONENTS_14
100
AcDbLine
 62
7
  6
CONTINUOUS
 10
390.6956712623
 20
61.6431926083
 11
388.1031052443
 21
61.6431926083
  0
LINE
  5
243
100
AcDbEntity
  8
00_COMPONENTS_14
100
AcDbLine
 62
7
  6
CONTINUOUS
 10
387.0847334993
 20
61.6431926083
 11
385.2515124873
 21
61.6431926083
  0
LINE
  5
244
100
AcDbEntity
  8
00_COMPONENTS_14
100
AcDbLine
 62
7
  6
CONTINUOUS
 10
384.829689099
 20
61.6431926083
 11
384.6493882533
 21
61.6431926083
  0
LINE
  5
245
100
AcDbEntity
  8
00_COMPONENTS_14
100
AcDbLine
 62
7
  6
CONTINUOUS
 10
329.1493882533
 20
61.6431926083
 11
328.9690874076
 21
61.6431926083
  0
LINE
  5
246
100
AcDbEntity
  8
00_COMPONENTS_14
100
AcDbLine
 62
7
  6
CONTINUOUS
 10
328.5472640193
 20
61.6431926083
 11
326.7140430073
 21
61.6431926083
  0
LINE
  5
247
100
AcDbEntity
  8
00_COMPONENTS_14
100
AcDbLine
 62
7
  6
CONTINUOUS
 10
325.6956712623
 20
61.6431926083
 11
323.1031052443
 21
61.6431926083
  0
LINE
  5
248
100
AcDbEntity
  8
00_COMPONENTS_14
100
AcDbLine
 62
7
  6
CONTINUOUS
 10
322.0847334993
 20
61.6431926083
 11
320.2515124873
 21
61.6431926083
  0
LINE
  5
249
100
AcDbEntity
  8
00_COMPONENTS_14
100
AcDbLine
 62
7
  6
CONTINUOUS
 10
319.829689099
 20
61.6431926083
 11
319.6493882533
 21
61.6431926083
  0
LINE
  5
24A
100
AcDbEntity
  8
00_COMPONENTS_14
100
AcDbLine
 62
7
  6
CONTINUOUS
 10
264.1493882533
 20
61.6431926083
 11
263.9690874076
 21
61.6431926083
  0
LINE
  5
24B
100
AcDbEntity
  8
00_COMPONENTS_14
100
AcDbLine
 62
7
  6
CONTINUOUS
 10
263.5472640193
 20
61.6431926083
 11
261.7140430073
 21
61.6431926083
  0
LINE
  5
24C
100
AcDbEntity
  8
00_COMPONENTS_14
100
AcDbLine
 62
7
  6
CONTINUOUS
 10
260.6956712623
 20
61.6431926083
 11
258.1031052443
 21
61.6431926083
  0
LINE
  5
24D
100
AcDbEntity
  8
00_COMPONENTS_14
100
AcDbLine
 62
7
  6
CONTINUOUS
 10
257.0847334993
 20
61.6431926083
 11
255.2515124873
 21
61.6431926083
  0
LINE
  5
24E
100
AcDbEntity
  8
00_COMPONENTS_14
100
AcDbLine
 62
7
  6
CONTINUOUS
 10
254.829689099
 20
61.6431926083
 11
254.6493882533
 21
61.6431926083
  0
LINE
  5
24F
100
AcDbEntity
  8
00_COMPONENTS_14
100
AcDbLine
 62
7
  6
CONTINUOUS
 10
255.2018705223
 20
61.7258277906
 11
257.1760289881
 21
61.7258277906
  0
LINE
  5
250
100
AcDbEntity
  8
00_COMPONENTS_14
100
AcDbLine
 62
7
  6
CONTINUOUS
 10
258.0034490324
 20
61.7258277906
 11
260.7953274742
 21
61.7258277906
  0
LINE
  5
251
100
AcDbEntity
  8
00_COMPONENTS_14
100
AcDbLine
 62
7
  6
CONTINUOUS
 10
261.6227475362
 20
61.7258277906
 11
263.5969059843
 21
61.7258277906
  0
LINE
  5
252
100
AcDbEntity
  8
00_COMPONENTS_14
100
AcDbLine
 62
7
  6
CONTINUOUS
 10
320.2018705223
 20
61.7258277906
 11
322.1760289881
 21
61.7258277906
  0
LINE
  5
253
100
AcDbEntity
  8
00_COMPONENTS_14
100
AcDbLine
 62
7
  6
CONTINUOUS
 10
323.0034490324
 20
61.7258277906
 11
325.7953274742
 21
61.7258277906
  0
LINE
  5
254
100
AcDbEntity
  8
00_COMPONENTS_14
100
AcDbLine
 62
7
  6
CONTINUOUS
 10
326.6227475362
 20
61.7258277906
 11
328.5969059843
 21
61.7258277906
  0
LINE
  5
255
100
AcDbEntity
  8
00_COMPONENTS_14
100
AcDbLine
 62
7
  6
CONTINUOUS
 10
385.2018705223
 20
61.7258277906
 11
387.1760289881
 21
61.7258277906
  0
LINE
  5
256
100
AcDbEntity
  8
00_COMPONENTS_14
100
AcDbLine
 62
7
  6
CONTINUOUS
 10
388.0034490324
 20
61.7258277906
 11
390.7953274742
 21
61.7258277906
  0
LINE
  5
257
100
AcDbEntity
  8
00_COMPONENTS_14
100
AcDbLine
 62
7
  6
CONTINUOUS
 10
391.6227475362
 20
61.7258277906
 11
393.5969059843
 21
61.7258277906
  0
LINE
  5
258
100
AcDbEntity
  8
00_COMPONENTS_14
100
AcDbLine
 62
7
  6
CONTINUOUS
 10
254.2790274118
 20
62.0431926083
 11
394.5197490948
 21
62.0431926083
  0
LINE
  5
259
100
AcDbEntity
  8
PART_1
100
AcDbLine
 62
7
  6
CONTINUOUS
 10
412.0473490742
 20
63.0431926083
 11
135.5893490742
 21
63.0431926083
  0
LINE
  5
25A
100
AcDbEntity
  8
PART_1
100
AcDbLine
 62
7
  6
CONTINUOUS
 10
135.5893490742
 20
64.2431926083
 11
413.3908125199
 21
64.2431926083
  0
LINE
  5
25B
100
AcDbEntity
  8
PART
100
AcDbLine
 62
7
  6
CONTINUOUS
 10
127.3893490742
 20
65.2431926083
 11
113.3893490742
 21
65.2431926083
  0
LINE
  5
25C
100
AcDbEntity
  8
00_COMPONENTS_14
100
AcDbLine
 62
7
  6
CONTINUOUS
 10
259.3993882541
 20
60.0770753698
 11
259.7838402456
 21
60.0761588407
  0
LINE
  5
25D
100
AcDbEntity
  8
00_COMPONENTS_14
100
AcDbLine
 62
7
  6
CONTINUOUS
 10
324.3993882541
 20
60.0770753698
 11
324.7821578195
 21
60.0761683066
  0
LINE
  5
25E
100
AcDbEntity
  8
00_COMPONENTS_14
100
AcDbLine
 62
7
  6
CONTINUOUS
 10
389.3993882541
 20
60.0770753698
 11
389.7821578195
 21
60.0761683066
  0
LINE
  5
25F
100
AcDbEntity
  8
00_COMPONENTS_14
100
AcDbLine
 62
7
  6
CONTINUOUS
 10
259.7821578195
 20
60.0761683066
 11
259.9143882533
 21
60.0754243344
  0
LINE
  5
260
100
AcDbEntity
  8
00_COMPONENTS_14
100
AcDbLine
 62
7
  6
CONTINUOUS
 10
324.6770564197
 20
60.0765316763
 11
324.9143882533
 21
60.0754243344
  0
LINE
  5
261
100
AcDbEntity
  8
00_COMPONENTS_14
100
AcDbLine
 62
7
  6
CONTINUOUS
 10
389.6770564197
 20
60.0765316763
 11
389.9143882533
 21
60.0754243344
  0
LINE
  5
262
100
AcDbEntity
  8
00_COMPONENTS_14
100
AcDbLine
 62
7
  6
CONTINUOUS
 10
256.8539869141
 20
60.0771524174
 11
256.8869735003
 21
60.076208007
  0
LINE
  5
263
100
AcDbEntity
  8
00_COMPONENTS_14
100
AcDbLine
 62
7
  6
CONTINUOUS
 10
256.8491916114
 20
60.0868125719
 11
256.7931524352
 21
60.0884150613
  0
LINE
  5
264
100
AcDbEntity
  8
00_COMPONENTS_14
100
AcDbLine
 62
7
  6
CONTINUOUS
 10
321.8539869141
 20
60.0771524174
 11
321.8869735003
 21
60.076208007
  0
LINE
  5
265
100
AcDbEntity
  8
00_COMPONENTS_14
100
AcDbLine
 62
7
  6
CONTINUOUS
 10
321.8491916114
 20
60.0868125719
 11
321.7931524352
 21
60.0884150613
  0
LINE
  5
266
100
AcDbEntity
  8
00_COMPONENTS_14
100
AcDbLine
 62
7
  6
CONTINUOUS
 10
386.8539869141
 20
60.0771524174
 11
386.8869735003
 21
60.076208007
  0
LINE
  5
267
100
AcDbEntity
  8
00_COMPONENTS_14
100
AcDbLine
 62
7
  6
CONTINUOUS
 10
386.8491916114
 20
60.0868125719
 11
386.7931524352
 21
60.0884150613
  0
LINE
  5
268
100
AcDbEntity
  8
00_COMPONENTS_14
100
AcDbLine
 62
7
  6
CONTINUOUS
 10
258.7467961778
 20
59.7136964657
 11
258.7381199277
 21
59.7144271352
  0
LINE
  5
269
100
AcDbEntity
  8
00_COMPONENTS_14
100
AcDbLine
 62
7
  6
CONTINUOUS
 10
323.7467961778
 20
59.7136964657
 11
323.7381199277
 21
59.7144271352
  0
LINE
  5
26A
100
AcDbEntity
  8
00_COMPONENTS_14
100
AcDbLine
 62
7
  6
CONTINUOUS
 10
256.8241098431
 20
60.0802385701
 11
256.8539869141
 21
60.0771524174
  0
LINE
  5
26B
100
AcDbEntity
  8
00_COMPONENTS_14
100
AcDbLine
 62
7
  6
CONTINUOUS
 10
321.8241098431
 20
60.0802385701
 11
321.8539869141
 21
60.0771524174
  0
LINE
  5
26C
100
AcDbEntity
  8
00_COMPONENTS_14
100
AcDbLine
 62
7
  6
CONTINUOUS
 10
258.5814089093
 20
59.7399842345
 11
258.5778867133
 21
59.7406781985
  0
LINE
  5
26D
100
AcDbEntity
  8
00_COMPONENTS_14
100
AcDbLine
 62
7
  6
CONTINUOUS
 10
258.5816176873
 20
59.7392754704
 11
258.5780895606
 21
59.739988167
  0
LINE
  5
26E
100
AcDbEntity
  8
00_COMPONENTS_14
100
AcDbLine
 62
7
  6
CONTINUOUS
 10
256.7931455463
 20
60.0884174899
 11
256.8241098431
 21
60.0802385701
  0
LINE
  5
26F
100
AcDbEntity
  8
PART
100
AcDbLine
 62
7
  6
CONTINUOUS
 10
110.8893490742
 20
71.2431926083
 11
127.3893490742
 21
71.2431926083
  0
LINE
  5
270
100
AcDbEntity
  8
0
100
AcDbLine
 62
7
  6
CONTINUOUS
 10
149.2521032358
 20
79.2431926083
 11
147.3893490742
 21
79.2431926083
  0
LINE
  5
271
100
AcDbEntity
  8
PART_1
100
AcDbLine
 62
7
  6
CONTINUOUS
 10
127.3893490742
 20
83.3431926083
 11
132.3893490742
 21
83.3431926083
  0
LINE
  5
272
100
AcDbEntity
  8
PART_1
100
AcDbLine
 62
7
  6
CONTINUOUS
 10
127.3893490742
 20
84.5431926083
 11
132.3893490742
 21
84.5431926083
  0
LINE
  5
273
100
AcDbEntity
  8
00_COMPONENTS_14
100
AcDbLine
 62
7
  6
CONTINUOUS
 10
388.7467961778
 20
59.7136964657
 11
388.7381199277
 21
59.7144271352
  0
LINE
  5
274
100
AcDbEntity
  8
00_COMPONENTS_14
100
AcDbLine
 62
7
  6
CONTINUOUS
 10
386.8241098431
 20
60.0802385701
 11
386.8539869141
 21
60.0771524174
  0
LINE
  5
275
100
AcDbEntity
  8
00_COMPONENTS_14
100
AcDbLine
 62
7
  6
CONTINUOUS
 10
323.5814089093
 20
59.7399842345
 11
323.5778867133
 21
59.7406781985
  0
LINE
  5
276
100
AcDbEntity
  8
00_COMPONENTS_14
100
AcDbLine
 62
7
  6
CONTINUOUS
 10
388.5814089093
 20
59.7399842345
 11
388.5778867133
 21
59.7406781985
  0
LINE
  5
277
100
AcDbEntity
  8
00_COMPONENTS_14
100
AcDbLine
 62
7
  6
CONTINUOUS
 10
323.5816176873
 20
59.7392754704
 11
323.5780895606
 21
59.739988167
  0
LINE
  5
278
100
AcDbEntity
  8
00_COMPONENTS_14
100
AcDbLine
 62
7
  6
CONTINUOUS
 10
388.5816176873
 20
59.7392754704
 11
388.5780895606
 21
59.739988167
  0
LINE
  5
279
100
AcDbEntity
  8
00_COMPONENTS_14
100
AcDbLine
 62
7
  6
CONTINUOUS
 10
321.7931455463
 20
60.0884174899
 11
321.8241098431
 21
60.0802385701
  0
LINE
  5
27A
100
AcDbEntity
  8
0
100
AcDbLine
 62
7
  6
CONTINUOUS
 10
127.3893490742
 20
108.0431926083
 11
133.3893490742
 21
108.0431926083
  0
LINE
  5
27B
100
AcDbEntity
  8
0
100
AcDbLine
 62
7
  6
CONTINUOUS
 10
131.8893490742
 20
113.0431926083
 11
133.3893490742
 21
113.0431926083
  0
LINE
  5
27C
100
AcDbEntity
  8
00_COMPONENTS_14
100
AcDbLine
 62
7
  6
CONTINUOUS
 10
386.7931455463
 20
60.0884174899
 11
386.8241098431
 21
60.0802385701
  0
LINE
  5
27D
100
AcDbEntity
  8
0
100
AcDbLine
 62
7
  6
CONTINUOUS
 10
131.696974483
 20
618.0431925732
 11
131.0996411486
 21
616.8998476841
  0
LINE
  5
27E
100
AcDbEntity
  8
0
100
AcDbLine
 62
7
  6
CONTINUOUS
 10
131.8893490742
 20
608.411413285
 11
131.0996411486
 21
606.8998476841
  0
LINE
  5
27F
100
AcDbEntity
  8
0
100
AcDbLine
 62
7
  6
CONTINUOUS
 10
131.6969745014
 20
108.0431926083
 11
131.0996411486
 21
109.1865375325
  0
LINE
  5
280
100
AcDbEntity
  8
0
100
AcDbLine
 62
7
  6
CONTINUOUS
 10
131.8893490742
 20
117.6749719317
 11
131.0996411486
 21
119.1865375325
  0
LINE
  5
281
100
AcDbEntity
  8
0
100
AcDbLine
 62
7
  6
CONTINUOUS
 10
106.4588790235
 20
558.7445853799
 11
108.5888790235
 21
565.4945853799
  0
LINE
  5
282
100
AcDbEntity
  8
0
100
AcDbLine
 62
7
  6
CONTINUOUS
 10
131.8893490742
 20
584.411413285
 11
131.0996411486
 21
582.8998476841
  0
LINE
  5
283
100
AcDbEntity
  8
0
100
AcDbLine
 62
7
  6
CONTINUOUS
 10
131.8893490742
 20
574.411413285
 11
131.0996411486
 21
572.8998476841
  0
LINE
  5
284
100
AcDbEntity
  8
0
100
AcDbLine
 62
7
  6
CONTINUOUS
 10
131.8893490742
 20
151.0431926083
 11
133.3893490742
 21
151.0431926083
  0
LINE
  5
285
100
AcDbEntity
  8
0
100
AcDbLine
 62
7
  6
CONTINUOUS
 10
127.3893490742
 20
156.0431926083
 11
133.3893490742
 21
156.0431926083
  0
LINE
  5
286
100
AcDbEntity
  8
0
100
AcDbLine
 62
7
  6
CONTINUOUS
 10
110.8893490742
 20
159.5431926083
 11
110.0193490742
 21
159.5431926083
  0
LINE
  5
287
100
AcDbEntity
  8
0
100
AcDbLine
 62
7
  6
CONTINUOUS
 10
131.8893490742
 20
141.6749719317
 11
131.0996411486
 21
143.1865375325
  0
LINE
  5
288
100
AcDbEntity
  8
0
100
AcDbLine
 62
7
  6
CONTINUOUS
 10
131.8893490742
 20
151.6749719317
 11
131.0996411486
 21
153.1865375325
  0
LINE
  5
289
100
AcDbEntity
  8
0
100
AcDbLine
 62
7
  6
CONTINUOUS
 10
108.5888790235
 20
160.5917998368
 11
106.4588790235
 21
167.3417998368
  0
LINE
  5
28A
100
AcDbEntity
  8
0
100
AcDbLine
 62
7
  6
CONTINUOUS
 10
110.0193490742
 20
199.5431926083
 11
110.8893490742
 21
199.5431926083
  0
LINE
  5
28B
100
AcDbEntity
  8
0
100
AcDbLine
 62
7
  6
CONTINUOUS
 10
106.3893490742
 20
167.7931925874
 11
106.3893490742
 21
191.2931926083
  0
LINE
  5
28C
100
AcDbEntity
  8
0
100
AcDbLine
 62
7
  6
CONTINUOUS
 10
106.3893490742
 20
534.7931925874
 11
106.3893490742
 21
558.2931926083
  0
LINE
  5
28D
100
AcDbEntity
  8
PART
100
AcDbLine
 62
7
  6
CONTINUOUS
 10
110.8893490742
 20
67.7431926084
 11
110.8893490742
 21
658.3431926083
  0
LINE
  5
28E
100
AcDbEntity
  8
PART
100
AcDbLine
 62
7
  6
CONTINUOUS
 10
113.3893490742
 20
660.8431926083
 11
113.3893490742
 21
65.2431926083
  0
LINE
  5
28F
100
AcDbEntity
  8
PART
100
AcDbLine
 62
7
  6
CONTINUOUS
 10
127.3893490742
 20
65.2431926083
 11
127.3893490742
 21
660.8431926083
  0
LINE
  5
290
100
AcDbEntity
  8
0
100
AcDbLine
 62
7
  6
CONTINUOUS
 10
130.8893490742
 20
108.0431926083
 11
130.8893490742
 21
156.0431926083
  0
LINE
  5
291
100
AcDbEntity
  8
0
100
AcDbLine
 62
7
  6
CONTINUOUS
 10
130.8893490742
 20
570.0431926083
 11
130.8893490742
 21
618.0431926083
  0
LINE
  5
292
100
AcDbEntity
  8
0
100
AcDbLine
 62
7
  6
CONTINUOUS
 10
131.0996411486
 20
616.8998476841
 11
131.0996411486
 21
615.1865375325
  0
LINE
  5
293
100
AcDbEntity
  8
0
100
AcDbLine
 62
7
  6
CONTINUOUS
 10
131.0996411486
 20
606.8998476841
 11
131.0996411486
 21
605.1865375325
  0
LINE
  5
294
100
AcDbEntity
  8
0
100
AcDbLine
 62
7
  6
CONTINUOUS
 10
131.0996411486
 20
582.8998476841
 11
131.0996411486
 21
581.1865375325
  0
LINE
  5
295
100
AcDbEntity
  8
0
100
AcDbLine
 62
7
  6
CONTINUOUS
 10
131.0996411486
 20
572.8998476841
 11
131.0996411486
 21
571.1865375325
  0
LINE
  5
296
100
AcDbEntity
  8
0
100
AcDbLine
 62
7
  6
CONTINUOUS
 10
131.0996411486
 20
154.8998476841
 11
131.0996411486
 21
153.1865375325
  0
LINE
  5
297
100
AcDbEntity
  8
0
100
AcDbLine
 62
7
  6
CONTINUOUS
 10
131.0996411486
 20
144.8998476841
 11
131.0996411486
 21
143.1865375325
  0
LINE
  5
298
100
AcDbEntity
  8
0
100
AcDbLine
 62
7
  6
CONTINUOUS
 10
131.0996411486
 20
120.8998476841
 11
131.0996411486
 21
119.1865375325
  0
LINE
  5
299
100
AcDbEntity
  8
0
100
AcDbLine
 62
7
  6
CONTINUOUS
 10
131.0996411486
 20
110.8998476841
 11
131.0996411486
 21
109.1865375325
  0
LINE
  5
29A
100
AcDbEntity
  8
0
100
AcDbLine
 62
7
  6
CONTINUOUS
 10
131.8893490742
 20
618.0431926083
 11
131.8893490742
 21
570.0431926083
  0
LINE
  5
29B
100
AcDbEntity
  8
0
100
AcDbLine
 62
7
  6
CONTINUOUS
 10
131.8893490742
 20
156.0431926083
 11
131.8893490742
 21
108.0431926083
  0
LINE
  5
29C
100
AcDbEntity
  8
PART_1
100
AcDbLine
 62
7
  6
CONTINUOUS
 10
132.3893490742
 20
83.3431926083
 11
132.3893490742
 21
108.0431926083
  0
LINE
  5
29D
100
AcDbEntity
  8
PART_1
100
AcDbLine
 62
7
  6
CONTINUOUS
 10
132.3893490742
 20
156.0431926083
 11
132.3893490742
 21
570.0431926083
  0
LINE
  5
29E
100
AcDbEntity
  8
PART_1
100
AcDbLine
 62
7
  6
CONTINUOUS
 10
132.3893490742
 20
618.0431926083
 11
132.3893490742
 21
642.7431926083
  0
LINE
  5
29F
100
AcDbEntity
  8
PART_1
100
AcDbLine
 62
7
  6
CONTINUOUS
 10
133.3893490742
 20
65.2431926083
 11
133.3893490742
 21
660.8431926084
  0
LINE
  5
2A0
100
AcDbEntity
  8
PART_1
100
AcDbLine
 62
7
  6
CONTINUOUS
 10
135.5893490742
 20
663.0431926083
 11
135.5893490742
 21
63.0431926083
  0
LINE
  5
2A1
100
AcDbEntity
  8
0
100
AcDbLine
 62
7
  6
CONTINUOUS
 10
147.3893490742
 20
73.2221781351
 11
147.3893490742
 21
79.2431926083
  0
LINE
  5
2A2
100
AcDbEntity
  8
0
100
AcDbLine
 62
7
  6
CONTINUOUS
 10
106.4588790235
 20
191.7445853799
 11
108.5888790235
 21
198.4945853799
  0
LINE
  5
2A3
100
AcDbEntity
  8
0
100
AcDbLine
 62
7
  6
CONTINUOUS
 10
108.5888790235
 20
527.5917998368
 11
106.4588790235
 21
534.3417998368
  0
LINE
  5
2A4
100
AcDbEntity
  8
00_COMPONENTS_14
100
AcDbLine
 62
7
  6
CONTINUOUS
 10
263.9396354804
 20
61.725835075
 11
263.9220846585
 21
62.0431926083
  0
LINE
  5
2A5
100
AcDbEntity
  8
00_COMPONENTS_14
100
AcDbLine
 62
7
  6
CONTINUOUS
 10
260.2207070659
 20
59.7459754785
 11
260.2216676518
 21
59.7144227037
  0
LINE
  5
2A6
100
AcDbEntity
  8
00_COMPONENTS_14
100
AcDbLine
 62
7
  6
CONTINUOUS
 10
260.2216676518
 20
59.7144227037
 11
260.2216859563
 21
59.7136964657
  0
LINE
  5
2A7
100
AcDbEntity
  8
00_COMPONENTS_14
100
AcDbLine
 62
7
  6
CONTINUOUS
 10
254.6493882533
 20
61.6431926083
 11
254.6493882533
 21
61.34320531
  0
LINE
  5
2A8
100
AcDbEntity
  8
00_COMPONENTS_14
100
AcDbLine
 62
7
  6
CONTINUOUS
 10
258.8843882533
 20
60.0868136887
 11
258.8843882533
 21
59.7190917189
  0
LINE
  5
2A9
100
AcDbEntity
  8
00_COMPONENTS_14
100
AcDbLine
 62
7
  6
CONTINUOUS
 10
259.3993882541
 20
60.0770753698
 11
259.3993882545
 21
60.0884178122
  0
LINE
  5
2AA
100
AcDbEntity
  8
00_COMPONENTS_14
100
AcDbLine
 62
7
  6
CONTINUOUS
 10
259.9143882533
 20
59.7190917189
 11
259.9143882533
 21
60.0868135925
  0
LINE
  5
2AB
100
AcDbEntity
  8
0
100
AcDbLine
 62
7
  6
CONTINUOUS
 10
131.696974483
 20
156.0431925732
 11
131.0996411486
 21
154.8998476841
  0
LINE
  5
2AC
100
AcDbEntity
  8
0
100
AcDbLine
 62
7
  6
CONTINUOUS
 10
131.8893490742
 20
146.411413285
 11
131.0996411486
 21
144.8998476841
  0
LINE
  5
2AD
100
AcDbEntity
  8
0
100
AcDbLine
 62
7
  6
CONTINUOUS
 10
131.8893490742
 20
122.411413285
 11
131.0996411486
 21
120.8998476841
  0
LINE
  5
2AE
100
AcDbEntity
  8
0
100
AcDbLine
 62
7
  6
CONTINUOUS
 10
131.8893490742
 20
112.411413285
 11
131.0996411486
 21
110.8998476841
  0
LINE
  5
2AF
100
AcDbEntity
  8
0
100
AcDbLine
 62
7
  6
CONTINUOUS
 10
131.6969745014
 20
570.0431926083
 11
131.0996411486
 21
571.1865375325
  0
LINE
  5
2B0
100
AcDbEntity
  8
0
100
AcDbLine
 62
7
  6
CONTINUOUS
 10
131.8893490742
 20
579.6749719317
 11
131.0996411486
 21
581.1865375325
  0
LINE
  5
2B1
100
AcDbEntity
  8
0
100
AcDbLine
 62
7
  6
CONTINUOUS
 10
131.8893490742
 20
603.6749719317
 11
131.0996411486
 21
605.1865375325
  0
LINE
  5
2B2
100
AcDbEntity
  8
00_COMPONENTS_14
100
AcDbLine
 62
7
  6
CONTINUOUS
 10
264.1493882533
 20
61.6431926083
 11
264.1493882533
 21
61.34320531
  0
LINE
  5
2B3
100
AcDbEntity
  8
00_COMPONENTS_14
100
AcDbLine
 62
7
  6
CONTINUOUS
 10
258.5772180251
 20
59.7187135132
 11
258.5770905503
 21
59.7136964657
  0
LINE
  5
2B4
100
AcDbEntity
  8
00_COMPONENTS_14
100
AcDbLine
 62
7
  6
CONTINUOUS
 10
258.5778867133
 20
59.7406781985
 11
258.5772180251
 21
59.7187135132
  0
LINE
  5
2B5
100
AcDbEntity
  8
00_COMPONENTS_14
100
AcDbLine
 62
7
  6
CONTINUOUS
 10
254.8591410321
 20
61.7258351841
 11
254.8766604195
 21
62.0431893811
  0
LINE
  5
2B6
100
AcDbEntity
  8
0
100
AcDbLine
 62
7
  6
CONTINUOUS
 10
131.8893490742
 20
613.6749719317
 11
131.0996411486
 21
615.1865375325
  0
LINE
  5
2B7
100
AcDbEntity
  8
00_COMPONENTS_14
100
AcDbLine
 62
7
  6
CONTINUOUS
 10
294.3993882533
 20
63.0431926083
 11
294.3993882533
 21
62.0431926083
  0
LINE
  5
2B8
100
AcDbEntity
  8
00_COMPONENTS_14
100
AcDbLine
 62
7
  6
CONTINUOUS
 10
328.9396354804
 20
61.725835075
 11
328.9220846585
 21
62.0431926083
  0
LINE
  5
2B9
100
AcDbEntity
  8
00_COMPONENTS_14
100
AcDbLine
 62
7
  6
CONTINUOUS
 10
325.2207070659
 20
59.7459754785
 11
325.2216676518
 21
59.7144227037
  0
LINE
  5
2BA
100
AcDbEntity
  8
00_COMPONENTS_14
100
AcDbLine
 62
7
  6
CONTINUOUS
 10
325.2216676518
 20
59.7144227037
 11
325.2216859563
 21
59.7136964657
  0
LINE
  5
2BB
100
AcDbEntity
  8
00_COMPONENTS_14
100
AcDbLine
 62
7
  6
CONTINUOUS
 10
319.6493882533
 20
61.6431926083
 11
319.6493882533
 21
61.34320531
  0
LINE
  5
2BC
100
AcDbEntity
  8
00_COMPONENTS_14
100
AcDbLine
 62
7
  6
CONTINUOUS
 10
323.8843882533
 20
60.0868136887
 11
323.8843882533
 21
59.7190917189
  0
LINE
  5
2BD
100
AcDbEntity
  8
00_COMPONENTS_14
100
AcDbLine
 62
7
  6
CONTINUOUS
 10
324.3993882541
 20
60.0770753698
 11
324.3993882545
 21
60.0884178122
  0
LINE
  5
2BE
100
AcDbEntity
  8
00_COMPONENTS_14
100
AcDbLine
 62
7
  6
CONTINUOUS
 10
324.9143882533
 20
59.7190917189
 11
324.9143882533
 21
60.0868135925
  0
LINE
  5
2BF
100
AcDbEntity
  8
00_COMPONENTS_14
100
AcDbLine
 62
7
  6
CONTINUOUS
 10
329.1493882533
 20
61.6431926083
 11
329.1493882533
 21
61.34320531
  0
LINE
  5
2C0
100
AcDbEntity
  8
00_COMPONENTS_14
100
AcDbLine
 62
7
  6
CONTINUOUS
 10
323.5772180251
 20
59.7187135132
 11
323.5770905503
 21
59.7136964657
  0
LINE
  5
2C1
100
AcDbEntity
  8
00_COMPONENTS_14
100
AcDbLine
 62
7
  6
CONTINUOUS
 10
323.5778867133
 20
59.7406781985
 11
323.5772180251
 21
59.7187135132
  0
LINE
  5
2C2
100
AcDbEntity
  8
00_COMPONENTS_14
100
AcDbLine
 62
7
  6
CONTINUOUS
 10
319.8591410321
 20
61.7258351841
 11
319.8766604195
 21
62.0431893811
  0
LINE
  5
2C3
100
AcDbEntity
  8
00_COMPONENTS_14
100
AcDbLine
 62
7
  6
CONTINUOUS
 10
354.3993882533
 20
62.0431926083
 11
354.3993882533
 21
63.0431926083
  0
LINE
  5
2C4
100
AcDbEntity
  8
00_COMPONENTS_14
100
AcDbLine
 62
7
  6
CONTINUOUS
 10
393.9396354804
 20
61.725835075
 11
393.9220846585
 21
62.0431926083
  0
LINE
  5
2C5
100
AcDbEntity
  8
00_COMPONENTS_14
100
AcDbLine
 62
7
  6
CONTINUOUS
 10
390.2207070659
 20
59.7459754785
 11
390.2216676518
 21
59.7144227037
  0
LINE
  5
2C6
100
AcDbEntity
  8
00_COMPONENTS_14
100
AcDbLine
 62
7
  6
CONTINUOUS
 10
390.2216676518
 20
59.7144227037
 11
390.2216859563
 21
59.7136964657
  0
LINE
  5
2C7
100
AcDbEntity
  8
00_COMPONENTS_14
100
AcDbLine
 62
7
  6
CONTINUOUS
 10
384.6493882533
 20
61.6431926083
 11
384.6493882533
 21
61.34320531
  0
LINE
  5
2C8
100
AcDbEntity
  8
00_COMPONENTS_14
100
AcDbLine
 62
7
  6
CONTINUOUS
 10
388.8843882533
 20
60.0868136887
 11
388.8843882533
 21
59.7190917189
  0
LINE
  5
2C9
100
AcDbEntity
  8
00_COMPONENTS_14
100
AcDbLine
 62
7
  6
CONTINUOUS
 10
389.3993882541
 20
60.0770753698
 11
389.3993882545
 21
60.0884178122
  0
LINE
  5
2CA
100
AcDbEntity
  8
00_COMPONENTS_14
100
AcDbLine
 62
7
  6
CONTINUOUS
 10
389.9143882533
 20
59.7190917189
 11
389.9143882533
 21
60.0868135925
  0
LINE
  5
2CB
100
AcDbEntity
  8
00_COMPONENTS_14
100
AcDbLine
 62
7
  6
CONTINUOUS
 10
394.1493882533
 20
61.6431926083
 11
394.1493882533
 21
61.34320531
  0
LINE
  5
2CC
100
AcDbEntity
  8
00_COMPONENTS_14
100
AcDbLine
 62
7
  6
CONTINUOUS
 10
388.5772180251
 20
59.7187135132
 11
388.5770905503
 21
59.7136964657
  0
LINE
  5
2CD
100
AcDbEntity
  8
00_COMPONENTS_14
100
AcDbLine
 62
7
  6
CONTINUOUS
 10
388.5778867133
 20
59.7406781985
 11
388.5772180251
 21
59.7187135132
  0
LINE
  5
2CE
100
AcDbEntity
  8
PART_1
100
AcDbLine
 62
7
  6
CONTINUOUS
 10
412.0473490742
 20
64.2431926083
 11
412.0473490742
 21
663.0431926083
  0
LINE
  5
2CF
100
AcDbEntity
  8
PART_1
100
AcDbLine
 62
7
  6
CONTINUOUS
 10
413.3993882533
 20
64.3954617499
 11
413.3993882533
 21
660.8431926083
  0
LINE
  5
2D0
100
AcDbEntity
  8
00_COMPONENTS_14
100
AcDbLine
 62
7
  6
CONTINUOUS
 10
384.8591410321
 20
61.7258351841
 11
384.8766604195
 21
62.0431893811
  0
LINE
  5
2D1
100
AcDbEntity
  8
PART_1
100
AcDbLine
 62
7
  6
CONTINUOUS
 10
413.3993881376
 20
64.3960214188
 11
413.3908125199
 21
64.2431926083
  0
LINE
  5
2D2
100
AcDbEntity
  8
0
100
AcDbLine
 62
7
  6
CONTINUOUS
 10
110.8893490742
 20
526.5431926083
 11
110.0193490742
 21
526.5431926083
  0
LINE
  5
2D3
100
AcDbEntity
  8
00_COMPONENTS_14
100
AcDbLine
 62
7
  6
CONTINUOUS
 10
260.1150066055
 20
59.7251442157
 11
260.1094086171
 21
59.7187135132
  0
LINE
  5
2D4
100
AcDbEntity
  8
0
100
AcDbLine
 62
7
  6
CONTINUOUS
 10
110.0193490742
 20
566.5431926083
 11
110.8893490742
 21
566.5431926083
  0
LINE
  5
2D5
100
AcDbEntity
  8
0
100
AcDbLine
 62
7
  6
CONTINUOUS
 10
127.3893490742
 20
570.0431926083
 11
133.3893490742
 21
570.0431926083
  0
LINE
  5
2D6
100
AcDbEntity
  8
0
100
AcDbLine
 62
7
  6
CONTINUOUS
 10
131.8893490742
 20
575.0431926083
 11
133.3893490742
 21
575.0431926083
  0
LINE
  5
2D7
100
AcDbEntity
  8
00_COMPONENTS_14
100
AcDbLine
 62
7
  6
CONTINUOUS
 10
325.1150066055
 20
59.7251442157
 11
325.1094086171
 21
59.7187135132
  0
LINE
  5
2D8
100
AcDbEntity
  8
0
100
AcDbLine
 62
7
  6
CONTINUOUS
 10
131.8893490742
 20
613.0431926083
 11
133.3893490742
 21
613.0431926083
  0
LINE
  5
2D9
100
AcDbEntity
  8
0
100
AcDbLine
 62
7
  6
CONTINUOUS
 10
127.3893490742
 20
618.0431926083
 11
133.3893490742
 21
618.0431926083
  0
LINE
  5
2DA
100
AcDbEntity
  8
00_COMPONENTS_14
100
AcDbLine
 62
7
  6
CONTINUOUS
 10
390.1150066055
 20
59.7251442157
 11
390.1094086171
 21
59.7187135132
  0
LINE
  5
2DB
100
AcDbEntity
  8
PART_1
100
AcDbLine
 62
7
  6
CONTINUOUS
 10
127.3893490742
 20
641.5431926083
 11
132.3893490742
 21
641.5431926083
  0
LINE
  5
2DC
100
AcDbEntity
  8
PART_1
100
AcDbLine
 62
7
  6
CONTINUOUS
 10
127.3893490742
 20
642.7431926083
 11
132.3893490742
 21
642.7431926083
  0
LINE
  5
2DD
100
AcDbEntity
  8
PART
100
AcDbLine
 62
7
  6
CONTINUOUS
 10
127.3893490742
 20
654.8431926083
 11
110.8893490742
 21
654.8431926092
  0
LINE
  5
2DE
100
AcDbEntity
  8
PART_1
100
AcDbLine
 62
7
  6
CONTINUOUS
 10
413.3993824667
 20
660.8431926083
 11
133.3893490742
 21
660.8431926083
  0
LINE
  5
2DF
100
AcDbEntity
  8
PART
100
AcDbLine
 62
7
  6
CONTINUOUS
 10
113.3893490742
 20
660.8431926083
 11
127.3893490742
 21
660.8431926083
  0
LINE
  5
2E0
100
AcDbEntity
  8
PART_1
100
AcDbLine
 62
7
  6
CONTINUOUS
 10
135.5893490742
 20
663.0431926083
 11
412.0473490742
 21
663.0431926083
  0
LINE
  5
2E1
100
AcDbEntity
  8
PART_1
100
AcDbLine
 62
7
  6
CONTINUOUS
 10
413.0961579223
 20
660.8431926083
 11
412.1638833906
 21
661.5987481639
  0
ARC
  5
2E2
100
AcDbEntity
  8
00_COMPONENTS_14
100
AcDbCircle
 62
7
  6
CONTINUOUS
 10
138.9945019429
 20
72.5017533683
 40
125.0675019904
100
AcDbArc
 50
355.0572202911
 51
355.203132992
  0
CIRCLE
  5
2E3
100
AcDbEntity
  8
PART_1
100
AcDbCircle
 62
7
  6
CONTINUOUS
 10
144.8893490742
 20
77.3431926083
 40
5.15
  0
ARC
  5
2E4
100
AcDbEntity
  8
PART
100
AcDbCircle
 62
7
  6
CONTINUOUS
 10
113.3893490742
 20
67.7431926083
 40
2.5
100
AcDbArc
 50
179.9999999998
 51
270.0
  0
ARC
  5
2E5
100
AcDbEntity
  8
PART_1
100
AcDbCircle
 62
7
  6
CONTINUOUS
 10
135.5893490742
 20
65.2431926083
 40
2.2
100
AcDbArc
 50
180.0
 51
270.0
  0
ARC
  5
2E6
100
AcDbEntity
  8
PART_1
100
AcDbCircle
 62
7
  6
CONTINUOUS
 10
132.3893490742
 20
82.3431926083
 40
1.0
100
AcDbArc
 50
0.0
 51
90.0
  0
ARC
  5
2E7
100
AcDbEntity
  8
0
100
AcDbCircle
 62
7
  6
CONTINUOUS
 10
132.7393490742
 20
110.0431926083
 40
1.85
100
AcDbArc
 50
152.4154663398
 51
207.5845336602
  0
ARC
  5
2E8
100
AcDbEntity
  8
0
100
AcDbCircle
 62
7
  6
CONTINUOUS
 10
132.7393490742
 20
120.0431926083
 40
1.85
100
AcDbArc
 50
152.4154663398
 51
207.5845336602
  0
ARC
  5
2E9
100
AcDbEntity
  8
0
100
AcDbCircle
 62
7
  6
CONTINUOUS
 10
132.7393490742
 20
144.0431926083
 40
1.85
100
AcDbArc
 50
152.4154663398
 51
207.5845336602
  0
ARC
  5
2EA
100
AcDbEntity
  8
0
100
AcDbCircle
 62
7
  6
CONTINUOUS
 10
132.7393490742
 20
154.0431926083
 40
1.85
100
AcDbArc
 50
152.4154663398
 51
207.5845336602
  0
ARC
  5
2EB
100
AcDbEntity
  8
0
100
AcDbCircle
 62
7
  6
CONTINUOUS
 10
110.0193490742
 20
161.0431926083
 40
1.5
100
AcDbArc
 50
197.5133803757
 51
270.0
  0
ARC
  5
2EC
100
AcDbEntity
  8
0
100
AcDbCircle
 62
7
  6
CONTINUOUS
 10
107.8893490742
 20
167.7931926083
 40
1.5
100
AcDbArc
 50
180.0000001335
 51
197.5133803758
  0
ARC
  5
2ED
100
AcDbEntity
  8
0
100
AcDbCircle
 62
7
  6
CONTINUOUS
 10
107.8893490742
 20
191.2931926083
 40
1.5
100
AcDbArc
 50
162.4866196242
 51
180.0
  0
ARC
  5
2EE
100
AcDbEntity
  8
0
100
AcDbCircle
 62
7
  6
CONTINUOUS
 10
110.0193490742
 20
198.0431926083
 40
1.5
100
AcDbArc
 50
90.0
 51
162.4866196242
  0
ARC
  5
2EF
100
AcDbEntity
  8
00_COMPONENTS_14
100
AcDbCircle
 62
7
  6
CONTINUOUS
 10
203.9945020025
 20
72.5017533632
 40
125.0675019306
100
AcDbArc
 50
355.0572202911
 51
355.2031329921
  0
ARC
  5
2F0
100
AcDbEntity
  8
00_COMPONENTS_14
100
AcDbCircle
 62
7
  6
CONTINUOUS
 10
259.4001244624
 20
-22.8100913284
 40
82.8985088231
100
AcDbArc
 50
90.0005088352
 51
90.3564563364
  0
ARC
  5
2F1
100
AcDbEntity
  8
00_COMPONENTS_14
100
AcDbCircle
 62
7
  6
CONTINUOUS
 10
259.4031140714
 20
-21.3240357164
 40
81.4124532931
100
AcDbArc
 50
89.6401773418
 51
90.0026221253
  0
ARC
  5
2F2
100
AcDbEntity
  8
00_COMPONENTS_14
100
AcDbCircle
 62
7
  6
CONTINUOUS
 10
259.6940302213
 20
65.2435657468
 40
5.615575637
100
AcDbArc
 50
254.0866751738
 51
258.537741672
  0
ARC
  5
2F3
100
AcDbEntity
  8
00_COMPONENTS_14
100
AcDbCircle
 62
7
  6
CONTINUOUS
 10
259.1572825886
 20
64.8969247852
 40
5.2606385482
100
AcDbArc
 50
279.8874500468
 51
281.6023915151
  0
ARC
  5
2F4
100
AcDbEntity
  8
00_COMPONENTS_14
100
AcDbCircle
 62
7
  6
CONTINUOUS
 10
259.1822826682
 20
64.8699941557
 40
5.2340476481
100
AcDbArc
 50
280.2028471614
 51
281.3938466144
  0
ARC
  5
2F5
100
AcDbEntity
  8
00_COMPONENTS_14
100
AcDbCircle
 62
7
  6
CONTINUOUS
 10
259.6160407807
 20
64.8673304903
 40
5.231345852
100
AcDbArc
 50
258.5954282033
 51
259.7968688282
  0
ARC
  5
2F6
100
AcDbEntity
  8
00_COMPONENTS_14
100
AcDbCircle
 62
7
  6
CONTINUOUS
 10
254.2790274118
 20
66.5431926083
 40
4.5
100
AcDbArc
 50
232.7886697405
 51
270.0
  0
ARC
  5
2F7
100
AcDbEntity
  8
00_COMPONENTS_14
100
AcDbCircle
 62
7
  6
CONTINUOUS
 10
260.1375922396
 20
63.6523472594
 40
3.9395836286
100
AcDbArc
 50
266.7520683932
 51
267.4138665493
  0
ARC
  5
2F8
100
AcDbEntity
  8
00_COMPONENTS_14
100
AcDbCircle
 62
7
  6
CONTINUOUS
 10
258.6611870219
 20
63.6523048327
 40
3.939541114
100
AcDbArc
 50
272.5809285239
 51
273.2479265639
  0
ARC
  5
2F9
100
AcDbEntity
  8
00_COMPONENTS_14
100
AcDbCircle
 62
7
  6
CONTINUOUS
 10
260.137336074
 20
63.6467980844
 40
3.9340285468
100
AcDbArc
 50
267.413946931
 51
267.7484314881
  0
ARC
  5
2FA
100
AcDbEntity
  8
00_COMPONENTS_14
100
AcDbCircle
 62
7
  6
CONTINUOUS
 10
258.661515597
 20
63.6450108582
 40
3.9322397425
100
AcDbArc
 50
271.9121157545
 51
272.5809315742
  0
ARC
  5
2FB
100
AcDbEntity
  8
00_COMPONENTS_14
100
AcDbCircle
 62
7
  6
CONTINUOUS
 10
260.1371937866
 20
63.6431824388
 40
3.9304101026
100
AcDbArc
 50
267.7484333692
 51
268.0826627987
  0
ARC
  5
2FC
100
AcDbEntity
  8
00_COMPONENTS_14
100
AcDbCircle
 62
7
  6
CONTINUOUS
 10
260.1370389996
 20
63.6384418754
 40
3.9256670144
100
AcDbArc
 50
268.0826057683
 51
268.7584570369
  0
ARC
  5
2FD
100
AcDbEntity
  8
00_COMPONENTS_14
100
AcDbCircle
 62
7
  6
CONTINUOUS
 10
258.6617390751
 20
63.6383805638
 40
3.9256056832
100
AcDbArc
 50
271.241539471
 51
271.912084756
  0
ARC
  5
2FE
100
AcDbEntity
  8
00_COMPONENTS_14
100
AcDbCircle
 62
7
  6
CONTINUOUS
 10
260.1369543583
 20
63.6184803906
 40
3.9057031305
100
AcDbArc
 50
271.2430908553
 51
271.9099528147
  0
ARC
  5
2FF
100
AcDbEntity
  8
00_COMPONENTS_14
100
AcDbCircle
 62
7
  6
CONTINUOUS
 10
258.6618200799
 20
63.6184157743
 40
3.9056384846
100
AcDbArc
 50
268.0840901991
 51
268.7569189158
  0
ARC
  5
300
100
AcDbEntity
  8
00_COMPONENTS_14
100
AcDbCircle
 62
7
  6
CONTINUOUS
 10
260.1370037778
 20
63.6169459725
 40
3.9041679178
100
AcDbArc
 50
271.9099784711
 51
272.2461030481
  0
ARC
  5
301
100
AcDbEntity
  8
00_COMPONENTS_14
100
AcDbCircle
 62
7
  6
CONTINUOUS
 10
258.6617600956
 20
63.6165576579
 40
3.9037794015
100
AcDbArc
 50
267.4119958433
 51
268.0840583341
  0
ARC
  5
302
100
AcDbEntity
  8
00_COMPONENTS_14
100
AcDbCircle
 62
7
  6
CONTINUOUS
 10
260.1370388157
 20
63.6160493664
 40
3.9032706274
100
AcDbArc
 50
272.2461049374
 51
272.5819901662
  0
ARC
  5
303
100
AcDbEntity
  8
00_COMPONENTS_14
100
AcDbCircle
 62
7
  6
CONTINUOUS
 10
258.6617068312
 20
63.6153825634
 40
3.9026031004
100
AcDbArc
 50
266.7407979165
 51
267.4119980463
  0
ARC
  5
304
100
AcDbEntity
  8
00_COMPONENTS_14
100
AcDbCircle
 62
7
  6
CONTINUOUS
 10
260.1370688878
 20
63.6153802492
 40
3.9026008347
100
AcDbArc
 50
272.5819916561
 51
273.2592155592
  0
ARC
  5
305
100
AcDbEntity
  8
00_COMPONENTS_14
100
AcDbCircle
 62
7
  6
CONTINUOUS
 10
259.6012637016
 20
62.7199642239
 40
3.0689054875
100
AcDbArc
 50
281.6631843906
 51
284.1839330604
  0
ARC
  5
306
100
AcDbEntity
  8
00_COMPONENTS_14
100
AcDbCircle
 62
7
  6
CONTINUOUS
 10
254.8493882533
 20
61.34320531
 40
0.2
100
AcDbArc
 50
180.0
 51
233.5080012584
  0
ARC
  5
307
100
AcDbEntity
  8
00_COMPONENTS_14
100
AcDbCircle
 62
7
  6
CONTINUOUS
 10
257.0846575172
 20
61.7299248498
 40
0.0867322747
100
AcDbArc
 50
270.0501941762
 51
282.7297754108
  0
ARC
  5
308
100
AcDbEntity
  8
00_COMPONENTS_14
100
AcDbCircle
 62
7
  6
CONTINUOUS
 10
259.3993882533
 20
67.4939738583
 40
7.85078125
100
AcDbArc
 50
289.3884975767
 51
306.4919975827
  0
ARC
  5
309
100
AcDbEntity
  8
00_COMPONENTS_14
100
AcDbCircle
 62
7
  6
CONTINUOUS
 10
259.3993882533
 20
67.4939738583
 40
7.85078125
100
AcDbArc
 50
233.5080024129
 51
250.6114639438
  0
ARC
  5
30A
100
AcDbEntity
  8
00_COMPONENTS_14
100
AcDbCircle
 62
7
  6
CONTINUOUS
 10
259.3993882533
 20
67.4939738583
 40
7.8338714079
100
AcDbArc
 50
251.0019976877
 51
262.964275686
  0
ARC
  5
30B
100
AcDbEntity
  8
00_COMPONENTS_14
100
AcDbCircle
 62
7
  6
CONTINUOUS
 10
259.3993882533
 20
67.4939738583
 40
7.8338714079
100
AcDbArc
 50
277.035724314
 51
288.9979915034
  0
ARC
  5
30C
100
AcDbEntity
  8
00_COMPONENTS_14
100
AcDbCircle
 62
7
  6
CONTINUOUS
 10
259.3989994247
 20
67.5193163185
 40
7.8328848674
100
AcDbArc
 50
274.8456496274
 51
275.0630744472
  0
ARC
  5
30D
100
AcDbEntity
  8
00_COMPONENTS_14
100
AcDbCircle
 62
7
  6
CONTINUOUS
 10
259.3997715073
 20
67.5192521586
 40
7.8328204664
100
AcDbArc
 50
264.7963650004
 51
265.1543543435
  0
ARC
  5
30E
100
AcDbEntity
  8
00_COMPONENTS_14
100
AcDbCircle
 62
7
  6
CONTINUOUS
 10
263.9493882533
 20
61.34320531
 40
0.2
100
AcDbArc
 50
306.4919987416
 51
360.0
  0
ARC
  5
30F
100
AcDbEntity
  8
00_COMPONENTS_14
100
AcDbCircle
 62
7
  6
CONTINUOUS
 10
261.7141172385
 20
61.7299507837
 40
0.0867582071
100
AcDbArc
 50
257.2508912724
 51
269.9509771394
  0
ARC
  5
310
100
AcDbEntity
  8
00_COMPONENTS_14
100
AcDbCircle
 62
7
  6
CONTINUOUS
 10
268.9945020025
 20
72.5017533632
 40
125.0675019306
100
AcDbArc
 50
355.0572202911
 51
355.2031329921
  0
ARC
  5
311
100
AcDbEntity
  8
PART
100
AcDbCircle
 62
7
  6
CONTINUOUS
 10
113.3893490742
 20
658.3431926083
 40
2.5
100
AcDbArc
 50
90.0
 51
180.0000000002
  0
ARC
  5
312
100
AcDbEntity
  8
PART_1
100
AcDbCircle
 62
7
  6
CONTINUOUS
 10
135.5893490742
 20
660.8431926083
 40
2.2
100
AcDbArc
 50
90.0
 51
180.0
  0
ARC
  5
313
100
AcDbEntity
  8
0
100
AcDbCircle
 62
7
  6
CONTINUOUS
 10
132.7393490742
 20
572.0431926083
 40
1.85
100
AcDbArc
 50
152.4154663398
 51
207.5845336602
  0
ARC
  5
314
100
AcDbEntity
  8
0
100
AcDbCircle
 62
7
  6
CONTINUOUS
 10
132.7393490742
 20
582.0431926083
 40
1.85
100
AcDbArc
 50
152.4154663398
 51
207.5845336602
  0
ARC
  5
315
100
AcDbEntity
  8
0
100
AcDbCircle
 62
7
  6
CONTINUOUS
 10
132.7393490742
 20
606.0431926083
 40
1.85
100
AcDbArc
 50
152.4154663398
 51
207.5845336602
  0
ARC
  5
316
100
AcDbEntity
  8
0
100
AcDbCircle
 62
7
  6
CONTINUOUS
 10
132.7393490742
 20
616.0431926083
 40
1.85
100
AcDbArc
 50
152.4154663398
 51
207.5845336602
  0
ARC
  5
317
100
AcDbEntity
  8
0
100
AcDbCircle
 62
7
  6
CONTINUOUS
 10
110.0193490742
 20
528.0431926083
 40
1.5
100
AcDbArc
 50
197.5133803757
 51
270.0
  0
ARC
  5
318
100
AcDbEntity
  8
0
100
AcDbCircle
 62
7
  6
CONTINUOUS
 10
107.8893490742
 20
534.7931926083
 40
1.5
100
AcDbArc
 50
180.0000001335
 51
197.5133803758
  0
ARC
  5
319
100
AcDbEntity
  8
0
100
AcDbCircle
 62
7
  6
CONTINUOUS
 10
107.8893490742
 20
558.2931926083
 40
1.5
100
AcDbArc
 50
162.4866196242
 51
180.0
  0
ARC
  5
31A
100
AcDbEntity
  8
0
100
AcDbCircle
 62
7
  6
CONTINUOUS
 10
110.0193490742
 20
565.0431926083
 40
1.5
100
AcDbArc
 50
90.0
 51
162.4866196242
  0
ARC
  5
31B
100
AcDbEntity
  8
PART_1
100
AcDbCircle
 62
7
  6
CONTINUOUS
 10
135.5893490742
 20
660.8431926083
 40
1.0
100
AcDbArc
 50
90.0
 51
180.0
  0
ARC
  5
31C
100
AcDbEntity
  8
00_COMPONENTS_14
100
AcDbCircle
 62
7
  6
CONTINUOUS
 10
389.4001244624
 20
-22.8100913285
 40
82.8985088232
100
AcDbArc
 50
90.0005088352
 51
90.3564563364
  0
ARC
  5
31D
100
AcDbEntity
  8
00_COMPONENTS_14
100
AcDbCircle
 62
7
  6
CONTINUOUS
 10
324.4001244624
 20
-22.8100913284
 40
82.8985088231
100
AcDbArc
 50
90.0005088352
 51
90.3564563364
  0
ARC
  5
31E
100
AcDbEntity
  8
00_COMPONENTS_14
100
AcDbCircle
 62
7
  6
CONTINUOUS
 10
389.4031140714
 20
-21.3240357163
 40
81.412453293
100
AcDbArc
 50
89.6401773418
 51
90.0026221253
  0
ARC
  5
31F
100
AcDbEntity
  8
00_COMPONENTS_14
100
AcDbCircle
 62
7
  6
CONTINUOUS
 10
324.4031140714
 20
-21.3240357164
 40
81.4124532931
100
AcDbArc
 50
89.6401773418
 51
90.0026221253
  0
ARC
  5
320
100
AcDbEntity
  8
00_COMPONENTS_14
100
AcDbCircle
 62
7
  6
CONTINUOUS
 10
324.6940302213
 20
65.2435657468
 40
5.615575637
100
AcDbArc
 50
254.0866751737
 51
258.537741672
  0
ARC
  5
321
100
AcDbEntity
  8
00_COMPONENTS_14
100
AcDbCircle
 62
7
  6
CONTINUOUS
 10
324.1572825886
 20
64.8969247853
 40
5.2606385484
100
AcDbArc
 50
279.8874500468
 51
281.6023915151
  0
ARC
  5
322
100
AcDbEntity
  8
00_COMPONENTS_14
100
AcDbCircle
 62
7
  6
CONTINUOUS
 10
324.1822826682
 20
64.8699941555
 40
5.2340476479
100
AcDbArc
 50
280.2028471614
 51
281.3938466144
  0
ARC
  5
323
100
AcDbEntity
  8
00_COMPONENTS_14
100
AcDbCircle
 62
7
  6
CONTINUOUS
 10
324.6160407807
 20
64.8673304906
 40
5.2313458523
100
AcDbArc
 50
258.5954282033
 51
259.7968688282
  0
ARC
  5
324
100
AcDbEntity
  8
00_COMPONENTS_14
100
AcDbCircle
 62
7
  6
CONTINUOUS
 10
325.1375922396
 20
63.6523472599
 40
3.9395836291
100
AcDbArc
 50
266.7520683933
 51
267.4138665492
  0
ARC
  5
325
100
AcDbEntity
  8
00_COMPONENTS_14
100
AcDbCircle
 62
7
  6
CONTINUOUS
 10
323.6611870219
 20
63.6523048326
 40
3.9395411139
100
AcDbArc
 50
272.5809285239
 51
273.2479265639
  0
ARC
  5
326
100
AcDbEntity
  8
00_COMPONENTS_14
100
AcDbCircle
 62
7
  6
CONTINUOUS
 10
325.137336074
 20
63.6467980845
 40
3.9340285469
100
AcDbArc
 50
267.413946931
 51
267.7484314881
  0
ARC
  5
327
100
AcDbEntity
  8
00_COMPONENTS_14
100
AcDbCircle
 62
7
  6
CONTINUOUS
 10
323.661515597
 20
63.6450108582
 40
3.9322397425
100
AcDbArc
 50
271.9121157545
 51
272.5809315742
  0
ARC
  5
328
100
AcDbEntity
  8
00_COMPONENTS_14
100
AcDbCircle
 62
7
  6
CONTINUOUS
 10
325.1371937866
 20
63.6431824398
 40
3.9304101035
100
AcDbArc
 50
267.7484333693
 51
268.0826627987
  0
ARC
  5
329
100
AcDbEntity
  8
00_COMPONENTS_14
100
AcDbCircle
 62
7
  6
CONTINUOUS
 10
325.1370389996
 20
63.6384418753
 40
3.9256670143
100
AcDbArc
 50
268.0826057683
 51
268.7584570369
  0
ARC
  5
32A
100
AcDbEntity
  8
00_COMPONENTS_14
100
AcDbCircle
 62
7
  6
CONTINUOUS
 10
323.6617390751
 20
63.6383805637
 40
3.9256056832
100
AcDbArc
 50
271.241539471
 51
271.912084756
  0
ARC
  5
32B
100
AcDbEntity
  8
00_COMPONENTS_14
100
AcDbCircle
 62
7
  6
CONTINUOUS
 10
325.1369543583
 20
63.6184803911
 40
3.905703131
100
AcDbArc
 50
271.2430908553
 51
271.9099528147
  0
ARC
  5
32C
100
AcDbEntity
  8
00_COMPONENTS_14
100
AcDbCircle
 62
7
  6
CONTINUOUS
 10
323.6618200799
 20
63.6184157744
 40
3.9056384846
100
AcDbArc
 50
268.0840901991
 51
268.7569189158
  0
ARC
  5
32D
100
AcDbEntity
  8
00_COMPONENTS_14
100
AcDbCircle
 62
7
  6
CONTINUOUS
 10
325.1370037778
 20
63.6169459736
 40
3.9041679189
100
AcDbArc
 50
271.9099784712
 51
272.246103048
  0
ARC
  5
32E
100
AcDbEntity
  8
00_COMPONENTS_14
100
AcDbCircle
 62
7
  6
CONTINUOUS
 10
323.6617600956
 20
63.6165576579
 40
3.9037794015
100
AcDbArc
 50
267.4119958433
 51
268.0840583341
  0
ARC
  5
32F
100
AcDbEntity
  8
00_COMPONENTS_14
100
AcDbCircle
 62
7
  6
CONTINUOUS
 10
325.1370388157
 20
63.6160493666
 40
3.9032706276
100
AcDbArc
 50
272.2461049373
 51
272.5819901662
  0
ARC
  5
330
100
AcDbEntity
  8
00_COMPONENTS_14
100
AcDbCircle
 62
7
  6
CONTINUOUS
 10
323.6617068312
 20
63.6153825637
 40
3.9026031006
100
AcDbArc
 50
266.7407979165
 51
267.4119980462
  0
ARC
  5
331
100
AcDbEntity
  8
00_COMPONENTS_14
100
AcDbCircle
 62
7
  6
CONTINUOUS
 10
325.1370688878
 20
63.615380249
 40
3.9026008345
100
AcDbArc
 50
272.5819916561
 51
273.2592155592
  0
ARC
  5
332
100
AcDbEntity
  8
00_COMPONENTS_14
100
AcDbCircle
 62
7
  6
CONTINUOUS
 10
324.6012637016
 20
62.7199642238
 40
3.0689054875
100
AcDbArc
 50
281.6631843906
 51
284.1839330604
  0
ARC
  5
333
100
AcDbEntity
  8
00_COMPONENTS_14
100
AcDbCircle
 62
7
  6
CONTINUOUS
 10
319.8493882533
 20
61.34320531
 40
0.2
100
AcDbArc
 50
180.0
 51
233.5080012584
  0
ARC
  5
334
100
AcDbEntity
  8
00_COMPONENTS_14
100
AcDbCircle
 62
7
  6
CONTINUOUS
 10
328.9493882533
 20
61.34320531
 40
0.2
100
AcDbArc
 50
306.4919987416
 51
360.0
  0
ARC
  5
335
100
AcDbEntity
  8
00_COMPONENTS_14
100
AcDbCircle
 62
7
  6
CONTINUOUS
 10
326.7141172385
 20
61.7299507837
 40
0.0867582071
100
AcDbArc
 50
257.2508912725
 51
269.9509771393
  0
ARC
  5
336
100
AcDbEntity
  8
00_COMPONENTS_14
100
AcDbCircle
 62
7
  6
CONTINUOUS
 10
322.0846575172
 20
61.7299248498
 40
0.0867322747
100
AcDbArc
 50
270.0501941762
 51
282.7297754108
  0
ARC
  5
337
100
AcDbEntity
  8
00_COMPONENTS_14
100
AcDbCircle
 62
7
  6
CONTINUOUS
 10
324.3993882533
 20
67.4939738583
 40
7.85078125
100
AcDbArc
 50
289.3884975767
 51
306.4919975827
  0
ARC
  5
338
100
AcDbEntity
  8
00_COMPONENTS_14
100
AcDbCircle
 62
7
  6
CONTINUOUS
 10
324.3993882533
 20
67.4939738583
 40
7.85078125
100
AcDbArc
 50
233.5080024129
 51
250.6114639438
  0
ARC
  5
339
100
AcDbEntity
  8
00_COMPONENTS_14
100
AcDbCircle
 62
7
  6
CONTINUOUS
 10
324.3993882533
 20
67.4939738583
 40
7.8338714079
100
AcDbArc
 50
251.0019976877
 51
262.964275686
  0
ARC
  5
33A
100
AcDbEntity
  8
00_COMPONENTS_14
100
AcDbCircle
 62
7
  6
CONTINUOUS
 10
324.3993882533
 20
67.4939738583
 40
7.8338714079
100
AcDbArc
 50
277.035724314
 51
288.9979915034
  0
ARC
  5
33B
100
AcDbEntity
  8
00_COMPONENTS_14
100
AcDbCircle
 62
7
  6
CONTINUOUS
 10
324.398999425
 20
67.5193163151
 40
7.8328848641
100
AcDbArc
 50
274.8456496274
 51
275.0630744472
  0
ARC
  5
33C
100
AcDbEntity
  8
00_COMPONENTS_14
100
AcDbCircle
 62
7
  6
CONTINUOUS
 10
324.3997715077
 20
67.5192521624
 40
7.8328204702
100
AcDbArc
 50
264.7963650004
 51
265.1543543434
  0
ARC
  5
33D
100
AcDbEntity
  8
00_COMPONENTS_14
100
AcDbCircle
 62
7
  6
CONTINUOUS
 10
389.6940302213
 20
65.2435657467
 40
5.615575637
100
AcDbArc
 50
254.0866751737
 51
258.537741672
  0
ARC
  5
33E
100
AcDbEntity
  8
00_COMPONENTS_14
100
AcDbCircle
 62
7
  6
CONTINUOUS
 10
389.1572825885
 20
64.8969247853
 40
5.2606385484
100
AcDbArc
 50
279.8874500468
 51
281.6023915151
  0
ARC
  5
33F
100
AcDbEntity
  8
00_COMPONENTS_14
100
AcDbCircle
 62
7
  6
CONTINUOUS
 10
389.1822826683
 20
64.8699941551
 40
5.2340476475
100
AcDbArc
 50
280.2028471613
 51
281.3938466144
  0
ARC
  5
340
100
AcDbEntity
  8
00_COMPONENTS_14
100
AcDbCircle
 62
7
  6
CONTINUOUS
 10
389.6160407807
 20
64.8673304907
 40
5.2313458524
100
AcDbArc
 50
258.5954282033
 51
259.7968688281
  0
ARC
  5
341
100
AcDbEntity
  8
00_COMPONENTS_14
100
AcDbCircle
 62
7
  6
CONTINUOUS
 10
394.5197490948
 20
66.5431926083
 40
4.5
100
AcDbArc
 50
270.0
 51
307.2113302595
  0
ARC
  5
342
100
AcDbEntity
  8
00_COMPONENTS_14
100
AcDbCircle
 62
7
  6
CONTINUOUS
 10
390.1375922396
 20
63.6523472599
 40
3.9395836291
100
AcDbArc
 50
266.7520683933
 51
267.4138665492
  0
ARC
  5
343
100
AcDbEntity
  8
00_COMPONENTS_14
100
AcDbCircle
 62
7
  6
CONTINUOUS
 10
388.6611870219
 20
63.6523048326
 40
3.9395411139
100
AcDbArc
 50
272.5809285239
 51
273.2479265639
  0
ARC
  5
344
100
AcDbEntity
  8
00_COMPONENTS_14
100
AcDbCircle
 62
7
  6
CONTINUOUS
 10
390.137336074
 20
63.6467980845
 40
3.9340285469
100
AcDbArc
 50
267.413946931
 51
267.7484314881
  0
ARC
  5
345
100
AcDbEntity
  8
00_COMPONENTS_14
100
AcDbCircle
 62
7
  6
CONTINUOUS
 10
388.661515597
 20
63.6450108581
 40
3.9322397424
100
AcDbArc
 50
271.9121157545
 51
272.5809315742
  0
ARC
  5
346
100
AcDbEntity
  8
00_COMPONENTS_14
100
AcDbCircle
 62
7
  6
CONTINUOUS
 10
390.1371937866
 20
63.6431824398
 40
3.9304101035
100
AcDbArc
 50
267.7484333693
 51
268.0826627987
  0
ARC
  5
347
100
AcDbEntity
  8
00_COMPONENTS_14
100
AcDbCircle
 62
7
  6
CONTINUOUS
 10
390.1370389996
 20
63.6384418753
 40
3.9256670143
100
AcDbArc
 50
268.0826057683
 51
268.7584570369
  0
ARC
  5
348
100
AcDbEntity
  8
00_COMPONENTS_14
100
AcDbCircle
 62
7
  6
CONTINUOUS
 10
388.6617390751
 20
63.6383805638
 40
3.9256056833
100
AcDbArc
 50
271.241539471
 51
271.912084756
  0
ARC
  5
349
100
AcDbEntity
  8
00_COMPONENTS_14
100
AcDbCircle
 62
7
  6
CONTINUOUS
 10
390.1369543583
 20
63.6184803907
 40
3.9057031306
100
AcDbArc
 50
271.2430908553
 51
271.9099528147
  0
ARC
  5
34A
100
AcDbEntity
  8
00_COMPONENTS_14
100
AcDbCircle
 62
7
  6
CONTINUOUS
 10
388.6618200799
 20
63.6184157744
 40
3.9056384846
100
AcDbArc
 50
268.0840901991
 51
268.7569189158
  0
ARC
  5
34B
100
AcDbEntity
  8
00_COMPONENTS_14
100
AcDbCircle
 62
7
  6
CONTINUOUS
 10
390.1370037779
 20
63.6169459706
 40
3.9041679159
100
AcDbArc
 50
271.909978471
 51
272.2461030481
  0
ARC
  5
34C
100
AcDbEntity
  8
00_COMPONENTS_14
100
AcDbCircle
 62
7
  6
CONTINUOUS
 10
388.6617600956
 20
63.6165576579
 40
3.9037794015
100
AcDbArc
 50
267.4119958433
 51
268.0840583341
  0
ARC
  5
34D
100
AcDbEntity
  8
00_COMPONENTS_14
100
AcDbCircle
 62
7
  6
CONTINUOUS
 10
390.1370388157
 20
63.6160493662
 40
3.9032706271
100
AcDbArc
 50
272.2461049372
 51
272.5819901662
  0
ARC
  5
34E
100
AcDbEntity
  8
00_COMPONENTS_14
100
AcDbCircle
 62
7
  6
CONTINUOUS
 10
388.6617068312
 20
63.6153825637
 40
3.9026031006
100
AcDbArc
 50
266.7407979165
 51
267.4119980462
  0
ARC
  5
34F
100
AcDbEntity
  8
00_COMPONENTS_14
100
AcDbCircle
 62
7
  6
CONTINUOUS
 10
390.1370688878
 20
63.6153802488
 40
3.9026008343
100
AcDbArc
 50
272.5819916561
 51
273.2592155592
  0
ARC
  5
350
100
AcDbEntity
  8
00_COMPONENTS_14
100
AcDbCircle
 62
7
  6
CONTINUOUS
 10
389.6012637016
 20
62.7199642239
 40
3.0689054876
100
AcDbArc
 50
281.6631843906
 51
284.1839330604
  0
ARC
  5
351
100
AcDbEntity
  8
PART_1
100
AcDbCircle
 62
7
  6
CONTINUOUS
 10
412.0473490742
 20
64.3931926083
 40
1.35
100
AcDbArc
 50
270.0
 51
2.9215448167
  0
ARC
  5
352
100
AcDbEntity
  8
00_COMPONENTS_14
100
AcDbCircle
 62
7
  6
CONTINUOUS
 10
384.8493882533
 20
61.34320531
 40
0.2
100
AcDbArc
 50
180.0
 51
233.5080012584
  0
ARC
  5
353
100
AcDbEntity
  8
00_COMPONENTS_14
100
AcDbCircle
 62
7
  6
CONTINUOUS
 10
393.9493882533
 20
61.34320531
 40
0.2
100
AcDbArc
 50
306.4919987416
 51
360.0
  0
ARC
  5
354
100
AcDbEntity
  8
00_COMPONENTS_14
100
AcDbCircle
 62
7
  6
CONTINUOUS
 10
391.7141172385
 20
61.7299507837
 40
0.0867582071
100
AcDbArc
 50
257.2508912726
 51
269.9509771392
  0
ARC
  5
355
100
AcDbEntity
  8
00_COMPONENTS_14
100
AcDbCircle
 62
7
  6
CONTINUOUS
 10
387.0846575172
 20
61.7299248498
 40
0.0867322747
100
AcDbArc
 50
270.0501941762
 51
282.7297754108
  0
ARC
  5
356
100
AcDbEntity
  8
00_COMPONENTS_14
100
AcDbCircle
 62
7
  6
CONTINUOUS
 10
379.2883179638
 20
72.4580035764
 40
124.5496945934
100
AcDbArc
 50
184.7966598129
 51
184.9431791265
  0
ARC
  5
357
100
AcDbEntity
  8
00_COMPONENTS_14
100
AcDbCircle
 62
7
  6
CONTINUOUS
 10
389.3993882533
 20
67.4939738583
 40
7.85078125
100
AcDbArc
 50
289.3884975767
 51
306.4919975827
  0
ARC
  5
358
100
AcDbEntity
  8
00_COMPONENTS_14
100
AcDbCircle
 62
7
  6
CONTINUOUS
 10
389.3993882533
 20
67.4939738583
 40
7.85078125
100
AcDbArc
 50
233.5080024129
 51
250.6114639438
  0
ARC
  5
359
100
AcDbEntity
  8
00_COMPONENTS_14
100
AcDbCircle
 62
7
  6
CONTINUOUS
 10
389.3993882533
 20
67.4939738583
 40
7.8338714079
100
AcDbArc
 50
251.0019976877
 51
262.964275686
  0
ARC
  5
35A
100
AcDbEntity
  8
00_COMPONENTS_14
100
AcDbCircle
 62
7
  6
CONTINUOUS
 10
389.3993882533
 20
67.4939738583
 40
7.8338714079
100
AcDbArc
 50
277.035724314
 51
288.9979915034
  0
ARC
  5
35B
100
AcDbEntity
  8
00_COMPONENTS_14
100
AcDbCircle
 62
7
  6
CONTINUOUS
 10
389.398999425
 20
67.5193163151
 40
7.8328848641
100
AcDbArc
 50
274.8456496274
 51
275.0630744472
  0
ARC
  5
35C
100
AcDbEntity
  8
00_COMPONENTS_14
100
AcDbCircle
 62
7
  6
CONTINUOUS
 10
389.3997715076
 20
67.5192521616
 40
7.8328204693
100
AcDbArc
 50
264.7963650004
 51
265.1543543434
  0
ARC
  5
35D
100
AcDbEntity
  8
00_COMPONENTS_14
100
AcDbCircle
 62
7
  6
CONTINUOUS
 10
509.2883179645
 20
72.4580035765
 40
124.5496945941
100
AcDbArc
 50
184.7966598129
 51
184.9431791265
  0
ARC
  5
35E
100
AcDbEntity
  8
00_COMPONENTS_14
100
AcDbCircle
 62
7
  6
CONTINUOUS
 10
444.2883179644
 20
72.4580035765
 40
124.5496945941
100
AcDbArc
 50
184.7966598129
 51
184.9431791265
  0
ARC
  5
35F
100
AcDbEntity
  8
PART_1
100
AcDbCircle
 62
7
  6
CONTINUOUS
 10
412.0473490742
 20
661.6931926083
 40
1.35
100
AcDbArc
 50
320.9771974348
 51
90.0
  0
ARC
  5
360
100
AcDbEntity
  8
PART_1
100
AcDbCircle
 62
7
  6
CONTINUOUS
 10
412.0473490742
 20
661.6931926083
 40
0.15
100
AcDbArc
 50
320.9771974349
 51
43.9623669142
  0
SPLINE
  5
361
100
AcDbEntity
  8
00_COMPONENTS_14
100
AcDbSpline
 62
7
  6
CONTINUOUS
 70
0
 71
3
 72
9
 73
5
 74
0
 42
0.0000001
 43
0.0000001
 44
0.0000000001
 40
0.0
 40
0.0
 40
0.0
 40
0.0
 40
0.2550951787
 40
1.0
 40
1.0
 40
1.0
 40
1.0
 10
260.7891527342
 20
59.8931926083
 30
0.0
 10
260.7414524195
 20
59.8782162174
 30
0.0
 10
260.5537760837
 20
59.8217282336
 30
0.0
 10
260.3633385409
 20
59.774309314
 30
0.0
 10
260.2203542127
 20
59.7448183722
 30
0.0
  0
SPLINE
  5
362
100
AcDbEntity
  8
00_COMPONENTS_14
100
AcDbSpline
 62
7
  6
CONTINUOUS
 70
0
 71
3
 72
9
 73
5
 74
0
 42
0.0000001
 43
0.0000001
 44
0.0000000001
 40
0.0
 40
0.0
 40
0.0
 40
0.0
 40
0.2818350806
 40
1.0
 40
1.0
 40
1.0
 40
1.0
 10
263.9396354804
 20
61.725835075
 30
0.0
 10
263.9399382787
 20
61.7202597145
 30
0.0
 10
263.9415777182
 20
61.7005365798
 30
0.0
 10
263.9450762455
 20
61.6807941352
 30
0.0
 10
263.9497905943
 20
61.6673699466
 30
0.0
  0
SPLINE
  5
363
100
AcDbEntity
  8
00_COMPONENTS_14
100
AcDbSpline
 62
7
  6
CONTINUOUS
 70
0
 71
3
 72
9
 73
5
 74
0
 42
0.0000001
 43
0.0000001
 44
0.0000000001
 40
0.0
 40
0.0
 40
0.0
 40
0.0
 40
0.6311743839
 40
1.0
 40
1.0
 40
1.0
 40
1.0
 10
263.9497905943
 20
61.6673699466
 30
0.0
 10
263.9520265631
 20
61.6610029874
 30
0.0
 10
263.9557215287
 20
61.651165633
 30
0.0
 10
263.9651441297
 20
61.6431926083
 30
0.0
 10
263.9690874076
 20
61.6431926083
 30
0.0
  0
SPLINE
  5
364
100
AcDbEntity
  8
00_COMPONENTS_14
100
AcDbSpline
 62
7
  6
CONTINUOUS
 70
0
 71
3
 72
9
 73
5
 74
0
 42
0.0000001
 43
0.0000001
 44
0.0000000001
 40
0.0
 40
0.0
 40
0.0
 40
0.0
 40
0.5178173237
 40
1.0
 40
1.0
 40
1.0
 40
1.0
 10
261.6227475362
 20
61.7258350735
 30
0.0
 10
261.6258930726
 20
61.7065736246
 30
0.0
 10
261.642588135
 20
61.6700942893
 30
0.0
 10
261.6772450824
 20
61.6493390845
 30
0.0
 10
261.694971241
 20
61.6453315348
 30
0.0
  0
LINE
  5
365
100
AcDbEntity
  8
00_COMPONENTS_14
100
AcDbLine
 62
7
  6
CONTINUOUS
 10
261.6227475362
 20
61.7258350735
 11
261.570931884
 21
62.043189204
  0
SPLINE
  5
366
100
AcDbEntity
  8
00_COMPONENTS_14
100
AcDbSpline
 62
7
  6
CONTINUOUS
 70
0
 71
3
 72
9
 73
5
 74
0
 42
0.0000001
 43
0.0000001
 44
0.0000000001
 40
0.0
 40
0.0
 40
0.0
 40
0.0
 40
0.4822216116
 40
1.0
 40
1.0
 40
1.0
 40
1.0
 10
257.1037692463
 20
61.6453244403
 30
0.0
 10
257.1215037721
 20
61.6493271491
 30
0.0
 10
257.1561810917
 20
61.6700769011
 30
0.0
 10
257.1728827143
 20
61.7065692185
 30
0.0
 10
257.1760289881
 20
61.7258351825
 30
0.0
  0
LINE
  5
367
100
AcDbEntity
  8
00_COMPONENTS_14
100
AcDbLine
 62
7
  6
CONTINUOUS
 10
257.1760289881
 20
61.7258351825
 11
257.2278436302
 21
62.0431893811
  0
SPLINE
  5
368
100
AcDbEntity
  8
00_COMPONENTS_14
100
AcDbSpline
 62
7
  6
CONTINUOUS
 70
0
 71
3
 72
9
 73
5
 74
0
 42
0.0000001
 43
0.0000001
 44
0.0000000001
 40
0.0
 40
0.0
 40
0.0
 40
0.0
 40
0.3688549702
 40
1.0
 40
1.0
 40
1.0
 40
1.0
 10
254.829689099
 20
61.6431926083
 30
0.0
 10
254.8336322851
 20
61.6431926083
 30
0.0
 10
254.8430530606
 20
61.6511660965
 30
0.0
 10
254.8467490551
 20
61.6610012866
 30
0.0
 10
254.8489850573
 20
61.6673671658
 30
0.0
  0
SPLINE
  5
369
100
AcDbEntity
  8
00_COMPONENTS_14
100
AcDbSpline
 62
7
  6
CONTINUOUS
 70
0
 71
3
 72
9
 73
5
 74
0
 42
0.0000001
 43
0.0000001
 44
0.0000000001
 40
0.0
 40
0.0
 40
0.0
 40
0.0
 40
0.2119702899
 40
1.0
 40
1.0
 40
1.0
 40
1.0
 10
254.8489850573
 20
61.6673671658
 30
0.0
 10
254.8503771869
 20
61.6713305472
 30
0.0
 10
254.8559018255
 20
61.6903901769
 30
0.0
 10
254.858294123
 20
61.710241228
 30
0.0
 10
254.8591410321
 20
61.7258351841
 30
0.0
  0
SPLINE
  5
36A
100
AcDbEntity
  8
00_COMPONENTS_14
100
AcDbSpline
 62
7
  6
CONTINUOUS
 70
0
 71
3
 72
9
 73
5
 74
0
 42
0.0000001
 43
0.0000001
 44
0.0000000001
 40
0.0
 40
0.0
 40
0.0
 40
0.0
 40
0.5052624746
 40
1.0
 40
1.0
 40
1.0
 40
1.0
 10
258.0034458779
 20
61.7258350735
 30
0.0
 10
258.0074839572
 20
61.7029747513
 30
0.0
 10
258.0328558001
 20
61.6591835623
 30
0.0
 10
258.0803745832
 20
61.6431926083
 30
0.0
 10
258.1031052443
 20
61.6431926083
 30
0.0
  0
SPLINE
  5
36B
100
AcDbEntity
  8
00_COMPONENTS_14
100
AcDbSpline
 62
7
  6
CONTINUOUS
 70
0
 71
3
 72
9
 73
5
 74
0
 42
0.0000001
 43
0.0000001
 44
0.0000000001
 40
0.0
 40
0.0
 40
0.0
 40
0.0
 40
0.2542271467
 40
1.0
 40
1.0
 40
1.0
 40
1.0
 10
260.353254564
 20
59.7446170787
 30
0.0
 10
260.391112226
 20
59.7541951277
 30
0.0
 10
260.5392678932
 20
59.7947788726
 30
0.0
 10
260.6842150687
 20
59.8472495427
 30
0.0
 10
260.7891527342
 20
59.8931926083
 30
0.0
  0
SPLINE
  5
36C
100
AcDbEntity
  8
00_COMPONENTS_14
100
AcDbSpline
 62
7
  6
CONTINUOUS
 70
0
 71
3
 72
12
 73
8
 74
0
 42
0.0000001
 43
0.0000001
 44
0.0000000001
 40
0.0
 40
0.0
 40
0.0
 40
0.0
 40
0.3270039792
 40
0.54176599
 40
0.7225688652
 40
0.8713760224
 40
1.0
 40
1.0
 40
1.0
 40
1.0
 10
255.2018683306
 20
61.725835075
 30
0.0
 10
255.202843725
 20
61.7145590091
 30
0.0
 10
255.2060255602
 20
61.6959285366
 30
0.0
 10
255.2148456213
 20
61.6723917705
 30
0.0
 10
255.2250581772
 20
61.6563423155
 30
0.0
 10
255.2373650286
 20
61.6457985577
 30
0.0
 10
255.2470605888
 20
61.6431926083
 30
0.0
 10
255.2515124873
 20
61.6431926083
 30
0.0
  0
SPLINE
  5
36D
100
AcDbEntity
  8
00_COMPONENTS_14
100
AcDbSpline
 62
7
  6
CONTINUOUS
 70
0
 71
3
 72
9
 73
5
 74
0
 42
0.0000001
 43
0.0000001
 44
0.0000000001
 40
0.0
 40
0.0
 40
0.0
 40
0.0
 40
0.4947805499
 40
1.0
 40
1.0
 40
1.0
 40
1.0
 10
260.6956712623
 20
61.6431926083
 30
0.0
 10
260.7184039358
 20
61.6431926083
 30
0.0
 10
260.7659232548
 20
61.6591852932
 30
0.0
 10
260.791292906
 20
61.7029767712
 30
0.0
 10
260.7953306478
 20
61.7258351826
 30
0.0
  0
LINE
  5
36E
100
AcDbEntity
  8
00_COMPONENTS_14
100
AcDbLine
 62
7
  6
CONTINUOUS
 10
260.7953306478
 20
61.7258351826
 11
260.8510882299
 21
62.0431893811
  0
SPLINE
  5
36F
100
AcDbEntity
  8
00_COMPONENTS_14
100
AcDbSpline
 62
7
  6
CONTINUOUS
 70
0
 71
3
 72
9
 73
5
 74
0
 42
0.0000001
 43
0.0000001
 44
0.0000000001
 40
0.0
 40
0.0
 40
0.0
 40
0.0
 40
0.2461014618
 40
1.0
 40
1.0
 40
1.0
 40
1.0
 10
258.1543355436
 20
59.8431926083
 30
0.0
 10
258.1881426541
 20
59.8302989545
 30
0.0
 10
258.326551458
 20
59.780655268
 30
0.0
 10
258.4688482579
 20
59.7419833084
 30
0.0
 10
258.5772180251
 20
59.7187135132
 30
0.0
  0
SPLINE
  5
370
100
AcDbEntity
  8
00_COMPONENTS_14
100
AcDbSpline
 62
7
  6
CONTINUOUS
 70
0
 71
3
 72
11
 73
7
 74
0
 42
0.0000001
 43
0.0000001
 44
0.0000000001
 40
0.0
 40
0.0
 40
0.0
 40
0.0
 40
0.1744012102
 40
0.3334981697
 40
0.526315733
 40
1.0
 40
1.0
 40
1.0
 40
1.0
 10
263.5472640193
 20
61.6431926083
 30
0.0
 10
263.5532857486
 20
61.6431926083
 30
0.0
 10
263.5648709834
 20
61.6475778204
 30
0.0
 10
263.5773377747
 20
61.6611268651
 30
0.0
 10
263.590880926
 20
61.6864482142
 30
0.0
 10
263.595498687
 20
61.7095406501
 30
0.0
 10
263.5969081854
 20
61.7258351841
 30
0.0
  0
LINE
  5
371
100
AcDbEntity
  8
00_COMPONENTS_14
100
AcDbLine
 62
7
  6
CONTINUOUS
 10
258.0034458779
 20
61.7258350735
 11
257.9476872065
 21
62.043189204
  0
SPLINE
  5
372
100
AcDbEntity
  8
00_COMPONENTS_14
100
AcDbSpline
 62
7
  6
CONTINUOUS
 70
0
 71
3
 72
9
 73
5
 74
0
 42
0.0000001
 43
0.0000001
 44
0.0000000001
 40
0.0
 40
0.0
 40
0.0
 40
0.0
 40
0.2550951787
 40
1.0
 40
1.0
 40
1.0
 40
1.0
 10
390.7891527342
 20
59.8931926083
 30
0.0
 10
390.7414524195
 20
59.8782162174
 30
0.0
 10
390.5537760837
 20
59.8217282336
 30
0.0
 10
390.3633385409
 20
59.774309314
 30
0.0
 10
390.2203542127
 20
59.7448183722
 30
0.0
  0
SPLINE
  5
373
100
AcDbEntity
  8
00_COMPONENTS_14
100
AcDbSpline
 62
7
  6
CONTINUOUS
 70
0
 71
3
 72
9
 73
5
 74
0
 42
0.0000001
 43
0.0000001
 44
0.0000000001
 40
0.0
 40
0.0
 40
0.0
 40
0.0
 40
0.2818350806
 40
1.0
 40
1.0
 40
1.0
 40
1.0
 10
393.9396354804
 20
61.725835075
 30
0.0
 10
393.9399382787
 20
61.7202597145
 30
0.0
 10
393.9415777182
 20
61.7005365798
 30
0.0
 10
393.9450762455
 20
61.6807941352
 30
0.0
 10
393.9497905943
 20
61.6673699466
 30
0.0
  0
SPLINE
  5
374
100
AcDbEntity
  8
00_COMPONENTS_14
100
AcDbSpline
 62
7
  6
CONTINUOUS
 70
0
 71
3
 72
9
 73
5
 74
0
 42
0.0000001
 43
0.0000001
 44
0.0000000001
 40
0.0
 40
0.0
 40
0.0
 40
0.0
 40
0.6311743839
 40
1.0
 40
1.0
 40
1.0
 40
1.0
 10
393.9497905943
 20
61.6673699466
 30
0.0
 10
393.9520265631
 20
61.6610029874
 30
0.0
 10
393.9557215287
 20
61.651165633
 30
0.0
 10
393.9651441297
 20
61.6431926083
 30
0.0
 10
393.9690874076
 20
61.6431926083
 30
0.0
  0
SPLINE
  5
375
100
AcDbEntity
  8
00_COMPONENTS_14
100
AcDbSpline
 62
7
  6
CONTINUOUS
 70
0
 71
3
 72
9
 73
5
 74
0
 42
0.0000001
 43
0.0000001
 44
0.0000000001
 40
0.0
 40
0.0
 40
0.0
 40
0.0
 40
0.5178173237
 40
1.0
 40
1.0
 40
1.0
 40
1.0
 10
391.6227475362
 20
61.7258350735
 30
0.0
 10
391.6258930726
 20
61.7065736246
 30
0.0
 10
391.642588135
 20
61.6700942893
 30
0.0
 10
391.6772450824
 20
61.6493390845
 30
0.0
 10
391.694971241
 20
61.6453315348
 30
0.0
  0
LINE
  5
376
100
AcDbEntity
  8
00_COMPONENTS_14
100
AcDbLine
 62
7
  6
CONTINUOUS
 10
391.6227475362
 20
61.7258350735
 11
391.570931884
 21
62.043189204
  0
SPLINE
  5
377
100
AcDbEntity
  8
00_COMPONENTS_14
100
AcDbSpline
 62
7
  6
CONTINUOUS
 70
0
 71
3
 72
9
 73
5
 74
0
 42
0.0000001
 43
0.0000001
 44
0.0000000001
 40
0.0
 40
0.0
 40
0.0
 40
0.0
 40
0.4822216116
 40
1.0
 40
1.0
 40
1.0
 40
1.0
 10
387.1037692463
 20
61.6453244403
 30
0.0
 10
387.1215037721
 20
61.6493271491
 30
0.0
 10
387.1561810917
 20
61.6700769011
 30
0.0
 10
387.1728827143
 20
61.7065692185
 30
0.0
 10
387.1760289881
 20
61.7258351825
 30
0.0
  0
LINE
  5
378
100
AcDbEntity
  8
00_COMPONENTS_14
100
AcDbLine
 62
7
  6
CONTINUOUS
 10
387.1760289881
 20
61.7258351825
 11
387.2278436302
 21
62.0431893811
  0
SPLINE
  5
379
100
AcDbEntity
  8
00_COMPONENTS_14
100
AcDbSpline
 62
7
  6
CONTINUOUS
 70
0
 71
3
 72
9
 73
5
 74
0
 42
0.0000001
 43
0.0000001
 44
0.0000000001
 40
0.0
 40
0.0
 40
0.0
 40
0.0
 40
0.3688549702
 40
1.0
 40
1.0
 40
1.0
 40
1.0
 10
384.829689099
 20
61.6431926083
 30
0.0
 10
384.8336322851
 20
61.6431926083
 30
0.0
 10
384.8430530606
 20
61.6511660965
 30
0.0
 10
384.8467490551
 20
61.6610012866
 30
0.0
 10
384.8489850573
 20
61.6673671658
 30
0.0
  0
SPLINE
  5
37A
100
AcDbEntity
  8
00_COMPONENTS_14
100
AcDbSpline
 62
7
  6
CONTINUOUS
 70
0
 71
3
 72
9
 73
5
 74
0
 42
0.0000001
 43
0.0000001
 44
0.0000000001
 40
0.0
 40
0.0
 40
0.0
 40
0.0
 40
0.2119702899
 40
1.0
 40
1.0
 40
1.0
 40
1.0
 10
384.8489850573
 20
61.6673671658
 30
0.0
 10
384.8503771869
 20
61.6713305472
 30
0.0
 10
384.8559018255
 20
61.6903901769
 30
0.0
 10
384.858294123
 20
61.710241228
 30
0.0
 10
384.8591410321
 20
61.7258351841
 30
0.0
  0
SPLINE
  5
37B
100
AcDbEntity
  8
00_COMPONENTS_14
100
AcDbSpline
 62
7
  6
CONTINUOUS
 70
0
 71
3
 72
9
 73
5
 74
0
 42
0.0000001
 43
0.0000001
 44
0.0000000001
 40
0.0
 40
0.0
 40
0.0
 40
0.0
 40
0.5052624746
 40
1.0
 40
1.0
 40
1.0
 40
1.0
 10
388.0034458779
 20
61.7258350735
 30
0.0
 10
388.0074839572
 20
61.7029747513
 30
0.0
 10
388.0328558001
 20
61.6591835623
 30
0.0
 10
388.0803745832
 20
61.6431926083
 30
0.0
 10
388.1031052443
 20
61.6431926083
 30
0.0
  0
SPLINE
  5
37C
100
AcDbEntity
  8
00_COMPONENTS_14
100
AcDbSpline
 62
7
  6
CONTINUOUS
 70
0
 71
3
 72
9
 73
5
 74
0
 42
0.0000001
 43
0.0000001
 44
0.0000000001
 40
0.0
 40
0.0
 40
0.0
 40
0.0
 40
0.2542271467
 40
1.0
 40
1.0
 40
1.0
 40
1.0
 10
390.353254564
 20
59.7446170787
 30
0.0
 10
390.391112226
 20
59.7541951277
 30
0.0
 10
390.5392678932
 20
59.7947788726
 30
0.0
 10
390.6842150687
 20
59.8472495427
 30
0.0
 10
390.7891527342
 20
59.8931926083
 30
0.0
  0
SPLINE
  5
37D
100
AcDbEntity
  8
00_COMPONENTS_14
100
AcDbSpline
 62
7
  6
CONTINUOUS
 70
0
 71
3
 72
12
 73
8
 74
0
 42
0.0000001
 43
0.0000001
 44
0.0000000001
 40
0.0
 40
0.0
 40
0.0
 40
0.0
 40
0.3270039792
 40
0.54176599
 40
0.7225688652
 40
0.8713760224
 40
1.0
 40
1.0
 40
1.0
 40
1.0
 10
385.2018683306
 20
61.725835075
 30
0.0
 10
385.202843725
 20
61.7145590091
 30
0.0
 10
385.2060255602
 20
61.6959285366
 30
0.0
 10
385.2148456213
 20
61.6723917705
 30
0.0
 10
385.2250581772
 20
61.6563423155
 30
0.0
 10
385.2373650286
 20
61.6457985577
 30
0.0
 10
385.2470605888
 20
61.6431926083
 30
0.0
 10
385.2515124873
 20
61.6431926083
 30
0.0
  0
SPLINE
  5
37E
100
AcDbEntity
  8
00_COMPONENTS_14
100
AcDbSpline
 62
7
  6
CONTINUOUS
 70
0
 71
3
 72
9
 73
5
 74
0
 42
0.0000001
 43
0.0000001
 44
0.0000000001
 40
0.0
 40
0.0
 40
0.0
 40
0.0
 40
0.4947805499
 40
1.0
 40
1.0
 40
1.0
 40
1.0
 10
390.6956712623
 20
61.6431926083
 30
0.0
 10
390.7184039358
 20
61.6431926083
 30
0.0
 10
390.7659232548
 20
61.6591852932
 30
0.0
 10
390.791292906
 20
61.7029767712
 30
0.0
 10
390.7953306478
 20
61.7258351826
 30
0.0
  0
LINE
  5
37F
100
AcDbEntity
  8
00_COMPONENTS_14
100
AcDbLine
 62
7
  6
CONTINUOUS
 10
390.7953306478
 20
61.7258351826
 11
390.8510882299
 21
62.0431893811
  0
SPLINE
  5
380
100
AcDbEntity
  8
00_COMPONENTS_14
100
AcDbSpline
 62
7
  6
CONTINUOUS
 70
0
 71
3
 72
9
 73
5
 74
0
 42
0.0000001
 43
0.0000001
 44
0.0000000001
 40
0.0
 40
0.0
 40
0.0
 40
0.0
 40
0.2461014618
 40
1.0
 40
1.0
 40
1.0
 40
1.0
 10
388.1543355436
 20
59.8431926083
 30
0.0
 10
388.1881426541
 20
59.8302989545
 30
0.0
 10
388.326551458
 20
59.780655268
 30
0.0
 10
388.4688482579
 20
59.7419833084
 30
0.0
 10
388.5772180251
 20
59.7187135132
 30
0.0
  0
SPLINE
  5
381
100
AcDbEntity
  8
00_COMPONENTS_14
100
AcDbSpline
 62
7
  6
CONTINUOUS
 70
0
 71
3
 72
11
 73
7
 74
0
 42
0.0000001
 43
0.0000001
 44
0.0000000001
 40
0.0
 40
0.0
 40
0.0
 40
0.0
 40
0.1744012102
 40
0.3334981697
 40
0.526315733
 40
1.0
 40
1.0
 40
1.0
 40
1.0
 10
393.5472640193
 20
61.6431926083
 30
0.0
 10
393.5532857486
 20
61.6431926083
 30
0.0
 10
393.5648709834
 20
61.6475778204
 30
0.0
 10
393.5773377747
 20
61.6611268651
 30
0.0
 10
393.590880926
 20
61.6864482142
 30
0.0
 10
393.595498687
 20
61.7095406501
 30
0.0
 10
393.5969081854
 20
61.7258351841
 30
0.0
  0
LINE
  5
382
100
AcDbEntity
  8
00_COMPONENTS_14
100
AcDbLine
 62
7
  6
CONTINUOUS
 10
388.0034458779
 20
61.7258350735
 11
387.9476872065
 21
62.043189204
  0
SPLINE
  5
383
100
AcDbEntity
  8
00_COMPONENTS_14
100
AcDbSpline
 62
7
  6
CONTINUOUS
 70
0
 71
3
 72
9
 73
5
 74
0
 42
0.0000001
 43
0.0000001
 44
0.0000000001
 40
0.0
 40
0.0
 40
0.0
 40
0.0
 40
0.2550951787
 40
1.0
 40
1.0
 40
1.0
 40
1.0
 10
325.7891527342
 20
59.8931926083
 30
0.0
 10
325.7414524195
 20
59.8782162174
 30
0.0
 10
325.5537760837
 20
59.8217282336
 30
0.0
 10
325.3633385409
 20
59.774309314
 30
0.0
 10
325.2203542127
 20
59.7448183722
 30
0.0
  0
SPLINE
  5
384
100
AcDbEntity
  8
00_COMPONENTS_14
100
AcDbSpline
 62
7
  6
CONTINUOUS
 70
0
 71
3
 72
9
 73
5
 74
0
 42
0.0000001
 43
0.0000001
 44
0.0000000001
 40
0.0
 40
0.0
 40
0.0
 40
0.0
 40
0.2818350806
 40
1.0
 40
1.0
 40
1.0
 40
1.0
 10
328.9396354804
 20
61.725835075
 30
0.0
 10
328.9399382787
 20
61.7202597145
 30
0.0
 10
328.9415777182
 20
61.7005365798
 30
0.0
 10
328.9450762455
 20
61.6807941352
 30
0.0
 10
328.9497905943
 20
61.6673699466
 30
0.0
  0
SPLINE
  5
385
100
AcDbEntity
  8
00_COMPONENTS_14
100
AcDbSpline
 62
7
  6
CONTINUOUS
 70
0
 71
3
 72
9
 73
5
 74
0
 42
0.0000001
 43
0.0000001
 44
0.0000000001
 40
0.0
 40
0.0
 40
0.0
 40
0.0
 40
0.6311743839
 40
1.0
 40
1.0
 40
1.0
 40
1.0
 10
328.9497905943
 20
61.6673699466
 30
0.0
 10
328.9520265631
 20
61.6610029874
 30
0.0
 10
328.9557215287
 20
61.651165633
 30
0.0
 10
328.9651441297
 20
61.6431926083
 30
0.0
 10
328.9690874076
 20
61.6431926083
 30
0.0
  0
SPLINE
  5
386
100
AcDbEntity
  8
00_COMPONENTS_14
100
AcDbSpline
 62
7
  6
CONTINUOUS
 70
0
 71
3
 72
9
 73
5
 74
0
 42
0.0000001
 43
0.0000001
 44
0.0000000001
 40
0.0
 40
0.0
 40
0.0
 40
0.0
 40
0.5178173237
 40
1.0
 40
1.0
 40
1.0
 40
1.0
 10
326.6227475362
 20
61.7258350735
 30
0.0
 10
326.6258930726
 20
61.7065736246
 30
0.0
 10
326.642588135
 20
61.6700942893
 30
0.0
 10
326.6772450824
 20
61.6493390845
 30
0.0
 10
326.694971241
 20
61.6453315348
 30
0.0
  0
LINE
  5
387
100
AcDbEntity
  8
00_COMPONENTS_14
100
AcDbLine
 62
7
  6
CONTINUOUS
 10
326.6227475362
 20
61.7258350735
 11
326.570931884
 21
62.043189204
  0
SPLINE
  5
388
100
AcDbEntity
  8
00_COMPONENTS_14
100
AcDbSpline
 62
7
  6
CONTINUOUS
 70
0
 71
3
 72
9
 73
5
 74
0
 42
0.0000001
 43
0.0000001
 44
0.0000000001
 40
0.0
 40
0.0
 40
0.0
 40
0.0
 40
0.4822216116
 40
1.0
 40
1.0
 40
1.0
 40
1.0
 10
322.1037692463
 20
61.6453244403
 30
0.0
 10
322.1215037721
 20
61.6493271491
 30
0.0
 10
322.1561810917
 20
61.6700769011
 30
0.0
 10
322.1728827143
 20
61.7065692185
 30
0.0
 10
322.1760289881
 20
61.7258351825
 30
0.0
  0
LINE
  5
389
100
AcDbEntity
  8
00_COMPONENTS_14
100
AcDbLine
 62
7
  6
CONTINUOUS
 10
322.1760289881
 20
61.7258351825
 11
322.2278436302
 21
62.0431893811
  0
SPLINE
  5
38A
100
AcDbEntity
  8
00_COMPONENTS_14
100
AcDbSpline
 62
7
  6
CONTINUOUS
 70
0
 71
3
 72
9
 73
5
 74
0
 42
0.0000001
 43
0.0000001
 44
0.0000000001
 40
0.0
 40
0.0
 40
0.0
 40
0.0
 40
0.3688549702
 40
1.0
 40
1.0
 40
1.0
 40
1.0
 10
319.829689099
 20
61.6431926083
 30
0.0
 10
319.8336322851
 20
61.6431926083
 30
0.0
 10
319.8430530606
 20
61.6511660965
 30
0.0
 10
319.8467490551
 20
61.6610012866
 30
0.0
 10
319.8489850573
 20
61.6673671658
 30
0.0
  0
SPLINE
  5
38B
100
AcDbEntity
  8
00_COMPONENTS_14
100
AcDbSpline
 62
7
  6
CONTINUOUS
 70
0
 71
3
 72
9
 73
5
 74
0
 42
0.0000001
 43
0.0000001
 44
0.0000000001
 40
0.0
 40
0.0
 40
0.0
 40
0.0
 40
0.2119702899
 40
1.0
 40
1.0
 40
1.0
 40
1.0
 10
319.8489850573
 20
61.6673671658
 30
0.0
 10
319.8503771869
 20
61.6713305472
 30
0.0
 10
319.8559018255
 20
61.6903901769
 30
0.0
 10
319.858294123
 20
61.710241228
 30
0.0
 10
319.8591410321
 20
61.7258351841
 30
0.0
  0
SPLINE
  5
38C
100
AcDbEntity
  8
00_COMPONENTS_14
100
AcDbSpline
 62
7
  6
CONTINUOUS
 70
0
 71
3
 72
9
 73
5
 74
0
 42
0.0000001
 43
0.0000001
 44
0.0000000001
 40
0.0
 40
0.0
 40
0.0
 40
0.0
 40
0.5052624746
 40
1.0
 40
1.0
 40
1.0
 40
1.0
 10
323.0034458779
 20
61.7258350735
 30
0.0
 10
323.0074839572
 20
61.7029747513
 30
0.0
 10
323.0328558001
 20
61.6591835623
 30
0.0
 10
323.0803745832
 20
61.6431926083
 30
0.0
 10
323.1031052443
 20
61.6431926083
 30
0.0
  0
SPLINE
  5
38D
100
AcDbEntity
  8
00_COMPONENTS_14
100
AcDbSpline
 62
7
  6
CONTINUOUS
 70
0
 71
3
 72
9
 73
5
 74
0
 42
0.0000001
 43
0.0000001
 44
0.0000000001
 40
0.0
 40
0.0
 40
0.0
 40
0.0
 40
0.2542271467
 40
1.0
 40
1.0
 40
1.0
 40
1.0
 10
325.353254564
 20
59.7446170787
 30
0.0
 10
325.391112226
 20
59.7541951277
 30
0.0
 10
325.5392678932
 20
59.7947788726
 30
0.0
 10
325.6842150687
 20
59.8472495427
 30
0.0
 10
325.7891527342
 20
59.8931926083
 30
0.0
  0
SPLINE
  5
38E
100
AcDbEntity
  8
00_COMPONENTS_14
100
AcDbSpline
 62
7
  6
CONTINUOUS
 70
0
 71
3
 72
12
 73
8
 74
0
 42
0.0000001
 43
0.0000001
 44
0.0000000001
 40
0.0
 40
0.0
 40
0.0
 40
0.0
 40
0.3270039792
 40
0.54176599
 40
0.7225688652
 40
0.8713760224
 40
1.0
 40
1.0
 40
1.0
 40
1.0
 10
320.2018683306
 20
61.725835075
 30
0.0
 10
320.202843725
 20
61.7145590091
 30
0.0
 10
320.2060255602
 20
61.6959285366
 30
0.0
 10
320.2148456213
 20
61.6723917705
 30
0.0
 10
320.2250581772
 20
61.6563423155
 30
0.0
 10
320.2373650286
 20
61.6457985577
 30
0.0
 10
320.2470605888
 20
61.6431926083
 30
0.0
 10
320.2515124873
 20
61.6431926083
 30
0.0
  0
SPLINE
  5
38F
100
AcDbEntity
  8
00_COMPONENTS_14
100
AcDbSpline
 62
7
  6
CONTINUOUS
 70
0
 71
3
 72
9
 73
5
 74
0
 42
0.0000001
 43
0.0000001
 44
0.0000000001
 40
0.0
 40
0.0
 40
0.0
 40
0.0
 40
0.4947805499
 40
1.0
 40
1.0
 40
1.0
 40
1.0
 10
325.6956712623
 20
61.6431926083
 30
0.0
 10
325.7184039358
 20
61.6431926083
 30
0.0
 10
325.7659232548
 20
61.6591852932
 30
0.0
 10
325.791292906
 20
61.7029767712
 30
0.0
 10
325.7953306478
 20
61.7258351826
 30
0.0
  0
LINE
  5
390
100
AcDbEntity
  8
00_COMPONENTS_14
100
AcDbLine
 62
7
  6
CONTINUOUS
 10
325.7953306478
 20
61.7258351826
 11
325.8510882299
 21
62.0431893811
  0
SPLINE
  5
391
100
AcDbEntity
  8
00_COMPONENTS_14
100
AcDbSpline
 62
7
  6
CONTINUOUS
 70
0
 71
3
 72
9
 73
5
 74
0
 42
0.0000001
 43
0.0000001
 44
0.0000000001
 40
0.0
 40
0.0
 40
0.0
 40
0.0
 40
0.2461014618
 40
1.0
 40
1.0
 40
1.0
 40
1.0
 10
323.1543355436
 20
59.8431926083
 30
0.0
 10
323.1881426541
 20
59.8302989545
 30
0.0
 10
323.326551458
 20
59.780655268
 30
0.0
 10
323.4688482579
 20
59.7419833084
 30
0.0
 10
323.5772180251
 20
59.7187135132
 30
0.0
  0
SPLINE
  5
392
100
AcDbEntity
  8
00_COMPONENTS_14
100
AcDbSpline
 62
7
  6
CONTINUOUS
 70
0
 71
3
 72
11
 73
7
 74
0
 42
0.0000001
 43
0.0000001
 44
0.0000000001
 40
0.0
 40
0.0
 40
0.0
 40
0.0
 40
0.1744012102
 40
0.3334981697
 40
0.526315733
 40
1.0
 40
1.0
 40
1.0
 40
1.0
 10
328.5472640193
 20
61.6431926083
 30
0.0
 10
328.5532857486
 20
61.6431926083
 30
0.0
 10
328.5648709834
 20
61.6475778204
 30
0.0
 10
328.5773377747
 20
61.6611268651
 30
0.0
 10
328.590880926
 20
61.6864482142
 30
0.0
 10
328.595498687
 20
61.7095406501
 30
0.0
 10
328.5969081854
 20
61.7258351841
 30
0.0
  0
LINE
  5
393
100
AcDbEntity
  8
00_COMPONENTS_14
100
AcDbLine
 62
7
  6
CONTINUOUS
 10
323.0034458779
 20
61.7258350735
 11
322.9476872065
 21
62.043189204
  0
SPLINE
  5
394
100
AcDbEntity
  8
PART_1
100
AcDbSpline
 62
7
  6
CONTINUOUS
 70
0
 71
3
 72
8
 73
4
 74
0
 42
0.0000001
 43
0.0000001
 44
0.0000000001
 40
0.0
 40
0.0
 40
0.0
 40
0.0
 40
1.0
 40
1.0
 40
1.0
 40
1.0
 10
135.5893490742
 20
64.2431926083
 30
0.0
 10
135.3958143138
 20
64.2991962697
 30
0.0
 10
135.2022642939
 20
64.3551705317
 30
0.0
 10
135.0092846324
 20
64.4130580415
 30
0.0
  0
SPLINE
  5
395
100
AcDbEntity
  8
PART_1
100
AcDbSpline
 62
7
  6
CONTINUOUS
 70
0
 71
3
 72
9
 73
5
 74
0
 42
0.0000001
 43
0.0000001
 44
0.0000000001
 40
0.0
 40
0.0
 40
0.0
 40
0.0
 40
0.27403198
 40
1.0
 40
1.0
 40
1.0
 40
1.0
 10
135.0092846324
 20
64.4130580415
 30
0.0
 10
134.9191603365
 20
64.4400923466
 30
0.0
 10
134.5908954932
 20
64.5405142104
 30
0.0
 10
134.2644163998
 20
64.6487931916
 30
0.0
 10
134.0337141283
 20
64.7431926195
 30
0.0
  0
SPLINE
  5
396
100
AcDbEntity
  8
PART_1
100
AcDbSpline
 62
7
  6
CONTINUOUS
 70
0
 71
3
 72
9
 73
5
 74
0
 42
0.0000001
 43
0.0000001
 44
0.0000000001
 40
0.0
 40
0.0
 40
0.0
 40
0.0
 40
0.6415056738
 40
1.0
 40
1.0
 40
1.0
 40
1.0
 10
134.0337141283
 20
64.7431926195
 30
0.0
 10
133.8675977302
 20
64.8111646114
 30
0.0
 10
133.6198107513
 20
64.9101161774
 30
0.0
 10
133.3893490742
 20
65.1428905518
 30
0.0
 10
133.3893490742
 20
65.2431926083
 30
0.0
  0
SPLINE
  5
397
100
AcDbEntity
  8
PART_1
100
AcDbSpline
 62
7
  6
CONTINUOUS
 70
0
 71
3
 72
9
 73
5
 74
0
 42
0.0000001
 43
0.0000001
 44
0.0000000001
 40
0.0
 40
0.0
 40
0.0
 40
0.0
 40
0.2353834571
 40
1.0
 40
1.0
 40
1.0
 40
1.0
 10
133.3893490742
 20
82.3431926083
 30
0.0
 10
133.3893490742
 20
82.4658084076
 30
0.0
 10
133.3388058042
 20
82.9879070718
 30
0.0
 10
133.0988016993
 20
83.4710744
 30
0.0
 10
132.8893487619
 20
83.809859275
 30
0.0
  0
SPLINE
  5
398
100
AcDbEntity
  8
PART_1
100
AcDbSpline
 62
7
  6
CONTINUOUS
 70
0
 71
3
 72
8
 73
4
 74
0
 42
0.0000001
 43
0.0000001
 44
0.0000000001
 40
0.0
 40
0.0
 40
0.0
 40
0.0
 40
1.0
 40
1.0
 40
1.0
 40
1.0
 10
132.8893487619
 20
83.809859275
 30
0.0
 10
132.7337691115
 20
84.0615054589
 30
0.0
 10
132.5612661146
 20
84.3024118767
 30
0.0
 10
132.3893490742
 20
84.5431926083
 30
0.0
  0
SPLINE
  5
399
100
AcDbEntity
  8
PART_1
100
AcDbSpline
 62
7
  6
CONTINUOUS
 70
0
 71
3
 72
9
 73
5
 74
0
 42
0.0000001
 43
0.0000001
 44
0.0000000001
 40
0.0
 40
0.0
 40
0.0
 40
0.0
 40
0.2628758126
 40
1.0
 40
1.0
 40
1.0
 40
1.0
 10
132.3893490742
 20
641.5431926083
 30
0.0
 10
132.4761771952
 20
641.6648009054
 30
0.0
 10
132.805249771
 20
642.1265871144
 30
0.0
 10
133.114706691
 20
642.615179767
 30
0.0
 10
133.2553746582
 20
643.0098592751
 30
0.0
  0
ELLIPSE
  5
39A
100
AcDbEntity
  8
0
100
AcDbEllipse
 62
7
  6
CONTINUOUS
 10
99.4592967714
 20
160.5431926083
 30
0.0
 11
11.4300523028
 21
0.0
 31
0.0
 40
0.0874886635
 41
-0.5903597731
 42
0.0000000417
  0
ELLIPSE
  5
39B
100
AcDbEntity
  8
0
100
AcDbEllipse
 62
7
  6
CONTINUOUS
 10
99.4592967714
 20
198.5431926083
 30
0.0
 11
11.4300523028
 21
-0.0
 31
0.0
 40
0.0874886635
 41
0.0000007686
 42
0.5903597731
  0
ELLIPSE
  5
39C
100
AcDbEntity
  8
0
100
AcDbEllipse
 62
7
  6
CONTINUOUS
 10
99.4592967714
 20
527.5431926083
 30
0.0
 11
11.4300523028
 21
0.0
 31
0.0
 40
0.0874886635
 41
-0.5903597731
 42
0.0000000417
  0
ELLIPSE
  5
39D
100
AcDbEntity
  8
0
100
AcDbEllipse
 62
7
  6
CONTINUOUS
 10
99.4592967714
 20
565.5431926083
 30
0.0
 11
11.4300523028
 21
-0.0
 31
0.0
 40
0.0874886635
 41
0.0000007686
 42
0.5903597731
  0
ENDSEC
  0
SECTION
  2
OBJECTS
  0
DICTIONARY
  5
C
100
AcDbDictionary
280
0
281
1
  3
ACAD_GROUP
350
D
  3
ACAD_MLINESTYLE
350
17
  3
ACAD_LAYOUT
350
1A
  3
ACAD_PLOTSETTINGS
350
19
  3
ACAD_PLOTSTYLENAME
350
E
  0
DICTIONARY
  5
D
102
{ACAD_REACTORS
330
C
102
}
100
AcDbDictionary
280
0
281
1
  0
ACDBDICTIONARYWDFLT
  5
E
102
{ACAD_REACTORS
330
C
102
}
100
AcDbDictionary
281
1
  3
Normal
350
F
100
AcDbDictionaryWithDefault
340
F
  0
DICTIONARY
  5
17
102
{ACAD_REACTORS
330
C
102
}
100
AcDbDictionary
280
0
281
1
  3
Standard
350
18
  0
DICTIONARY
  5
19
102
{ACAD_REACTORS
330
C
102
}
100
AcDbDictionary
281
1
  0
DICTIONARY
  5
1A
102
{ACAD_REACTORS
330
C
102
}
100
AcDbDictionary
281
1
  3
Model
350
39E
  3
Layout1
350
39F
  0
ACDBPLACEHOLDER
  5
F
102
{ACAD_REACTORS
330
E
102
}
  0
MLINESTYLE
  5
18
102
{ACAD_REACTORS
330
17
102
}
100
AcDbMlineStyle
  2
STANDARD
 70
0
  3

 62
256
 51
90.0
 52
90.0
 71
2
 49
0.5
 62
256
  6
BYLAYER
 49
-0.5
 62
256
  6
BYLAYER
  0
LAYOUT
  5
39E
102
{ACAD_REACTORS
330
1A
102
}
100
AcDbPlotSettings
  1

  2
none_device
  4

  6

 40
0.0
 41
0.0
 42
0.0
 43
0.0
 44
210.0
 45
297.0
 46
0.0
 47
0.0
 48
0.0
 49
0.0
140
0.0
141
0.0
142
1.0
143
1.0
 70
1024
 72
1
 73
0
 74
0
  7

 75
0
147
1.0
148
0.0
149
0.0
100
AcDbLayout
  1
Model
 70
0
 71
0
 10
0.0
 20
0.0
 11
210.0
 21
297.0
 12
0.0
 22
0.0
 32
0.0
 14
0.0
 24
0.0
 34
0.0
 15
0.0
 25
0.0
 35
0.0
146
0.0
 13
0.0
 23
0.0
 33
0.0
 16
1.0
 26
0.0
 36
0.0
 17
0.0
 27
1.0
 37
0.0
 76
0
330
213
345
0
346
0
  0
LAYOUT
  5
39F
102
{ACAD_REACTORS
330
1A
102
}
100
AcDbPlotSettings
  1

  2
none_device
  4

  6

 40
0.0
 41
0.0
 42
0.0
 43
0.0
 44
210.0
 45
297.0
 46
0.0
 47
0.0
 48
0.0
 49
0.0
140
0.0
141
0.0
142
1.0
143
1.0
 70
0
 72
1
 73
0
 74
0
  7

 75
0
147
1.0
148
0.0
149
0.0
100
AcDbLayout
  1
Layout1
 70
0
 71
1
 10
0.0
 20
0.0
 11
210.0
 21
297.0
 12
0.0
 22
0.0
 32
0.0
 14
0.0
 24
0.0
 34
0.0
 15
0.0
 25
0.0
 35
0.0
146
0.0
 13
0.0
 23
0.0
 33
0.0
 16
1.0
 26
0.0
 36
0.0
 17
0.0
 27
1.0
 37
0.0
 76
0
330
214
345
0
346
0
  0
ENDSEC
  0
EOF
