999
DXF file: C:\Users\sesa63760\Dev\_Creo\CAD\MCADID0004140_3D-CAD\drw0001_4.dxf
999
Pro/ENGINEER 2019471 by Parametric Technology Corporation
  0
SECTION
  2
HEADER
  9
$ACADVER
  1
AC1024
  9
$DWGCODEPAGE
  3
ANSI_1252
  9
$EXTMAX
 10
62.3349880614
 20
88.1594831154
 30
0.0
  9
$EXTMIN
 10
0.0
 20
0.0
 30
0.0
  9
$LIMMIN
 10
0.0
 20
0.0
  9
$LIMMAX
 10
62.3349880614
 20
88.1594831154
  9
$VIEWCTR
 10
31.1674940307
 20
44.0797415577
  9
$VIEWSIZE
 40
88.1594831154
  9
$CLAYER
  8
0
  9
$LTSCALE
 40
5.7466922327
  9
$CELTYPE
  6
BYLAYER
  9
$DIMSCALE
 40
1.0
  9
$DIMASZ
 40
0.7420831912
  9
$DIMEXO
 40
1.0
  9
$DIMDLI
 40
3.9704419062
  9
$DIMEXE
 40
1.0
  9
$DIMCEN
 40
0.9403678199
  9
$DIMLFAC
 40
1.0
  9
$DIMBLK
  1
_FILLED
  9
$DIMALT
 70
0
  9
$DIMALTF
 40
0.0393700787
  9
$DIMTXT
 40
1.0389164677
  9
$DIMTOL
 70
1
  9
$DIMLIM
 70
0
  9
$DIMTFAC
 40
1.0
  9
$DIMTP
 40
0.01
  9
$DIMTM
 40
0.01
  9
$DIMGAP
 40
0.625
  9
$DIMDSEP
 70
46
  9
$AUNITS
 70
0
  9
$PDMODE
 70
3
  9
$PDSIZE
 40
0.3125
  9
$HANDSEED
  5
309
  9
$TILEMODE
 70
1
  9
$MEASUREMENT
 70
1
  9
$INSUNITS
 70
4
  0
ENDSEC
  0
SECTION
  2
CLASSES
  0
CLASS
  1
ACDBDICTIONARYWDFLT
  2
AcDbDictionaryWithDefault
  3
AutoCAD 2000
 90
0
 91
1
280
0
281
0
  0
CLASS
  1
ACDBPLACEHOLDER
  2
AcDbPlaceHolder
  3
AutoCAD 2000
 90
0
 91
1
280
0
281
0
  0
CLASS
  1
LAYOUT
  2
AcDbLayout
  3
AutoCAD 2000
 90
0
 91
0
280
0
281
0
  0
ENDSEC
  0
SECTION
  2
TABLES
  0
TABLE
  2
VPORT
  5
8
100
AcDbSymbolTable
 70
2
  0
VPORT
  5
1F4
100
AcDbSymbolTableRecord
100
AcDbViewportTableRecord
  2
*ACTIVE
 70
0
 10
0.0
 20
0.0
 11
1.0
 21
1.0
 12
31.1674940307
 22
44.0797415577
 13
0.0
 23
0.0
 14
1.0
 24
1.0
 15
0.0
 25
0.0
 16
0.0
 26
0.0
 36
1.0
 17
0.0
 27
0.0
 37
0.0
 40
88.1594831154
 41
0.7070707071
 42
50.0
 43
0.0
 44
0.0
 50
0.0
 51
0.0
 71
0
 72
100
 73
1
 74
1
 75
0
 76
0
 77
0
 78
0
  0
ENDTAB
  0
TABLE
  2
LTYPE
  5
5
100
AcDbSymbolTable
 70
6
  0
LTYPE
  5
14
100
AcDbSymbolTableRecord
100
AcDbLinetypeTableRecord
  2
BYBLOCK
 70
0
  3

 72
65
 73
0
 40
0.0
  0
LTYPE
  5
15
100
AcDbSymbolTableRecord
100
AcDbLinetypeTableRecord
  2
BYLAYER
 70
0
  3

 72
65
 73
0
 40
0.0
  0
LTYPE
  5
16
100
AcDbSymbolTableRecord
100
AcDbLinetypeTableRecord
  2
CONTINUOUS
 70
64
  3
Solid line
 72
65
 73
0
 40
0.0
  0
LTYPE
  5
1F5
100
AcDbSymbolTableRecord
100
AcDbLinetypeTableRecord
  2
CENTER
 70
64
  3
____ _ ____ _ ____ _ ____ _ ____ _ ____ _ ____
 72
65
 73
4
 40
0.6
 49
0.375
 74
0
 49
-0.075
 74
0
 49
0.075
 74
0
 49
-0.075
 74
0
  0
LTYPE
  5
1F6
100
AcDbSymbolTableRecord
100
AcDbLinetypeTableRecord
  2
HIDDEN
 70
64
  3
- - - - - - - - - - - - - - - - - - - -
 72
65
 73
2
 40
0.2
 49
0.1
 74
0
 49
-0.1
 74
0
  0
LTYPE
  5
1F7
100
AcDbSymbolTableRecord
100
AcDbLinetypeTableRecord
  2
PHANTOM
 70
64
  3
_____ _ _ _____ _ _ _____ _ _ _____
 72
65
 73
6
 40
0.8
 49
0.45
 74
0
 49
-0.05
 74
0
 49
0.1
 74
0
 49
-0.05
 74
0
 49
0.1
 74
0
 49
-0.05
 74
0
  0
LTYPE
  5
1F8
100
AcDbSymbolTableRecord
100
AcDbLinetypeTableRecord
  2
DOT
 70
64
  3
. . . . . . . . . . . . . . . . . . . .
 72
65
 73
2
 40
0.2
 49
0.1
 74
0
 49
-0.1
 74
0
  0
LTYPE
  5
1F9
100
AcDbSymbolTableRecord
100
AcDbLinetypeTableRecord
  2
DASHED
 70
64
  3
- - - - - - - - - - - - - - - - - - - -
 72
65
 73
2
 40
0.2
 49
0.1
 74
0
 49
-0.1
 74
0
  0
ENDTAB
  0
TABLE
  2
LAYER
  5
2
100
AcDbSymbolTable
 70
36
  0
LAYER
  5
10
100
AcDbSymbolTableRecord
100
AcDbLayerTableRecord
  2
0
 70
0
 62
7
  6
CONTINUOUS
370
-3
390
F
  0
LAYER
  5
1FA
100
AcDbSymbolTableRecord
100
AcDbLayerTableRecord
  2
DEFAULT_1
 70
0
 62
7
  6
CENTER
370
-3
390
F
  0
LAYER
  5
1FB
100
AcDbSymbolTableRecord
100
AcDbLayerTableRecord
  2
DEFAULT_2
 70
0
 62
7
  6
HIDDEN
370
-3
390
F
  0
LAYER
  5
1FC
100
AcDbSymbolTableRecord
100
AcDbLayerTableRecord
  2
DEFAULT_3
 70
0
 62
7
  6
PHANTOM
370
-3
390
F
  0
LAYER
  5
1FD
100
AcDbSymbolTableRecord
100
AcDbLayerTableRecord
  2
00_COMPONENTS
 70
0
 62
7
  6
CONTINUOUS
370
-3
390
F
  0
LAYER
  5
1FE
100
AcDbSymbolTableRecord
100
AcDbLayerTableRecord
  2
01_1_DEFAULT_DATUMS
 70
0
 62
7
  6
CONTINUOUS
370
-3
390
F
  0
LAYER
  5
1FF
100
AcDbSymbolTableRecord
100
AcDbLayerTableRecord
  2
01_PLANES
 70
0
 62
7
  6
CONTINUOUS
370
-3
390
F
  0
LAYER
  5
200
100
AcDbSymbolTableRecord
100
AcDbLayerTableRecord
  2
02_COORD_SYS
 70
0
 62
7
  6
CONTINUOUS
370
-3
390
F
  0
LAYER
  5
201
100
AcDbSymbolTableRecord
100
AcDbLayerTableRecord
  2
03_AXES
 70
0
 62
7
  6
CONTINUOUS
370
-3
390
F
  0
LAYER
  5
202
100
AcDbSymbolTableRecord
100
AcDbLayerTableRecord
  2
04_POINTS
 70
0
 62
7
  6
CONTINUOUS
370
-3
390
F
  0
LAYER
  5
203
100
AcDbSymbolTableRecord
100
AcDbLayerTableRecord
  2
05_CURVES
 70
0
 62
7
  6
CONTINUOUS
370
-3
390
F
  0
LAYER
  5
204
100
AcDbSymbolTableRecord
100
AcDbLayerTableRecord
  2
06_SURFS
 70
0
 62
7
  6
CONTINUOUS
370
-3
390
F
  0
LAYER
  5
205
100
AcDbSymbolTableRecord
100
AcDbLayerTableRecord
  2
07_COSMETICS
 70
0
 62
7
  6
CONTINUOUS
370
-3
390
F
  0
LAYER
  5
206
100
AcDbSymbolTableRecord
100
AcDbLayerTableRecord
  2
10_NOTES
 70
0
 62
7
  6
CONTINUOUS
370
-3
390
F
  0
LAYER
  5
207
100
AcDbSymbolTableRecord
100
AcDbLayerTableRecord
  2
11_NOTES_PUB
 70
0
 62
7
  6
CONTINUOUS
370
-3
390
F
  0
LAYER
  5
208
100
AcDbSymbolTableRecord
100
AcDbLayerTableRecord
  2
13_REF_GTOL
 70
0
 62
7
  6
CONTINUOUS
370
-3
390
F
  0
LAYER
  5
209
100
AcDbSymbolTableRecord
100
AcDbLayerTableRecord
  2
16_MISC
 70
0
 62
7
  6
CONTINUOUS
370
-3
390
F
  0
LAYER
  5
20A
100
AcDbSymbolTableRecord
100
AcDbLayerTableRecord
  2
17_NO_PRINT
 70
0
 62
7
  6
CONTINUOUS
370
-3
390
F
  0
LAYER
  5
20B
100
AcDbSymbolTableRecord
100
AcDbLayerTableRecord
  2
18_DATUM_CAMS_JOINTS
 70
0
 62
7
  6
CONTINUOUS
370
-3
390
F
  0
LAYER
  5
20C
100
AcDbSymbolTableRecord
100
AcDbLayerTableRecord
  2
19_DATUM_FUNCTIONAL
 70
0
 62
7
  6
CONTINUOUS
370
-3
390
F
  0
LAYER
  5
20D
100
AcDbSymbolTableRecord
100
AcDbLayerTableRecord
  2
20_DATUM_KINEMATIC_SCHEME
 70
0
 62
7
  6
CONTINUOUS
370
-3
390
F
  0
ENDTAB
  0
TABLE
  2
STYLE
  5
3
100
AcDbSymbolTable
 70
1
  0
STYLE
  5
11
100
AcDbSymbolTableRecord
100
AcDbTextStyleTableRecord
  2
STANDARD
 70
0
 40
0.0
 41
1.0
 50
0.0
 71
0
 42
0.2
  3
ARIAL.TTF
  4

  0
STYLE
  5
20E
100
AcDbSymbolTableRecord
100
AcDbTextStyleTableRecord
  2
TEXTSTYLE_1
 70
0
 40
0.0
 41
0.8
 50
0.0
 71
0
 42
0.2
  3
gdt
  4

  0
ENDTAB
  0
TABLE
  2
VIEW
  5
6
100
AcDbSymbolTable
 70
0
  0
ENDTAB
  0
TABLE
  2
UCS
  5
7
100
AcDbSymbolTable
 70
0
  0
ENDTAB
  0
TABLE
  2
APPID
  5
9
100
AcDbSymbolTable
 70
1
  0
APPID
  5
20F
100
AcDbSymbolTableRecord
100
AcDbRegAppTableRecord
  2
ACAD
 70
0
  0
ENDTAB
  0
TABLE
  2
BLOCK_RECORD
  5
1
100
AcDbSymbolTable
 70
0
  0
BLOCK_RECORD
  5
210
100
AcDbSymbolTableRecord
100
AcDbBlockTableRecord
  2
*Model_Space
  0
BLOCK_RECORD
  5
211
100
AcDbSymbolTableRecord
100
AcDbBlockTableRecord
  2
*Paper_Space
  0
BLOCK_RECORD
  5
212
100
AcDbSymbolTableRecord
100
AcDbBlockTableRecord
  2
_FILLED
  0
ENDTAB
  0
TABLE
  2
DIMSTYLE
  5
A
100
AcDbSymbolTable
 70
1
100
AcDbDimStyleTable
 71
0
  0
DIMSTYLE
105
213
100
AcDbSymbolTableRecord
100
AcDbDimStyleTableRecord
  2
STANDARD
 70
0
  3

  4

 40
1.0
 41
0.7420831912
 42
1.0
 43
0.38
 44
1.0
 45
0.0
 46
0.0
 47
0.01
 48
0.01
140
1.0389164677
141
0.09
142
0.0
143
25.4
144
1.0
145
0.0
146
1.0
147
0.625
 71
1
 72
0
 73
0
 74
0
 75
0
 76
0
 77
1
 78
8
 79
2
170
0
171
1
172
0
173
0
174
0
175
0
176
0
177
0
178
0
270
2
179
2
271
2
272
2
273
2
274
2
275
0
280
0
281
0
282
0
283
1
284
8
285
0
286
0
287
3
288
0
340
11
278
46
341
212
342
212
343
212
344
212
  0
ENDTAB
  0
ENDSEC
  0
SECTION
  2
BLOCKS
  0
BLOCK
  5
20
100
AcDbEntity
  8
0
100
AcDbBlockBegin
  2
*Model_Space
 70
0
 10
0.0
 20
0.0
 30
0.0
  3
*Model_Space
  1

  0
ENDBLK
  5
21
100
AcDbEntity
  8
0
100
AcDbBlockEnd
  0
BLOCK
  5
1C
100
AcDbEntity
  8
0
100
AcDbBlockBegin
  2
*Paper_Space
 70
0
 10
0.0
 20
0.0
 30
0.0
  3
*Paper_Space
  1

  0
ENDBLK
  5
1D
100
AcDbEntity
  8
0
100
AcDbBlockEnd
  0
BLOCK
  5
214
100
AcDbEntity
  8
0
100
AcDbBlockBegin
  2
_FILLED
 70
64
 10
0.0
 20
0.0
  3
_FILLED
  1

  0
SOLID
  5
215
100
AcDbEntity
  8
0
  6
BYBLOCK
 62
0
100
AcDbTrace
 10
0.0
 20
0.0
 11
-1.0
 21
0.25
 12
-1.0
 22
-0.25
 13
-1.0
 23
-0.25
  0
ENDBLK
  5
216
100
AcDbEntity
  8
0
  6
BYBLOCK
 62
0
100
AcDbBlockEnd
  0
ENDSEC
  0
SECTION
  2
ENTITIES
  0
LINE
  5
217
100
AcDbEntity
  8
0
100
AcDbLine
 62
7
  6
BYLAYER
 10
9.8379890537
 20
15.4378430107
 11
9.137037069
 21
16.1436015528
  0
LWPOLYLINE
  5
218
100
AcDbEntity
  8
0
100
AcDbPolyline
 62
7
  6
BYLAYER
 90
3
 70
0
 10
21.3789822629
 20
75.3051888244
 10
21.3355975503
 20
75.2894391178
 10
21.2903759131
 20
75.2841896023
  0
LINE
  5
219
100
AcDbEntity
  8
0
100
AcDbLine
 62
7
  6
BYLAYER
 10
19.9498504989
 20
11.3357617925
 11
10.324223639
 21
11.3357617925
  0
LINE
  5
21A
100
AcDbEntity
  8
0
100
AcDbLine
 62
7
  6
BYLAYER
 10
10.1476942978
 20
11.4477436299
 11
9.987037069
 21
11.7888208075
  0
LINE
  5
21B
100
AcDbEntity
  8
0
100
AcDbLine
 62
7
  6
BYLAYER
 10
24.8010985606
 20
75.5427683791
 11
24.6596769107
 21
75.484189589
  0
LINE
  5
21C
100
AcDbEntity
  8
0
100
AcDbLine
 62
7
  6
BYLAYER
 10
10.1476942978
 20
11.4477436299
 11
20.1263798401
 21
11.4477436299
  0
LINE
  5
21D
100
AcDbEntity
  8
0
100
AcDbLine
 62
7
  6
BYLAYER
 10
9.9870370689
 20
11.7888208077
 11
20.2870370691
 21
11.7888208078
  0
LINE
  5
21E
100
AcDbEntity
  8
0
100
AcDbLine
 62
7
  6
BYLAYER
 10
20.3811881631
 20
13.5340925197
 11
9.8928859748
 21
13.5340925197
  0
LINE
  5
21F
100
AcDbEntity
  8
0
100
AcDbLine
 62
7
  6
BYLAYER
 10
9.737037069
 20
13.6899414255
 11
20.537037069
 21
13.6899414255
  0
LINE
  5
220
100
AcDbEntity
  8
0
100
AcDbLine
 62
7
  6
BYLAYER
 10
25.4839411405
 20
76.2256109589
 11
24.8010984279
 21
75.5427682462
  0
LINE
  5
221
100
AcDbEntity
  8
0
100
AcDbLine
 62
7
  6
BYLAYER
 10
25.6253624653
 20
76.1359534411
 11
24.9425197427
 21
75.4531107185
  0
LINE
  5
222
100
AcDbEntity
  8
0
100
AcDbLine
 62
7
  6
BYLAYER
 10
9.737037069
 20
14.2335109239
 11
20.537037069
 21
14.2335109239
  0
LINE
  5
223
100
AcDbEntity
  8
0
100
AcDbLine
 62
7
  6
BYLAYER
 10
9.8379890535
 20
14.3336424747
 11
20.4360850845
 21
14.3336424747
  0
LINE
  5
224
100
AcDbEntity
  8
0
100
AcDbLine
 62
7
  6
BYLAYER
 10
9.8379890537
 20
15.4378430107
 11
20.4360850843
 21
15.4378430107
  0
LINE
  5
225
100
AcDbEntity
  8
0
100
AcDbLine
 62
7
  6
BYLAYER
 10
9.137037069
 20
16.1436015528
 11
21.1370370689
 21
16.1436015528
  0
LINE
  5
226
100
AcDbEntity
  8
0
100
AcDbLine
 62
7
  6
BYLAYER
 10
20.4360850845
 20
14.3336424747
 11
20.537037069
 21
14.2335109239
  0
LINE
  5
227
100
AcDbEntity
  8
0
100
AcDbLine
 62
7
  6
BYLAYER
 10
6.9425197834
 20
43.0844285162
 11
6.9425197834
 21
72.2844285162
  0
LWPOLYLINE
  5
228
100
AcDbEntity
  8
0
100
AcDbPolyline
 62
7
  6
BYLAYER
 90
3
 70
0
 10
21.4822394873
 20
75.4324255378
 10
21.4109387464
 20
75.3256472832
 10
21.2890543858
 20
75.2841896025
  0
LINE
  5
229
100
AcDbEntity
  8
0
100
AcDbLine
 62
7
  6
BYLAYER
 10
7.7425197842
 20
43.0844285162
 11
7.7425197842
 21
72.2844285162
  0
LINE
  5
22A
100
AcDbEntity
  8
0
100
AcDbLine
 62
7
  6
BYLAYER
 10
8.637037069
 20
25.3354285162
 11
8.637037069
 21
22.3354285162
  0
LINE
  5
22B
100
AcDbEntity
  8
0
100
AcDbLine
 62
7
  6
BYLAYER
 10
8.7424395246
 20
75.0841896025
 11
8.7424395246
 21
40.1670323155
  0
LINE
  5
22C
100
AcDbEntity
  8
0
100
AcDbLine
 62
7
  6
BYLAYER
 10
8.9424395246
 20
75.2841896025
 11
8.9424395239
 21
40.1670323155
  0
LINE
  5
22D
100
AcDbEntity
  8
0
100
AcDbLine
 62
7
  6
BYLAYER
 10
9.137037069
 20
21.8611497065
 11
9.137037069
 21
16.1436015529
  0
LINE
  5
22E
100
AcDbEntity
  8
0
100
AcDbLine
 62
7
  6
BYLAYER
 10
9.737037069
 20
14.2335109239
 11
9.737037069
 21
13.6899414257
  0
LINE
  5
22F
100
AcDbEntity
  8
0
100
AcDbLine
 62
7
  6
BYLAYER
 10
9.8379890537
 20
15.4378430107
 11
9.8379890537
 21
14.3336424749
  0
LINE
  5
230
100
AcDbEntity
  8
0
100
AcDbLine
 62
7
  6
BYLAYER
 10
9.987037069
 20
13.5340925197
 11
9.987037069
 21
11.7888208078
  0
LINE
  5
231
100
AcDbEntity
  8
0
100
AcDbLine
 62
7
  6
BYLAYER
 10
10.392519784
 20
71.2841896034
 11
10.392519784
 21
69.2841896025
  0
LINE
  5
232
100
AcDbEntity
  8
0
100
AcDbLine
 62
7
  6
BYLAYER
 10
9.8738528066
 20
38.669960729
 11
8.6370368722
 21
25.3354263941
  0
LINE
  5
233
100
AcDbEntity
  8
0
100
AcDbLine
 62
7
  6
BYLAYER
 10
9.137037069
 20
21.8611497065
 11
21.137037069
 21
21.8611497065
  0
LINE
  5
234
100
AcDbEntity
  8
0
100
AcDbLine
 62
7
  6
BYLAYER
 10
10.592519784
 20
71.2841896025
 11
10.592519784
 21
69.2841896034
  0
LINE
  5
235
100
AcDbEntity
  8
0
100
AcDbLine
 62
7
  6
BYLAYER
 10
21.637037069
 20
22.3354285162
 11
8.637037069
 21
22.3354285162
  0
LINE
  5
236
100
AcDbEntity
  8
0
100
AcDbLine
 62
7
  6
BYLAYER
 10
9.8738505049
 20
38.6699359104
 11
21.1875590037
 21
27.3562274112
  0
LINE
  5
237
100
AcDbEntity
  8
0
100
AcDbLine
 62
7
  6
BYLAYER
 10
8.8010181683
 20
40.0256109588
 11
21.6838608812
 21
27.1427682459
  0
LINE
  5
238
100
AcDbEntity
  8
0
100
AcDbLine
 62
7
  6
BYLAYER
 10
8.9424395246
 20
40.167032315
 11
21.8252822375
 21
27.2841896022
  0
LINE
  5
239
100
AcDbEntity
  8
0
100
AcDbLine
 62
7
  6
BYLAYER
 10
14.892519784
 20
71.2841896034
 11
14.892519784
 21
69.2841896034
  0
LINE
  5
23A
100
AcDbEntity
  8
0
100
AcDbLine
 62
7
  6
BYLAYER
 10
15.0925197838
 20
71.2841896025
 11
15.0925197838
 21
69.2841896025
  0
LINE
  5
23B
100
AcDbEntity
  8
0
100
AcDbLine
 62
7
  6
BYLAYER
 10
21.6707492089
 20
76.1359534118
 11
21.4822395518
 21
75.4324257935
  0
LINE
  5
23C
100
AcDbEntity
  8
0
100
AcDbLine
 62
7
  6
BYLAYER
 10
21.8639343741
 20
76.1359534107
 11
21.6357049494
 21
75.284189602
  0
LINE
  5
23D
100
AcDbEntity
  8
0
100
AcDbLine
 62
7
  6
BYLAYER
 10
27.0424395246
 20
25.2841896024
 11
48.0424395246
 21
25.2841896024
  0
LINE
  5
23E
100
AcDbEntity
  8
0
100
AcDbLine
 62
7
  6
BYLAYER
 10
21.637037069
 20
25.3354285162
 11
8.637037069
 21
25.3354285162
  0
LINE
  5
23F
100
AcDbEntity
  8
0
100
AcDbLine
 62
7
  6
BYLAYER
 10
27.0424395246
 20
26.0840161219
 11
48.0424395246
 21
26.0840161219
  0
LINE
  5
240
100
AcDbEntity
  8
0
100
AcDbLine
 62
7
  6
BYLAYER
 10
55.6187583451
 20
27.0841896025
 11
21.8252822367
 21
27.0841896025
  0
LINE
  5
241
100
AcDbEntity
  8
0
100
AcDbLine
 62
7
  6
BYLAYER
 10
55.618758344
 20
27.2841896025
 11
21.8252822374
 21
27.2841896025
  0
LINE
  5
242
100
AcDbEntity
  8
0
100
AcDbLine
 62
7
  6
BYLAYER
 10
16.7425197842
 20
43.3978981015
 11
16.7425197842
 21
67.184189604
  0
LINE
  5
243
100
AcDbEntity
  8
0
100
AcDbLine
 62
7
  6
BYLAYER
 10
8.942439525
 20
40.1670323145
 11
8.8022705342
 21
40.0268633236
  0
LINE
  5
244
100
AcDbEntity
  8
0
100
AcDbLine
 62
7
  6
BYLAYER
 10
55.8186879701
 20
27.2788844242
 11
55.6187583448
 21
27.2841896028
  0
LINE
  5
245
100
AcDbEntity
  8
0
100
AcDbLine
 62
7
  6
BYLAYER
 10
21.637037069
 20
25.3354285162
 11
21.1875590035
 21
27.3562274113
  0
LINE
  5
246
100
AcDbEntity
  8
0
100
AcDbLine
 62
7
  6
BYLAYER
 10
20.287037069
 20
13.5340925197
 11
20.287037069
 21
11.7888208079
  0
LINE
  5
247
100
AcDbEntity
  8
0
100
AcDbLine
 62
7
  6
BYLAYER
 10
20.4360850843
 20
15.4378430107
 11
20.4360850843
 21
14.3336424749
  0
LINE
  5
248
100
AcDbEntity
  8
0
100
AcDbLine
 62
7
  6
BYLAYER
 10
20.537037069
 20
14.2335109239
 11
20.537037069
 21
13.6899414259
  0
LINE
  5
249
100
AcDbEntity
  8
0
100
AcDbLine
 62
7
  6
BYLAYER
 10
21.137037069
 20
21.8611497065
 11
21.137037069
 21
16.1436015529
  0
LINE
  5
24A
100
AcDbEntity
  8
0
100
AcDbLine
 62
7
  6
BYLAYER
 10
9.8738505049
 20
38.6699359104
 11
10.0152718608
 21
38.8113572663
  0
LINE
  5
24B
100
AcDbEntity
  8
0
100
AcDbLine
 62
7
  6
BYLAYER
 10
55.8907016358
 20
29.9927733063
 11
55.8707086735
 21
29.9933038241
  0
LINE
  5
24C
100
AcDbEntity
  8
0
100
AcDbLine
 62
7
  6
BYLAYER
 10
55.9296065544
 20
32.2129145441
 11
55.9495995167
 21
32.2123840262
  0
LINE
  5
24D
100
AcDbEntity
  8
0
100
AcDbLine
 62
7
  6
BYLAYER
 10
16.742519784
 20
43.3978981016
 11
25.0562282831
 21
35.0841896025
  0
LINE
  5
24E
100
AcDbEntity
  8
0
100
AcDbLine
 62
7
  6
BYLAYER
 10
21.637037069
 20
25.3354285162
 11
21.637037069
 21
22.3354285162
  0
LINE
  5
24F
100
AcDbEntity
  8
0
100
AcDbLine
 62
7
  6
BYLAYER
 10
21.6754247168
 20
75.4324257934
 11
21.6754247168
 21
75.2841896025
  0
LINE
  5
250
100
AcDbEntity
  8
0
100
AcDbLine
 62
7
  6
BYLAYER
 10
21.8252822371
 20
27.2841896018
 11
21.8252822362
 21
27.0841896025
  0
LINE
  5
251
100
AcDbEntity
  8
0
100
AcDbLine
 62
7
  6
BYLAYER
 10
21.8639343742
 20
76.2841896025
 11
21.8639343742
 21
76.1359534118
  0
LINE
  5
252
100
AcDbEntity
  8
0
100
AcDbLine
 62
7
  6
BYLAYER
 10
23.2596770716
 20
76.2841896025
 11
23.2596770711
 21
76.1359534115
  0
LINE
  5
253
100
AcDbEntity
  8
0
100
AcDbLine
 62
7
  6
BYLAYER
 10
23.9648418505
 20
75.4324257842
 11
23.9648418505
 21
75.2841896025
  0
LINE
  5
254
100
AcDbEntity
  8
0
100
AcDbLine
 62
7
  6
BYLAYER
 10
42.7425197841
 20
35.0841896025
 11
25.0562282832
 21
35.0841896025
  0
LINE
  5
255
100
AcDbEntity
  8
0
100
AcDbLine
 62
7
  6
BYLAYER
 10
24.225362545
 20
75.4841896025
 11
24.2253624962
 21
75.2841896025
  0
LINE
  5
256
100
AcDbEntity
  8
0
100
AcDbLine
 62
7
  6
BYLAYER
 10
24.6596770307
 20
75.4841896025
 11
24.6596769513
 21
75.2841896025
  0
LINE
  5
257
100
AcDbEntity
  8
0
100
AcDbLine
 62
7
  6
BYLAYER
 10
24.9201976038
 20
75.432425793
 11
24.9201976038
 21
75.2841896025
  0
LINE
  5
258
100
AcDbEntity
  8
0
100
AcDbLine
 62
7
  6
BYLAYER
 10
25.1424395246
 20
75.1841896025
 11
25.1424395246
 21
75.0841896025
  0
LINE
  5
259
100
AcDbEntity
  8
0
100
AcDbLine
 62
7
  6
BYLAYER
 10
25.2424395246
 20
75.7621161496
 11
25.2424395246
 21
75.0841896025
  0
LINE
  5
25A
100
AcDbEntity
  8
0
100
AcDbLine
 62
7
  6
BYLAYER
 10
25.6253624972
 20
76.2841896025
 11
25.6253624965
 21
76.1359534118
  0
LINE
  5
25B
100
AcDbEntity
  8
0
100
AcDbLine
 62
7
  6
BYLAYER
 10
26.3861870859
 20
75.9341896016
 11
26.3861870859
 21
75.7341896033
  0
LINE
  5
25C
100
AcDbEntity
  8
0
100
AcDbLine
 62
7
  6
BYLAYER
 10
26.4857565502
 20
75.9341896025
 11
26.48575655
 21
75.7341896033
  0
LINE
  5
25D
100
AcDbEntity
  8
0
100
AcDbLine
 62
7
  6
BYLAYER
 10
26.6335173446
 20
75.7341896033
 11
26.6335173445
 21
75.9341896025
  0
LINE
  5
25E
100
AcDbEntity
  8
0
100
AcDbLine
 62
7
  6
BYLAYER
 10
26.7091102141
 20
75.7341896029
 11
26.7091102141
 21
75.9341896025
  0
LINE
  5
25F
100
AcDbEntity
  8
0
100
AcDbLine
 62
7
  6
BYLAYER
 10
26.7761446508
 20
75.7341896029
 11
26.7761446508
 21
75.9341896025
  0
LINE
  5
260
100
AcDbEntity
  8
0
100
AcDbLine
 62
7
  6
BYLAYER
 10
26.7848686973
 20
75.7341896029
 11
26.7848686973
 21
75.9341896025
  0
LINE
  5
261
100
AcDbEntity
  8
0
100
AcDbLine
 62
7
  6
BYLAYER
 10
26.837198543
 20
75.7341896033
 11
26.8371985429
 21
75.9341896025
  0
LINE
  5
262
100
AcDbEntity
  8
0
100
AcDbLine
 62
7
  6
BYLAYER
 10
26.9851323752
 20
75.7341896033
 11
26.9851323755
 21
75.9341896025
  0
LINE
  5
263
100
AcDbEntity
  8
0
100
AcDbLine
 62
7
  6
BYLAYER
 10
27.0211051943
 20
76.1359534117
 11
27.0211051944
 21
76.2826976586
  0
LINE
  5
264
100
AcDbEntity
  8
0
100
AcDbLine
 62
7
  6
BYLAYER
 10
27.0424395246
 20
27.0841896025
 11
27.0424395246
 21
25.284189602
  0
LINE
  5
265
100
AcDbEntity
  8
0
100
AcDbLine
 62
7
  6
BYLAYER
 10
27.169649514
 20
75.7341896029
 11
27.169649514
 21
75.9341896025
  0
LINE
  5
266
100
AcDbEntity
  8
0
100
AcDbLine
 62
7
  6
BYLAYER
 10
27.1992680054
 20
75.7341896033
 11
27.199268006
 21
75.9341896025
  0
LINE
  5
267
100
AcDbEntity
  8
0
100
AcDbLine
 62
7
  6
BYLAYER
 10
27.209614851
 20
75.4324257935
 11
27.209614851
 21
75.2841896025
  0
LINE
  5
268
100
AcDbEntity
  8
0
100
AcDbLine
 62
7
  6
BYLAYER
 10
27.3035239362
 20
75.7341896033
 11
27.3035239356
 21
75.9341896025
  0
LINE
  5
269
100
AcDbEntity
  8
0
100
AcDbLine
 62
7
  6
BYLAYER
 10
27.3330559073
 20
75.9341896025
 11
27.3330559073
 21
75.7341896033
  0
LINE
  5
26A
100
AcDbEntity
  8
0
100
AcDbLine
 62
7
  6
BYLAYER
 10
27.5251290775
 20
75.9341896025
 11
27.5251290775
 21
75.7341896033
  0
LINE
  5
26B
100
AcDbEntity
  8
0
100
AcDbLine
 62
7
  6
BYLAYER
 10
27.6021458071
 20
75.9341896025
 11
27.6021458071
 21
75.7341896033
  0
LINE
  5
26C
100
AcDbEntity
  8
0
100
AcDbLine
 62
7
  6
BYLAYER
 10
27.6865743655
 20
75.7341896033
 11
27.6865743656
 21
75.9341896025
  0
LINE
  5
26D
100
AcDbEntity
  8
0
100
AcDbLine
 62
7
  6
BYLAYER
 10
27.8738601259
 20
75.7341896033
 11
27.8738601262
 21
75.9341896025
  0
LINE
  5
26E
100
AcDbEntity
  8
0
100
AcDbLine
 62
7
  6
BYLAYER
 10
28.0322772348
 20
75.7341896033
 11
28.032277235
 21
75.9341896025
  0
LINE
  5
26F
100
AcDbEntity
  8
0
100
AcDbLine
 62
7
  6
BYLAYER
 10
28.1128845173
 20
75.7341896029
 11
28.1128845173
 21
75.9341896025
  0
LINE
  5
270
100
AcDbEntity
  8
0
100
AcDbLine
 62
7
  6
BYLAYER
 10
28.215410062
 20
75.7341896033
 11
28.2154100613
 21
75.9341896025
  0
LINE
  5
271
100
AcDbEntity
  8
0
100
AcDbLine
 62
7
  6
BYLAYER
 10
28.351908908
 20
75.9341896025
 11
28.3519089079
 21
75.7341896033
  0
LINE
  5
272
100
AcDbEntity
  8
0
100
AcDbLine
 62
7
  6
BYLAYER
 10
28.3777493826
 20
75.7341896029
 11
28.3777493826
 21
75.9341896025
  0
LINE
  5
273
100
AcDbEntity
  8
0
100
AcDbLine
 62
7
  6
BYLAYER
 10
28.4405048204
 20
75.9341896025
 11
28.4405048204
 21
75.7341896033
  0
LINE
  5
274
100
AcDbEntity
  8
0
100
AcDbLine
 62
7
  6
BYLAYER
 10
28.4700944712
 20
75.9341896025
 11
28.4700944711
 21
75.7341896033
  0
LINE
  5
275
100
AcDbEntity
  8
0
100
AcDbLine
 62
7
  6
BYLAYER
 10
28.7432075236
 20
75.7341896033
 11
28.7432075239
 21
75.9341896025
  0
LINE
  5
276
100
AcDbEntity
  8
0
100
AcDbLine
 62
7
  6
BYLAYER
 10
28.758910804
 20
75.7341896033
 11
28.7589108037
 21
75.9341896025
  0
LINE
  5
277
100
AcDbEntity
  8
0
100
AcDbLine
 62
7
  6
BYLAYER
 10
28.8078087094
 20
75.7341896029
 11
28.8078087094
 21
75.9341896025
  0
LINE
  5
278
100
AcDbEntity
  8
0
100
AcDbLine
 62
7
  6
BYLAYER
 10
28.8705641479
 20
75.7341896033
 11
28.8705641479
 21
75.9341896025
  0
LINE
  5
279
100
AcDbEntity
  8
0
100
AcDbLine
 62
7
  6
BYLAYER
 10
28.9776175425
 20
75.7341896033
 11
28.9776175428
 21
75.9341896025
  0
LINE
  5
27A
100
AcDbEntity
  8
0
100
AcDbLine
 62
7
  6
BYLAYER
 10
29.0883624341
 20
75.7341896029
 11
29.0883624341
 21
75.9341896025
  0
LINE
  5
27B
100
AcDbEntity
  8
0
100
AcDbLine
 62
7
  6
BYLAYER
 10
29.1861870876
 20
75.7341896033
 11
29.1861870876
 21
75.9341896025
  0
LINE
  5
27C
100
AcDbEntity
  8
0
100
AcDbLine
 62
7
  6
BYLAYER
 10
8.9424395246
 20
40.167032315
 11
8.7424395246
 21
40.167032315
  0
LINE
  5
27D
100
AcDbEntity
  8
0
100
AcDbLine
 62
7
  6
BYLAYER
 10
30.2424395246
 20
75.7621161496
 11
30.2424395246
 21
75.0841896025
  0
LINE
  5
27E
100
AcDbEntity
  8
0
100
AcDbLine
 62
7
  6
BYLAYER
 10
30.3424395246
 20
75.1841896025
 11
30.3424395246
 21
75.0841896025
  0
LINE
  5
27F
100
AcDbEntity
  8
0
100
AcDbLine
 62
7
  6
BYLAYER
 10
8.7424395246
 20
43.0844285162
 11
6.9425197842
 21
43.0844285162
  0
LINE
  5
280
100
AcDbEntity
  8
0
100
AcDbLine
 62
7
  6
BYLAYER
 10
20.1263798401
 20
11.4477436299
 11
20.287037069
 21
11.7888208075
  0
LINE
  5
281
100
AcDbEntity
  8
0
100
AcDbLine
 62
7
  6
BYLAYER
 10
21.1875590037
 20
27.3562274112
 11
21.3289803598
 21
27.4976487673
  0
LINE
  5
282
100
AcDbEntity
  8
0
100
AcDbLine
 62
7
  6
BYLAYER
 10
21.8252822375
 20
27.2841896022
 11
21.6851132465
 21
27.1440206112
  0
LINE
  5
283
100
AcDbEntity
  8
0
100
AcDbLine
 62
7
  6
BYLAYER
 10
9.8379890535
 20
14.3336424747
 11
9.737037069
 21
14.2335109239
  0
LINE
  5
284
100
AcDbEntity
  8
0
100
AcDbLine
 62
7
  6
BYLAYER
 10
27.0211051944
 20
76.1359534117
 11
27.2493346187
 21
75.2841896026
  0
LINE
  5
285
100
AcDbEntity
  8
0
100
AcDbLine
 62
7
  6
BYLAYER
 10
27.2142903591
 20
76.1359534116
 11
27.4028000163
 21
75.4324257935
  0
LINE
  5
286
100
AcDbEntity
  8
0
100
AcDbLine
 62
7
  6
BYLAYER
 10
42.7425197841
 20
64.0841896025
 11
42.7425197841
 21
35.0841896025
  0
LINE
  5
287
100
AcDbEntity
  8
0
100
AcDbLine
 62
7
  6
BYLAYER
 10
20.4360850843
 20
15.4378430107
 11
21.1370370689
 21
16.1436015528
  0
LINE
  5
288
100
AcDbEntity
  8
0
100
AcDbLine
 62
7
  6
BYLAYER
 10
48.0424395246
 20
27.0841896025
 11
48.0424395246
 21
25.284189602
  0
LINE
  5
289
100
AcDbEntity
  8
0
100
AcDbLine
 62
7
  6
BYLAYER
 10
23.2596770713
 20
76.1359534117
 11
23.9425201031
 21
75.4531103799
  0
LINE
  5
28A
100
AcDbEntity
  8
0
100
AcDbLine
 62
7
  6
BYLAYER
 10
23.4010984276
 20
76.2256109589
 11
24.0839411403
 21
75.5427682462
  0
LINE
  5
28B
100
AcDbEntity
  8
0
100
AcDbLine
 62
7
  6
BYLAYER
 10
51.5924298103
 20
75.2841896025
 11
51.5924298099
 21
75.0841896021
  0
LINE
  5
28C
100
AcDbEntity
  8
0
100
AcDbLine
 62
7
  6
BYLAYER
 10
39.6425197827
 20
67.184189604
 11
42.7425197841
 21
64.0841896025
  0
LINE
  5
28D
100
AcDbEntity
  8
0
100
AcDbLine
 62
7
  6
BYLAYER
 10
55.6187583449
 20
27.284189603
 11
55.618758343
 21
27.0841896025
  0
LINE
  5
28E
100
AcDbEntity
  8
0
100
AcDbLine
 62
7
  6
BYLAYER
 10
56.7463451337
 20
69.778130812
 11
55.6187586307
 21
27.2841895952
  0
LINE
  5
28F
100
AcDbEntity
  8
0
100
AcDbLine
 62
7
  6
BYLAYER
 10
56.9741852142
 20
71.5786430675
 11
55.8707086735
 21
29.9933038241
  0
LINE
  5
290
100
AcDbEntity
  8
0
100
AcDbLine
 62
7
  6
BYLAYER
 10
57.0110613717
 20
72.2143683954
 11
55.8186879701
 21
27.2788844242
  0
LINE
  5
291
100
AcDbEntity
  8
0
100
AcDbLine
 62
7
  6
BYLAYER
 10
16.7425197842
 20
67.184189604
 11
39.6425197827
 21
67.184189604
  0
LINE
  5
292
100
AcDbEntity
  8
0
100
AcDbLine
 62
7
  6
BYLAYER
 10
15.0925197841
 20
69.2841896025
 11
14.892519784
 21
69.2841896025
  0
LINE
  5
293
100
AcDbEntity
  8
0
100
AcDbLine
 62
7
  6
BYLAYER
 10
10.592519784
 20
69.2841896025
 11
10.3925197839
 21
69.2841896025
  0
LINE
  5
294
100
AcDbEntity
  8
0
100
AcDbLine
 62
7
  6
BYLAYER
 10
15.0925197836
 20
71.2841896025
 11
14.892519784
 21
71.2841896025
  0
LINE
  5
295
100
AcDbEntity
  8
0
100
AcDbLine
 62
7
  6
BYLAYER
 10
10.592519784
 20
71.2841896025
 11
10.3925197843
 21
71.2841896025
  0
LINE
  5
296
100
AcDbEntity
  8
0
100
AcDbLine
 62
7
  6
BYLAYER
 10
56.9152873439
 20
69.3590327468
 11
56.9352803062
 21
69.358502229
  0
LINE
  5
297
100
AcDbEntity
  8
0
100
AcDbLine
 62
7
  6
BYLAYER
 10
56.7463447784
 20
69.7781282015
 11
56.9462744037
 21
69.7728230229
  0
LINE
  5
298
100
AcDbEntity
  8
0
100
AcDbLine
 62
7
  6
BYLAYER
 10
24.2253624725
 20
75.484189589
 11
24.0839410071
 21
75.5427683795
  0
LINE
  5
299
100
AcDbEntity
  8
0
100
AcDbLine
 62
7
  6
BYLAYER
 10
8.7424395246
 20
72.2844285162
 11
6.9425197842
 21
72.2844285162
  0
LINE
  5
29A
100
AcDbEntity
  8
0
100
AcDbLine
 62
7
  6
BYLAYER
 10
56.9941781765
 20
71.5781125496
 11
56.9741852142
 21
71.5786430675
  0
LWPOLYLINE
  5
29B
100
AcDbEntity
  8
0
100
AcDbPolyline
 62
7
  6
BYLAYER
 90
3
 70
0
 10
27.5959851811
 20
75.2841896025
 10
27.4742533148
 20
75.3255301653
 10
27.4028000587
 20
75.4324256085
  0
LWPOLYLINE
  5
29C
100
AcDbEntity
  8
0
100
AcDbPolyline
 62
7
  6
BYLAYER
 90
3
 70
0
 10
57.0110656955
 20
72.2145323764
 10
56.9987162869
 20
72.2886337107
 10
56.9607210015
 20
72.3524885907
  0
LINE
  5
29D
100
AcDbEntity
  8
0
100
AcDbLine
 62
7
  6
BYLAYER
 10
25.7424395246
 20
75.9341896025
 11
25.3250747068
 21
75.8605969243
  0
LINE
  5
29E
100
AcDbEntity
  8
0
100
AcDbLine
 62
7
  6
BYLAYER
 10
51.5924298094
 20
75.0841896025
 11
25.1424395246
 21
75.0841896025
  0
LINE
  5
29F
100
AcDbEntity
  8
0
100
AcDbLine
 62
7
  6
BYLAYER
 10
21.3570383192
 20
75.0841896025
 11
8.7424395246
 21
75.0841896025
  0
LINE
  5
2A0
100
AcDbEntity
  8
0
100
AcDbLine
 62
7
  6
BYLAYER
 10
30.3424395246
 20
75.1841896025
 11
25.1424395246
 21
75.1841896025
  0
LINE
  5
2A1
100
AcDbEntity
  8
0
100
AcDbLine
 62
7
  6
BYLAYER
 10
54.4542409587
 20
75.2150516753
 11
51.7272169875
 21
75.2150516753
  0
LINE
  5
2A2
100
AcDbEntity
  8
0
100
AcDbLine
 62
7
  6
BYLAYER
 10
8.9424395253
 20
75.2841896025
 11
54.3029957351
 21
75.2841896025
  0
LINE
  5
2A3
100
AcDbEntity
  8
0
100
AcDbLine
 62
7
  6
BYLAYER
 10
24.6596770307
 20
75.3359533999
 11
24.2253624965
 21
75.3359533999
  0
LINE
  5
2A4
100
AcDbEntity
  8
0
100
AcDbLine
 62
7
  6
BYLAYER
 10
24.2253624962
 20
75.3841896025
 11
24.6596769348
 21
75.3841896025
  0
LINE
  5
2A5
100
AcDbEntity
  8
0
100
AcDbLine
 62
7
  6
BYLAYER
 10
27.209614851
 20
75.4324257935
 11
24.9201976408
 21
75.4324257935
  0
LINE
  5
2A6
100
AcDbEntity
  8
0
100
AcDbLine
 62
7
  6
BYLAYER
 10
23.9648418505
 20
75.4324257935
 11
21.6754247167
 21
75.4324257935
  0
LINE
  5
2A7
100
AcDbEntity
  8
0
100
AcDbLine
 62
7
  6
BYLAYER
 10
24.6596770307
 20
75.4841896025
 11
24.2253624965
 21
75.4841896025
  0
LINE
  5
2A8
100
AcDbEntity
  8
0
100
AcDbLine
 62
7
  6
BYLAYER
 10
29.1861870877
 20
75.7341896025
 11
26.3861870869
 21
75.7341896025
  0
LINE
  5
2A9
100
AcDbEntity
  8
0
100
AcDbLine
 62
7
  6
BYLAYER
 10
30.2424395246
 20
75.762116149
 11
25.2424395246
 21
75.762116149
  0
LINE
  5
2AA
100
AcDbEntity
  8
0
100
AcDbLine
 62
7
  6
BYLAYER
 10
30.1598043424
 20
75.8605969243
 11
25.3250747069
 21
75.8605969243
  0
LINE
  5
2AB
100
AcDbEntity
  8
0
100
AcDbLine
 62
7
  6
BYLAYER
 10
29.7424395246
 20
75.9341896025
 11
25.7424395246
 21
75.9341896025
  0
LINE
  5
2AC
100
AcDbEntity
  8
0
100
AcDbLine
 62
7
  6
BYLAYER
 10
27.0211051944
 20
76.1359534115
 11
25.6253624968
 21
76.1359534115
  0
LINE
  5
2AD
100
AcDbEntity
  8
0
100
AcDbLine
 62
7
  6
BYLAYER
 10
23.2596770712
 20
76.1359534115
 11
21.8639343742
 21
76.1359534115
  0
LINE
  5
2AE
100
AcDbEntity
  8
0
100
AcDbLine
 62
7
  6
BYLAYER
 10
27.0211051945
 20
76.2841896025
 11
25.6253624969
 21
76.2841896025
  0
LINE
  5
2AF
100
AcDbEntity
  8
0
100
AcDbLine
 62
7
  6
BYLAYER
 10
23.2596770712
 20
76.2841896025
 11
21.8639343736
 21
76.2841896025
  0
LWPOLYLINE
  5
2B0
100
AcDbEntity
  8
0
100
AcDbPolyline
 62
7
  6
BYLAYER
 90
3
 70
0
 10
27.5946686784
 20
75.2841895958
 10
27.5661451921
 20
75.2862614724
 10
27.5360842881
 20
75.293106723
  0
LINE
  5
2B1
100
AcDbEntity
  8
0
100
AcDbLine
 62
7
  6
BYLAYER
 10
27.5947870229
 20
75.2841878887
 11
27.5402207035
 21
75.2918649233
  0
LINE
  5
2B2
100
AcDbEntity
  8
0
100
AcDbLine
 62
7
  6
BYLAYER
 10
29.7424395246
 20
75.9341896025
 11
30.1598043424
 21
75.8605969243
  0
LINE
  5
2B3
100
AcDbEntity
  8
0
100
AcDbLine
 62
7
  6
BYLAYER
 10
51.5924463315
 20
75.0842034482
 11
56.7463607932
 21
69.7781377949
  0
LINE
  5
2B4
100
AcDbEntity
  8
0
100
AcDbLine
 62
7
  6
BYLAYER
 10
51.7264004393
 20
75.2142583382
 11
56.8844662528
 21
69.9123369944
  0
CIRCLE
  5
2B5
100
AcDbEntity
  8
0
100
AcDbCircle
 62
7
  6
BYLAYER
 10
12.742519784
 20
41.2841896025
 40
2.3500000001
  0
CIRCLE
  5
2B6
100
AcDbEntity
  8
0
100
AcDbCircle
 62
7
  6
BYLAYER
 10
12.742519784
 20
41.2841896025
 40
2.15
  0
ARC
  5
2B7
100
AcDbEntity
  8
0
100
AcDbCircle
 62
7
  6
BYLAYER
 10
21.6113158787
 20
21.8611497065
 40
0.4742788097
100
AcDbArc
 50
90.0
 51
180.0
  0
ARC
  5
2B8
100
AcDbEntity
  8
0
100
AcDbCircle
 62
7
  6
BYLAYER
 10
8.6627582593
 20
21.8611497065
 40
0.4742788097
100
AcDbArc
 50
0.0
 51
90.0
  0
ARC
  5
2B9
100
AcDbEntity
  8
0
100
AcDbCircle
 62
7
  6
BYLAYER
 10
8.9424395246
 20
40.167032315
 40
0.2
100
AcDbArc
 50
180.0000001835
 51
225.0000000081
  0
ARC
  5
2BA
100
AcDbEntity
  8
0
100
AcDbCircle
 62
7
  6
BYLAYER
 10
21.8252822371
 20
27.2841896025
 40
0.2
100
AcDbArc
 50
225.0000001418
 51
270.0
  0
ARC
  5
2BB
100
AcDbEntity
  8
0
100
AcDbCircle
 62
7
  6
BYLAYER
 10
19.9498504989
 20
11.5308940622
 40
0.1951322697
100
AcDbArc
 50
270.0
 51
334.7782063217
  0
ARC
  5
2BC
100
AcDbEntity
  8
0
100
AcDbCircle
 62
7
  6
BYLAYER
 10
10.324223639
 20
11.5308940622
 40
0.1951322697
100
AcDbArc
 50
205.2217936783
 51
270.0
  0
ARC
  5
2BD
100
AcDbEntity
  8
0
100
AcDbCircle
 62
7
  6
BYLAYER
 10
20.3811881631
 20
13.6899414255
 40
0.1558489058
100
AcDbArc
 50
270.0
 51
360.0
  0
ARC
  5
2BE
100
AcDbEntity
  8
0
100
AcDbCircle
 62
7
  6
BYLAYER
 10
9.8928859748
 20
13.6899414255
 40
0.1558489058
100
AcDbArc
 50
180.0
 51
270.0
  0
ARC
  5
2BF
100
AcDbEntity
  8
0
100
AcDbCircle
 62
7
  6
BYLAYER
 10
12.742519784
 20
71.2841896025
 40
2.3499999996
100
AcDbArc
 50
0.000000006
 51
180.0000000139
  0
ARC
  5
2C0
100
AcDbEntity
  8
0
100
AcDbCircle
 62
7
  6
BYLAYER
 10
12.742519784
 20
69.2841896025
 40
2.3499999996
100
AcDbArc
 50
179.999999986
 51
359.999999994
  0
ARC
  5
2C1
100
AcDbEntity
  8
0
100
AcDbCircle
 62
7
  6
BYLAYER
 10
12.742519784
 20
69.2841896025
 40
2.15
100
AcDbArc
 50
180.0
 51
360.0
  0
ARC
  5
2C2
100
AcDbEntity
  8
0
100
AcDbCircle
 62
7
  6
BYLAYER
 10
12.742519784
 20
71.2841896025
 40
2.15
100
AcDbArc
 50
0.0000000232
 51
180.0
  0
ARC
  5
2C3
100
AcDbEntity
  8
0
100
AcDbCircle
 62
7
  6
BYLAYER
 10
8.9424395246
 20
75.0841896025
 40
0.2
100
AcDbArc
 50
90.0
 51
179.9999998747
  0
ARC
  5
2C4
100
AcDbEntity
  8
0
100
AcDbCircle
 62
7
  6
BYLAYER
 10
21.2890543866
 20
75.4841896025
 40
0.2
100
AcDbArc
 50
269.9999997708
 51
345.0
  0
ARC
  5
2C5
100
AcDbEntity
  8
0
100
AcDbCircle
 62
7
  6
BYLAYER
 10
25.0424395246
 20
75.1841896025
 40
0.1
100
AcDbArc
 50
0.0
 51
90.0
  0
ARC
  5
2C6
100
AcDbEntity
  8
0
100
AcDbCircle
 62
7
  6
BYLAYER
 10
24.6598470078
 20
75.7358083559
 40
0.3997779752
100
AcDbArc
 50
270.0038520289
 51
314.9974820877
  0
ARC
  5
2C7
100
AcDbEntity
  8
0
100
AcDbCircle
 62
7
  6
BYLAYER
 10
24.2251911834
 20
75.7358056014
 40
0.3997750232
100
AcDbArc
 50
225.0024476694
 51
269.9742257565
  0
ARC
  5
2C8
100
AcDbEntity
  8
0
100
AcDbCircle
 62
7
  6
BYLAYER
 10
24.6596770716
 20
75.6841896025
 40
0.2
100
AcDbArc
 50
270.0
 51
315.0000000061
  0
ARC
  5
2C9
100
AcDbEntity
  8
0
100
AcDbCircle
 62
7
  6
BYLAYER
 10
24.2253624965
 20
75.6841896025
 40
0.2
100
AcDbArc
 50
225.0
 51
270.0000002063
  0
ARC
  5
2CA
100
AcDbEntity
  8
0
100
AcDbCircle
 62
7
  6
BYLAYER
 10
23.2596770716
 20
76.0841896025
 40
0.2
100
AcDbArc
 50
45.0000002431
 51
90.0000000566
  0
ARC
  5
2CB
100
AcDbEntity
  8
0
100
AcDbCircle
 62
7
  6
BYLAYER
 10
25.6253624965
 20
76.0841896025
 40
0.2
100
AcDbArc
 50
90.0
 51
134.9999997452
  0
ARC
  5
2CC
100
AcDbEntity
  8
0
100
AcDbCircle
 62
7
  6
BYLAYER
 10
21.8639343742
 20
76.0841896025
 40
0.2
100
AcDbArc
 50
90.0
 51
164.9999998295
  0
ARC
  5
2CD
100
AcDbEntity
  8
0
100
AcDbCircle
 62
7
  6
BYLAYER
 10
25.3424395246
 20
75.762116149
 40
0.1
100
AcDbArc
 50
100.0000000019
 51
180.0
  0
ARC
  5
2CE
100
AcDbEntity
  8
0
100
AcDbCircle
 62
7
  6
BYLAYER
 10
27.5949396793
 20
75.4836959973
 40
0.1995207113
100
AcDbArc
 50
195.0
 51
269.9204778085
  0
ARC
  5
2CF
100
AcDbEntity
  8
0
100
AcDbCircle
 62
7
  6
BYLAYER
 10
30.4424395246
 20
75.1841896025
 40
0.1
100
AcDbArc
 50
90.0
 51
180.0
  0
ARC
  5
2D0
100
AcDbEntity
  8
0
100
AcDbCircle
 62
7
  6
BYLAYER
 10
27.0211051939
 20
76.0841896025
 40
0.2
100
AcDbArc
 50
14.9999999934
 51
89.9999998514
  0
ARC
  5
2D1
100
AcDbEntity
  8
0
100
AcDbCircle
 62
7
  6
BYLAYER
 10
30.1424395246
 20
75.762116149
 40
0.1
100
AcDbArc
 50
0.0
 51
79.9999999981
  0
ARC
  5
2D2
100
AcDbEntity
  8
0
100
AcDbCircle
 62
7
  6
BYLAYER
 10
55.6187583449
 20
27.2841896025
 40
0.2
100
AcDbArc
 50
270.0
 51
358.4800000859
  0
ARC
  5
2D3
100
AcDbEntity
  8
0
100
AcDbCircle
 62
7
  6
BYLAYER
 10
54.3029957343
 20
75.0841896025
 40
0.2
100
AcDbArc
 50
40.8673787647
 51
89.9999997724
  0
SPLINE
  5
2D4
100
AcDbEntity
  8
0
100
AcDbSpline
 62
7
  6
BYLAYER
 70
0
 71
3
 72
15
 73
11
 74
0
 42
0.0000001
 43
0.0000001
 44
0.0000000001
 40
0.0
 40
0.0
 40
0.0
 40
0.0
 40
0.0842010214
 40
0.210234173
 40
0.3498648541
 40
0.4803614212
 40
0.6058002883
 40
0.7255066513
 40
0.8528488009
 40
1.0
 40
1.0
 40
1.0
 40
1.0
 10
27.5946627956
 20
75.2841896025
 30
0.0
 10
27.5867679037
 20
75.2841896025
 30
0.0
 10
27.5691368561
 20
75.2723377752
 30
0.0
 10
27.5416876902
 20
75.2559196745
 30
0.0
 10
27.5120895945
 20
75.232888508
 30
0.0
 10
27.4856082699
 20
75.2067499397
 30
0.0
 10
27.4689880637
 20
75.174400271
 30
0.0
 10
27.4717825225
 20
75.1371601201
 30
0.0
 10
27.4968404551
 20
75.1082740057
 30
0.0
 10
27.516503782
 20
75.0918166994
 30
0.0
 10
27.5280012422
 20
75.0841896025
 30
0.0
  0
SPLINE
  5
2D5
100
AcDbEntity
  8
0
100
AcDbSpline
 62
7
  6
BYLAYER
 70
0
 71
3
 72
11
 73
7
 74
0
 42
0.0000001
 43
0.0000001
 44
0.0000000001
 40
0.0
 40
0.0
 40
0.0
 40
0.0
 40
0.2750177256
 40
0.5334182247
 40
0.779331321
 40
1.0
 40
1.0
 40
1.0
 40
1.0
 10
27.3751839303
 20
75.1852861019
 30
0.0
 10
27.3663260502
 20
75.1975088473
 30
0.0
 10
27.3486052946
 20
75.2208718457
 30
0.0
 10
27.3186505728
 20
75.2515933116
 30
0.0
 10
27.2869075847
 20
75.2758632758
 30
0.0
 10
27.2614465022
 20
75.2841896018
 30
0.0
 10
27.2493346179
 20
75.2841896018
 30
0.0
  0
SPLINE
  5
2D6
100
AcDbEntity
  8
0
100
AcDbSpline
 62
7
  6
BYLAYER
 70
0
 71
3
 72
10
 73
6
 74
0
 42
0.0000001
 43
0.0000001
 44
0.0000000001
 40
0.0
 40
0.0
 40
0.0
 40
0.0
 40
0.3336720012
 40
0.6652550962
 40
1.0
 40
1.0
 40
1.0
 40
1.0
 10
27.3751839303
 20
75.1852861019
 30
0.0
 10
27.387341311
 20
75.1685466977
 30
0.0
 10
27.4163848712
 20
75.1384280539
 30
0.0
 10
27.469672344
 20
75.1057289737
 30
0.0
 10
27.5084838238
 20
75.0912491278
 30
0.0
 10
27.5280012408
 20
75.0841896025
 30
0.0
  0
SPLINE
  5
2D7
100
AcDbEntity
  8
0
100
AcDbSpline
 62
7
  6
BYLAYER
 70
0
 71
3
 72
9
 73
5
 74
0
 42
0.0000001
 43
0.0000001
 44
0.0000000001
 40
0.0
 40
0.0
 40
0.0
 40
0.0
 40
0.2406402337
 40
1.0
 40
1.0
 40
1.0
 40
1.0
 10
27.4031302088
 20
75.4287258378
 30
0.0
 10
27.4031619675
 20
75.4290231016
 30
0.0
 10
27.4032305696
 20
75.4302651705
 30
0.0
 10
27.4030441819
 20
75.4315145553
 30
0.0
 10
27.4028000177
 20
75.4324257885
 30
0.0
  0
SPLINE
  5
2D8
100
AcDbEntity
  8
0
100
AcDbSpline
 62
7
  6
BYLAYER
 70
0
 71
3
 72
43
 73
39
 74
0
 42
0.0000001
 43
0.0000001
 44
0.0000000001
 40
0.0
 40
0.0
 40
0.0
 40
0.0
 40
0.0045085775
 40
0.0222106816
 40
0.0398194563
 40
0.0573297927
 40
0.0663809419
 40
0.0759263295
 40
0.0844042625
 40
0.0920371955
 40
0.1013904408
 40
0.11196873
 40
0.1217621905
 40
0.1300572576
 40
0.1385095963
 40
0.1482077991
 40
0.1584325124
 40
0.1675076826
 40
0.1838150221
 40
0.20176741
 40
0.2218474022
 40
0.2406361845
 40
0.2762934581
 40
0.3113540908
 40
0.3458235802
 40
0.3797074024
 40
0.4423210407
 40
0.5028442429
 40
0.6174946416
 40
0.7147135328
 40
0.8030272292
 40
0.8732556261
 40
0.9044701453
 40
0.9326500362
 40
0.9525975698
 40
0.9707698896
 40
0.9873748692
 40
1.0
 40
1.0
 40
1.0
 40
1.0
 10
27.3751892359
 20
75.1852844203
 30
0.0
 10
27.3751550593
 20
75.1856525669
 30
0.0
 10
27.3749892494
 20
75.18746641
 30
0.0
 10
27.3747145758
 20
75.190720342
 30
0.0
 10
27.3743978568
 20
75.1950404696
 30
0.0
 10
27.374170671
 20
75.1986556346
 30
0.0
 10
27.3740115041
 20
75.201612349
 30
0.0
 10
27.373907916
 20
75.2038302056
 30
0.0
 10
27.3738135192
 20
75.205932046
 30
0.0
 10
27.3737275772
 20
75.2080184994
 30
0.0
 10
27.3736558152
 20
75.2102778328
 30
0.0
 10
27.373590413
 20
75.2127145826
 30
0.0
 10
27.3735363459
 20
75.2150648056
 30
0.0
 10
27.3734932308
 20
75.2172409069
 30
0.0
 10
27.3734730166
 20
75.2194095304
 30
0.0
 10
27.3734583317
 20
75.2217364163
 30
0.0
 10
27.3734496993
 20
75.2241144175
 30
0.0
 10
27.3734546372
 20
75.2270344415
 30
0.0
 10
27.3735043461
 20
75.23058791
 30
0.0
 10
27.3736011825
 20
75.2350430209
 30
0.0
 10
27.373718706
 20
75.2397012696
 30
0.0
 10
27.3739468186
 20
75.2458087144
 30
0.0
 10
27.3743294713
 20
75.253139198
 30
0.0
 10
27.3749123555
 20
75.2617457667
 30
0.0
 10
27.3756125454
 20
75.2701976666
 30
0.0
 10
27.3766458231
 20
75.2808881667
 30
0.0
 10
27.3781179742
 20
75.2936815511
 30
0.0
 10
27.3807451637
 20
75.3130047325
 30
0.0
 10
27.3843264743
 20
75.3350574454
 30
0.0
 10
27.3888612792
 20
75.3592542935
 30
0.0
 10
27.3930688477
 20
75.3798024468
 30
0.0
 10
27.3963278068
 20
75.3950185669
 30
0.0
 10
27.398576841
 20
75.4054077117
 30
0.0
 10
27.3999520779
 20
75.4117672855
 30
0.0
 10
27.4010656887
 20
75.4170888975
 30
0.0
 10
27.4019638513
 20
75.4214862236
 30
0.0
 10
27.4026571563
 20
75.425310914
 30
0.0
 10
27.403024657
 20
75.4276812744
 30
0.0
 10
27.4031345638
 20
75.4287107583
 30
0.0
  0
SPLINE
  5
2D9
100
AcDbEntity
  8
0
100
AcDbSpline
 62
7
  6
BYLAYER
 70
0
 71
3
 72
11
 73
7
 74
0
 42
0.0000001
 43
0.0000001
 44
0.0000000001
 40
0.0
 40
0.0
 40
0.0
 40
0.0
 40
0.4138124916
 40
0.7263113437
 40
0.9149608461
 40
1.0
 40
1.0
 40
1.0
 40
1.0
 10
27.2096148515
 20
75.4324257934
 30
0.0
 10
27.2368484376
 20
75.4265430806
 30
0.0
 10
27.2848836151
 20
75.4170715319
 30
0.0
 10
27.3469077218
 20
75.4144964855
 30
0.0
 10
27.3854817077
 20
75.4106675698
 30
0.0
 10
27.4042819174
 20
75.426895263
 30
0.0
 10
27.4028000163
 20
75.4324257934
 30
0.0
  0
SPLINE
  5
2DA
100
AcDbEntity
  8
0
100
AcDbSpline
 62
7
  6
BYLAYER
 70
0
 71
3
 72
10
 73
6
 74
0
 42
0.0000001
 43
0.0000001
 44
0.0000000001
 40
0.0
 40
0.0
 40
0.0
 40
0.0
 40
0.3176134958
 40
0.6524992763
 40
1.0
 40
1.0
 40
1.0
 40
1.0
 10
24.6596769377
 20
75.3841897929
 30
0.0
 10
24.6878250729
 20
75.3842727182
 30
0.0
 10
24.7457077233
 20
75.3885618315
 30
0.0
 10
24.8326895421
 20
75.4063830293
 30
0.0
 10
24.8907400587
 20
75.4234420499
 30
0.0
 10
24.9201976041
 20
75.432425793
 30
0.0
  0
SPLINE
  5
2DB
100
AcDbEntity
  8
0
100
AcDbSpline
 62
7
  6
BYLAYER
 70
0
 71
3
 72
10
 73
6
 74
0
 42
0.0000001
 43
0.0000001
 44
0.0000000001
 40
0.0
 40
0.0
 40
0.0
 40
0.0
 40
0.4934517165
 40
0.8454148784
 40
1.0
 40
1.0
 40
1.0
 40
1.0
 10
23.2596770711
 20
76.1359534115
 30
0.0
 10
23.2802327202
 20
76.1551320932
 30
0.0
 10
23.3188942593
 20
76.1878681584
 30
0.0
 10
23.359886508
 20
76.216720323
 30
0.0
 10
23.3948708441
 20
76.2318385424
 30
0.0
 10
23.4010984276
 20
76.2256109589
 30
0.0
  0
SPLINE
  5
2DC
100
AcDbEntity
  8
0
100
AcDbSpline
 62
7
  6
BYLAYER
 70
0
 71
3
 72
10
 73
6
 74
0
 42
0.0000001
 43
0.0000001
 44
0.0000000001
 40
0.0
 40
0.0
 40
0.0
 40
0.0
 40
0.3475801356
 40
0.6824737266
 40
1.0
 40
1.0
 40
1.0
 40
1.0
 10
23.9648419282
 20
75.4324257794
 30
0.0
 10
23.9943059529
 20
75.4234392276
 30
0.0
 10
24.0523644972
 20
75.4063799231
 30
0.0
 10
24.1393466311
 20
75.3885614288
 30
0.0
 10
24.1972221264
 20
75.3842717143
 30
0.0
 10
24.2253625149
 20
75.3841896439
 30
0.0
  0
SPLINE
  5
2DD
100
AcDbEntity
  8
0
100
AcDbSpline
 62
7
  6
BYLAYER
 70
0
 71
3
 72
11
 73
7
 74
0
 42
0.0000001
 43
0.0000001
 44
0.0000000001
 40
0.0
 40
0.0
 40
0.0
 40
0.0
 40
0.0930550275
 40
0.3002129915
 40
0.6113890465
 40
1.0
 40
1.0
 40
1.0
 40
1.0
 10
21.4822395518
 20
75.4324257935
 30
0.0
 10
21.4806219991
 20
75.4263890047
 30
0.0
 10
21.5034700497
 20
75.4103168218
 30
0.0
 10
21.5419755804
 20
75.4143814054
 30
0.0
 10
21.6040531153
 20
75.4174930359
 30
0.0
 10
21.6499871349
 20
75.4265837325
 30
0.0
 10
21.675424717
 20
75.4324257934
 30
0.0
  0
SPLINE
  5
2DE
100
AcDbEntity
  8
0
100
AcDbSpline
 62
7
  6
BYLAYER
 70
0
 71
3
 72
9
 73
5
 74
0
 42
0.0000001
 43
0.0000001
 44
0.0000000001
 40
0.0
 40
0.0
 40
0.0
 40
0.0
 40
0.2624159957
 40
1.0
 40
1.0
 40
1.0
 40
1.0
 10
21.4822395503
 20
75.4324257881
 30
0.0
 10
21.4821551906
 20
75.4321109534
 30
0.0
 10
21.4818799895
 20
75.430899952
 30
0.0
 10
21.4818120378
 20
75.4296367669
 30
0.0
 10
21.4819093592
 20
75.4287258149
 30
0.0
  0
SPLINE
  5
2DF
100
AcDbEntity
  8
0
100
AcDbSpline
 62
7
  6
BYLAYER
 70
0
 71
3
 72
12
 73
8
 74
0
 42
0.0000001
 43
0.0000001
 44
0.0000000001
 40
0.0
 40
0.0
 40
0.0
 40
0.0
 40
0.3354721604
 40
0.5778731036
 40
0.7691981354
 40
0.9132935957
 40
1.0
 40
1.0
 40
1.0
 40
1.0
 10
21.5102537205
 20
75.1858136294
 30
0.0
 10
21.5112141122
 20
75.2132363917
 30
0.0
 10
21.5117873318
 20
75.2606444235
 30
0.0
 10
21.5035663268
 20
75.3231557728
 30
0.0
 10
21.4936661134
 20
75.3694085451
 30
0.0
 10
21.48776496
 20
75.4033510763
 30
0.0
 10
21.482263426
 20
75.4216426004
 30
0.0
 10
21.4819093403
 20
75.4287258101
 30
0.0
  0
SPLINE
  5
2E0
100
AcDbEntity
  8
0
100
AcDbSpline
 62
7
  6
BYLAYER
 70
0
 71
3
 72
16
 73
12
 74
0
 42
0.0000001
 43
0.0000001
 44
0.0000000001
 40
0.0
 40
0.0
 40
0.0
 40
0.0
 40
0.1125420989
 40
0.2253019425
 40
0.3358930954
 40
0.4469139324
 40
0.5562099814
 40
0.6688554614
 40
0.7766573974
 40
0.8872807493
 40
1.0
 40
1.0
 40
1.0
 40
1.0
 10
21.3570383186
 20
75.0841896025
 30
0.0
 10
21.3636071388
 20
75.086563371
 30
0.0
 10
21.3767186384
 20
75.0914298044
 30
0.0
 10
21.3960156789
 20
75.0993142011
 30
0.0
 10
21.4149914815
 20
75.1077597349
 30
0.0
 10
21.432974634
 20
75.1176910433
 30
0.0
 10
21.4507898206
 20
75.1282306571
 30
0.0
 10
21.4668651737
 20
75.1409395854
 30
0.0
 10
21.4828430783
 20
75.1538862819
 30
0.0
 10
21.4970412526
 20
75.168813057
 30
0.0
 10
21.5057444212
 20
75.1796218045
 30
0.0
 10
21.5098552661
 20
75.1852820901
 30
0.0
  0
SPLINE
  5
2E1
100
AcDbEntity
  8
0
100
AcDbSpline
 62
7
  6
BYLAYER
 70
0
 71
3
 72
17
 73
13
 74
0
 42
0.0000001
 43
0.0000001
 44
0.0000000001
 40
0.0
 40
0.0
 40
0.0
 40
0.0
 40
0.0681219874
 40
0.1709249195
 40
0.2832776129
 40
0.39516395
 40
0.5002311287
 40
0.5997589243
 40
0.6934735059
 40
0.7860604181
 40
0.8862274322
 40
1.0
 40
1.0
 40
1.0
 40
1.0
 10
21.2903767721
 20
75.2841896025
 30
0.0
 10
21.296798115
 20
75.2841896025
 30
0.0
 10
21.3113619935
 20
75.2749241903
 30
0.0
 10
21.3339797185
 20
75.2619357782
 30
0.0
 10
21.359326052
 20
75.2439799094
 30
0.0
 10
21.3831701753
 20
75.2240029455
 30
0.0
 10
21.4022722918
 20
75.2009615883
 30
0.0
 10
21.4160127721
 20
75.175801793
 30
0.0
 10
21.4162372317
 20
75.1473705597
 30
0.0
 10
21.4018747116
 20
75.1235951726
 30
0.0
 10
21.3817298388
 20
75.1028733311
 30
0.0
 10
21.3658332301
 20
75.0903266969
 30
0.0
 10
21.3570383182
 20
75.0841896025
 30
0.0
  0
LINE
  5
2E2
100
AcDbEntity
  8
0
100
AcDbLine
 62
7
  6
BYLAYER
 10
56.8844692447
 20
69.9123366575
 11
56.7463607932
 21
69.7781377949
  0
SPLINE
  5
2E3
100
AcDbEntity
  8
0
100
AcDbSpline
 62
7
  6
BYLAYER
 70
0
 71
3
 72
9
 73
5
 74
0
 42
0.0000001
 43
0.0000001
 44
0.0000000001
 40
0.0
 40
0.0
 40
0.0
 40
0.0
 40
0.4938255135
 40
1.0
 40
1.0
 40
1.0
 40
1.0
 10
56.9462771681
 20
69.7729285033
 30
0.0
 10
56.9469409578
 20
69.7985756317
 30
0.0
 10
56.9356967169
 20
69.8513246507
 30
0.0
 10
56.9036220144
 20
69.8944007023
 30
0.0
 10
56.8838716004
 20
69.9117635434
 30
0.0
  0
LINE
  5
2E4
100
AcDbEntity
  8
0
100
AcDbLine
 62
7
  6
BYLAYER
 10
51.7264007238
 20
75.2142585581
 11
51.5924463315
 21
75.0842034482
  0
SPLINE
  5
2E5
100
AcDbEntity
  8
0
100
AcDbSpline
 62
7
  6
BYLAYER
 70
0
 71
3
 72
10
 73
6
 74
0
 42
0.0000001
 43
0.0000001
 44
0.0000000001
 40
0.0
 40
0.0
 40
0.0
 40
0.0
 40
0.3304112349
 40
0.6674300696
 40
1.0
 40
1.0
 40
1.0
 40
1.0
 10
51.5924298111
 20
75.2841896025
 30
0.0
 10
51.6096474161
 20
75.2841896024
 30
0.0
 10
51.6446816975
 20
75.2783955679
 30
0.0
 10
51.6914743573
 20
75.2537183694
 30
0.0
 10
51.7166295996
 20
75.2287717104
 30
0.0
 10
51.7272169879
 20
75.2150516753
 30
0.0
  0
LINE
  5
2E6
100
AcDbEntity
  8
0
100
AcDbLine
 62
7
  6
BYLAYER
 10
51.7264004393
 20
75.2142583382
 11
51.5924463065
 21
75.084203491
  0
SPLINE
  5
2E7
100
AcDbEntity
  8
0
100
AcDbSpline
 62
7
  6
BYLAYER
 70
0
 71
3
 72
10
 73
6
 74
0
 42
0.0000001
 43
0.0000001
 44
0.0000000001
 40
0.0
 40
0.0
 40
0.0
 40
0.0
 40
0.3346971471
 40
0.666279392
 40
1.0
 40
1.0
 40
1.0
 40
1.0
 10
27.5280012428
 20
75.0841896025
 30
0.0
 10
27.5084866912
 20
75.0912483159
 30
0.0
 10
27.4696780489
 20
75.1057268606
 30
0.0
 10
27.416389526
 20
75.1384240037
 30
0.0
 10
27.3873430628
 20
75.1685442584
 30
0.0
 10
27.37518393
 20
75.185286103
 30
0.0
  0
SPLINE
  5
2E8
100
AcDbEntity
  8
0
100
AcDbSpline
 62
7
  6
BYLAYER
 70
0
 71
3
 72
9
 73
5
 74
0
 42
0.0000001
 43
0.0000001
 44
0.0000000001
 40
0.0
 40
0.0
 40
0.0
 40
0.0
 40
0.2624204539
 40
1.0
 40
1.0
 40
1.0
 40
1.0
 10
27.402800017
 20
75.432425791
 30
0.0
 10
27.4028843777
 20
75.4321109526
 30
0.0
 10
27.403159578
 20
75.4308999574
 30
0.0
 10
27.4032275349
 20
75.42963678
 30
0.0
 10
27.40313022
 20
75.4287258375
 30
0.0
  0
SPLINE
  5
2E9
100
AcDbEntity
  8
0
100
AcDbSpline
 62
7
  6
BYLAYER
 70
0
 71
3
 72
11
 73
7
 74
0
 42
0.0000001
 43
0.0000001
 44
0.0000000001
 40
0.0
 40
0.0
 40
0.0
 40
0.0
 40
0.2206288762
 40
0.4665289025
 40
0.7249431335
 40
1.0
 40
1.0
 40
1.0
 40
1.0
 10
27.249334619
 20
75.2841896025
 30
0.0
 10
27.2614443277
 20
75.2841896025
 30
0.0
 10
27.2869027498
 20
75.2758657842
 30
0.0
 10
27.3186451228
 20
75.2515981851
 30
0.0
 10
27.3486021516
 20
75.2208758898
 30
0.0
 10
27.3663247907
 20
75.1975106028
 30
0.0
 10
27.37518393
 20
75.185286103
 30
0.0
  0
SPLINE
  5
2EA
100
AcDbEntity
  8
0
100
AcDbSpline
 62
7
  6
BYLAYER
 70
0
 71
3
 72
11
 73
7
 74
0
 42
0.0000001
 43
0.0000001
 44
0.0000000001
 40
0.0
 40
0.0
 40
0.0
 40
0.0
 40
0.2743413265
 40
0.5331074643
 40
0.7794011693
 40
1.0
 40
1.0
 40
1.0
 40
1.0
 10
21.5098546103
 20
75.185275033
 30
0.0
 10
21.5187033899
 20
75.1974587553
 30
0.0
 10
21.5363957712
 20
75.2208217984
 30
0.0
 10
21.5663608415
 20
75.251540336
 30
0.0
 10
21.598119183
 20
75.2758507648
 30
0.0
 10
21.6235967411
 20
75.2841896025
 30
0.0
 10
21.6357049489
 20
75.2841896025
 30
0.0
  0
SPLINE
  5
2EB
100
AcDbEntity
  8
0
100
AcDbSpline
 62
7
  6
BYLAYER
 70
0
 71
3
 72
9
 73
5
 74
0
 42
0.0000001
 43
0.0000001
 44
0.0000000001
 40
0.0
 40
0.0
 40
0.0
 40
0.0
 40
0.2406454647
 40
1.0
 40
1.0
 40
1.0
 40
1.0
 10
21.4819093738
 20
75.42872582
 30
0.0
 10
21.4818776126
 20
75.4290230915
 30
0.0
 10
21.4818090037
 20
75.4302651662
 30
0.0
 10
21.4819953871
 20
75.4315145585
 30
0.0
 10
21.4822395508
 20
75.43242579
 30
0.0
  0
SPLINE
  5
2EC
100
AcDbEntity
  8
0
100
AcDbSpline
 62
7
  6
BYLAYER
 70
0
 71
3
 72
11
 73
7
 74
0
 42
0.0000001
 43
0.0000001
 44
0.0000000001
 40
0.0
 40
0.0
 40
0.0
 40
0.0
 40
0.0922457729
 40
0.2959733622
 40
0.6094675612
 40
1.0
 40
1.0
 40
1.0
 40
1.0
 10
21.4822395541
 20
75.4324258024
 30
0.0
 10
21.4806339777
 20
75.4264337093
 30
0.0
 10
21.502429097
 20
75.4098982715
 30
0.0
 10
21.5415203465
 20
75.4146917303
 30
0.0
 10
21.6033878645
 20
75.4177394519
 30
0.0
 10
21.6497929525
 20
75.4267020514
 30
0.0
 10
21.6754247173
 20
75.4324257935
 30
0.0
  0
SPLINE
  5
2ED
100
AcDbEntity
  8
0
100
AcDbSpline
 62
7
  6
BYLAYER
 70
0
 71
3
 72
10
 73
6
 74
0
 42
0.0000001
 43
0.0000001
 44
0.0000000001
 40
0.0
 40
0.0
 40
0.0
 40
0.0
 40
0.3226659895
 40
0.6578304067
 40
1.0
 40
1.0
 40
1.0
 40
1.0
 10
23.9648426538
 20
75.4324254669
 30
0.0
 10
23.9922173523
 20
75.4241603141
 30
0.0
 10
24.0481156622
 20
75.4075234139
 30
0.0
 10
24.1349520824
 20
75.3891307865
 30
0.0
 10
24.1950388287
 20
75.3841874196
 30
0.0
 10
24.2253624967
 20
75.3841855422
 30
0.0
  0
SPLINE
  5
2EE
100
AcDbEntity
  8
0
100
AcDbSpline
 62
7
  6
BYLAYER
 70
0
 71
3
 72
17
 73
13
 74
0
 42
0.0000001
 43
0.0000001
 44
0.0000000001
 40
0.0
 40
0.0
 40
0.0
 40
0.0
 40
0.0192137683
 40
0.0419192326
 40
0.0702382725
 40
0.1051937977
 40
0.1962438945
 40
0.3148734053
 40
0.4587092785
 40
0.6239322512
 40
0.806103749
 40
1.0
 40
1.0
 40
1.0
 40
1.0
 10
24.0839411541
 20
75.5427681947
 30
0.0
 10
24.0831609457
 20
75.543548403
 30
0.0
 10
24.081003836
 20
75.5448152413
 30
0.0
 10
24.0769463118
 20
75.5453657381
 30
0.0
 10
24.0720076838
 20
75.5448483643
 30
0.0
 10
24.0634263004
 20
75.5425391801
 30
0.0
 10
24.050582274
 20
75.5366786232
 30
0.0
 10
24.033078348
 20
75.5263751325
 30
0.0
 10
24.0128563919
 20
75.5124007508
 30
0.0
 10
23.9905011011
 20
75.4951820333
 30
0.0
 10
23.9666941533
 20
75.4751826052
 30
0.0
 10
23.9506611556
 20
75.460706815
 30
0.0
 10
23.9425196966
 20
75.4531107351
 30
0.0
  0
SPLINE
  5
2EF
100
AcDbEntity
  8
0
100
AcDbSpline
 62
7
  6
BYLAYER
 70
0
 71
3
 72
13
 73
9
 74
0
 42
0.0000001
 43
0.0000001
 44
0.0000000001
 40
0.0
 40
0.0
 40
0.0
 40
0.0
 40
0.0799891875
 40
0.2139097806
 40
0.3859836904
 40
0.572706075
 40
0.7757482053
 40
1.0
 40
1.0
 40
1.0
 40
1.0
 10
23.4010984272
 20
76.2256109593
 30
0.0
 10
23.3978610259
 20
76.2288483604
 30
0.0
 10
23.383128916
 20
76.2273296946
 30
0.0
 10
23.3644241173
 20
76.2177726522
 30
0.0
 10
23.3400466347
 20
76.2026678303
 30
0.0
 10
23.3144050085
 20
76.1834468133
 30
0.0
 10
23.2872438999
 20
76.1610653491
 30
0.0
 10
23.2690620906
 20
76.1447097555
 30
0.0
 10
23.2596770574
 20
76.1359533994
 30
0.0
  0
SPLINE
  5
2F0
100
AcDbEntity
  8
0
100
AcDbSpline
 62
7
  6
BYLAYER
 70
0
 71
3
 72
10
 73
6
 74
0
 42
0.0000001
 43
0.0000001
 44
0.0000000001
 40
0.0
 40
0.0
 40
0.0
 40
0.0
 40
0.1648406925
 40
0.5132228741
 40
1.0
 40
1.0
 40
1.0
 40
1.0
 10
23.3996803057
 20
76.2267065649
 30
0.0
 10
23.3916597038
 20
76.2314499977
 30
0.0
 10
23.3598477084
 20
76.2157195005
 30
0.0
 10
23.3167921109
 20
76.1868005285
 30
0.0
 10
23.2797967397
 20
76.1547253186
 30
0.0
 10
23.259677071
 20
76.1359534121
 30
0.0
  0
SPLINE
  5
2F1
100
AcDbEntity
  8
0
100
AcDbSpline
 62
7
  6
BYLAYER
 70
0
 71
3
 72
17
 73
13
 74
0
 42
0.0000001
 43
0.0000001
 44
0.0000000001
 40
0.0
 40
0.0
 40
0.0
 40
0.0
 40
0.0192137684
 40
0.0419192327
 40
0.0702382728
 40
0.1051937981
 40
0.1962438951
 40
0.3148734063
 40
0.4587092798
 40
0.623932253
 40
0.8061037499
 40
1.0
 40
1.0
 40
1.0
 40
1.0
 10
24.8010984141
 20
75.5427681947
 30
0.0
 10
24.8018786225
 20
75.543548403
 30
0.0
 10
24.8040357321
 20
75.5448152413
 30
0.0
 10
24.8080932563
 20
75.5453657381
 30
0.0
 10
24.8130318844
 20
75.5448483643
 30
0.0
 10
24.8216132677
 20
75.5425391801
 30
0.0
 10
24.8344572942
 20
75.5366786232
 30
0.0
 10
24.8519612202
 20
75.5263751325
 30
0.0
 10
24.8721831762
 20
75.5124007508
 30
0.0
 10
24.8945384669
 20
75.4951820333
 30
0.0
 10
24.9183454146
 20
75.4751826054
 30
0.0
 10
24.9343784122
 20
75.4607068152
 30
0.0
 10
24.9425198711
 20
75.4531107354
 30
0.0
  0
SPLINE
  5
2F2
100
AcDbEntity
  8
0
100
AcDbSpline
 62
7
  6
BYLAYER
 70
0
 71
3
 72
10
 73
6
 74
0
 42
0.0000001
 43
0.0000001
 44
0.0000000001
 40
0.0
 40
0.0
 40
0.0
 40
0.0
 40
0.4934517153
 40
0.8454148734
 40
1.0
 40
1.0
 40
1.0
 40
1.0
 10
25.6253624972
 20
76.1359534121
 30
0.0
 10
25.604806848
 20
76.1551320938
 30
0.0
 10
25.566145308
 20
76.1878681591
 30
0.0
 10
25.5251530619
 20
76.2167203235
 30
0.0
 10
25.4901687218
 20
76.2318385433
 30
0.0
 10
25.4839411397
 20
76.225610958
 30
0.0
  0
SPLINE
  5
2F3
100
AcDbEntity
  8
0
100
AcDbSpline
 62
7
  6
BYLAYER
 70
0
 71
3
 72
11
 73
7
 74
0
 42
0.0000001
 43
0.0000001
 44
0.0000000001
 40
0.0
 40
0.0
 40
0.0
 40
0.0
 40
0.4144703058
 40
0.7281665516
 40
0.9159917907
 40
1.0
 40
1.0
 40
1.0
 40
1.0
 10
27.209614851
 20
75.4324257935
 30
0.0
 10
27.2368922337
 20
75.4265194544
 30
0.0
 10
27.285086172
 20
75.4170598261
 30
0.0
 10
27.3471165249
 20
75.4144864295
 30
0.0
 10
27.3857883423
 20
75.4107299964
 30
0.0
 10
27.4042641362
 20
75.4269616232
 30
0.0
 10
27.4028000163
 20
75.4324257934
 30
0.0
  0
SPLINE
  5
2F4
100
AcDbEntity
  8
0
100
AcDbSpline
 62
7
  6
BYLAYER
 70
0
 71
3
 72
10
 73
6
 74
0
 42
0.0000001
 43
0.0000001
 44
0.0000000001
 40
0.0
 40
0.0
 40
0.0
 40
0.0
 40
0.3421466012
 40
0.6773080439
 40
1.0
 40
1.0
 40
1.0
 40
1.0
 10
24.6596769603
 20
75.3841856618
 30
0.0
 10
24.6899986894
 20
75.3841870838
 30
0.0
 10
24.7500833214
 20
75.3891307922
 30
0.0
 10
24.8369201219
 20
75.4075225551
 30
0.0
 10
24.8928209052
 20
75.4241591015
 30
0.0
 10
24.9201976394
 20
75.4324257954
 30
0.0
  0
SPLINE
  5
2F5
100
AcDbEntity
  8
0
100
AcDbSpline
 62
7
  6
BYLAYER
 70
0
 71
3
 72
10
 73
6
 74
0
 42
0.0000001
 43
0.0000001
 44
0.0000000001
 40
0.0
 40
0.0
 40
0.0
 40
0.0
 40
0.3849829017
 40
0.7100899053
 40
1.0
 40
1.0
 40
1.0
 40
1.0
 10
27.2028940159
 20
76.1474541699
 30
0.0
 10
27.2048208742
 20
76.1465307262
 30
0.0
 10
27.2082604166
 20
76.1445446668
 30
0.0
 10
27.2123134564
 20
76.1406468898
 30
0.0
 10
27.2138739082
 20
76.1375076277
 30
0.0
 10
27.2142903591
 20
76.1359534118
 30
0.0
  0
SPLINE
  5
2F6
100
AcDbEntity
  8
0
100
AcDbSpline
 62
7
  6
BYLAYER
 70
0
 71
3
 72
17
 73
13
 74
0
 42
0.0000001
 43
0.0000001
 44
0.0000000001
 40
0.0
 40
0.0
 40
0.0
 40
0.0
 40
0.123411239
 40
0.2337305294
 40
0.3328665735
 40
0.4298315424
 40
0.5251528614
 40
0.6264615909
 40
0.7337500983
 40
0.8397197394
 40
0.9362479021
 40
1.0
 40
1.0
 40
1.0
 40
1.0
 10
21.3570383192
 20
75.0841896025
 30
0.0
 10
21.3666200788
 20
75.0907826821
 30
0.0
 10
21.3838440624
 20
75.1046841097
 30
0.0
 10
21.4054103206
 20
75.1275180754
 30
0.0
 10
21.4183509701
 20
75.1548492073
 30
0.0
 10
21.4127764459
 20
75.1832264543
 30
0.0
 10
21.3980061081
 20
75.206809704
 30
0.0
 10
21.3786703755
 20
75.2281544055
 30
0.0
 10
21.3555473869
 20
75.246723917
 30
0.0
 10
21.3314173322
 20
75.2635445118
 30
0.0
 10
21.3101124731
 20
75.2757004879
 30
0.0
 10
21.2963851157
 20
75.2841896024
 30
0.0
 10
21.2903767734
 20
75.2841896025
 30
0.0
  0
SPLINE
  5
2F7
100
AcDbEntity
  8
0
100
AcDbSpline
 62
7
  6
BYLAYER
 70
0
 71
3
 72
12
 73
8
 74
0
 42
0.0000001
 43
0.0000001
 44
0.0000000001
 40
0.0
 40
0.0
 40
0.0
 40
0.0
 40
0.0868189541
 40
0.2387863323
 40
0.440628634
 40
0.6883965033
 40
1.0
 40
1.0
 40
1.0
 40
1.0
 10
21.4819093413
 20
75.4287258267
 30
0.0
 10
21.4823376796
 20
75.4216209362
 30
0.0
 10
21.4877519092
 20
75.4026151565
 30
0.0
 10
21.4942390883
 20
75.3671540439
 30
0.0
 10
21.5041418972
 20
75.3188097902
 30
0.0
 10
21.5123638709
 20
75.256809863
 30
0.0
 10
21.5113881966
 20
75.2107788263
 30
0.0
 10
21.5098545978
 20
75.1852783074
 30
0.0
  0
SPLINE
  5
2F8
100
AcDbEntity
  8
0
100
AcDbSpline
 62
7
  6
BYLAYER
 70
0
 71
3
 72
15
 73
11
 74
0
 42
0.0000001
 43
0.0000001
 44
0.0000000001
 40
0.0
 40
0.0
 40
0.0
 40
0.0
 40
0.1248441116
 40
0.2497028794
 40
0.3746026595
 40
0.4995609487
 40
0.6245818149
 40
0.7496629328
 40
0.8748032101
 40
1.0
 40
1.0
 40
1.0
 40
1.0
 10
21.2903767639
 20
75.2841896025
 30
0.0
 10
21.3010785675
 20
75.2841896023
 30
0.0
 10
21.322523883
 20
75.2859268673
 30
0.0
 10
21.3538227879
 20
75.2936818134
 30
0.0
 10
21.3834818551
 20
75.3063796111
 30
0.0
 10
21.4107243905
 20
75.3236849984
 30
0.0
 10
21.434849638
 20
75.3451464642
 30
0.0
 10
21.4552315119
 20
75.3702131735
 30
0.0
 10
21.4713344545
 20
75.3982294088
 30
0.0
 10
21.4789420554
 20
75.4184121671
 30
0.0
 10
21.4819093399
 20
75.4287258383
 30
0.0
  0
SPLINE
  5
2F9
100
AcDbEntity
  8
0
100
AcDbSpline
 62
7
  6
BYLAYER
 70
0
 71
3
 72
9
 73
5
 74
0
 42
0.0000001
 43
0.0000001
 44
0.0000000001
 40
0.0
 40
0.0
 40
0.0
 40
0.0
 40
0.5061744279
 40
1.0
 40
1.0
 40
1.0
 40
1.0
 10
56.8838717805
 20
69.9117662819
 30
0.0
 10
56.9036221718
 20
69.8944034328
 30
0.0
 10
56.9356968288
 20
69.8513273711
 30
0.0
 10
56.946941037
 20
69.7985783672
 30
0.0
 10
56.9462772409
 20
69.7729312444
 30
0.0
  0
LINE
  5
2FA
100
AcDbEntity
  8
0
100
AcDbLine
 62
7
  6
BYLAYER
 10
56.8844662528
 20
69.9123369944
 11
56.7463585532
 21
69.7781389929
  0
SPLINE
  5
2FB
100
AcDbEntity
  8
0
100
AcDbSpline
 62
7
  6
BYLAYER
 70
0
 71
3
 72
13
 73
9
 74
0
 42
0.0000001
 43
0.0000001
 44
0.0000000001
 40
0.0
 40
0.0
 40
0.0
 40
0.0
 40
0.2882763625
 40
0.4622824081
 40
0.4999997192
 40
0.539620963
 40
0.7102282255
 40
1.0
 40
1.0
 40
1.0
 40
1.0
 10
56.8837210284
 20
69.9118986651
 30
0.0
 10
56.8983502207
 20
70.3809352028
 30
0.0
 10
56.925060805
 20
71.2299027478
 30
0.0
 10
56.9435113749
 20
71.8122644808
 30
0.0
 10
56.963954931
 20
72.4518186761
 30
0.0
 10
56.9433835054
 20
71.8082516174
 30
0.0
 10
56.9251691978
 20
71.2332754493
 30
0.0
 10
56.8984260676
 20
70.3833655517
 30
0.0
 10
56.8837208479
 20
69.9118959265
 30
0.0
  0
SPLINE
  5
2FC
100
AcDbEntity
  8
0
100
AcDbSpline
 62
7
  6
BYLAYER
 70
0
 71
3
 72
21
 73
17
 74
0
 42
0.0000001
 43
0.0000001
 44
0.0000000001
 40
0.0
 40
0.0
 40
0.0
 40
0.0
 40
0.0887015531
 40
0.1778477461
 40
0.2696807957
 40
0.3158869912
 40
0.36135636
 40
0.4022233426
 40
0.4425149562
 40
0.523567335
 40
0.6055659498
 40
0.6863993797
 40
0.7668705195
 40
0.8462851132
 40
0.9244233642
 40
1.0
 40
1.0
 40
1.0
 40
1.0
 10
12.2647186365
 20
36.279090025
 30
0.0
 10
12.2616766812
 20
35.9541270142
 30
0.0
 10
12.2587314382
 20
35.3025363475
 30
0.0
 10
12.2652514967
 20
34.3145029993
 30
0.0
 10
12.2814620332
 20
33.4822874284
 30
0.0
 10
12.3020777221
 20
32.8102747232
 30
0.0
 10
12.3206164865
 20
32.3250255737
 30
0.0
 10
12.3419165815
 20
31.8615811796
 30
0.0
 10
12.373884401
 20
31.2681418931
 30
0.0
 10
12.4226684723
 20
30.5247168181
 30
0.0
 10
12.4960975496
 20
29.6341710339
 30
0.0
 10
12.5852810978
 20
28.7471997788
 30
0.0
 10
12.6898205579
 20
27.8714389295
 30
0.0
 10
12.808958851
 20
27.0075199226
 30
0.0
 10
12.9392371691
 20
26.1633599547
 30
0.0
 10
13.0335063442
 20
25.6081172414
 30
0.0
 10
13.0815568456
 20
25.3354270624
 30
0.0
  0
LINE
  5
2FD
100
AcDbEntity
  8
0
100
AcDbLine
 62
7
  6
BYLAYER
 10
15.6540134772
 20
32.8898292588
 11
15.137037126
 21
25.3354293492
  0
LINE
  5
2FE
100
AcDbEntity
  8
0
100
AcDbLine
 62
7
  6
BYLAYER
 10
21.1875590035
 20
27.3562274113
 11
21.637037069
 21
25.3354285162
  0
LINE
  5
2FF
100
AcDbEntity
  8
0
100
AcDbLine
 62
7
  6
BYLAYER
 10
15.6540098698
 20
32.8897765453
 11
15.137037069
 21
25.3354285162
  0
LINE
  5
300
100
AcDbEntity
  8
0
100
AcDbLine
 62
7
  6
BYLAYER
 10
9.8738505046
 20
38.6699359104
 11
8.6370373613
 21
25.3354316674
  0
SPLINE
  5
301
100
AcDbEntity
  8
0
100
AcDbSpline
 62
7
  6
BYLAYER
 70
0
 71
3
 72
11
 73
7
 74
0
 42
0.0000001
 43
0.0000001
 44
0.0000000001
 40
0.0
 40
0.0
 40
0.0
 40
0.0
 40
0.1260219179
 40
0.3421972568
 40
0.6453673496
 40
1.0
 40
1.0
 40
1.0
 40
1.0
 10
21.6707492087
 20
76.1359534107
 30
0.0
 10
21.6729215125
 20
76.1440605592
 30
0.0
 10
21.6983250585
 20
76.1550965783
 30
0.0
 10
21.7392488673
 20
76.1557516187
 30
0.0
 10
21.7983045304
 20
76.1506745954
 30
0.0
 10
21.8410208172
 20
76.1416817999
 30
0.0
 10
21.8639343741
 20
76.1359534107
 30
0.0
  0
SPLINE
  5
302
100
AcDbEntity
  8
0
100
AcDbSpline
 62
7
  6
BYLAYER
 70
0
 71
3
 72
10
 73
6
 74
0
 42
0.0000001
 43
0.0000001
 44
0.0000000001
 40
0.0
 40
0.0
 40
0.0
 40
0.0
 40
0.3849828987
 40
0.7100899028
 40
1.0
 40
1.0
 40
1.0
 40
1.0
 10
21.6821455522
 20
76.14745417
 30
0.0
 10
21.6802186939
 20
76.1465307262
 30
0.0
 10
21.6767791515
 20
76.1445446668
 30
0.0
 10
21.6727261116
 20
76.1406468898
 30
0.0
 10
21.6711656598
 20
76.1375076277
 30
0.0
 10
21.6707492089
 20
76.1359534118
 30
0.0
  0
SPLINE
  5
303
100
AcDbEntity
  8
0
100
AcDbSpline
 62
7
  6
BYLAYER
 70
0
 71
3
 72
10
 73
6
 74
0
 42
0.0000001
 43
0.0000001
 44
0.0000000001
 40
0.0
 40
0.0
 40
0.0
 40
0.0
 40
0.4237394453
 40
0.7728076083
 40
1.0
 40
1.0
 40
1.0
 40
1.0
 10
21.8639343742
 20
76.1359534118
 30
0.0
 10
21.838716826
 20
76.1422577989
 30
0.0
 10
21.7919587008
 20
76.1516963129
 30
0.0
 10
21.7312522938
 20
76.1564374453
 30
0.0
 10
21.6947135569
 20
76.1534773662
 30
0.0
 10
21.6821455522
 20
76.14745417
 30
0.0
  0
SPLINE
  5
304
100
AcDbEntity
  8
0
100
AcDbSpline
 62
7
  6
BYLAYER
 70
0
 71
3
 72
15
 73
11
 74
0
 42
0.0000001
 43
0.0000001
 44
0.0000000001
 40
0.0
 40
0.0
 40
0.0
 40
0.0
 40
0.0698535704
 40
0.166019249
 40
0.2854014517
 40
0.4271339849
 40
0.5615656594
 40
0.7004831522
 40
0.8334989542
 40
1.0
 40
1.0
 40
1.0
 40
1.0
 10
27.2142903591
 20
76.1359534116
 30
0.0
 10
27.2130814189
 20
76.1404652379
 30
0.0
 10
27.2037013009
 20
76.1486882414
 30
0.0
 10
27.185205589
 20
76.1532010784
 30
0.0
 10
27.1613043381
 20
76.1554677547
 30
0.0
 10
27.1348373617
 20
76.1548204019
 30
0.0
 10
27.1071801978
 20
76.1523153243
 30
0.0
 10
27.0802719845
 20
76.1484590479
 30
0.0
 10
27.0514412985
 20
76.143106441
 30
0.0
 10
27.0319064056
 20
76.1386537145
 30
0.0
 10
27.0211051939
 20
76.1359534116
 30
0.0
  0
SPLINE
  5
305
100
AcDbEntity
  8
0
100
AcDbSpline
 62
7
  6
BYLAYER
 70
0
 71
3
 72
11
 73
7
 74
0
 42
0.0000001
 43
0.0000001
 44
0.0000000001
 40
0.0
 40
0.0
 40
0.0
 40
0.0
 40
0.1260219191
 40
0.3421972587
 40
0.6453673519
 40
1.0
 40
1.0
 40
1.0
 40
1.0
 10
27.2142903592
 20
76.1359534116
 30
0.0
 10
27.2121180553
 20
76.1440605601
 30
0.0
 10
27.1867145092
 20
76.1550965792
 30
0.0
 10
27.1457907004
 20
76.1557516195
 30
0.0
 10
27.0867350375
 20
76.1506745963
 30
0.0
 10
27.044018751
 20
76.1416818009
 30
0.0
 10
27.0211051944
 20
76.1359534117
 30
0.0
  0
SPLINE
  5
306
100
AcDbEntity
  8
0
100
AcDbSpline
 62
7
  6
BYLAYER
 70
0
 71
3
 72
10
 73
6
 74
0
 42
0.0000001
 43
0.0000001
 44
0.0000000001
 40
0.0
 40
0.0
 40
0.0
 40
0.0
 40
0.3265844608
 40
0.6608495684
 40
1.0
 40
1.0
 40
1.0
 40
1.0
 10
27.0754229507
 20
76.1474541699
 30
0.0
 10
27.0694648591
 20
76.1464302056
 30
0.0
 10
27.0574360291
 20
76.1441951798
 30
0.0
 10
27.0393256428
 20
76.1403562851
 30
0.0
 10
27.0271957987
 20
76.137476063
 30
0.0
 10
27.0211051943
 20
76.1359534119
 30
0.0
  0
ENDSEC
  0
SECTION
  2
OBJECTS
  0
DICTIONARY
  5
C
100
AcDbDictionary
280
0
281
1
  3
ACAD_GROUP
350
D
  3
ACAD_MLINESTYLE
350
17
  3
ACAD_LAYOUT
350
1A
  3
ACAD_PLOTSETTINGS
350
19
  3
ACAD_PLOTSTYLENAME
350
E
  0
DICTIONARY
  5
D
102
{ACAD_REACTORS
330
C
102
}
100
AcDbDictionary
280
0
281
1
  0
ACDBDICTIONARYWDFLT
  5
E
102
{ACAD_REACTORS
330
C
102
}
100
AcDbDictionary
281
1
  3
Normal
350
F
100
AcDbDictionaryWithDefault
340
F
  0
DICTIONARY
  5
17
102
{ACAD_REACTORS
330
C
102
}
100
AcDbDictionary
280
0
281
1
  3
Standard
350
18
  0
DICTIONARY
  5
19
102
{ACAD_REACTORS
330
C
102
}
100
AcDbDictionary
281
1
  0
DICTIONARY
  5
1A
102
{ACAD_REACTORS
330
C
102
}
100
AcDbDictionary
281
1
  3
Model
350
307
  3
Layout1
350
308
  0
ACDBPLACEHOLDER
  5
F
102
{ACAD_REACTORS
330
E
102
}
  0
MLINESTYLE
  5
18
102
{ACAD_REACTORS
330
17
102
}
100
AcDbMlineStyle
  2
STANDARD
 70
0
  3

 62
256
 51
90.0
 52
90.0
 71
2
 49
0.5
 62
256
  6
BYLAYER
 49
-0.5
 62
256
  6
BYLAYER
  0
LAYOUT
  5
307
102
{ACAD_REACTORS
330
1A
102
}
100
AcDbPlotSettings
  1

  2
none_device
  4

  6

 40
0.0
 41
0.0
 42
0.0
 43
0.0
 44
210.0
 45
297.0
 46
0.0
 47
0.0
 48
0.0
 49
0.0
140
0.0
141
0.0
142
1.0
143
1.0
 70
1024
 72
1
 73
0
 74
0
  7

 75
0
147
1.0
148
0.0
149
0.0
100
AcDbLayout
  1
Model
 70
0
 71
0
 10
0.0
 20
0.0
 11
210.0
 21
297.0
 12
0.0
 22
0.0
 32
0.0
 14
0.0
 24
0.0
 34
0.0
 15
0.0
 25
0.0
 35
0.0
146
0.0
 13
0.0
 23
0.0
 33
0.0
 16
1.0
 26
0.0
 36
0.0
 17
0.0
 27
1.0
 37
0.0
 76
0
330
210
345
0
346
0
  0
LAYOUT
  5
308
102
{ACAD_REACTORS
330
1A
102
}
100
AcDbPlotSettings
  1

  2
none_device
  4

  6

 40
0.0
 41
0.0
 42
0.0
 43
0.0
 44
210.0
 45
297.0
 46
0.0
 47
0.0
 48
0.0
 49
0.0
140
0.0
141
0.0
142
1.0
143
1.0
 70
0
 72
1
 73
0
 74
0
  7

 75
0
147
1.0
148
0.0
149
0.0
100
AcDbLayout
  1
Layout1
 70
0
 71
1
 10
0.0
 20
0.0
 11
210.0
 21
297.0
 12
0.0
 22
0.0
 32
0.0
 14
0.0
 24
0.0
 34
0.0
 15
0.0
 25
0.0
 35
0.0
146
0.0
 13
0.0
 23
0.0
 33
0.0
 16
1.0
 26
0.0
 36
0.0
 17
0.0
 27
1.0
 37
0.0
 76
0
330
211
345
0
346
0
  0
ENDSEC
  0
EOF
