999
DXF file: C:\Users\sesa63760\Dev\_Creo\CAD\MCADID0001636_3D-CAD\drw0001_2.dxf
999
Pro/ENGINEER 2019471 by Parametric Technology Corporation
  0
SECTION
  2
HEADER
  9
$ACADVER
  1
AC1024
  9
$DWGCODEPAGE
  3
ANSI_1252
  9
$EXTMAX
 10
132.1482801875
 20
186.8954248366
 30
0.0
  9
$EXTMIN
 10
0.0
 20
0.0
 30
0.0
  9
$LIMMIN
 10
0.0
 20
0.0
  9
$LIMMAX
 10
132.1482801875
 20
186.8954248366
  9
$VIEWCTR
 10
66.0741400937
 20
93.4477124183
  9
$VIEWSIZE
 40
186.8954248366
  9
$CLAYER
  8
0
  9
$LTSCALE
 40
12.1828128782
  9
$CELTYPE
  6
BYLAYER
  9
$DIMSCALE
 40
1.0
  9
$DIMASZ
 40
1.5731938118
  9
$DIMEXO
 40
1.0
  9
$DIMDLI
 40
8.4172161704
  9
$DIMEXE
 40
1.0
  9
$DIMCEN
 40
1.9935511983
  9
$DIMLFAC
 40
1.0
  9
$DIMBLK
  1
_FILLED
  9
$DIMALT
 70
0
  9
$DIMALTF
 40
0.0393700787
  9
$DIMTXT
 40
2.2024713365
  9
$DIMTOL
 70
1
  9
$DIMLIM
 70
0
  9
$DIMTFAC
 40
1.0
  9
$DIMTP
 40
0.01
  9
$DIMTM
 40
0.01
  9
$DIMGAP
 40
0.625
  9
$DIMDSEP
 70
46
  9
$AUNITS
 70
0
  9
$PDMODE
 70
3
  9
$PDSIZE
 40
0.3125
  9
$HANDSEED
  5
393
  9
$TILEMODE
 70
1
  9
$MEASUREMENT
 70
1
  9
$INSUNITS
 70
4
  0
ENDSEC
  0
SECTION
  2
CLASSES
  0
CLASS
  1
ACDBDICTIONARYWDFLT
  2
AcDbDictionaryWithDefault
  3
AutoCAD 2000
 90
0
 91
1
280
0
281
0
  0
CLASS
  1
ACDBPLACEHOLDER
  2
AcDbPlaceHolder
  3
AutoCAD 2000
 90
0
 91
1
280
0
281
0
  0
CLASS
  1
LAYOUT
  2
AcDbLayout
  3
AutoCAD 2000
 90
0
 91
0
280
0
281
0
  0
ENDSEC
  0
SECTION
  2
TABLES
  0
TABLE
  2
VPORT
  5
8
100
AcDbSymbolTable
 70
2
  0
VPORT
  5
1F4
100
AcDbSymbolTableRecord
100
AcDbViewportTableRecord
  2
*ACTIVE
 70
0
 10
0.0
 20
0.0
 11
1.0
 21
1.0
 12
66.0741400937
 22
93.4477124183
 13
0.0
 23
0.0
 14
1.0
 24
1.0
 15
0.0
 25
0.0
 16
0.0
 26
0.0
 36
1.0
 17
0.0
 27
0.0
 37
0.0
 40
186.8954248366
 41
0.7070707071
 42
50.0
 43
0.0
 44
0.0
 50
0.0
 51
0.0
 71
0
 72
100
 73
1
 74
1
 75
0
 76
0
 77
0
 78
0
  0
ENDTAB
  0
TABLE
  2
LTYPE
  5
5
100
AcDbSymbolTable
 70
6
  0
LTYPE
  5
14
100
AcDbSymbolTableRecord
100
AcDbLinetypeTableRecord
  2
BYBLOCK
 70
0
  3

 72
65
 73
0
 40
0.0
  0
LTYPE
  5
15
100
AcDbSymbolTableRecord
100
AcDbLinetypeTableRecord
  2
BYLAYER
 70
0
  3

 72
65
 73
0
 40
0.0
  0
LTYPE
  5
16
100
AcDbSymbolTableRecord
100
AcDbLinetypeTableRecord
  2
CONTINUOUS
 70
64
  3
Solid line
 72
65
 73
0
 40
0.0
  0
LTYPE
  5
1F5
100
AcDbSymbolTableRecord
100
AcDbLinetypeTableRecord
  2
CENTER
 70
64
  3
____ _ ____ _ ____ _ ____ _ ____ _ ____ _ ____
 72
65
 73
4
 40
0.6
 49
0.375
 74
0
 49
-0.075
 74
0
 49
0.075
 74
0
 49
-0.075
 74
0
  0
LTYPE
  5
1F6
100
AcDbSymbolTableRecord
100
AcDbLinetypeTableRecord
  2
HIDDEN
 70
64
  3
- - - - - - - - - - - - - - - - - - - -
 72
65
 73
2
 40
0.2
 49
0.1
 74
0
 49
-0.1
 74
0
  0
LTYPE
  5
1F7
100
AcDbSymbolTableRecord
100
AcDbLinetypeTableRecord
  2
PHANTOM
 70
64
  3
_____ _ _ _____ _ _ _____ _ _ _____
 72
65
 73
6
 40
0.8
 49
0.45
 74
0
 49
-0.05
 74
0
 49
0.1
 74
0
 49
-0.05
 74
0
 49
0.1
 74
0
 49
-0.05
 74
0
  0
LTYPE
  5
1F8
100
AcDbSymbolTableRecord
100
AcDbLinetypeTableRecord
  2
DOT
 70
64
  3
. . . . . . . . . . . . . . . . . . . .
 72
65
 73
2
 40
0.2
 49
0.1
 74
0
 49
-0.1
 74
0
  0
LTYPE
  5
1F9
100
AcDbSymbolTableRecord
100
AcDbLinetypeTableRecord
  2
DASHED
 70
64
  3
- - - - - - - - - - - - - - - - - - - -
 72
65
 73
2
 40
0.2
 49
0.1
 74
0
 49
-0.1
 74
0
  0
ENDTAB
  0
TABLE
  2
LAYER
  5
2
100
AcDbSymbolTable
 70
36
  0
LAYER
  5
10
100
AcDbSymbolTableRecord
100
AcDbLayerTableRecord
  2
0
 70
0
 62
7
  6
CONTINUOUS
370
-3
390
F
  0
LAYER
  5
1FA
100
AcDbSymbolTableRecord
100
AcDbLayerTableRecord
  2
DEFAULT_1
 70
0
 62
7
  6
CENTER
370
-3
390
F
  0
LAYER
  5
1FB
100
AcDbSymbolTableRecord
100
AcDbLayerTableRecord
  2
DEFAULT_2
 70
0
 62
8
  6
HIDDEN
370
-3
390
F
  0
LAYER
  5
1FC
100
AcDbSymbolTableRecord
100
AcDbLayerTableRecord
  2
DEFAULT_3
 70
0
 62
7
  6
PHANTOM
370
-3
390
F
  0
LAYER
  5
1FD
100
AcDbSymbolTableRecord
100
AcDbLayerTableRecord
  2
00_COMPONENTS
 70
0
 62
7
  6
CONTINUOUS
370
-3
390
F
  0
LAYER
  5
1FE
100
AcDbSymbolTableRecord
100
AcDbLayerTableRecord
  2
01_1_DEFAULT_DATUMS
 70
0
 62
7
  6
CONTINUOUS
370
-3
390
F
  0
LAYER
  5
1FF
100
AcDbSymbolTableRecord
100
AcDbLayerTableRecord
  2
01_PLANES
 70
0
 62
7
  6
CONTINUOUS
370
-3
390
F
  0
LAYER
  5
200
100
AcDbSymbolTableRecord
100
AcDbLayerTableRecord
  2
02_COORD_SYS
 70
0
 62
7
  6
CONTINUOUS
370
-3
390
F
  0
LAYER
  5
201
100
AcDbSymbolTableRecord
100
AcDbLayerTableRecord
  2
03_AXES
 70
0
 62
7
  6
CONTINUOUS
370
-3
390
F
  0
LAYER
  5
202
100
AcDbSymbolTableRecord
100
AcDbLayerTableRecord
  2
04_POINTS
 70
0
 62
7
  6
CONTINUOUS
370
-3
390
F
  0
LAYER
  5
203
100
AcDbSymbolTableRecord
100
AcDbLayerTableRecord
  2
05_CURVES
 70
0
 62
7
  6
CONTINUOUS
370
-3
390
F
  0
LAYER
  5
204
100
AcDbSymbolTableRecord
100
AcDbLayerTableRecord
  2
06_SURFS
 70
0
 62
7
  6
CONTINUOUS
370
-3
390
F
  0
LAYER
  5
205
100
AcDbSymbolTableRecord
100
AcDbLayerTableRecord
  2
07_COSMETICS
 70
0
 62
7
  6
CONTINUOUS
370
-3
390
F
  0
LAYER
  5
206
100
AcDbSymbolTableRecord
100
AcDbLayerTableRecord
  2
10_NOTES
 70
0
 62
7
  6
CONTINUOUS
370
-3
390
F
  0
LAYER
  5
207
100
AcDbSymbolTableRecord
100
AcDbLayerTableRecord
  2
11_NOTES_PUB
 70
0
 62
7
  6
CONTINUOUS
370
-3
390
F
  0
LAYER
  5
208
100
AcDbSymbolTableRecord
100
AcDbLayerTableRecord
  2
13_REF_GTOL
 70
0
 62
7
  6
CONTINUOUS
370
-3
390
F
  0
LAYER
  5
209
100
AcDbSymbolTableRecord
100
AcDbLayerTableRecord
  2
16_MISC
 70
0
 62
7
  6
CONTINUOUS
370
-3
390
F
  0
LAYER
  5
20A
100
AcDbSymbolTableRecord
100
AcDbLayerTableRecord
  2
17_NO_PRINT
 70
0
 62
7
  6
CONTINUOUS
370
-3
390
F
  0
LAYER
  5
20B
100
AcDbSymbolTableRecord
100
AcDbLayerTableRecord
  2
18_DATUM_CAMS_JOINTS
 70
0
 62
7
  6
CONTINUOUS
370
-3
390
F
  0
LAYER
  5
20C
100
AcDbSymbolTableRecord
100
AcDbLayerTableRecord
  2
19_DATUM_FUNCTIONAL
 70
0
 62
7
  6
CONTINUOUS
370
-3
390
F
  0
LAYER
  5
20D
100
AcDbSymbolTableRecord
100
AcDbLayerTableRecord
  2
20_DATUM_KINEMATIC_SCHEME
 70
0
 62
7
  6
CONTINUOUS
370
-3
390
F
  0
ENDTAB
  0
TABLE
  2
STYLE
  5
3
100
AcDbSymbolTable
 70
1
  0
STYLE
  5
11
100
AcDbSymbolTableRecord
100
AcDbTextStyleTableRecord
  2
STANDARD
 70
0
 40
0.0
 41
0.8
 50
0.0
 71
0
 42
0.2
  3
txt
  4

  0
STYLE
  5
20E
100
AcDbSymbolTableRecord
100
AcDbTextStyleTableRecord
  2
TEXTSTYLE_1
 70
0
 40
0.0
 41
0.8
 50
0.0
 71
0
 42
0.2
  3
gdt
  4

  0
ENDTAB
  0
TABLE
  2
VIEW
  5
6
100
AcDbSymbolTable
 70
0
  0
ENDTAB
  0
TABLE
  2
UCS
  5
7
100
AcDbSymbolTable
 70
0
  0
ENDTAB
  0
TABLE
  2
APPID
  5
9
100
AcDbSymbolTable
 70
1
  0
APPID
  5
20F
100
AcDbSymbolTableRecord
100
AcDbRegAppTableRecord
  2
ACAD
 70
0
  0
ENDTAB
  0
TABLE
  2
BLOCK_RECORD
  5
1
100
AcDbSymbolTable
 70
0
  0
BLOCK_RECORD
  5
210
100
AcDbSymbolTableRecord
100
AcDbBlockTableRecord
  2
*Model_Space
  0
BLOCK_RECORD
  5
211
100
AcDbSymbolTableRecord
100
AcDbBlockTableRecord
  2
*Paper_Space
  0
BLOCK_RECORD
  5
212
100
AcDbSymbolTableRecord
100
AcDbBlockTableRecord
  2
_FILLED
  0
ENDTAB
  0
TABLE
  2
DIMSTYLE
  5
A
100
AcDbSymbolTable
 70
1
100
AcDbDimStyleTable
 71
0
  0
DIMSTYLE
105
213
100
AcDbSymbolTableRecord
100
AcDbDimStyleTableRecord
  2
STANDARD
 70
0
  3

  4

 40
1.0
 41
1.5731938118
 42
1.0
 43
0.38
 44
1.0
 45
0.0
 46
0.0
 47
0.01
 48
0.01
140
2.2024713365
141
0.09
142
0.0
143
25.4
144
1.0
145
0.0
146
1.0
147
0.625
 71
1
 72
0
 73
0
 74
0
 75
0
 76
0
 77
1
 78
8
 79
2
170
0
171
1
172
0
173
0
174
0
175
0
176
0
177
0
178
0
270
2
179
2
271
2
272
2
273
2
274
2
275
0
280
0
281
0
282
0
283
1
284
8
285
0
286
0
287
3
288
0
340
11
278
46
341
212
342
212
343
212
344
212
  0
ENDTAB
  0
ENDSEC
  0
SECTION
  2
BLOCKS
  0
BLOCK
  5
20
100
AcDbEntity
  8
0
100
AcDbBlockBegin
  2
*Model_Space
 70
0
 10
0.0
 20
0.0
 30
0.0
  3
*Model_Space
  1

  0
ENDBLK
  5
21
100
AcDbEntity
  8
0
100
AcDbBlockEnd
  0
BLOCK
  5
1C
100
AcDbEntity
  8
0
100
AcDbBlockBegin
  2
*Paper_Space
 70
0
 10
0.0
 20
0.0
 30
0.0
  3
*Paper_Space
  1

  0
ENDBLK
  5
1D
100
AcDbEntity
  8
0
100
AcDbBlockEnd
  0
BLOCK
  5
214
100
AcDbEntity
  8
0
100
AcDbBlockBegin
  2
_FILLED
 70
64
 10
0.0
 20
0.0
  3
_FILLED
  1

  0
SOLID
  5
215
100
AcDbEntity
  8
0
  6
BYBLOCK
 62
0
100
AcDbTrace
 10
0.0
 20
0.0
 11
-1.0
 21
0.25
 12
-1.0
 22
-0.25
 13
-1.0
 23
-0.25
  0
ENDBLK
  5
216
100
AcDbEntity
  8
0
  6
BYBLOCK
 62
0
100
AcDbBlockEnd
  0
ENDSEC
  0
SECTION
  2
ENTITIES
  0
LINE
  5
217
100
AcDbEntity
  8
0
100
AcDbLine
 62
7
  6
CONTINUOUS
 10
21.2391727735
 20
157.7279292656
 11
22.4891727735
 21
158.4496171021
  0
LINE
  5
218
100
AcDbEntity
  8
0
100
AcDbLine
 62
7
  6
CONTINUOUS
 10
21.2391727735
 20
156.7279292656
 11
22.4891727735
 21
157.4496171021
  0
LINE
  5
219
100
AcDbEntity
  8
0
100
AcDbLine
 62
7
  6
CONTINUOUS
 10
14.4891727735
 20
15.4279292656
 11
119.4891727735
 21
15.4279292656
  0
LINE
  5
21A
100
AcDbEntity
  8
0
100
AcDbLine
 62
7
  6
CONTINUOUS
 10
119.4891727735
 20
17.4279292656
 11
14.4891727735
 21
17.4279292656
  0
LINE
  5
21B
100
AcDbEntity
  8
0
100
AcDbLine
 62
7
  6
CONTINUOUS
 10
51.2391727735
 20
157.7279292656
 11
52.4891727735
 21
158.4496171021
  0
LINE
  5
21C
100
AcDbEntity
  8
0
100
AcDbLine
 62
7
  6
CONTINUOUS
 10
14.4891727735
 20
165.9279292656
 11
14.4891727735
 21
163.4279292656
  0
LINE
  5
21D
100
AcDbEntity
  8
0
100
AcDbLine
 62
7
  6
CONTINUOUS
 10
14.4891727735
 20
15.4279292656
 11
14.4891727735
 21
77.5279292656
  0
LINE
  5
21E
100
AcDbEntity
  8
0
100
AcDbLine
 62
7
  6
CONTINUOUS
 10
14.4891727735
 20
80.0279292656
 11
14.4891727735
 21
160.9279292656
  0
LINE
  5
21F
100
AcDbEntity
  8
0
100
AcDbLine
 62
7
  6
CONTINUOUS
 10
15.4891727735
 20
165.9279292656
 11
15.4891727735
 21
164.9279292656
  0
LINE
  5
220
100
AcDbEntity
  8
0
100
AcDbLine
 62
7
  6
CONTINUOUS
 10
15.9891727735
 20
164.9279292656
 11
15.9891727735
 21
163.4279292656
  0
LINE
  5
221
100
AcDbEntity
  8
0
100
AcDbLine
 62
7
  6
CONTINUOUS
 10
15.9891727735
 20
77.5279292656
 11
15.9891727735
 21
76.0279292656
  0
LINE
  5
222
100
AcDbEntity
  8
0
100
AcDbLine
 62
7
  6
CONTINUOUS
 10
15.9891727735
 20
88.0279292656
 11
15.9891727735
 21
141.5962113145
  0
LINE
  5
223
100
AcDbEntity
  8
0
100
AcDbLine
 62
7
  6
CONTINUOUS
 10
15.9891727735
 20
143.8279292656
 11
15.9891727735
 21
160.9279292656
  0
LINE
  5
224
100
AcDbEntity
  8
0
100
AcDbLine
 62
7
  6
CONTINUOUS
 10
16.4891727735
 20
165.9279292656
 11
16.4891727735
 21
168.9377014942
  0
LINE
  5
225
100
AcDbEntity
  8
0
100
AcDbLine
 62
7
  6
CONTINUOUS
 10
16.9891727735
 20
77.5279292656
 11
16.9891727735
 21
80.0279292656
  0
LINE
  5
226
100
AcDbEntity
  8
0
100
AcDbLine
 62
7
  6
CONTINUOUS
 10
17.1986560967
 20
167.7279292656
 11
17.1986560967
 21
166.9279292656
  0
LINE
  5
227
100
AcDbEntity
  8
0
100
AcDbLine
 62
7
  6
CONTINUOUS
 10
17.4891727735
 20
88.0279292656
 11
17.4891727735
 21
141.3279292656
  0
LINE
  5
228
100
AcDbEntity
  8
0
100
AcDbLine
 62
7
  6
CONTINUOUS
 10
17.4891727735
 20
142.8279292656
 11
17.4891727735
 21
161.9279292656
  0
LINE
  5
229
100
AcDbEntity
  8
0
100
AcDbLine
 62
7
  6
CONTINUOUS
 10
67.4905911746
 20
156.7279292656
 11
68.7405911746
 21
157.4496171021
  0
LINE
  5
22A
100
AcDbEntity
  8
0
100
AcDbLine
 62
7
  6
CONTINUOUS
 10
18.222683143
 20
142.8279292656
 11
18.222683143
 21
141.3279292656
  0
LINE
  5
22B
100
AcDbEntity
  8
0
100
AcDbLine
 62
7
  6
CONTINUOUS
 10
18.4891727735
 20
88.0279292656
 11
18.4891727735
 21
88.9210908277
  0
LINE
  5
22C
100
AcDbEntity
  8
0
100
AcDbLine
 62
7
  6
CONTINUOUS
 10
18.4891727735
 20
94.1347677034
 11
18.4891727735
 21
138.9210908277
  0
LINE
  5
22D
100
AcDbEntity
  8
0
100
AcDbLine
 62
7
  6
CONTINUOUS
 10
18.4891727735
 20
144.1347677034
 11
18.4891727735
 21
159.9279292656
  0
LINE
  5
22E
100
AcDbEntity
  8
0
100
AcDbLine
 62
7
  6
CONTINUOUS
 10
18.9891727735
 20
165.9279292656
 11
18.9891727735
 21
164.9279292656
  0
LINE
  5
22F
100
AcDbEntity
  8
0
100
AcDbLine
 62
7
  6
CONTINUOUS
 10
19.4891727735
 20
67.4279292656
 11
19.4891727735
 21
25.4279292656
  0
LINE
  5
230
100
AcDbEntity
  8
0
100
AcDbLine
 62
7
  6
CONTINUOUS
 10
19.722683143
 20
142.8279292656
 11
19.722683143
 21
141.3279292656
  0
LINE
  5
231
100
AcDbEntity
  8
0
100
AcDbLine
 62
7
  6
CONTINUOUS
 10
19.9891727735
 20
165.9279292656
 11
19.9891727735
 21
164.9279292656
  0
LINE
  5
232
100
AcDbEntity
  8
0
100
AcDbLine
 62
7
  6
CONTINUOUS
 10
19.9941727735
 20
170.4420502163
 11
19.9941727735
 21
170.7812210612
  0
LINE
  5
233
100
AcDbEntity
  8
0
100
AcDbLine
 62
7
  6
CONTINUOUS
 10
20.4891727735
 20
142.5279292656
 11
20.4891727735
 21
140.5279292656
  0
LINE
  5
234
100
AcDbEntity
  8
0
100
AcDbLine
 62
7
  6
CONTINUOUS
 10
20.4891727735
 20
92.5279292656
 11
20.4891727735
 21
90.5279292656
  0
LINE
  5
235
100
AcDbEntity
  8
0
100
AcDbLine
 62
7
  6
CONTINUOUS
 10
20.4891727735
 20
88.0279292656
 11
20.4891727735
 21
86.5279292656
  0
LINE
  5
236
100
AcDbEntity
  8
0
100
AcDbLine
 62
7
  6
CONTINUOUS
 10
20.9841727735
 20
170.7812210612
 11
20.9841727735
 21
170.4420502163
  0
LINE
  5
237
100
AcDbEntity
  8
0
100
AcDbLine
 62
7
  6
CONTINUOUS
 10
21.4891727735
 20
163.4279292656
 11
21.4891727735
 21
161.9279292656
  0
LINE
  5
238
100
AcDbEntity
  8
0
100
AcDbLine
 62
7
  6
CONTINUOUS
 10
22.4891727735
 20
157.4496171021
 11
22.4891727735
 21
159.9279292656
  0
LINE
  5
239
100
AcDbEntity
  8
0
100
AcDbLine
 62
7
  6
CONTINUOUS
 10
23.4891727735
 20
159.9279292656
 11
23.4891727735
 21
161.9279292656
  0
LINE
  5
23A
100
AcDbEntity
  8
0
100
AcDbLine
 62
7
  6
CONTINUOUS
 10
23.7891727735
 20
166.9279292656
 11
23.7891727735
 21
167.7279292656
  0
LINE
  5
23B
100
AcDbEntity
  8
0
100
AcDbLine
 62
7
  6
CONTINUOUS
 10
81.2391727735
 20
157.7279292656
 11
82.4891727735
 21
158.4496171021
  0
LINE
  5
23C
100
AcDbEntity
  8
0
100
AcDbLine
 62
7
  6
CONTINUOUS
 10
14.4891727735
 20
81.0279292656
 11
15.4891727735
 21
80.0279292656
  0
LINE
  5
23D
100
AcDbEntity
  8
0
100
AcDbLine
 62
7
  6
CONTINUOUS
 10
24.4891727735
 20
164.9279292656
 11
24.4891727735
 21
163.4279292656
  0
LINE
  5
23E
100
AcDbEntity
  8
0
100
AcDbLine
 62
7
  6
CONTINUOUS
 10
24.4891727735
 20
25.4279292656
 11
24.4891727735
 21
67.4279292656
  0
LINE
  5
23F
100
AcDbEntity
  8
0
100
AcDbLine
 62
7
  6
CONTINUOUS
 10
24.4891727735
 20
165.9279292656
 11
24.4891727735
 21
168.9377014942
  0
LINE
  5
240
100
AcDbEntity
  8
0
100
AcDbLine
 62
7
  6
CONTINUOUS
 10
25.4891727735
 20
164.9279292656
 11
25.4891727735
 21
163.4279292656
  0
LINE
  5
241
100
AcDbEntity
  8
0
100
AcDbLine
 62
7
  6
CONTINUOUS
 10
25.4891727735
 20
85.3279292656
 11
25.4891727735
 21
88.0279292656
  0
LINE
  5
242
100
AcDbEntity
  8
0
100
AcDbLine
 62
7
  6
CONTINUOUS
 10
26.4891727735
 20
161.9279292656
 11
26.4891727735
 21
163.4279292656
  0
LINE
  5
243
100
AcDbEntity
  8
0
100
AcDbLine
 62
7
  6
CONTINUOUS
 10
26.9891727735
 20
165.9279292656
 11
26.9891727735
 21
164.9279292656
  0
LINE
  5
244
100
AcDbEntity
  8
0
100
AcDbLine
 62
7
  6
CONTINUOUS
 10
27.9891727735
 20
165.9279292656
 11
27.9891727735
 21
164.9279292656
  0
LINE
  5
245
100
AcDbEntity
  8
0
100
AcDbLine
 62
7
  6
CONTINUOUS
 10
29.4891727735
 20
67.4279292656
 11
29.4891727735
 21
25.4279292656
  0
LINE
  5
246
100
AcDbEntity
  8
0
100
AcDbLine
 62
7
  6
CONTINUOUS
 10
32.2891727735
 20
85.3279292656
 11
32.2891727735
 21
88.0279292656
  0
LINE
  5
247
100
AcDbEntity
  8
0
100
AcDbLine
 62
7
  6
CONTINUOUS
 10
33.7891727735
 20
86.5279292656
 11
33.7891727735
 21
88.0279292656
  0
LINE
  5
248
100
AcDbEntity
  8
0
100
AcDbLine
 62
7
  6
CONTINUOUS
 10
33.8891727735
 20
76.0090292656
 11
33.8891727735
 21
74.0090292656
  0
LINE
  5
249
100
AcDbEntity
  8
0
100
AcDbLine
 62
7
  6
CONTINUOUS
 10
34.4891727735
 20
25.4279292656
 11
34.4891727735
 21
67.4279292656
  0
LINE
  5
24A
100
AcDbEntity
  8
0
100
AcDbLine
 62
7
  6
CONTINUOUS
 10
34.9891727735
 20
74.0090292656
 11
34.9891727735
 21
71.5496171021
  0
LINE
  5
24B
100
AcDbEntity
  8
0
100
AcDbLine
 62
7
  6
CONTINUOUS
 10
34.9891727735
 20
71.5496171021
 11
36.2391727735
 21
70.8279292656
  0
LINE
  5
24C
100
AcDbEntity
  8
0
100
AcDbLine
 62
7
  6
CONTINUOUS
 10
36.9891727735
 20
164.9279292656
 11
36.9891727735
 21
163.4279292656
  0
LINE
  5
24D
100
AcDbEntity
  8
0
100
AcDbLine
 62
7
  6
CONTINUOUS
 10
37.9891727735
 20
164.9279292656
 11
37.9891727735
 21
163.4279292656
  0
LINE
  5
24E
100
AcDbEntity
  8
0
100
AcDbLine
 62
7
  6
CONTINUOUS
 10
38.9891727735
 20
71.5496171021
 11
38.9891727735
 21
74.0090292656
  0
LINE
  5
24F
100
AcDbEntity
  8
0
100
AcDbLine
 62
7
  6
CONTINUOUS
 10
39.4891727735
 20
67.4279292656
 11
39.4891727735
 21
25.4279292656
  0
LINE
  5
250
100
AcDbEntity
  8
0
100
AcDbLine
 62
7
  6
CONTINUOUS
 10
40.0891727735
 20
74.0090292656
 11
40.0891727735
 21
76.0090292656
  0
LINE
  5
251
100
AcDbEntity
  8
0
100
AcDbLine
 62
7
  6
CONTINUOUS
 10
44.4891727735
 20
25.4279292656
 11
44.4891727735
 21
67.4279292656
  0
LINE
  5
252
100
AcDbEntity
  8
0
100
AcDbLine
 62
7
  6
CONTINUOUS
 10
45.9891727735
 20
84.0279292656
 11
45.9891727735
 21
77.5279292656
  0
LINE
  5
253
100
AcDbEntity
  8
0
100
AcDbLine
 62
7
  6
CONTINUOUS
 10
46.4891727735
 20
168.9377014942
 11
46.4891727735
 21
167.7279292656
  0
LINE
  5
254
100
AcDbEntity
  8
0
100
AcDbLine
 62
7
  6
CONTINUOUS
 10
46.4891727735
 20
165.9279292656
 11
46.4891727735
 21
166.9279292656
  0
LINE
  5
255
100
AcDbEntity
  8
0
100
AcDbLine
 62
7
  6
CONTINUOUS
 10
47.1986560967
 20
167.7279292656
 11
47.1986560967
 21
166.9279292656
  0
LINE
  5
256
100
AcDbEntity
  8
0
100
AcDbLine
 62
7
  6
CONTINUOUS
 10
47.3891727735
 20
163.4090292656
 11
47.3891727735
 21
161.4090292656
  0
LINE
  5
257
100
AcDbEntity
  8
0
100
AcDbLine
 62
7
  6
CONTINUOUS
 10
47.4891727735
 20
77.5279292656
 11
47.4891727735
 21
79.0279292656
  0
LINE
  5
258
100
AcDbEntity
  8
0
100
AcDbLine
 62
7
  6
CONTINUOUS
 10
48.4891727735
 20
161.4090292656
 11
48.4891727735
 21
158.4496171021
  0
LINE
  5
259
100
AcDbEntity
  8
0
100
AcDbLine
 62
7
  6
CONTINUOUS
 10
48.4891727735
 20
77.5279292656
 11
48.4891727735
 21
79.0279292656
  0
LINE
  5
25A
100
AcDbEntity
  8
0
100
AcDbLine
 62
7
  6
CONTINUOUS
 10
101.9891727735
 20
69.3279292656
 11
96.9891727735
 21
69.3279292656
  0
LINE
  5
25B
100
AcDbEntity
  8
0
100
AcDbLine
 62
7
  6
CONTINUOUS
 10
96.9891727735
 20
70.8279292656
 11
96.2391727735
 21
70.8279292656
  0
LINE
  5
25C
100
AcDbEntity
  8
0
100
AcDbLine
 62
7
  6
CONTINUOUS
 10
37.7391727735
 20
70.8279292656
 11
36.2391727735
 21
70.8279292656
  0
LINE
  5
25D
100
AcDbEntity
  8
0
100
AcDbLine
 62
7
  6
CONTINUOUS
 10
96.9891727735
 20
71.5496171021
 11
94.9891727735
 21
71.5496171021
  0
LINE
  5
25E
100
AcDbEntity
  8
0
100
AcDbLine
 62
7
  6
CONTINUOUS
 10
38.9891727735
 20
71.5496171021
 11
34.9891727735
 21
71.5496171021
  0
LINE
  5
25F
100
AcDbEntity
  8
0
100
AcDbLine
 62
7
  6
CONTINUOUS
 10
96.9891727735
 20
74.0090292656
 11
93.8891727735
 21
74.0090292656
  0
LINE
  5
260
100
AcDbEntity
  8
0
100
AcDbLine
 62
7
  6
CONTINUOUS
 10
40.0891727735
 20
74.0090292656
 11
33.8891727735
 21
74.0090292656
  0
LINE
  5
261
100
AcDbEntity
  8
0
100
AcDbLine
 62
7
  6
CONTINUOUS
 10
49.4891727735
 20
67.4279292656
 11
49.4891727735
 21
25.4279292656
  0
LINE
  5
262
100
AcDbEntity
  8
0
100
AcDbLine
 62
7
  6
CONTINUOUS
 10
49.9941727735
 20
170.4420502163
 11
49.9941727735
 21
170.7812210612
  0
LINE
  5
263
100
AcDbEntity
  8
0
100
AcDbLine
 62
7
  6
CONTINUOUS
 10
50.9841727735
 20
170.7812210612
 11
50.9841727735
 21
170.4420502163
  0
LINE
  5
264
100
AcDbEntity
  8
0
100
AcDbLine
 62
7
  6
CONTINUOUS
 10
52.4891727735
 20
158.4496171021
 11
52.4891727735
 21
161.4090292656
  0
LINE
  5
265
100
AcDbEntity
  8
0
100
AcDbLine
 62
7
  6
CONTINUOUS
 10
53.5891727735
 20
161.4090292656
 11
53.5891727735
 21
163.4090292656
  0
LINE
  5
266
100
AcDbEntity
  8
0
100
AcDbLine
 62
7
  6
CONTINUOUS
 10
53.7891727735
 20
166.9279292656
 11
53.7891727735
 21
167.7279292656
  0
LINE
  5
267
100
AcDbEntity
  8
0
100
AcDbLine
 62
7
  6
CONTINUOUS
 10
54.4891727735
 20
166.9279292656
 11
54.4891727735
 21
165.9279292656
  0
LINE
  5
268
100
AcDbEntity
  8
0
100
AcDbLine
 62
7
  6
CONTINUOUS
 10
54.4891727735
 20
25.4279292656
 11
54.4891727735
 21
67.4279292656
  0
LINE
  5
269
100
AcDbEntity
  8
0
100
AcDbLine
 62
7
  6
CONTINUOUS
 10
54.4891727735
 20
167.7279292656
 11
54.4891727735
 21
168.9377014942
  0
LINE
  5
26A
100
AcDbEntity
  8
0
100
AcDbLine
 62
7
  6
CONTINUOUS
 10
14.4891727735
 20
75.5279292656
 11
33.8891727735
 21
75.5279292656
  0
LINE
  5
26B
100
AcDbEntity
  8
0
100
AcDbLine
 62
7
  6
CONTINUOUS
 10
40.0891727735
 20
75.5279292656
 11
93.8891727735
 21
75.5279292656
  0
LINE
  5
26C
100
AcDbEntity
  8
0
100
AcDbLine
 62
7
  6
CONTINUOUS
 10
95.4891727735
 20
75.5279292656
 11
119.4891727735
 21
75.5279292656
  0
LINE
  5
26D
100
AcDbEntity
  8
0
100
AcDbLine
 62
7
  6
CONTINUOUS
 10
33.8891727735
 20
76.0090292656
 11
40.0891727735
 21
76.0090292656
  0
LINE
  5
26E
100
AcDbEntity
  8
0
100
AcDbLine
 62
7
  6
CONTINUOUS
 10
93.8891727735
 20
76.0090292656
 11
95.4891727735
 21
76.0090292656
  0
LINE
  5
26F
100
AcDbEntity
  8
0
100
AcDbLine
 62
7
  6
CONTINUOUS
 10
119.4891727735
 20
76.0279292656
 11
103.4891727735
 21
76.0279292656
  0
LINE
  5
270
100
AcDbEntity
  8
0
100
AcDbLine
 62
7
  6
CONTINUOUS
 10
95.4891727735
 20
76.0279292656
 11
14.4891727735
 21
76.0279292656
  0
LINE
  5
271
100
AcDbEntity
  8
0
100
AcDbLine
 62
7
  6
CONTINUOUS
 10
14.4891727735
 20
77.5279292656
 11
119.4891727735
 21
77.5279292656
  0
LINE
  5
272
100
AcDbEntity
  8
0
100
AcDbLine
 62
7
  6
CONTINUOUS
 10
45.9891727735
 20
79.0279292656
 11
63.9891727735
 21
79.0279292656
  0
LINE
  5
273
100
AcDbEntity
  8
0
100
AcDbLine
 62
7
  6
CONTINUOUS
 10
80.9891727735
 20
79.0279292656
 11
98.9891727735
 21
79.0279292656
  0
LINE
  5
274
100
AcDbEntity
  8
0
100
AcDbLine
 62
7
  6
CONTINUOUS
 10
15.4891727735
 20
80.0279292656
 11
118.4891727735
 21
80.0279292656
  0
LINE
  5
275
100
AcDbEntity
  8
0
100
AcDbLine
 62
7
  6
CONTINUOUS
 10
94.8891727735
 20
80.8279292656
 11
92.9891727735
 21
80.8279292656
  0
LINE
  5
276
100
AcDbEntity
  8
0
100
AcDbLine
 62
7
  6
CONTINUOUS
 10
94.8891727735
 20
81.3279292656
 11
98.9891727735
 21
81.3279292656
  0
LINE
  5
277
100
AcDbEntity
  8
0
100
AcDbLine
 62
7
  6
CONTINUOUS
 10
58.4891727735
 20
163.4279292656
 11
58.4891727735
 21
160.9279292656
  0
LINE
  5
278
100
AcDbEntity
  8
0
100
AcDbLine
 62
7
  6
CONTINUOUS
 10
59.4891727735
 20
67.4279292656
 11
59.4891727735
 21
25.4279292656
  0
LINE
  5
279
100
AcDbEntity
  8
0
100
AcDbLine
 62
7
  6
CONTINUOUS
 10
60.7405911746
 20
160.9279292656
 11
60.7405911746
 21
163.4279292656
  0
LINE
  5
27A
100
AcDbEntity
  8
0
100
AcDbLine
 62
7
  6
CONTINUOUS
 10
61.4891727735
 20
79.0279292656
 11
61.4891727735
 21
77.5279292656
  0
LINE
  5
27B
100
AcDbEntity
  8
0
100
AcDbLine
 62
7
  6
CONTINUOUS
 10
117.9891727735
 20
152.1279292656
 11
119.4891727735
 21
153.6279292656
  0
LINE
  5
27C
100
AcDbEntity
  8
0
100
AcDbLine
 62
7
  6
CONTINUOUS
 10
92.9891727735
 20
82.0377014942
 11
95.0512697972
 21
82.0377014942
  0
LINE
  5
27D
100
AcDbEntity
  8
0
100
AcDbLine
 62
7
  6
CONTINUOUS
 10
95.1170373212
 20
82.7894277337
 11
98.9891727735
 21
82.7894277337
  0
LINE
  5
27E
100
AcDbEntity
  8
0
100
AcDbLine
 62
7
  6
CONTINUOUS
 10
93.3763595316
 20
82.8279292656
 11
93.4265305629
 21
82.8279292656
  0
LINE
  5
27F
100
AcDbEntity
  8
0
100
AcDbLine
 62
7
  6
CONTINUOUS
 10
95.1322196068
 20
82.8758418994
 11
93.4948562546
 21
82.8758418994
  0
LINE
  5
280
100
AcDbEntity
  8
0
100
AcDbLine
 62
7
  6
CONTINUOUS
 10
45.9891727735
 20
84.0279292656
 11
63.9891727735
 21
84.0279292656
  0
LINE
  5
281
100
AcDbEntity
  8
0
100
AcDbLine
 62
7
  6
CONTINUOUS
 10
80.9891727735
 20
84.0279292656
 11
98.9891727735
 21
84.0279292656
  0
LINE
  5
282
100
AcDbEntity
  8
0
100
AcDbLine
 62
7
  6
CONTINUOUS
 10
25.4891727735
 20
85.3279292656
 11
32.2891727735
 21
85.3279292656
  0
LINE
  5
283
100
AcDbEntity
  8
0
100
AcDbLine
 62
7
  6
CONTINUOUS
 10
110.4891727735
 20
85.3279292656
 11
111.9891727735
 21
85.3279292656
  0
LINE
  5
284
100
AcDbEntity
  8
0
100
AcDbLine
 62
7
  6
CONTINUOUS
 10
14.4891727735
 20
85.5279292656
 11
25.4891727735
 21
85.5279292656
  0
LINE
  5
285
100
AcDbEntity
  8
0
100
AcDbLine
 62
7
  6
CONTINUOUS
 10
32.2891727735
 20
85.5279292656
 11
110.4891727735
 21
85.5279292656
  0
LINE
  5
286
100
AcDbEntity
  8
0
100
AcDbLine
 62
7
  6
CONTINUOUS
 10
110.4891727735
 20
86.5279292656
 11
32.2891727735
 21
86.5279292656
  0
LINE
  5
287
100
AcDbEntity
  8
0
100
AcDbLine
 62
7
  6
CONTINUOUS
 10
25.4891727735
 20
86.5279292656
 11
14.4891727735
 21
86.5279292656
  0
LINE
  5
288
100
AcDbEntity
  8
0
100
AcDbLine
 62
7
  6
CONTINUOUS
 10
62.4891727735
 20
79.0279292656
 11
62.4891727735
 21
77.5279292656
  0
LINE
  5
289
100
AcDbEntity
  8
0
100
AcDbLine
 62
7
  6
CONTINUOUS
 10
62.7405911746
 20
167.9377014942
 11
62.7405911746
 21
166.7279292656
  0
LINE
  5
28A
100
AcDbEntity
  8
0
100
AcDbLine
 62
7
  6
CONTINUOUS
 10
62.9891727735
 20
164.9279292656
 11
62.9891727735
 21
163.4279292656
  0
LINE
  5
28B
100
AcDbEntity
  8
0
100
AcDbLine
 62
7
  6
CONTINUOUS
 10
63.2405911746
 20
161.9279292656
 11
63.2405911746
 21
159.9279292656
  0
LINE
  5
28C
100
AcDbEntity
  8
0
100
AcDbLine
 62
7
  6
CONTINUOUS
 10
63.4500744978
 20
166.7279292656
 11
63.4500744978
 21
165.9279292656
  0
LINE
  5
28D
100
AcDbEntity
  8
0
100
AcDbLine
 62
7
  6
CONTINUOUS
 10
63.7405911746
 20
161.9279292656
 11
63.7405911746
 21
163.4279292656
  0
LINE
  5
28E
100
AcDbEntity
  8
0
100
AcDbLine
 62
7
  6
CONTINUOUS
 10
63.9891727735
 20
164.9279292656
 11
63.9891727735
 21
163.4279292656
  0
LINE
  5
28F
100
AcDbEntity
  8
0
100
AcDbLine
 62
7
  6
CONTINUOUS
 10
63.9891727735
 20
77.5279292656
 11
63.9891727735
 21
84.0279292656
  0
LINE
  5
290
100
AcDbEntity
  8
0
100
AcDbLine
 62
7
  6
CONTINUOUS
 10
64.4891727735
 20
25.4279292656
 11
64.4891727735
 21
67.4279292656
  0
LINE
  5
291
100
AcDbEntity
  8
0
100
AcDbLine
 62
7
  6
CONTINUOUS
 10
64.7405911746
 20
159.9279292656
 11
64.7405911746
 21
157.4496171021
  0
LINE
  5
292
100
AcDbEntity
  8
0
100
AcDbLine
 62
7
  6
CONTINUOUS
 10
66.2455911746
 20
169.4420502163
 11
66.2455911746
 21
169.7812210612
  0
LINE
  5
293
100
AcDbEntity
  8
0
100
AcDbLine
 62
7
  6
CONTINUOUS
 10
67.2355911746
 20
169.7812210612
 11
67.2355911746
 21
169.4420502163
  0
LINE
  5
294
100
AcDbEntity
  8
0
100
AcDbLine
 62
7
  6
CONTINUOUS
 10
119.4891727735
 20
88.0279292656
 11
111.9891727735
 21
88.0279292656
  0
LINE
  5
295
100
AcDbEntity
  8
0
100
AcDbLine
 62
7
  6
CONTINUOUS
 10
14.4891727735
 20
88.0279292656
 11
25.4891727735
 21
88.0279292656
  0
LINE
  5
296
100
AcDbEntity
  8
0
100
AcDbLine
 62
7
  6
CONTINUOUS
 10
32.2891727735
 20
88.0279292656
 11
110.4891727735
 21
88.0279292656
  0
LINE
  5
297
100
AcDbEntity
  8
0
100
AcDbLine
 62
7
  6
CONTINUOUS
 10
15.9891727735
 20
88.5279292656
 11
14.4891727735
 21
88.5279292656
  0
LINE
  5
298
100
AcDbEntity
  8
0
100
AcDbLine
 62
7
  6
CONTINUOUS
 10
117.9891727735
 20
88.5279292656
 11
119.4891727735
 21
88.5279292656
  0
LINE
  5
299
100
AcDbEntity
  8
0
100
AcDbLine
 62
7
  6
CONTINUOUS
 10
117.9891727735
 20
89.0279292656
 11
116.4891727735
 21
89.0279292656
  0
LINE
  5
29A
100
AcDbEntity
  8
0
100
AcDbLine
 62
7
  6
CONTINUOUS
 10
17.4891727735
 20
89.0279292656
 11
15.9891727735
 21
89.0279292656
  0
LINE
  5
29B
100
AcDbEntity
  8
0
100
AcDbLine
 62
7
  6
CONTINUOUS
 10
117.9891727735
 20
90.0279292656
 11
119.4891727735
 21
90.0279292656
  0
LINE
  5
29C
100
AcDbEntity
  8
0
100
AcDbLine
 62
7
  6
CONTINUOUS
 10
94.9891727735
 20
71.5496171021
 11
96.2391727735
 21
70.8279292656
  0
LINE
  5
29D
100
AcDbEntity
  8
0
100
AcDbLine
 62
7
  6
CONTINUOUS
 10
68.7405911746
 20
157.4496171021
 11
68.7405911746
 21
159.9279292656
  0
LINE
  5
29E
100
AcDbEntity
  8
0
100
AcDbLine
 62
7
  6
CONTINUOUS
 10
69.4891727735
 20
25.4279292656
 11
69.4891727735
 21
67.4279292656
  0
LINE
  5
29F
100
AcDbEntity
  8
0
100
AcDbLine
 62
7
  6
CONTINUOUS
 10
69.7405911746
 20
163.4279292656
 11
69.7405911746
 21
161.9279292656
  0
LINE
  5
2A0
100
AcDbEntity
  8
0
100
AcDbLine
 62
7
  6
CONTINUOUS
 10
70.0405911746
 20
165.9279292656
 11
70.0405911746
 21
166.7279292656
  0
LINE
  5
2A1
100
AcDbEntity
  8
0
100
AcDbLine
 62
7
  6
CONTINUOUS
 10
70.2405911746
 20
159.9279292656
 11
70.2405911746
 21
161.9279292656
  0
LINE
  5
2A2
100
AcDbEntity
  8
0
100
AcDbLine
 62
7
  6
CONTINUOUS
 10
70.7405911746
 20
166.7279292656
 11
70.7405911746
 21
167.9377014942
  0
LINE
  5
2A3
100
AcDbEntity
  8
0
100
AcDbLine
 62
7
  6
CONTINUOUS
 10
72.7405911746
 20
160.9279292656
 11
72.7405911746
 21
163.4279292656
  0
LINE
  5
2A4
100
AcDbEntity
  8
0
100
AcDbLine
 62
7
  6
CONTINUOUS
 10
72.9891727735
 20
165.9279292656
 11
72.9891727735
 21
164.9279292656
  0
LINE
  5
2A5
100
AcDbEntity
  8
0
100
AcDbLine
 62
7
  6
CONTINUOUS
 10
73.9891727735
 20
165.9279292656
 11
73.9891727735
 21
164.9279292656
  0
LINE
  5
2A6
100
AcDbEntity
  8
0
100
AcDbLine
 62
7
  6
CONTINUOUS
 10
37.7391727735
 20
70.8279292656
 11
38.9891727735
 21
71.5496171021
  0
LINE
  5
2A7
100
AcDbEntity
  8
0
100
AcDbLine
 62
7
  6
CONTINUOUS
 10
74.4891727735
 20
67.4279292656
 11
74.4891727735
 21
25.4279292656
  0
LINE
  5
2A8
100
AcDbEntity
  8
0
100
AcDbLine
 62
7
  6
CONTINUOUS
 10
75.4891727735
 20
160.9279292656
 11
75.4891727735
 21
164.9279292656
  0
LINE
  5
2A9
100
AcDbEntity
  8
0
100
AcDbLine
 62
7
  6
CONTINUOUS
 10
76.4891727735
 20
168.9377014942
 11
76.4891727735
 21
167.7279292656
  0
LINE
  5
2AA
100
AcDbEntity
  8
0
100
AcDbLine
 62
7
  6
CONTINUOUS
 10
76.4891727735
 20
164.9279292656
 11
76.4891727735
 21
163.4279292656
  0
LINE
  5
2AB
100
AcDbEntity
  8
0
100
AcDbLine
 62
7
  6
CONTINUOUS
 10
76.4891727735
 20
165.9279292656
 11
76.4891727735
 21
166.9279292656
  0
LINE
  5
2AC
100
AcDbEntity
  8
0
100
AcDbLine
 62
7
  6
CONTINUOUS
 10
77.1986560967
 20
167.7279292656
 11
77.1986560967
 21
166.9279292656
  0
LINE
  5
2AD
100
AcDbEntity
  8
0
100
AcDbLine
 62
7
  6
CONTINUOUS
 10
77.3891727735
 20
163.4090292656
 11
77.3891727735
 21
161.4090292656
  0
LINE
  5
2AE
100
AcDbEntity
  8
0
100
AcDbLine
 62
7
  6
CONTINUOUS
 10
78.4891727735
 20
161.4090292656
 11
78.4891727735
 21
158.4496171021
  0
LINE
  5
2AF
100
AcDbEntity
  8
0
100
AcDbLine
 62
7
  6
CONTINUOUS
 10
79.4891727735
 20
25.4279292656
 11
79.4891727735
 21
67.4279292656
  0
LINE
  5
2B0
100
AcDbEntity
  8
0
100
AcDbLine
 62
7
  6
CONTINUOUS
 10
79.9941727735
 20
170.4420502163
 11
79.9941727735
 21
170.7812210612
  0
LINE
  5
2B1
100
AcDbEntity
  8
0
100
AcDbLine
 62
7
  6
CONTINUOUS
 10
80.9841727735
 20
170.7812210612
 11
80.9841727735
 21
170.4420502163
  0
LINE
  5
2B2
100
AcDbEntity
  8
0
100
AcDbLine
 62
7
  6
CONTINUOUS
 10
80.9891727735
 20
165.9279292656
 11
80.9891727735
 21
164.9279292656
  0
LINE
  5
2B3
100
AcDbEntity
  8
0
100
AcDbLine
 62
7
  6
CONTINUOUS
 10
80.9891727735
 20
84.0279292656
 11
80.9891727735
 21
77.5279292656
  0
LINE
  5
2B4
100
AcDbEntity
  8
0
100
AcDbLine
 62
7
  6
CONTINUOUS
 10
81.9891727735
 20
165.9279292656
 11
81.9891727735
 21
164.9279292656
  0
LINE
  5
2B5
100
AcDbEntity
  8
0
100
AcDbLine
 62
7
  6
CONTINUOUS
 10
82.4891727735
 20
77.5279292656
 11
82.4891727735
 21
79.0279292656
  0
LINE
  5
2B6
100
AcDbEntity
  8
0
100
AcDbLine
 62
7
  6
CONTINUOUS
 10
82.4891727735
 20
158.4496171021
 11
82.4891727735
 21
161.4090292656
  0
LINE
  5
2B7
100
AcDbEntity
  8
0
100
AcDbLine
 62
7
  6
CONTINUOUS
 10
83.4891727735
 20
77.5279292656
 11
83.4891727735
 21
79.0279292656
  0
LINE
  5
2B8
100
AcDbEntity
  8
0
100
AcDbLine
 62
7
  6
CONTINUOUS
 10
83.5891727735
 20
161.4090292656
 11
83.5891727735
 21
163.4090292656
  0
LINE
  5
2B9
100
AcDbEntity
  8
0
100
AcDbLine
 62
7
  6
CONTINUOUS
 10
83.7891727735
 20
166.9279292656
 11
83.7891727735
 21
167.7279292656
  0
LINE
  5
2BA
100
AcDbEntity
  8
0
100
AcDbLine
 62
7
  6
CONTINUOUS
 10
84.4891727735
 20
166.9279292656
 11
84.4891727735
 21
165.9279292656
  0
LINE
  5
2BB
100
AcDbEntity
  8
0
100
AcDbLine
 62
7
  6
CONTINUOUS
 10
84.4891727735
 20
67.4279292656
 11
84.4891727735
 21
25.4279292656
  0
LINE
  5
2BC
100
AcDbEntity
  8
0
100
AcDbLine
 62
7
  6
CONTINUOUS
 10
84.4891727735
 20
167.7279292656
 11
84.4891727735
 21
168.9377014942
  0
LINE
  5
2BD
100
AcDbEntity
  8
0
100
AcDbLine
 62
7
  6
CONTINUOUS
 10
85.4891727735
 20
165.9279292656
 11
85.4891727735
 21
164.9279292656
  0
LINE
  5
2BE
100
AcDbEntity
  8
0
100
AcDbLine
 62
7
  6
CONTINUOUS
 10
86.4891727735
 20
165.9279292656
 11
86.4891727735
 21
164.9279292656
  0
LINE
  5
2BF
100
AcDbEntity
  8
0
100
AcDbLine
 62
7
  6
CONTINUOUS
 10
87.9882962928
 20
152.6288057463
 11
87.9882962928
 21
164.9279292656
  0
LINE
  5
2C0
100
AcDbEntity
  8
0
100
AcDbLine
 62
7
  6
CONTINUOUS
 10
89.4891727735
 20
25.4279292656
 11
89.4891727735
 21
67.4279292656
  0
LINE
  5
2C1
100
AcDbEntity
  8
0
100
AcDbLine
 62
7
  6
CONTINUOUS
 10
92.9891727735
 20
82.0377014942
 11
92.9891727735
 21
80.8279292656
  0
LINE
  5
2C2
100
AcDbEntity
  8
0
100
AcDbLine
 62
7
  6
CONTINUOUS
 10
92.9891727735
 20
79.0279292656
 11
92.9891727735
 21
80.0279292656
  0
LINE
  5
2C3
100
AcDbEntity
  8
0
100
AcDbLine
 62
7
  6
CONTINUOUS
 10
93.6986560967
 20
80.8279292656
 11
93.6986560967
 21
80.0279292656
  0
LINE
  5
2C4
100
AcDbEntity
  8
0
100
AcDbLine
 62
7
  6
CONTINUOUS
 10
93.8891727735
 20
76.0090292656
 11
93.8891727735
 21
74.0090292656
  0
LINE
  5
2C5
100
AcDbEntity
  8
0
100
AcDbLine
 62
7
  6
CONTINUOUS
 10
94.4891727735
 20
80.0279292656
 11
94.4891727735
 21
79.0279292656
  0
LINE
  5
2C6
100
AcDbEntity
  8
0
100
AcDbLine
 62
7
  6
CONTINUOUS
 10
94.4891727735
 20
67.4279292656
 11
94.4891727735
 21
25.4279292656
  0
LINE
  5
2C7
100
AcDbEntity
  8
0
100
AcDbLine
 62
7
  6
CONTINUOUS
 10
94.8891727735
 20
81.3279292656
 11
94.8891727735
 21
80.0279292656
  0
LINE
  5
2C8
100
AcDbEntity
  8
0
100
AcDbLine
 62
7
  6
CONTINUOUS
 10
94.9891727735
 20
74.0090292656
 11
94.9891727735
 21
71.5496171021
  0
LINE
  5
2C9
100
AcDbEntity
  8
0
100
AcDbLine
 62
7
  6
CONTINUOUS
 10
95.4891727735
 20
77.5279292656
 11
95.4891727735
 21
75.5279292656
  0
LINE
  5
2CA
100
AcDbEntity
  8
0
100
AcDbLine
 62
7
  6
CONTINUOUS
 10
96.4891727735
 20
79.0279292656
 11
96.4891727735
 21
77.5279292656
  0
LINE
  5
2CB
100
AcDbEntity
  8
0
100
AcDbLine
 62
7
  6
CONTINUOUS
 10
96.9891727735
 20
75.5279292656
 11
96.9891727735
 21
69.3279292656
  0
LINE
  5
2CC
100
AcDbEntity
  8
0
100
AcDbLine
 62
7
  6
CONTINUOUS
 10
97.4891727735
 20
79.0279292656
 11
97.4891727735
 21
77.5279292656
  0
LINE
  5
2CD
100
AcDbEntity
  8
0
100
AcDbLine
 62
7
  6
CONTINUOUS
 10
98.9891727735
 20
77.5279292656
 11
98.9891727735
 21
84.0279292656
  0
LINE
  5
2CE
100
AcDbEntity
  8
0
100
AcDbLine
 62
7
  6
CONTINUOUS
 10
95.1170373212
 20
82.7894277337
 11
94.9891727735
 21
81.3279292656
  0
LINE
  5
2CF
100
AcDbEntity
  8
0
100
AcDbLine
 62
7
  6
CONTINUOUS
 10
18.4891727735
 20
157.4496171021
 11
19.7391727735
 21
156.7279292656
  0
LINE
  5
2D0
100
AcDbEntity
  8
0
100
AcDbLine
 62
7
  6
CONTINUOUS
 10
99.4891727735
 20
25.4279292656
 11
99.4891727735
 21
67.4279292656
  0
LINE
  5
2D1
100
AcDbEntity
  8
0
100
AcDbLine
 62
7
  6
CONTINUOUS
 10
101.9891727735
 20
69.3279292656
 11
101.9891727735
 21
75.5279292656
  0
LINE
  5
2D2
100
AcDbEntity
  8
0
100
AcDbLine
 62
7
  6
CONTINUOUS
 10
103.4891727735
 20
75.5279292656
 11
103.4891727735
 21
77.5279292656
  0
LINE
  5
2D3
100
AcDbEntity
  8
0
100
AcDbLine
 62
7
  6
CONTINUOUS
 10
104.4891727735
 20
67.4279292656
 11
104.4891727735
 21
25.4279292656
  0
LINE
  5
2D4
100
AcDbEntity
  8
0
100
AcDbLine
 62
7
  6
CONTINUOUS
 10
18.4891727735
 20
158.4496171021
 11
19.7391727735
 21
157.7279292656
  0
LINE
  5
2D5
100
AcDbEntity
  8
0
100
AcDbLine
 62
7
  6
CONTINUOUS
 10
108.9891727735
 20
88.0279292656
 11
108.9891727735
 21
86.5279292656
  0
LINE
  5
2D6
100
AcDbEntity
  8
0
100
AcDbLine
 62
7
  6
CONTINUOUS
 10
109.4891727735
 20
167.9377014942
 11
109.4891727735
 21
166.7279292656
  0
LINE
  5
2D7
100
AcDbEntity
  8
0
100
AcDbLine
 62
7
  6
CONTINUOUS
 10
109.4891727735
 20
25.4279292656
 11
109.4891727735
 21
67.4279292656
  0
LINE
  5
2D8
100
AcDbEntity
  8
0
100
AcDbLine
 62
7
  6
CONTINUOUS
 10
109.4891727735
 20
164.9279292656
 11
109.4891727735
 21
165.9279292656
  0
LINE
  5
2D9
100
AcDbEntity
  8
0
100
AcDbLine
 62
7
  6
CONTINUOUS
 10
110.1986560967
 20
166.7279292656
 11
110.1986560967
 21
165.9279292656
  0
LINE
  5
2DA
100
AcDbEntity
  8
0
100
AcDbLine
 62
7
  6
CONTINUOUS
 10
110.4891727735
 20
85.3279292656
 11
110.4891727735
 21
88.0279292656
  0
LINE
  5
2DB
100
AcDbEntity
  8
0
100
AcDbLine
 62
7
  6
CONTINUOUS
 10
111.9891727735
 20
88.0279292656
 11
111.9891727735
 21
85.3279292656
  0
LINE
  5
2DC
100
AcDbEntity
  8
0
100
AcDbLine
 62
7
  6
CONTINUOUS
 10
112.9941727735
 20
169.4420502163
 11
112.9941727735
 21
169.7812210612
  0
LINE
  5
2DD
100
AcDbEntity
  8
0
100
AcDbLine
 62
7
  6
CONTINUOUS
 10
113.4891727735
 20
90.5279292656
 11
113.4891727735
 21
92.5279292656
  0
LINE
  5
2DE
100
AcDbEntity
  8
0
100
AcDbLine
 62
7
  6
CONTINUOUS
 10
113.4891727735
 20
140.5279292656
 11
113.4891727735
 21
142.5279292656
  0
LINE
  5
2DF
100
AcDbEntity
  8
0
100
AcDbLine
 62
7
  6
CONTINUOUS
 10
113.9841727735
 20
169.7812210612
 11
113.9841727735
 21
169.4420502163
  0
LINE
  5
2E0
100
AcDbEntity
  8
0
100
AcDbLine
 62
7
  6
CONTINUOUS
 10
114.4891727735
 20
67.4279292656
 11
114.4891727735
 21
25.4279292656
  0
LINE
  5
2E1
100
AcDbEntity
  8
0
100
AcDbLine
 62
7
  6
CONTINUOUS
 10
115.4891727735
 20
152.1279292656
 11
115.4891727735
 21
144.1347677034
  0
LINE
  5
2E2
100
AcDbEntity
  8
0
100
AcDbLine
 62
7
  6
CONTINUOUS
 10
115.4891727735
 20
138.9210908277
 11
115.4891727735
 21
94.1347677034
  0
LINE
  5
2E3
100
AcDbEntity
  8
0
100
AcDbLine
 62
7
  6
CONTINUOUS
 10
115.4891727735
 20
88.9210908277
 11
115.4891727735
 21
88.0279292656
  0
LINE
  5
2E4
100
AcDbEntity
  8
0
100
AcDbLine
 62
7
  6
CONTINUOUS
 10
116.4891727735
 20
88.0279292656
 11
116.4891727735
 21
152.1279292656
  0
LINE
  5
2E5
100
AcDbEntity
  8
0
100
AcDbLine
 62
7
  6
CONTINUOUS
 10
116.7891727735
 20
165.9279292656
 11
116.7891727735
 21
166.7279292656
  0
LINE
  5
2E6
100
AcDbEntity
  8
0
100
AcDbLine
 62
7
  6
CONTINUOUS
 10
116.9891727735
 20
80.0279292656
 11
116.9891727735
 21
77.5279292656
  0
LINE
  5
2E7
100
AcDbEntity
  8
0
100
AcDbLine
 62
7
  6
CONTINUOUS
 10
117.4891727735
 20
165.9279292656
 11
117.4891727735
 21
164.9279292656
  0
LINE
  5
2E8
100
AcDbEntity
  8
0
100
AcDbLine
 62
7
  6
CONTINUOUS
 10
117.4891727735
 20
166.7279292656
 11
117.4891727735
 21
167.9377014942
  0
LINE
  5
2E9
100
AcDbEntity
  8
0
100
AcDbLine
 62
7
  6
CONTINUOUS
 10
118.4891727735
 20
80.0279292656
 11
119.4891727735
 21
81.0279292656
  0
LINE
  5
2EA
100
AcDbEntity
  8
0
100
AcDbLine
 62
7
  6
CONTINUOUS
 10
19.722683143
 20
141.3279292656
 11
16.9891727735
 21
141.3279292656
  0
LINE
  5
2EB
100
AcDbEntity
  8
0
100
AcDbLine
 62
7
  6
CONTINUOUS
 10
16.9891727735
 20
142.8279292656
 11
19.722683143
 21
142.8279292656
  0
LINE
  5
2EC
100
AcDbEntity
  8
0
100
AcDbLine
 62
7
  6
CONTINUOUS
 10
48.4891727735
 20
158.4496171021
 11
49.7391727735
 21
157.7279292656
  0
LINE
  5
2ED
100
AcDbEntity
  8
0
100
AcDbLine
 62
7
  6
CONTINUOUS
 10
117.9891727735
 20
77.5279292656
 11
117.9891727735
 21
76.0279292656
  0
LINE
  5
2EE
100
AcDbEntity
  8
0
100
AcDbLine
 62
7
  6
CONTINUOUS
 10
117.9891727735
 20
88.0279292656
 11
117.9891727735
 21
152.1279292656
  0
LINE
  5
2EF
100
AcDbEntity
  8
0
100
AcDbLine
 62
7
  6
CONTINUOUS
 10
119.4891727735
 20
77.5279292656
 11
119.4891727735
 21
15.4279292656
  0
LINE
  5
2F0
100
AcDbEntity
  8
0
100
AcDbLine
 62
7
  6
CONTINUOUS
 10
119.4891727735
 20
80.0279292656
 11
119.4891727735
 21
164.9279292656
  0
LINE
  5
2F1
100
AcDbEntity
  8
0
100
AcDbLine
 62
7
  6
CONTINUOUS
 10
117.9891727735
 20
147.9279292656
 11
119.4891727735
 21
147.9279292656
  0
LINE
  5
2F2
100
AcDbEntity
  8
0
100
AcDbLine
 62
7
  6
CONTINUOUS
 10
64.7405911746
 20
157.4496171021
 11
65.9905911746
 21
156.7279292656
  0
LINE
  5
2F3
100
AcDbEntity
  8
0
100
AcDbLine
 62
7
  6
CONTINUOUS
 10
87.9882962928
 20
152.6288057463
 11
88.4891727735
 21
152.1279292656
  0
LINE
  5
2F4
100
AcDbEntity
  8
0
100
AcDbLine
 62
7
  6
CONTINUOUS
 10
119.4891727735
 20
151.7855480796
 11
117.9891727735
 21
151.7855480796
  0
LINE
  5
2F5
100
AcDbEntity
  8
0
100
AcDbLine
 62
7
  6
CONTINUOUS
 10
15.9891727735
 20
151.9279292656
 11
17.4891727735
 21
151.9279292656
  0
LINE
  5
2F6
100
AcDbEntity
  8
0
100
AcDbLine
 62
7
  6
CONTINUOUS
 10
116.4891727735
 20
151.9279292656
 11
117.9891727735
 21
151.9279292656
  0
LINE
  5
2F7
100
AcDbEntity
  8
0
100
AcDbLine
 62
7
  6
CONTINUOUS
 10
88.4891727735
 20
152.1279292656
 11
117.9891727735
 21
152.1279292656
  0
LINE
  5
2F8
100
AcDbEntity
  8
0
100
AcDbLine
 62
7
  6
CONTINUOUS
 10
119.1382877519
 20
153.277044244
 11
119.4891727735
 21
153.277044244
  0
LINE
  5
2F9
100
AcDbEntity
  8
0
100
AcDbLine
 62
7
  6
CONTINUOUS
 10
14.4891727735
 20
155.9279292656
 11
15.9891727735
 21
155.9279292656
  0
LINE
  5
2FA
100
AcDbEntity
  8
0
100
AcDbLine
 62
7
  6
CONTINUOUS
 10
78.4891727735
 20
158.4496171021
 11
79.7391727735
 21
157.7279292656
  0
LINE
  5
2FB
100
AcDbEntity
  8
0
100
AcDbLine
 62
7
  6
CONTINUOUS
 10
67.4905911746
 20
156.7279292656
 11
65.9905911746
 21
156.7279292656
  0
LINE
  5
2FC
100
AcDbEntity
  8
0
100
AcDbLine
 62
7
  6
CONTINUOUS
 10
21.2391727735
 20
156.7279292656
 11
19.7391727735
 21
156.7279292656
  0
LINE
  5
2FD
100
AcDbEntity
  8
0
100
AcDbLine
 62
7
  6
CONTINUOUS
 10
14.4891727735
 20
157.4279292656
 11
15.9891727735
 21
157.4279292656
  0
LINE
  5
2FE
100
AcDbEntity
  8
0
100
AcDbLine
 62
7
  6
CONTINUOUS
 10
68.7405911746
 20
157.4496171021
 11
64.7405911746
 21
157.4496171021
  0
LINE
  5
2FF
100
AcDbEntity
  8
0
100
AcDbLine
 62
7
  6
CONTINUOUS
 10
22.4891727735
 20
157.4496171021
 11
18.4891727735
 21
157.4496171021
  0
LINE
  5
300
100
AcDbEntity
  8
0
100
AcDbLine
 62
7
  6
CONTINUOUS
 10
81.2391727735
 20
157.7279292656
 11
79.7391727735
 21
157.7279292656
  0
LINE
  5
301
100
AcDbEntity
  8
0
100
AcDbLine
 62
7
  6
CONTINUOUS
 10
51.2391727735
 20
157.7279292656
 11
49.7391727735
 21
157.7279292656
  0
LINE
  5
302
100
AcDbEntity
  8
0
100
AcDbLine
 62
7
  6
CONTINUOUS
 10
21.2391727735
 20
157.7279292656
 11
19.7391727735
 21
157.7279292656
  0
LINE
  5
303
100
AcDbEntity
  8
0
100
AcDbLine
 62
7
  6
CONTINUOUS
 10
82.4891727735
 20
158.4496171021
 11
78.4891727735
 21
158.4496171021
  0
LINE
  5
304
100
AcDbEntity
  8
0
100
AcDbLine
 62
7
  6
CONTINUOUS
 10
52.4891727735
 20
158.4496171021
 11
48.4891727735
 21
158.4496171021
  0
LINE
  5
305
100
AcDbEntity
  8
0
100
AcDbLine
 62
7
  6
CONTINUOUS
 10
22.4891727735
 20
158.4496171021
 11
18.4891727735
 21
158.4496171021
  0
LINE
  5
306
100
AcDbEntity
  8
0
100
AcDbLine
 62
7
  6
CONTINUOUS
 10
70.2405911746
 20
159.9279292656
 11
63.2405911746
 21
159.9279292656
  0
LINE
  5
307
100
AcDbEntity
  8
0
100
AcDbLine
 62
7
  6
CONTINUOUS
 10
23.4891727735
 20
159.9279292656
 11
17.4891727735
 21
159.9279292656
  0
LINE
  5
308
100
AcDbEntity
  8
0
100
AcDbLine
 62
7
  6
CONTINUOUS
 10
15.9891727735
 20
160.9279292656
 11
17.4891727735
 21
160.9279292656
  0
LINE
  5
309
100
AcDbEntity
  8
0
100
AcDbLine
 62
7
  6
CONTINUOUS
 10
58.4891727735
 20
160.9279292656
 11
63.2405911746
 21
160.9279292656
  0
LINE
  5
30A
100
AcDbEntity
  8
0
100
AcDbLine
 62
7
  6
CONTINUOUS
 10
70.2405911746
 20
160.9279292656
 11
75.4891727735
 21
160.9279292656
  0
LINE
  5
30B
100
AcDbEntity
  8
0
100
AcDbLine
 62
7
  6
CONTINUOUS
 10
83.5891727735
 20
161.4090292656
 11
77.3891727735
 21
161.4090292656
  0
LINE
  5
30C
100
AcDbEntity
  8
0
100
AcDbLine
 62
7
  6
CONTINUOUS
 10
53.5891727735
 20
161.4090292656
 11
47.3891727735
 21
161.4090292656
  0
LINE
  5
30D
100
AcDbEntity
  8
0
100
AcDbLine
 62
7
  6
CONTINUOUS
 10
72.7405911746
 20
161.9279292656
 11
60.7405911746
 21
161.9279292656
  0
LINE
  5
30E
100
AcDbEntity
  8
0
100
AcDbLine
 62
7
  6
CONTINUOUS
 10
26.4891727735
 20
161.9279292656
 11
16.9891727735
 21
161.9279292656
  0
LINE
  5
30F
100
AcDbEntity
  8
0
100
AcDbLine
 62
7
  6
CONTINUOUS
 10
87.9882962928
 20
162.9279292656
 11
119.4891727735
 21
162.9279292656
  0
LINE
  5
310
100
AcDbEntity
  8
0
100
AcDbLine
 62
7
  6
CONTINUOUS
 10
47.3891727735
 20
163.4090292656
 11
53.5891727735
 21
163.4090292656
  0
LINE
  5
311
100
AcDbEntity
  8
0
100
AcDbLine
 62
7
  6
CONTINUOUS
 10
77.3891727735
 20
163.4090292656
 11
83.5891727735
 21
163.4090292656
  0
LINE
  5
312
100
AcDbEntity
  8
0
100
AcDbLine
 62
7
  6
CONTINUOUS
 10
14.4891727735
 20
163.4279292656
 11
87.9882962928
 21
163.4279292656
  0
LINE
  5
313
100
AcDbEntity
  8
0
100
AcDbLine
 62
7
  6
CONTINUOUS
 10
119.4891727735
 20
164.9279292656
 11
14.4891727735
 21
164.9279292656
  0
LINE
  5
314
100
AcDbEntity
  8
0
100
AcDbLine
 62
7
  6
CONTINUOUS
 10
14.4891727735
 20
165.9279292656
 11
86.4891727735
 21
165.9279292656
  0
LINE
  5
315
100
AcDbEntity
  8
0
100
AcDbLine
 62
7
  6
CONTINUOUS
 10
109.4891727735
 20
165.9279292656
 11
117.4891727735
 21
165.9279292656
  0
LINE
  5
316
100
AcDbEntity
  8
0
100
AcDbLine
 62
7
  6
CONTINUOUS
 10
117.4891727735
 20
166.7279292656
 11
109.4891727735
 21
166.7279292656
  0
LINE
  5
317
100
AcDbEntity
  8
0
100
AcDbLine
 62
7
  6
CONTINUOUS
 10
70.7405911746
 20
166.7279292656
 11
62.7405911746
 21
166.7279292656
  0
LINE
  5
318
100
AcDbEntity
  8
0
100
AcDbLine
 62
7
  6
CONTINUOUS
 10
16.4891727735
 20
166.9279292656
 11
24.4891727735
 21
166.9279292656
  0
LINE
  5
319
100
AcDbEntity
  8
0
100
AcDbLine
 62
7
  6
CONTINUOUS
 10
46.4891727735
 20
166.9279292656
 11
54.4891727735
 21
166.9279292656
  0
LINE
  5
31A
100
AcDbEntity
  8
0
100
AcDbLine
 62
7
  6
CONTINUOUS
 10
76.4891727735
 20
166.9279292656
 11
84.4891727735
 21
166.9279292656
  0
LINE
  5
31B
100
AcDbEntity
  8
0
100
AcDbLine
 62
7
  6
CONTINUOUS
 10
84.4891727735
 20
167.7279292656
 11
76.4891727735
 21
167.7279292656
  0
LINE
  5
31C
100
AcDbEntity
  8
0
100
AcDbLine
 62
7
  6
CONTINUOUS
 10
54.4891727735
 20
167.7279292656
 11
46.4891727735
 21
167.7279292656
  0
LINE
  5
31D
100
AcDbEntity
  8
0
100
AcDbLine
 62
7
  6
CONTINUOUS
 10
24.4891727735
 20
167.7279292656
 11
16.4891727735
 21
167.7279292656
  0
LINE
  5
31E
100
AcDbEntity
  8
0
100
AcDbLine
 62
7
  6
CONTINUOUS
 10
62.7405911746
 20
167.9377014942
 11
70.7405911746
 21
167.9377014942
  0
LINE
  5
31F
100
AcDbEntity
  8
0
100
AcDbLine
 62
7
  6
CONTINUOUS
 10
109.4891727735
 20
167.9377014942
 11
117.4891727735
 21
167.9377014942
  0
LINE
  5
320
100
AcDbEntity
  8
0
100
AcDbLine
 62
7
  6
CONTINUOUS
 10
63.1277779327
 20
168.7279292656
 11
63.177948964
 21
168.7279292656
  0
LINE
  5
321
100
AcDbEntity
  8
0
100
AcDbLine
 62
7
  6
CONTINUOUS
 10
70.3032333851
 20
168.7279292656
 11
70.3534044164
 21
168.7279292656
  0
LINE
  5
322
100
AcDbEntity
  8
0
100
AcDbLine
 62
7
  6
CONTINUOUS
 10
109.8763595316
 20
168.7279292656
 11
109.9265305629
 21
168.7279292656
  0
LINE
  5
323
100
AcDbEntity
  8
0
100
AcDbLine
 62
7
  6
CONTINUOUS
 10
117.051814984
 20
168.7279292656
 11
117.1019860153
 21
168.7279292656
  0
LINE
  5
324
100
AcDbEntity
  8
0
100
AcDbLine
 62
7
  6
CONTINUOUS
 10
116.9834892923
 20
168.7758418994
 11
109.9948562546
 21
168.7758418994
  0
LINE
  5
325
100
AcDbEntity
  8
0
100
AcDbLine
 62
7
  6
CONTINUOUS
 10
70.2349076934
 20
168.7758418994
 11
63.2462746557
 21
168.7758418994
  0
LINE
  5
326
100
AcDbEntity
  8
0
100
AcDbLine
 62
7
  6
CONTINUOUS
 10
16.4891727735
 20
168.9377014942
 11
24.4891727735
 21
168.9377014942
  0
LINE
  5
327
100
AcDbEntity
  8
0
100
AcDbLine
 62
7
  6
CONTINUOUS
 10
46.4891727735
 20
168.9377014942
 11
54.4891727735
 21
168.9377014942
  0
LINE
  5
328
100
AcDbEntity
  8
0
100
AcDbLine
 62
7
  6
CONTINUOUS
 10
76.4891727735
 20
168.9377014942
 11
84.4891727735
 21
168.9377014942
  0
LINE
  5
329
100
AcDbEntity
  8
0
100
AcDbLine
 62
7
  6
CONTINUOUS
 10
16.8763595316
 20
169.7279292656
 11
16.9265305629
 21
169.7279292656
  0
LINE
  5
32A
100
AcDbEntity
  8
0
100
AcDbLine
 62
7
  6
CONTINUOUS
 10
24.051814984
 20
169.7279292656
 11
24.1019860153
 21
169.7279292656
  0
LINE
  5
32B
100
AcDbEntity
  8
0
100
AcDbLine
 62
7
  6
CONTINUOUS
 10
46.8763595316
 20
169.7279292656
 11
46.9265305629
 21
169.7279292656
  0
LINE
  5
32C
100
AcDbEntity
  8
0
100
AcDbLine
 62
7
  6
CONTINUOUS
 10
54.051814984
 20
169.7279292656
 11
54.1019860153
 21
169.7279292656
  0
LINE
  5
32D
100
AcDbEntity
  8
0
100
AcDbLine
 62
7
  6
CONTINUOUS
 10
76.8763595316
 20
169.7279292656
 11
76.9265305629
 21
169.7279292656
  0
LINE
  5
32E
100
AcDbEntity
  8
0
100
AcDbLine
 62
7
  6
CONTINUOUS
 10
84.051814984
 20
169.7279292656
 11
84.1019860153
 21
169.7279292656
  0
LINE
  5
32F
100
AcDbEntity
  8
0
100
AcDbLine
 62
7
  6
CONTINUOUS
 10
83.9834892923
 20
169.7758418994
 11
76.9948562546
 21
169.7758418994
  0
LINE
  5
330
100
AcDbEntity
  8
0
100
AcDbLine
 62
7
  6
CONTINUOUS
 10
53.9834892923
 20
169.7758418994
 11
46.9948562546
 21
169.7758418994
  0
LINE
  5
331
100
AcDbEntity
  8
0
100
AcDbLine
 62
7
  6
CONTINUOUS
 10
23.9834892923
 20
169.7758418994
 11
16.9948562546
 21
169.7758418994
  0
ARC
  5
332
100
AcDbEntity
  8
0
100
AcDbCircle
 62
7
  6
CONTINUOUS
 10
21.9891727735
 20
67.4279292656
 40
2.5
100
AcDbArc
 50
0.0
 51
180.0
  0
ARC
  5
333
100
AcDbEntity
  8
0
100
AcDbCircle
 62
7
  6
CONTINUOUS
 10
21.9891727735
 20
25.4279292656
 40
2.5
100
AcDbArc
 50
180.0
 51
360.0
  0
ARC
  5
334
100
AcDbEntity
  8
0
100
AcDbCircle
 62
7
  6
CONTINUOUS
 10
31.9891727735
 20
67.4279292656
 40
2.5
100
AcDbArc
 50
0.0
 51
180.0
  0
ARC
  5
335
100
AcDbEntity
  8
0
100
AcDbCircle
 62
7
  6
CONTINUOUS
 10
31.9891727735
 20
25.4279292656
 40
2.5
100
AcDbArc
 50
180.0
 51
360.0
  0
ARC
  5
336
100
AcDbEntity
  8
0
100
AcDbCircle
 62
7
  6
CONTINUOUS
 10
41.9891727735
 20
67.4279292656
 40
2.5
100
AcDbArc
 50
0.0
 51
180.0
  0
ARC
  5
337
100
AcDbEntity
  8
0
100
AcDbCircle
 62
7
  6
CONTINUOUS
 10
41.9891727735
 20
25.4279292656
 40
2.5
100
AcDbArc
 50
180.0
 51
360.0
  0
ARC
  5
338
100
AcDbEntity
  8
0
100
AcDbCircle
 62
7
  6
CONTINUOUS
 10
51.9891727735
 20
67.4279292656
 40
2.5
100
AcDbArc
 50
0.0
 51
180.0
  0
ARC
  5
339
100
AcDbEntity
  8
0
100
AcDbCircle
 62
7
  6
CONTINUOUS
 10
61.9891727735
 20
25.4279292656
 40
2.5
100
AcDbArc
 50
180.0
 51
360.0
  0
ARC
  5
33A
100
AcDbEntity
  8
0
100
AcDbCircle
 62
7
  6
CONTINUOUS
 10
61.9891727735
 20
67.4279292656
 40
2.5
100
AcDbArc
 50
0.0
 51
180.0
  0
ARC
  5
33B
100
AcDbEntity
  8
0
100
AcDbCircle
 62
7
  6
CONTINUOUS
 10
51.9891727735
 20
25.4279292656
 40
2.5
100
AcDbArc
 50
180.0
 51
360.0
  0
ARC
  5
33C
100
AcDbEntity
  8
0
100
AcDbCircle
 62
7
  6
CONTINUOUS
 10
16.9891727735
 20
80.0279292656
 40
2.5
100
AcDbArc
 50
180.0
 51
270.0
  0
ARC
  5
33D
100
AcDbEntity
  8
0
100
AcDbCircle
 62
7
  6
CONTINUOUS
 10
18.8225061068
 20
90.5279292656
 40
1.6666666667
100
AcDbArc
 50
216.8698976459
 51
360.0
  0
ARC
  5
33E
100
AcDbEntity
  8
0
100
AcDbCircle
 62
7
  6
CONTINUOUS
 10
18.8225061068
 20
92.5279292656
 40
1.6666666667
100
AcDbArc
 50
0.0
 51
143.1301023541
  0
ARC
  5
33F
100
AcDbEntity
  8
0
100
AcDbCircle
 62
7
  6
CONTINUOUS
 10
16.9891727735
 20
80.0279292656
 40
1.0
100
AcDbArc
 50
180.0
 51
270.0
  0
ARC
  5
340
100
AcDbEntity
  8
0
100
AcDbCircle
 62
7
  6
CONTINUOUS
 10
45.9891727735
 20
99.0279292656
 40
11.25
100
AcDbArc
 50
100.1775965248
 51
254.6847872439
  0
ARC
  5
341
100
AcDbEntity
  8
0
100
AcDbCircle
 62
7
  6
CONTINUOUS
 10
45.9891727735
 20
99.0279292656
 40
11.25
100
AcDbArc
 50
277.795729578
 51
79.8224034751
  0
ARC
  5
342
100
AcDbEntity
  8
0
100
AcDbCircle
 62
7
  6
CONTINUOUS
 10
45.9891727735
 20
140.0279292656
 40
11.25
100
AcDbArc
 50
100.1775965248
 51
79.8224034751
  0
ARC
  5
343
100
AcDbEntity
  8
0
100
AcDbCircle
 62
7
  6
CONTINUOUS
 10
66.7405911746
 20
163.3279292656
 40
6.4722484501
100
AcDbArc
 50
94.3862859916
 51
122.6763014102
  0
ARC
  5
344
100
AcDbEntity
  8
0
100
AcDbCircle
 62
7
  6
CONTINUOUS
 10
66.7405911746
 20
163.3279292656
 40
6.4722484501
100
AcDbArc
 50
57.3236985898
 51
85.6137140084
  0
ARC
  5
345
100
AcDbEntity
  8
0
100
AcDbCircle
 62
7
  6
CONTINUOUS
 10
50.4891727735
 20
164.3279292656
 40
6.4722484501
100
AcDbArc
 50
94.3862859916
 51
122.6763014102
  0
ARC
  5
346
100
AcDbEntity
  8
0
100
AcDbCircle
 62
7
  6
CONTINUOUS
 10
50.4891727735
 20
164.3279292656
 40
6.4722484501
100
AcDbArc
 50
57.3236985898
 51
85.6137140084
  0
ARC
  5
347
100
AcDbEntity
  8
0
100
AcDbCircle
 62
7
  6
CONTINUOUS
 10
20.4891727735
 20
164.3279292656
 40
6.4722484501
100
AcDbArc
 50
94.3862859916
 51
122.6763014102
  0
ARC
  5
348
100
AcDbEntity
  8
0
100
AcDbCircle
 62
7
  6
CONTINUOUS
 10
20.4891727735
 20
164.3279292656
 40
6.4722484501
100
AcDbArc
 50
57.3236985898
 51
85.6137140084
  0
ARC
  5
349
100
AcDbEntity
  8
0
100
AcDbCircle
 62
7
  6
CONTINUOUS
 10
66.7405911746
 20
163.3279292656
 40
6.1341258546
100
AcDbArc
 50
85.3714216169
 51
94.6285783831
  0
ARC
  5
34A
100
AcDbEntity
  8
0
100
AcDbCircle
 62
7
  6
CONTINUOUS
 10
50.4891727735
 20
164.3279292656
 40
6.1341258546
100
AcDbArc
 50
85.3714216169
 51
94.6285783831
  0
ARC
  5
34B
100
AcDbEntity
  8
0
100
AcDbCircle
 62
7
  6
CONTINUOUS
 10
20.4891727735
 20
164.3279292656
 40
6.1341258546
100
AcDbArc
 50
85.3714216169
 51
94.6285783831
  0
ARC
  5
34C
100
AcDbEntity
  8
0
100
AcDbCircle
 62
7
  6
CONTINUOUS
 10
16.9891727735
 20
143.8279292656
 40
2.5
100
AcDbArc
 50
180.0
 51
270.0
  0
ARC
  5
34D
100
AcDbEntity
  8
0
100
AcDbCircle
 62
7
  6
CONTINUOUS
 10
16.9891727735
 20
160.9279292656
 40
2.5
100
AcDbArc
 50
90.0
 51
180.0
  0
ARC
  5
34E
100
AcDbEntity
  8
0
100
AcDbCircle
 62
7
  6
CONTINUOUS
 10
18.8225061068
 20
140.5279292656
 40
1.6666666667
100
AcDbArc
 50
216.8698976459
 51
360.0
  0
ARC
  5
34F
100
AcDbEntity
  8
0
100
AcDbCircle
 62
7
  6
CONTINUOUS
 10
18.8225061068
 20
142.5279292656
 40
1.6666666667
100
AcDbArc
 50
0.0
 51
143.1301023541
  0
ARC
  5
350
100
AcDbEntity
  8
0
100
AcDbCircle
 62
7
  6
CONTINUOUS
 10
45.9891727735
 20
110.2779292656
 40
1.6
100
AcDbArc
 50
8.6299927837
 51
171.3700072173
  0
ARC
  5
351
100
AcDbEntity
  8
0
100
AcDbCircle
 62
7
  6
CONTINUOUS
 10
45.9891727735
 20
151.2779292656
 40
1.6
100
AcDbArc
 50
8.6299927838
 51
171.3700072174
  0
ARC
  5
352
100
AcDbEntity
  8
0
100
AcDbCircle
 62
7
  6
CONTINUOUS
 10
63.792460824
 20
167.924280322
 40
1.0116701293
100
AcDbArc
 50
122.6758537356
 51
127.4034124813
  0
ARC
  5
353
100
AcDbEntity
  8
0
100
AcDbCircle
 62
7
  6
CONTINUOUS
 10
47.5410424229
 20
168.924280322
 40
1.0116701294
100
AcDbArc
 50
122.6758537357
 51
127.4034124812
  0
ARC
  5
354
100
AcDbEntity
  8
0
100
AcDbCircle
 62
7
  6
CONTINUOUS
 10
53.4373031241
 20
168.9242803219
 40
1.0116701294
100
AcDbArc
 50
52.5965875188
 51
57.3241462643
  0
ARC
  5
355
100
AcDbEntity
  8
0
100
AcDbCircle
 62
7
  6
CONTINUOUS
 10
17.5410424229
 20
168.924280322
 40
1.0116701293
100
AcDbArc
 50
122.6758537357
 51
127.4034124812
  0
ARC
  5
356
100
AcDbEntity
  8
0
100
AcDbCircle
 62
7
  6
CONTINUOUS
 10
23.4373031241
 20
168.9242803219
 40
1.0116701294
100
AcDbArc
 50
52.5965875188
 51
57.3241462643
  0
ARC
  5
357
100
AcDbEntity
  8
0
100
AcDbCircle
 62
7
  6
CONTINUOUS
 10
63.7405911746
 20
167.9377014942
 40
1.0
100
AcDbArc
 50
127.7931978244
 51
180.0
  0
ARC
  5
358
100
AcDbEntity
  8
0
100
AcDbCircle
 62
7
  6
CONTINUOUS
 10
53.4891727735
 20
168.9377014942
 40
1.0
100
AcDbArc
 50
0.0
 51
52.2068021756
  0
ARC
  5
359
100
AcDbEntity
  8
0
100
AcDbCircle
 62
7
  6
CONTINUOUS
 10
47.4891727735
 20
168.9377014942
 40
1.0
100
AcDbArc
 50
127.7931978244
 51
180.0
  0
ARC
  5
35A
100
AcDbEntity
  8
0
100
AcDbCircle
 62
7
  6
CONTINUOUS
 10
23.4891727735
 20
168.9377014942
 40
1.0
100
AcDbArc
 50
0.0
 51
52.2068021756
  0
ARC
  5
35B
100
AcDbEntity
  8
0
100
AcDbCircle
 62
7
  6
CONTINUOUS
 10
17.4891727735
 20
168.9377014942
 40
1.0
100
AcDbArc
 50
127.7931978244
 51
180.0
  0
ARC
  5
35C
100
AcDbEntity
  8
0
100
AcDbCircle
 62
7
  6
CONTINUOUS
 10
16.9891727735
 20
143.8279292656
 40
1.0
100
AcDbArc
 50
180.0
 51
270.0
  0
ARC
  5
35D
100
AcDbEntity
  8
0
100
AcDbCircle
 62
7
  6
CONTINUOUS
 10
16.9891727735
 20
160.9279292656
 40
1.0
100
AcDbArc
 50
90.0
 51
180.0
  0
ARC
  5
35E
100
AcDbEntity
  8
0
100
AcDbCircle
 62
7
  6
CONTINUOUS
 10
48.065396506
 20
110.5930403767
 40
0.5
100
AcDbArc
 50
188.629992789
 51
259.8224034748
  0
ARC
  5
35F
100
AcDbEntity
  8
0
100
AcDbCircle
 62
7
  6
CONTINUOUS
 10
43.9129490409
 20
110.5930403767
 40
0.5
100
AcDbArc
 50
280.1775965272
 51
351.3700072077
  0
ARC
  5
360
100
AcDbEntity
  8
0
100
AcDbCircle
 62
7
  6
CONTINUOUS
 10
48.065396506
 20
151.5930403767
 40
0.5
100
AcDbArc
 50
188.6299927889
 51
259.8224034748
  0
ARC
  5
361
100
AcDbEntity
  8
0
100
AcDbCircle
 62
7
  6
CONTINUOUS
 10
43.9129490409
 20
151.5930403767
 40
0.5
100
AcDbArc
 50
280.1775965272
 51
351.3700072075
  0
ARC
  5
362
100
AcDbEntity
  8
0
100
AcDbCircle
 62
7
  6
CONTINUOUS
 10
96.9891727735
 20
77.4279292656
 40
6.4722484501
100
AcDbArc
 50
102.8827564505
 51
122.6763014102
  0
ARC
  5
363
100
AcDbEntity
  8
0
100
AcDbCircle
 62
7
  6
CONTINUOUS
 10
71.9891727735
 20
67.4279292656
 40
2.5
100
AcDbArc
 50
0.0
 51
180.0
  0
ARC
  5
364
100
AcDbEntity
  8
0
100
AcDbCircle
 62
7
  6
CONTINUOUS
 10
71.9891727735
 20
25.4279292656
 40
2.5
100
AcDbArc
 50
180.0
 51
360.0
  0
ARC
  5
365
100
AcDbEntity
  8
0
100
AcDbCircle
 62
7
  6
CONTINUOUS
 10
81.9891727735
 20
67.4279292656
 40
2.5
100
AcDbArc
 50
0.0
 51
180.0
  0
ARC
  5
366
100
AcDbEntity
  8
0
100
AcDbCircle
 62
7
  6
CONTINUOUS
 10
81.9891727735
 20
25.4279292656
 40
2.5
100
AcDbArc
 50
180.0
 51
360.0
  0
ARC
  5
367
100
AcDbEntity
  8
0
100
AcDbCircle
 62
7
  6
CONTINUOUS
 10
91.9891727735
 20
67.4279292656
 40
2.5
100
AcDbArc
 50
0.0
 51
180.0
  0
ARC
  5
368
100
AcDbEntity
  8
0
100
AcDbCircle
 62
7
  6
CONTINUOUS
 10
91.9891727735
 20
25.4279292656
 40
2.5
100
AcDbArc
 50
180.0
 51
360.0
  0
ARC
  5
369
100
AcDbEntity
  8
0
100
AcDbCircle
 62
7
  6
CONTINUOUS
 10
101.9891727735
 20
67.4279292656
 40
2.5
100
AcDbArc
 50
128.6868801262
 51
180.0
  0
ARC
  5
36A
100
AcDbEntity
  8
0
100
AcDbCircle
 62
7
  6
CONTINUOUS
 10
101.9891727735
 20
67.4279292656
 40
2.5
100
AcDbArc
 50
0.0
 51
89.992475855
  0
ARC
  5
36B
100
AcDbEntity
  8
0
100
AcDbCircle
 62
7
  6
CONTINUOUS
 10
101.9891727735
 20
25.4279292656
 40
2.5
100
AcDbArc
 50
180.0
 51
360.0
  0
ARC
  5
36C
100
AcDbEntity
  8
0
100
AcDbCircle
 62
7
  6
CONTINUOUS
 10
111.9891727735
 20
67.4279292656
 40
2.5
100
AcDbArc
 50
0.0
 51
180.0
  0
ARC
  5
36D
100
AcDbEntity
  8
0
100
AcDbCircle
 62
7
  6
CONTINUOUS
 10
111.9891727735
 20
25.4279292656
 40
2.5
100
AcDbArc
 50
180.0
 51
360.0
  0
ARC
  5
36E
100
AcDbEntity
  8
0
100
AcDbCircle
 62
7
  6
CONTINUOUS
 10
116.9891727735
 20
80.0279292656
 40
2.5
100
AcDbArc
 50
270.0
 51
360.0
  0
ARC
  5
36F
100
AcDbEntity
  8
0
100
AcDbCircle
 62
7
  6
CONTINUOUS
 10
115.1558394402
 20
92.5279292656
 40
1.6666666667
100
AcDbArc
 50
36.8698976458
 51
180.0
  0
ARC
  5
370
100
AcDbEntity
  8
0
100
AcDbCircle
 62
7
  6
CONTINUOUS
 10
115.1558394402
 20
90.5279292656
 40
1.6666666667
100
AcDbArc
 50
180.0
 51
323.1301023542
  0
ARC
  5
371
100
AcDbEntity
  8
0
100
AcDbCircle
 62
7
  6
CONTINUOUS
 10
96.7109488382
 20
82.6499785453
 40
1.6
100
AcDbArc
 50
122.3169564322
 51
175.0
  0
ARC
  5
372
100
AcDbEntity
  8
0
100
AcDbCircle
 62
7
  6
CONTINUOUS
 10
94.0410424229
 20
82.024280322
 40
1.0116701293
100
AcDbArc
 50
122.6758537356
 51
127.4034124813
  0
ARC
  5
373
100
AcDbEntity
  8
0
100
AcDbCircle
 62
7
  6
CONTINUOUS
 10
93.9891727735
 20
82.0377014942
 40
1.0
100
AcDbArc
 50
127.7931978244
 51
180.0
  0
ARC
  5
374
100
AcDbEntity
  8
0
100
AcDbCircle
 62
7
  6
CONTINUOUS
 10
116.9891727735
 20
80.0279292656
 40
1.0
100
AcDbArc
 50
270.0
 51
360.0
  0
ARC
  5
375
100
AcDbEntity
  8
0
100
AcDbCircle
 62
7
  6
CONTINUOUS
 10
87.9891727735
 20
140.0279292656
 40
11.25
100
AcDbArc
 50
100.1775965248
 51
79.8224034751
  0
ARC
  5
376
100
AcDbEntity
  8
0
100
AcDbCircle
 62
7
  6
CONTINUOUS
 10
87.9891727735
 20
99.0279292656
 40
11.25
100
AcDbArc
 50
100.1775965248
 51
263.4182246975
  0
ARC
  5
377
100
AcDbEntity
  8
0
100
AcDbCircle
 62
7
  6
CONTINUOUS
 10
87.9891727735
 20
99.0279292656
 40
11.25
100
AcDbArc
 50
276.5770634364
 51
79.8224034751
  0
ARC
  5
378
100
AcDbEntity
  8
0
100
AcDbCircle
 62
7
  6
CONTINUOUS
 10
80.4891727735
 20
164.3279292656
 40
6.4722484501
100
AcDbArc
 50
94.3862859916
 51
122.6763014102
  0
ARC
  5
379
100
AcDbEntity
  8
0
100
AcDbCircle
 62
7
  6
CONTINUOUS
 10
80.4891727735
 20
164.3279292656
 40
6.4722484501
100
AcDbArc
 50
57.3236985898
 51
85.6137140084
  0
ARC
  5
37A
100
AcDbEntity
  8
0
100
AcDbCircle
 62
7
  6
CONTINUOUS
 10
113.4891727735
 20
163.3279292656
 40
6.4722484501
100
AcDbArc
 50
94.3862859916
 51
122.6763014102
  0
ARC
  5
37B
100
AcDbEntity
  8
0
100
AcDbCircle
 62
7
  6
CONTINUOUS
 10
113.4891727735
 20
163.3279292656
 40
6.4722484501
100
AcDbArc
 50
57.3236985898
 51
85.6137140084
  0
ARC
  5
37C
100
AcDbEntity
  8
0
100
AcDbCircle
 62
7
  6
CONTINUOUS
 10
80.4891727735
 20
164.3279292656
 40
6.1341258546
100
AcDbArc
 50
85.3714216169
 51
94.6285783831
  0
ARC
  5
37D
100
AcDbEntity
  8
0
100
AcDbCircle
 62
7
  6
CONTINUOUS
 10
113.4891727735
 20
163.3279292656
 40
6.1341258546
100
AcDbArc
 50
85.3714216169
 51
94.6285783831
  0
ARC
  5
37E
100
AcDbEntity
  8
0
100
AcDbCircle
 62
7
  6
CONTINUOUS
 10
115.1558394402
 20
142.5279292656
 40
1.6666666667
100
AcDbArc
 50
36.8698976458
 51
180.0
  0
ARC
  5
37F
100
AcDbEntity
  8
0
100
AcDbCircle
 62
7
  6
CONTINUOUS
 10
115.1558394402
 20
140.5279292656
 40
1.6666666667
100
AcDbArc
 50
180.0
 51
323.1301023542
  0
ARC
  5
380
100
AcDbEntity
  8
0
100
AcDbCircle
 62
7
  6
CONTINUOUS
 10
87.9891727735
 20
151.2779292656
 40
1.6
100
AcDbArc
 50
8.6299927838
 51
31.022687521
  0
ARC
  5
381
100
AcDbEntity
  8
0
100
AcDbCircle
 62
7
  6
CONTINUOUS
 10
87.9891727735
 20
151.2779292656
 40
1.6
100
AcDbArc
 50
90.0581223375
 51
171.3700072173
  0
ARC
  5
382
100
AcDbEntity
  8
0
100
AcDbCircle
 62
7
  6
CONTINUOUS
 10
87.9891727735
 20
110.2779292656
 40
1.6
100
AcDbArc
 50
8.6299927838
 51
171.3700072173
  0
ARC
  5
383
100
AcDbEntity
  8
0
100
AcDbCircle
 62
7
  6
CONTINUOUS
 10
69.6887215252
 20
167.924280322
 40
1.0116701293
100
AcDbArc
 50
52.5965875187
 51
57.3241462644
  0
ARC
  5
384
100
AcDbEntity
  8
0
100
AcDbCircle
 62
7
  6
CONTINUOUS
 10
77.5410424229
 20
168.924280322
 40
1.0116701294
100
AcDbArc
 50
122.6758537357
 51
127.4034124812
  0
ARC
  5
385
100
AcDbEntity
  8
0
100
AcDbCircle
 62
7
  6
CONTINUOUS
 10
83.4373031241
 20
168.924280322
 40
1.0116701294
100
AcDbArc
 50
52.5965875188
 51
57.3241462643
  0
ARC
  5
386
100
AcDbEntity
  8
0
100
AcDbCircle
 62
7
  6
CONTINUOUS
 10
110.5410424229
 20
167.9242803219
 40
1.0116701294
100
AcDbArc
 50
122.6758537357
 51
127.4034124812
  0
ARC
  5
387
100
AcDbEntity
  8
0
100
AcDbCircle
 62
7
  6
CONTINUOUS
 10
116.4373031241
 20
167.924280322
 40
1.0116701294
100
AcDbArc
 50
52.5965875188
 51
57.3241462643
  0
ARC
  5
388
100
AcDbEntity
  8
0
100
AcDbCircle
 62
7
  6
CONTINUOUS
 10
69.7405911746
 20
167.9377014942
 40
1.0
100
AcDbArc
 50
0.0
 51
52.2068021756
  0
ARC
  5
389
100
AcDbEntity
  8
0
100
AcDbCircle
 62
7
  6
CONTINUOUS
 10
83.4891727735
 20
168.9377014942
 40
1.0
100
AcDbArc
 50
0.0
 51
52.2068021756
  0
ARC
  5
38A
100
AcDbEntity
  8
0
100
AcDbCircle
 62
7
  6
CONTINUOUS
 10
77.4891727735
 20
168.9377014942
 40
1.0
100
AcDbArc
 50
127.7931978244
 51
180.0
  0
ARC
  5
38B
100
AcDbEntity
  8
0
100
AcDbCircle
 62
7
  6
CONTINUOUS
 10
116.4891727735
 20
167.9377014942
 40
1.0
100
AcDbArc
 50
0.0
 51
52.2068021756
  0
ARC
  5
38C
100
AcDbEntity
  8
0
100
AcDbCircle
 62
7
  6
CONTINUOUS
 10
110.4891727735
 20
167.9377014942
 40
1.0
100
AcDbArc
 50
127.7931978244
 51
180.0
  0
ARC
  5
38D
100
AcDbEntity
  8
0
100
AcDbCircle
 62
7
  6
CONTINUOUS
 10
90.065396506
 20
151.5930403767
 40
0.5
100
AcDbArc
 50
188.6299927888
 51
259.8224034749
  0
ARC
  5
38E
100
AcDbEntity
  8
0
100
AcDbCircle
 62
7
  6
CONTINUOUS
 10
85.9129490409
 20
151.5930403767
 40
0.5
100
AcDbArc
 50
280.1775965272
 51
351.3700072077
  0
ARC
  5
38F
100
AcDbEntity
  8
0
100
AcDbCircle
 62
7
  6
CONTINUOUS
 10
90.065396506
 20
110.5930403767
 40
0.5
100
AcDbArc
 50
188.6299927888
 51
259.8224034749
  0
ARC
  5
390
100
AcDbEntity
  8
0
100
AcDbCircle
 62
7
  6
CONTINUOUS
 10
85.9129490409
 20
110.5930403767
 40
0.5
100
AcDbArc
 50
280.1775965272
 51
351.3700072077
  0
ENDSEC
  0
SECTION
  2
OBJECTS
  0
DICTIONARY
  5
C
100
AcDbDictionary
280
0
281
1
  3
ACAD_GROUP
350
D
  3
ACAD_MLINESTYLE
350
17
  3
ACAD_LAYOUT
350
1A
  3
ACAD_PLOTSETTINGS
350
19
  3
ACAD_PLOTSTYLENAME
350
E
  0
DICTIONARY
  5
D
102
{ACAD_REACTORS
330
C
102
}
100
AcDbDictionary
280
0
281
1
  0
ACDBDICTIONARYWDFLT
  5
E
102
{ACAD_REACTORS
330
C
102
}
100
AcDbDictionary
281
1
  3
Normal
350
F
100
AcDbDictionaryWithDefault
340
F
  0
DICTIONARY
  5
17
102
{ACAD_REACTORS
330
C
102
}
100
AcDbDictionary
280
0
281
1
  3
Standard
350
18
  0
DICTIONARY
  5
19
102
{ACAD_REACTORS
330
C
102
}
100
AcDbDictionary
281
1
  0
DICTIONARY
  5
1A
102
{ACAD_REACTORS
330
C
102
}
100
AcDbDictionary
281
1
  3
Model
350
391
  3
Layout1
350
392
  0
ACDBPLACEHOLDER
  5
F
102
{ACAD_REACTORS
330
E
102
}
  0
MLINESTYLE
  5
18
102
{ACAD_REACTORS
330
17
102
}
100
AcDbMlineStyle
  2
STANDARD
 70
0
  3

 62
256
 51
90.0
 52
90.0
 71
2
 49
0.5
 62
256
  6
BYLAYER
 49
-0.5
 62
256
  6
BYLAYER
  0
LAYOUT
  5
391
102
{ACAD_REACTORS
330
1A
102
}
100
AcDbPlotSettings
  1

  2
none_device
  4

  6

 40
0.0
 41
0.0
 42
0.0
 43
0.0
 44
210.0
 45
297.0
 46
0.0
 47
0.0
 48
0.0
 49
0.0
140
0.0
141
0.0
142
1.0
143
1.0
 70
1024
 72
1
 73
0
 74
0
  7

 75
0
147
1.0
148
0.0
149
0.0
100
AcDbLayout
  1
Model
 70
0
 71
0
 10
0.0
 20
0.0
 11
210.0
 21
297.0
 12
0.0
 22
0.0
 32
0.0
 14
0.0
 24
0.0
 34
0.0
 15
0.0
 25
0.0
 35
0.0
146
0.0
 13
0.0
 23
0.0
 33
0.0
 16
1.0
 26
0.0
 36
0.0
 17
0.0
 27
1.0
 37
0.0
 76
0
330
210
345
0
346
0
  0
LAYOUT
  5
392
102
{ACAD_REACTORS
330
1A
102
}
100
AcDbPlotSettings
  1

  2
none_device
  4

  6

 40
0.0
 41
0.0
 42
0.0
 43
0.0
 44
210.0
 45
297.0
 46
0.0
 47
0.0
 48
0.0
 49
0.0
140
0.0
141
0.0
142
1.0
143
1.0
 70
0
 72
1
 73
0
 74
0
  7

 75
0
147
1.0
148
0.0
149
0.0
100
AcDbLayout
  1
Layout1
 70
0
 71
1
 10
0.0
 20
0.0
 11
210.0
 21
297.0
 12
0.0
 22
0.0
 32
0.0
 14
0.0
 24
0.0
 34
0.0
 15
0.0
 25
0.0
 35
0.0
146
0.0
 13
0.0
 23
0.0
 33
0.0
 16
1.0
 26
0.0
 36
0.0
 17
0.0
 27
1.0
 37
0.0
 76
0
330
211
345
0
346
0
  0
ENDSEC
  0
EOF
