  0
SECTION
  2
HEADER
  9
$ACADVER
  1
AC1009
  9
$DWGCODEPAGE
  3
ansi_1250
  9
$INSBASE
 10
0.0
 20
0.0
 30
0.0
  9
$EXTMIN
 10
-13.976378
 20
-3.740157
 30
0.0
  9
$EXTMAX
 10
3.661417
 20
6.377953
 30
0.0
  9
$LIMMIN
 10
0.0
 20
0.0
  9
$LIMMAX
 10
0.0
 20
0.0
  9
$ORTHOMODE
 70
     0
  9
$REGENMODE
 70
     1
  9
$FILLMODE
 70
     1
  9
$QTEXTMODE
 70
     0
  9
$MIRRTEXT
 70
     1
  9
$DRAGMODE
 70
     2
  9
$LTSCALE
 40
1.0
  9
$OSMODE
 70
     0
  9
$ATTMODE
 70
     1
  9
$TEXTSIZE
 40
0.2
  9
$TRACEWID
 40
0.05
  9
$TEXTSTYLE
  7
STANDARD
  9
$CLAYER
  8
0
  9
$CELTYPE
  6
CONTINUOUS
  9
$CECOLOR
 62
   256
  9
$DIMSCALE
 40
1.0
  9
$DIMASZ
 40
0.18
  9
$DIMEXO
 40
0.0625
  9
$DIMDLI
 40
0.38
  9
$DIMRND
 40
0.0
  9
$DIMDLE
 40
0.0
  9
$DIMEXE
 40
0.18
  9
$DIMTP
 40
0.0
  9
$DIMTM
 40
0.0
  9
$DIMTXT
 40
0.18
  9
$DIMCEN
 40
0.09
  9
$DIMTSZ
 40
0.0
  9
$DIMTOL
 70
     0
  9
$DIMLIM
 70
     0
  9
$DIMTIH
 70
     1
  9
$DIMTOH
 70
     1
  9
$DIMSE1
 70
     0
  9
$DIMSE2
 70
     0
  9
$DIMTAD
 70
     0
  9
$DIMZIN
 70
     0
  9
$DIMBLK
  1

  9
$DIMASO
 70
     1
  9
$DIMSHO
 70
     1
  9
$DIMPOST
  1

  9
$DIMAPOST
  1

  9
$DIMALT
 70
     0
  9
$DIMALTD
 70
     2
  9
$DIMALTF
 40
25.4
  9
$DIMLFAC
 40
1.0
  9
$DIMTOFL
 70
     0
  9
$DIMTVP
 40
0.0
  9
$DIMTIX
 70
     0
  9
$DIMSOXD
 70
     0
  9
$DIMSAH
 70
     0
  9
$DIMBLK1
  1

  9
$DIMBLK2
  1

  9
$DIMSTYLE
  2
STANDARD
  9
$DIMCLRD
 70
     0
  9
$DIMCLRE
 70
     0
  9
$DIMCLRT
 70
     0
  9
$DIMTFAC
 40
1.0
  9
$DIMGAP
 40
0.09
  9
$LUNITS
 70
     2
  9
$LUPREC
 70
     4
  9
$AXISMODE
 70
     0
  9
$AXISUNIT
 10
0.0
 20
0.0
  9
$SKETCHINC
 40
0.1
  9
$FILLETRAD
 40
0.0
  9
$AUNITS
 70
     0
  9
$AUPREC
 70
     0
  9
$MENU
  1
acad
  9
$ELEVATION
 40
0.0
  9
$PELEVATION
 40
0.0
  9
$THICKNESS
 40
0.0
  9
$LIMCHECK
 70
     0
  9
$BLIPMODE
 70
     1
  9
$CHAMFERA
 40
0.0
  9
$CHAMFERB
 40
0.0
  9
$SKPOLY
 70
     0
  9
$TDCREATE
 40
0.000000000
  9
$TDUPDATE
 40
0.000000000
  9
$TDINDWG
 40
0.0000000000
  9
$TDUSRTIMER
 40
0.0000000000
  9
$USRTIMER
 70
     1
  9
$ANGBASE
 50
0.0
  9
$ANGDIR
 70
     0
  9
$PDMODE
 70
     0
  9
$PDSIZE
 40
0.0
  9
$PLINEWID
 40
0.0
  9
$COORDS
 70
     0
  9
$SPLFRAME
 70
     0
  9
$SPLINETYPE
 70
     6
  9
$SPLINESEGS
 70
     8
  9
$ATTDIA
 70
     0
  9
$ATTREQ
 70
     1
  9
$HANDLING
 70
     1
  9
$HANDSEED
  5
188
  9
$SURFTAB1
 70
     6
  9
$SURFTAB2
 70
     6
  9
$SURFTYPE
 70
     6
  9
$SURFU
 70
     6
  9
$SURFV
 70
     6
  9
$UCSNAME
  2

  9
$UCSORG
 10
0.0
 20
0.0
 30
0.0
  9
$UCSXDIR
 10
1.0
 20
0.0
 30
0.0
  9
$UCSYDIR
 10
0.0
 20
1.0
 30
0.0
  9
$PUCSNAME
  2

  9
$PUCSORG
 10
0.0
 20
0.0
 30
0.0
  9
$PUCSXDIR
 10
1.0
 20
0.0
 30
0.0
  9
$PUCSYDIR
 10
0.0
 20
1.0
 30
0.0
  9
$USERI1
 70
     0
  9
$USERI2
 70
     0
  9
$USERI3
 70
     0
  9
$USERI4
 70
     0
  9
$USERI5
 70
     0
  9
$USERR1
 40
0.0
  9
$USERR2
 40
0.0
  9
$USERR3
 40
0.0
  9
$USERR4
 40
0.0
  9
$USERR5
 40
0.0
  9
$WORLDVIEW
 70
     1
  9
$SHADEDGE
 70
     3
  9
$SHADEDIF
 70
    70
  9
$TILEMODE
 70
     1
  9
$MAXACTVP
 70
    16
  9
$PINSBASE
 10
0.0
 20
0.0
 30
0.0
  9
$PLIMCHECK
 70
     0
  9
$PEXTMIN
 10
1.000000E+20
 20
1.000000E+20
 30
1.000000E+20
  9
$PEXTMAX
 10
-1.000000E+20
 20
-1.000000E+20
 30
-1.000000E+20
  9
$PLIMMIN
 10
0.0
 20
0.0
  9
$PLIMMAX
 10
12.0
 20
9.0
  9
$UNITMODE
 70
     0
  9
$VISRETAIN
 70
     0
  9
$PLINEGEN
 70
     1
  9
$PSLTSCALE
 70
     0
  9
$TREEDEPTH
 70
  3020
  0
ENDSEC
  0
SECTION
  2
TABLES
  0
TABLE
  2
VPORT
 70
     1
  0
VPORT
  2
*ACTIVE
 70
     0
 10
0.0
 20
0.0
 11
1.0
 21
1.0
 12
6.591288
 22
4.579184
 13
0.0
 23
0.0
 14
1.0
 24
1.0
 15
0.0
 25
0.0
 16
0.0
 26
0.0
 36
1.0
 17
0.0
 27
0.0
 37
0.0
 40
9.158369
 41
0.688564
 42
50.0
 43
0.0
 44
0.0
 50
0.0
 51
0.0
 71
     0
 72
   100
 73
     1
 74
     1
 75
     0
 76
     0
 77
     0
 78
     0
  0
ENDTAB
  0
TABLE
  2
LTYPE
 70
     5
  0
LTYPE
  2
CONTINUOUS
 70
    64
  3
Solid line
 72
    65
 73
     0
 40
0.0
  0
LTYPE
  2
CENTER
 70
    64
  3
Center ____ _ ____ _ ____ _ ____ _ ____ _ ____
 72
    65
 73
     4
 40
50.8
 49
31.75
 49
-6.35
 49
6.35
 49
-6.35
  0
LTYPE
  2
HIDDEN
 70
    64
  3
Hidden __ __ __ __ __ __ __ __ __ __ __ __ __ __
 72
    65
 73
     2
 40
9.525
 49
6.35
 49
-3.175
  0
LTYPE
  2
CENTER2
 70
    64
  3
Center (.5x) ___ _ ___ _ ___ _ ___ _ ___ _ ___
 72
    65
 73
     4
 40
28.575
 49
19.05
 49
-3.175
 49
3.175
 49
-3.175
  0
LTYPE
  2
HIDDEN2
 70
    64
  3
Hidden (.5x) _ _ _ _ _ _ _ _ _ _ _ _ _ _ _ _ _
 72
    65
 73
     2
 40
4.7625
 49
3.175
 49
-1.5875
  0
ENDTAB
  0
TABLE
  2
LAYER
 70
     1
  0
LAYER
  2
0
 70
     0
 62
     7
  6
CONTINUOUS
  0
ENDTAB
  0
TABLE
  2
STYLE
 70
     1
  0
STYLE
  2
STANDARD
 70
     0
 40
0.0
 41
1.0
 50
0.0
 71
     0
 42
0.0
  3
txt
  4

  0
ENDTAB
  0
TABLE
  2
VIEW
 70
     0
  0
ENDTAB
  0
TABLE
  2
UCS
 70
     0
  0
ENDTAB
  0
TABLE
  2
APPID
 70
     1
  0
APPID
  2
ACAD
 70
     0
  0
ENDTAB
  0
TABLE
  2
DIMSTYLE
 70
     1
  0
DIMSTYLE
  2
STANDARD
 70
     0
  3

  4

  5

  6

  7

 40
1.0
 41
0.18
 42
0.0625
 43
0.38
 44
0.18
 45
0.0
 46
0.0
 47
0.0
 48
0.0
 71
     0
 72
     0
 73
     1
 74
     1
 75
     0
 76
     0
 77
     0
 78
     0
140
0.18
141
0.09
142
0.0
143
25.4
144
1.0
145
0.0
146
1.0
147
0.09
170
     0
171
     2
172
     0
173
     0
174
     0
175
     0
176
     0
177
     0
178
     0
  0
ENDTAB
  0
ENDSEC
  0
SECTION
  2
BLOCKS
  0
ENDSEC
  0
SECTION
  2
ENTITIES
  0
LINE
  8
0
  6
CONTINUOUS
 62
     7
  5
107
 10
-13.831496
 20
2.102756
 30
0.0
 11
-13.689764
 21
2.102756
 31
0.0
  0
LINE
  8
0
  6
CONTINUOUS
 62
     7
  5
108
 10
-12.924409
 20
2.102756
 30
0.0
 11
-12.782677
 21
2.102756
 31
0.0
  0
LINE
  8
0
  6
CONTINUOUS
 62
     7
  5
109
 10
-12.795096
 20
3.42126
 30
0.0
 11
-13.819077
 21
3.42126
 31
0.0
  0
LINE
  8
0
  6
CONTINUOUS
 62
     7
  5
10A
 10
-12.781969
 20
3.033465
 30
0.0
 11
-13.832205
 21
3.033465
 31
0.0
  0
LINE
  8
0
  6
CONTINUOUS
 62
     7
  5
10B
 10
-12.768504
 20
2.723228
 30
0.0
 11
-13.845669
 21
2.723228
 31
0.0
  0
LINE
  8
0
  6
CONTINUOUS
 62
     7
  5
10C
 10
-12.740157
 20
2.645669
 30
0.0
 11
-13.874016
 21
2.645669
 31
0.0
  0
LINE
  8
0
  6
CONTINUOUS
 62
     7
  5
10D
 10
-12.79685
 20
2.025197
 30
0.0
 11
-13.307087
 21
2.025197
 31
0.0
  0
LINE
  8
0
  6
CONTINUOUS
 62
     7
  5
10E
 10
-12.740157
 20
2.025197
 30
0.0
 11
-12.79685
 21
2.025197
 31
0.0
  0
LINE
  8
0
  6
CONTINUOUS
 62
     7
  5
10F
 10
-13.817323
 20
2.025197
 30
0.0
 11
-13.874016
 21
2.025197
 31
0.0
  0
LINE
  8
0
  6
CONTINUOUS
 62
     7
  5
110
 10
-13.307087
 20
2.025197
 30
0.0
 11
-13.817323
 21
2.025197
 31
0.0
  0
LINE
  8
0
  6
CONTINUOUS
 62
     7
  5
111
 10
-12.740157
 20
1.870079
 30
0.0
 11
-12.740157
 21
2.025197
 31
0.0
  0
LINE
  8
0
  6
CONTINUOUS
 62
     7
  5
112
 10
-13.874016
 20
1.870079
 30
0.0
 11
-13.874016
 21
2.025197
 31
0.0
  0
LINE
  8
0
  6
CONTINUOUS
 62
     7
  5
113
 10
0.393701
 20
3.741157
 30
0.0
 11
-0.07874
 21
3.741157
 31
0.0
  0
LINE
  8
0
  6
CONTINUOUS
 62
     7
  5
114
 10
0.0
 20
3.739157
 30
0.0
 11
-12.590551
 21
3.739157
 31
0.0
  0
LINE
  8
0
  6
CONTINUOUS
 62
     7
  5
115
 10
3.267717
 20
-0.19685
 30
0.0
 11
0.905512
 21
-0.19685
 31
0.0
  0
ARC
  8
0
  6
CONTINUOUS
 62
     7
  5
116
 10
3.267717
 20
0.0
 30
0.0
 40
0.19685
 50
270.0
 51
90.0
  0
ARC
  8
0
  6
CONTINUOUS
 62
     7
  5
117
 10
0.905512
 20
0.0
 30
0.0
 40
0.19685
 50
90.0
 51
270.0
  0
LINE
  8
0
  6
CONTINUOUS
 62
     7
  5
118
 10
0.905512
 20
0.19685
 30
0.0
 11
3.267717
 21
0.19685
 31
0.0
  0
LINE
  8
0
  6
CONTINUOUS
 62
     7
  5
119
 10
-12.653543
 20
-3.616732
 30
0.0
 11
-12.653543
 21
-3.302559
 31
0.0
  0
LINE
  8
0
  6
CONTINUOUS
 62
     7
  5
11A
 10
-12.653543
 20
3.302559
 30
0.0
 11
-12.653543
 21
3.616732
 31
0.0
  0
LINE
  8
0
  6
CONTINUOUS
 62
     7
  5
11B
 10
-13.976378
 20
-1.870079
 30
0.0
 11
-12.716535
 21
-1.870079
 31
0.0
  0
LINE
  8
0
  6
CONTINUOUS
 62
     7
  5
11C
 10
-13.976378
 20
-1.870079
 30
0.0
 11
-13.976378
 21
-1.776575
 31
0.0
  0
LINE
  8
0
  6
CONTINUOUS
 62
     7
  5
11D
 10
-13.976378
 20
-1.776575
 30
0.0
 11
-13.976378
 21
-1.589567
 31
0.0
  0
LINE
  8
0
  6
CONTINUOUS
 62
     7
  5
11E
 10
-13.976378
 20
-1.589567
 30
0.0
 11
-13.976378
 21
-1.309055
 31
0.0
  0
LINE
  8
0
  6
CONTINUOUS
 62
     7
  5
11F
 10
-13.976378
 20
-1.309055
 30
0.0
 11
-12.716535
 21
-1.309055
 31
0.0
  0
LINE
  8
0
  6
CONTINUOUS
 62
     7
  5
120
 10
-13.976378
 20
-1.309055
 30
0.0
 11
-13.976378
 21
-1.215551
 31
0.0
  0
LINE
  8
0
  6
CONTINUOUS
 62
     7
  5
121
 10
-13.976378
 20
-1.215551
 30
0.0
 11
-13.976378
 21
1.215551
 31
0.0
  0
LINE
  8
0
  6
CONTINUOUS
 62
     7
  5
122
 10
-13.976378
 20
1.309055
 30
0.0
 11
-12.716535
 21
1.309055
 31
0.0
  0
LINE
  8
0
  6
CONTINUOUS
 62
     7
  5
123
 10
-13.976378
 20
1.215551
 30
0.0
 11
-13.976378
 21
1.309055
 31
0.0
  0
LINE
  8
0
  6
CONTINUOUS
 62
     7
  5
124
 10
-13.976378
 20
1.309055
 30
0.0
 11
-13.976378
 21
1.589567
 31
0.0
  0
LINE
  8
0
  6
CONTINUOUS
 62
     7
  5
125
 10
-13.976378
 20
1.589567
 30
0.0
 11
-13.976378
 21
1.776575
 31
0.0
  0
LINE
  8
0
  6
CONTINUOUS
 62
     7
  5
126
 10
-13.976378
 20
1.870079
 30
0.0
 11
-12.716535
 21
1.870079
 31
0.0
  0
LINE
  8
0
  6
CONTINUOUS
 62
     7
  5
127
 10
-13.976378
 20
1.776575
 30
0.0
 11
-13.976378
 21
1.870079
 31
0.0
  0
LINE
  8
0
  6
CONTINUOUS
 62
     7
  5
128
 10
-12.590551
 20
3.739157
 30
0.0
 11
-12.590551
 21
3.740157
 31
0.0
  0
LINE
  8
0
  6
CONTINUOUS
 62
     7
  5
129
 10
-12.590551
 20
-3.740157
 30
0.0
 11
-12.590551
 21
-3.739157
 31
0.0
  0
LINE
  8
0
  6
CONTINUOUS
 62
     7
  5
12A
 10
-12.590551
 20
2.431102
 30
0.0
 11
-12.590551
 21
2.61811
 31
0.0
  0
LINE
  8
0
  6
CONTINUOUS
 62
     7
  5
12B
 10
-12.590551
 20
-2.431102
 30
0.0
 11
-12.590551
 21
2.431102
 31
0.0
  0
LINE
  8
0
  6
CONTINUOUS
 62
     7
  5
12C
 10
-12.590551
 20
-2.61811
 30
0.0
 11
-12.590551
 21
-2.431102
 31
0.0
  0
LINE
  8
0
  6
CONTINUOUS
 62
     7
  5
12D
 10
-12.716535
 20
-3.740157
 30
0.0
 11
-12.590551
 21
-3.740157
 31
0.0
  0
LINE
  8
0
  6
CONTINUOUS
 62
     7
  5
12E
 10
-12.716535
 20
-3.740157
 30
0.0
 11
-12.716535
 21
-3.55315
 31
0.0
  0
LINE
  8
0
  6
CONTINUOUS
 62
     7
  5
12F
 10
-12.716535
 20
-3.55315
 30
0.0
 11
-12.716535
 21
-3.179134
 31
0.0
  0
LINE
  8
0
  6
CONTINUOUS
 62
     7
  5
130
 10
-12.716535
 20
-3.179134
 30
0.0
 11
-12.716535
 21
-2.61811
 31
0.0
  0
LINE
  8
0
  6
CONTINUOUS
 62
     7
  5
131
 10
-12.716535
 20
-2.61811
 30
0.0
 11
-12.716535
 21
-2.431102
 31
0.0
  0
LINE
  8
0
  6
CONTINUOUS
 62
     7
  5
132
 10
-12.716535
 20
-2.61811
 30
0.0
 11
-12.590551
 21
-2.61811
 31
0.0
  0
LINE
  8
0
  6
CONTINUOUS
 62
     7
  5
133
 10
-12.716535
 20
-2.431102
 30
0.0
 11
-12.716535
 21
2.431102
 31
0.0
  0
LINE
  8
0
  6
CONTINUOUS
 62
     7
  5
134
 10
-12.716535
 20
2.61811
 30
0.0
 11
-12.590551
 21
2.61811
 31
0.0
  0
LINE
  8
0
  6
CONTINUOUS
 62
     7
  5
135
 10
-12.716535
 20
2.431102
 30
0.0
 11
-12.716535
 21
2.61811
 31
0.0
  0
LINE
  8
0
  6
CONTINUOUS
 62
     7
  5
136
 10
-12.716535
 20
2.61811
 30
0.0
 11
-12.716535
 21
3.179134
 31
0.0
  0
LINE
  8
0
  6
CONTINUOUS
 62
     7
  5
137
 10
-12.716535
 20
3.179134
 30
0.0
 11
-12.716535
 21
3.55315
 31
0.0
  0
LINE
  8
0
  6
CONTINUOUS
 62
     7
  5
138
 10
-12.716535
 20
3.740157
 30
0.0
 11
-12.590551
 21
3.740157
 31
0.0
  0
LINE
  8
0
  6
CONTINUOUS
 62
     7
  5
139
 10
-12.716535
 20
3.55315
 30
0.0
 11
-12.716535
 21
3.740157
 31
0.0
  0
LINE
  8
0
  6
CONTINUOUS
 62
     7
  5
13A
 10
-12.590551
 20
3.179134
 30
0.0
 11
-12.590551
 21
2.61811
 31
0.0
  0
LINE
  8
0
  6
CONTINUOUS
 62
     7
  5
13B
 10
-12.590551
 20
3.55215
 30
0.0
 11
-12.590551
 21
3.179134
 31
0.0
  0
LINE
  8
0
  6
CONTINUOUS
 62
     7
  5
13C
 10
-12.590551
 20
3.739157
 30
0.0
 11
-12.590551
 21
3.55215
 31
0.0
  0
LINE
  8
0
  6
CONTINUOUS
 62
     7
  5
13D
 10
-12.590551
 20
-3.55215
 30
0.0
 11
-12.590551
 21
-3.739157
 31
0.0
  0
LINE
  8
0
  6
CONTINUOUS
 62
     7
  5
13E
 10
-12.590551
 20
-3.179134
 30
0.0
 11
-12.590551
 21
-3.55215
 31
0.0
  0
LINE
  8
0
  6
CONTINUOUS
 62
     7
  5
13F
 10
-12.590551
 20
-2.61811
 30
0.0
 11
-12.590551
 21
-3.179134
 31
0.0
  0
LINE
  8
0
  6
CONTINUOUS
 62
     7
  5
140
 10
0.0
 20
2.61811
 30
0.0
 11
-12.590551
 21
2.61811
 31
0.0
  0
LINE
  8
0
  6
CONTINUOUS
 62
     7
  5
141
 10
0.0
 20
-2.61811
 30
0.0
 11
-12.590551
 21
-2.61811
 31
0.0
  0
LINE
  8
0
  6
CONTINUOUS
 62
     7
  5
142
 10
0.0
 20
-3.739157
 30
0.0
 11
-12.590551
 21
-3.739157
 31
0.0
  0
LINE
  8
0
  6
CONTINUOUS
 62
     7
  5
143
 10
3.586614
 20
-0.748031
 30
0.0
 11
3.586614
 21
0.748031
 31
0.0
  0
LINE
  8
0
  6
CONTINUOUS
 62
     7
  5
144
 10
3.661417
 20
-0.673228
 30
0.0
 11
3.661417
 21
0.673228
 31
0.0
  0
LINE
  8
0
  6
CONTINUOUS
 62
     7
  5
145
 10
0.669291
 20
3.543307
 30
0.0
 11
0.669291
 21
-3.543307
 31
0.0
  0
LINE
  8
0
  6
CONTINUOUS
 62
     7
  5
146
 10
0.0
 20
-3.740157
 30
0.0
 11
0.511811
 21
-3.740157
 31
0.0
  0
LINE
  8
0
  6
CONTINUOUS
 62
     7
  5
147
 10
0.511811
 20
-3.740157
 30
0.0
 11
0.511811
 21
-3.366142
 31
0.0
  0
LINE
  8
0
  6
CONTINUOUS
 62
     7
  5
148
 10
0.0
 20
-3.366142
 30
0.0
 11
0.0
 21
-3.740157
 31
0.0
  0
LINE
  8
0
  6
CONTINUOUS
 62
     7
  5
149
 10
0.511811
 20
-3.366142
 30
0.0
 11
0.511811
 21
3.366142
 31
0.0
  0
LINE
  8
0
  6
CONTINUOUS
 62
     7
  5
14A
 10
0.0
 20
3.366142
 30
0.0
 11
0.0
 21
-3.366142
 31
0.0
  0
LINE
  8
0
  6
CONTINUOUS
 62
     7
  5
14B
 10
0.511811
 20
3.366142
 30
0.0
 11
0.511811
 21
3.740157
 31
0.0
  0
LINE
  8
0
  6
CONTINUOUS
 62
     7
  5
14C
 10
0.0
 20
3.740157
 30
0.0
 11
0.511811
 21
3.740157
 31
0.0
  0
LINE
  8
0
  6
CONTINUOUS
 62
     7
  5
14D
 10
0.0
 20
3.740157
 30
0.0
 11
0.0
 21
3.366142
 31
0.0
  0
LINE
  8
0
  6
CONTINUOUS
 62
     7
  5
14E
 10
-8.198819
 20
3.740157
 30
0.0
 11
-8.292323
 21
3.740157
 31
0.0
  0
LINE
  8
0
  6
CONTINUOUS
 62
     7
  5
14F
 10
-8.292323
 20
3.740157
 30
0.0
 11
-9.975394
 21
3.740157
 31
0.0
  0
LINE
  8
0
  6
CONTINUOUS
 62
     7
  5
150
 10
-9.975394
 20
3.740157
 30
0.0
 11
-10.068898
 21
3.740157
 31
0.0
  0
LINE
  8
0
  6
CONTINUOUS
 62
     7
  5
151
 10
-8.198819
 20
4.003937
 30
0.0
 11
-8.198819
 21
3.740157
 31
0.0
  0
LINE
  8
0
  6
CONTINUOUS
 62
     7
  5
152
 10
-8.292323
 20
4.003937
 30
0.0
 11
-8.198819
 21
4.003937
 31
0.0
  0
LINE
  8
0
  6
CONTINUOUS
 62
     7
  5
153
 10
-8.292323
 20
3.740157
 30
0.0
 11
-8.292323
 21
4.003937
 31
0.0
  0
LINE
  8
0
  6
CONTINUOUS
 62
     7
  5
154
 10
-9.133858
 20
4.003937
 30
0.0
 11
-8.292323
 21
4.003937
 31
0.0
  0
LINE
  8
0
  6
CONTINUOUS
 62
     7
  5
155
 10
-9.975394
 20
4.003937
 30
0.0
 11
-9.133858
 21
4.003937
 31
0.0
  0
LINE
  8
0
  6
CONTINUOUS
 62
     7
  5
156
 10
-9.975394
 20
4.003937
 30
0.0
 11
-9.975394
 21
3.740157
 31
0.0
  0
LINE
  8
0
  6
CONTINUOUS
 62
     7
  5
157
 10
-10.068898
 20
4.003937
 30
0.0
 11
-9.975394
 21
4.003937
 31
0.0
  0
LINE
  8
0
  6
CONTINUOUS
 62
     7
  5
158
 10
-10.068898
 20
3.740157
 30
0.0
 11
-10.068898
 21
4.003937
 31
0.0
  0
LINE
  8
0
  6
CONTINUOUS
 62
     7
  5
159
 10
-9.99877
 20
4.135827
 30
0.0
 11
-9.76501
 21
4.135827
 31
0.0
  0
LINE
  8
0
  6
CONTINUOUS
 62
     7
  5
15A
 10
-8.502707
 20
4.135827
 30
0.0
 11
-8.268947
 21
4.135827
 31
0.0
  0
LINE
  8
0
  6
CONTINUOUS
 62
     7
  5
15B
 10
-8.198819
 20
6.377953
 30
0.0
 11
-10.068898
 21
6.377953
 31
0.0
  0
LINE
  8
0
  6
CONTINUOUS
 62
     7
  5
15C
 10
-8.011811
 20
5.850394
 30
0.0
 11
-10.255906
 21
5.850394
 31
0.0
  0
LINE
  8
0
  6
CONTINUOUS
 62
     7
  5
15D
 10
-8.011811
 20
5.586614
 30
0.0
 11
-10.255906
 21
5.586614
 31
0.0
  0
LINE
  8
0
  6
CONTINUOUS
 62
     7
  5
15E
 10
-8.198819
 20
5.059055
 30
0.0
 11
-10.068898
 21
5.059055
 31
0.0
  0
LINE
  8
0
  6
CONTINUOUS
 62
     7
  5
15F
 10
-13.831496
 20
2.102756
 30
0.0
 11
-13.831496
 21
2.025197
 31
0.0
  0
LINE
  8
0
  6
CONTINUOUS
 62
     7
  5
160
 10
-13.689764
 20
2.025197
 30
0.0
 11
-13.689764
 21
2.102756
 31
0.0
  0
LINE
  8
0
  6
CONTINUOUS
 62
     7
  5
161
 10
-12.924409
 20
2.102756
 30
0.0
 11
-12.924409
 21
2.025197
 31
0.0
  0
LINE
  8
0
  6
CONTINUOUS
 62
     7
  5
162
 10
-12.782677
 20
2.025197
 30
0.0
 11
-12.782677
 21
2.102756
 31
0.0
  0
LINE
  8
0
  6
CONTINUOUS
 62
     7
  5
163
 10
-12.795096
 20
3.033465
 30
0.0
 11
-12.795096
 21
3.42126
 31
0.0
  0
LINE
  8
0
  6
CONTINUOUS
 62
     7
  5
164
 10
-13.819077
 20
3.42126
 30
0.0
 11
-13.819077
 21
3.033465
 31
0.0
  0
LINE
  8
0
  6
CONTINUOUS
 62
     7
  5
165
 10
-12.781969
 20
2.723228
 30
0.0
 11
-12.781969
 21
3.033465
 31
0.0
  0
LINE
  8
0
  6
CONTINUOUS
 62
     7
  5
166
 10
-13.832205
 20
3.033465
 30
0.0
 11
-13.832205
 21
2.723228
 31
0.0
  0
LINE
  8
0
  6
CONTINUOUS
 62
     7
  5
167
 10
-12.768504
 20
2.645669
 30
0.0
 11
-12.768504
 21
2.723228
 31
0.0
  0
LINE
  8
0
  6
CONTINUOUS
 62
     7
  5
168
 10
-13.845669
 20
2.723228
 30
0.0
 11
-13.845669
 21
2.645669
 31
0.0
  0
LINE
  8
0
  6
CONTINUOUS
 62
     7
  5
169
 10
-12.740157
 20
2.025197
 30
0.0
 11
-12.740157
 21
2.645669
 31
0.0
  0
LINE
  8
0
  6
CONTINUOUS
 62
     7
  5
16A
 10
-13.874016
 20
2.645669
 30
0.0
 11
-13.874016
 21
2.025197
 31
0.0
  0
LINE
  8
0
  6
CONTINUOUS
 62
     7
  5
16B
 10
-0.07874
 20
3.741157
 30
0.0
 11
-0.07874
 21
3.739157
 31
0.0
  0
LINE
  8
0
  6
CONTINUOUS
 62
     7
  5
16C
 10
-12.653543
 20
-3.616732
 30
0.0
 11
-12.590551
 21
-3.616732
 31
0.0
  0
LINE
  8
0
  6
CONTINUOUS
 62
     7
  5
16D
 10
-12.590551
 20
-3.302559
 30
0.0
 11
-12.653543
 21
-3.302559
 31
0.0
  0
LINE
  8
0
  6
CONTINUOUS
 62
     7
  5
16E
 10
-12.653543
 20
3.302559
 30
0.0
 11
-12.590551
 21
3.302559
 31
0.0
  0
LINE
  8
0
  6
CONTINUOUS
 62
     7
  5
16F
 10
-12.590551
 20
3.616732
 30
0.0
 11
-12.653543
 21
3.616732
 31
0.0
  0
LINE
  8
0
  6
CONTINUOUS
 62
     7
  5
170
 10
0.669291
 20
-0.748031
 30
0.0
 11
3.586614
 21
-0.748031
 31
0.0
  0
LINE
  8
0
  6
CONTINUOUS
 62
     7
  5
171
 10
3.586614
 20
0.748031
 30
0.0
 11
0.669291
 21
0.748031
 31
0.0
  0
LINE
  8
0
  6
CONTINUOUS
 62
     7
  5
172
 10
3.586614
 20
-0.748031
 30
0.0
 11
3.661417
 21
-0.673228
 31
0.0
  0
LINE
  8
0
  6
CONTINUOUS
 62
     7
  5
173
 10
3.661417
 20
0.673228
 30
0.0
 11
3.586614
 21
0.748031
 31
0.0
  0
LINE
  8
0
  6
CONTINUOUS
 62
     7
  5
174
 10
0.669291
 20
3.543307
 30
0.0
 11
0.511811
 21
3.543307
 31
0.0
  0
LINE
  8
0
  6
CONTINUOUS
 62
     7
  5
175
 10
0.511811
 20
-3.543307
 30
0.0
 11
0.669291
 21
-3.543307
 31
0.0
  0
LINE
  8
0
  6
CONTINUOUS
 62
     7
  5
176
 10
-9.99877
 20
4.135827
 30
0.0
 11
-9.99877
 21
4.003937
 31
0.0
  0
LINE
  8
0
  6
CONTINUOUS
 62
     7
  5
177
 10
-9.76501
 20
4.003937
 30
0.0
 11
-9.76501
 21
4.135827
 31
0.0
  0
LINE
  8
0
  6
CONTINUOUS
 62
     7
  5
178
 10
-8.502707
 20
4.135827
 30
0.0
 11
-8.502707
 21
4.003937
 31
0.0
  0
LINE
  8
0
  6
CONTINUOUS
 62
     7
  5
179
 10
-8.268947
 20
4.003937
 30
0.0
 11
-8.268947
 21
4.135827
 31
0.0
  0
LINE
  8
0
  6
CONTINUOUS
 62
     7
  5
17A
 10
-8.198819
 20
5.850394
 30
0.0
 11
-8.198819
 21
6.377953
 31
0.0
  0
LINE
  8
0
  6
CONTINUOUS
 62
     7
  5
17B
 10
-10.068898
 20
6.377953
 30
0.0
 11
-10.068898
 21
5.850394
 31
0.0
  0
LINE
  8
0
  6
CONTINUOUS
 62
     7
  5
17C
 10
-8.011811
 20
5.586614
 30
0.0
 11
-8.011811
 21
5.850394
 31
0.0
  0
LINE
  8
0
  6
CONTINUOUS
 62
     7
  5
17D
 10
-10.255906
 20
5.850394
 30
0.0
 11
-10.255906
 21
5.586614
 31
0.0
  0
LINE
  8
0
  6
CONTINUOUS
 62
     7
  5
17E
 10
-8.198819
 20
5.059055
 30
0.0
 11
-8.011811
 21
5.586614
 31
0.0
  0
LINE
  8
0
  6
CONTINUOUS
 62
     7
  5
17F
 10
-10.255906
 20
5.586614
 30
0.0
 11
-10.068898
 21
5.059055
 31
0.0
  0
LINE
  8
0
  6
CONTINUOUS
 62
     7
  5
180
 10
-8.198819
 20
4.003937
 30
0.0
 11
-8.198819
 21
5.059055
 31
0.0
  0
LINE
  8
0
  6
CONTINUOUS
 62
     7
  5
181
 10
-10.068898
 20
5.059055
 30
0.0
 11
-10.068898
 21
4.003937
 31
0.0
  0
LINE
  8
0
  6
CONTINUOUS
 62
     3
  5
182
 10
-13.976378
 20
0.0
 30
0.0
 11
3.661417
 21
0.0
 31
0.0
  0
LINE
  8
0
  6
CONTINUOUS
 62
     3
  5
183
 10
-9.133858
 20
6.377953
 30
0.0
 11
-9.133858
 21
4.003937
 31
0.0
  0
LINE
  8
0
  6
CONTINUOUS
 62
     3
  5
184
 10
-13.307087
 20
2.025197
 30
0.0
 11
-13.307087
 21
3.42126
 31
0.0
  0
LINE
  8
0
  6
CONTINUOUS
 62
     3
  5
185
 10
0.15748
 20
3.110193
 30
0.0
 11
0.15748
 21
3.741157
 31
0.0
  0
ENDSEC
  0
EOF
