999
DXF file: Y:\001_SCHNEIDER_PARIS\maxime fuentes - génération CAD 2D\TRAVAIL\XACA27141_2D-Views\xaca27141_2d-views_3.dxf
999
Pro/ENGINEER 2018260 by Parametric Technology Corporation
  0
SECTION
  2
HEADER
  9
$ACADVER
  1
AC1027
  9
$DWGCODEPAGE
  3
ANSI_1252
  9
$EXTMAX
 10
558.8
 20
431.8
 30
0.0
  9
$EXTMIN
 10
0.0
 20
0.0
 30
0.0
  9
$LIMMIN
 10
0.0
 20
0.0
  9
$LIMMAX
 10
558.8
 20
431.8
  9
$VIEWCTR
 10
279.4
 20
215.9
  9
$VIEWSIZE
 40
431.8
  9
$CLAYER
  8
0
  9
$LTSCALE
 40
30.734
  9
$CELTYPE
  6
BYLAYER
  9
$DIMSCALE
 40
1.0
  9
$DIMASZ
 40
3.5
  9
$DIMEXO
 40
1.0
  9
$DIMDLI
 40
21.2344
  9
$DIMEXE
 40
3.0
  9
$DIMCEN
 40
5.0292
  9
$DIMLFAC
 40
1.0
  9
$DIMBLK
  1
_FILLED
  9
$DIMALT
 70
0
  9
$DIMALTF
 40
0.0393700787
  9
$DIMTXT
 40
4.0
  9
$DIMTOL
 70
1
  9
$DIMLIM
 70
0
  9
$DIMTFAC
 40
1.0
  9
$DIMTP
 40
0.0001
  9
$DIMTM
 40
0.0001
  9
$DIMGAP
 40
0.625
  9
$DIMDSEP
 70
46
  9
$AUNITS
 70
0
  9
$PDMODE
 70
0
  9
$PDSIZE
 40
0.01
  9
$HANDSEED
  5
315
  9
$TILEMODE
 70
1
  9
$MEASUREMENT
 70
1
  9
$INSUNITS
 70
4
  0
ENDSEC
  0
SECTION
  2
CLASSES
  0
CLASS
  1
ACDBDICTIONARYWDFLT
  2
AcDbDictionaryWithDefault
  3
AutoCAD 2000
 90
0
 91
1
280
0
281
0
  0
CLASS
  1
ACDBPLACEHOLDER
  2
AcDbPlaceHolder
  3
AutoCAD 2000
 90
0
 91
1
280
0
281
0
  0
CLASS
  1
LAYOUT
  2
AcDbLayout
  3
AutoCAD 2000
 90
0
 91
0
280
0
281
0
  0
ENDSEC
  0
SECTION
  2
TABLES
  0
TABLE
  2
VPORT
  5
8
100
AcDbSymbolTable
 70
2
  0
VPORT
  5
1F4
100
AcDbSymbolTableRecord
100
AcDbViewportTableRecord
  2
*ACTIVE
 70
0
 10
0.0
 20
0.0
 11
1.0
 21
1.0
 12
279.4
 22
215.9
 13
0.0
 23
0.0
 14
1.0
 24
1.0
 15
0.0
 25
0.0
 16
0.0
 26
0.0
 36
1.0
 17
0.0
 27
0.0
 37
0.0
 40
431.8
 41
1.2941176471
 42
50.0
 43
0.0
 44
0.0
 50
0.0
 51
0.0
 71
0
 72
100
 73
1
 74
1
 75
0
 76
0
 77
0
 78
0
  0
ENDTAB
  0
TABLE
  2
LTYPE
  5
5
100
AcDbSymbolTable
 70
6
  0
LTYPE
  5
14
100
AcDbSymbolTableRecord
100
AcDbLinetypeTableRecord
  2
BYBLOCK
 70
0
  3

 72
65
 73
0
 40
0.0
  0
LTYPE
  5
15
100
AcDbSymbolTableRecord
100
AcDbLinetypeTableRecord
  2
BYLAYER
 70
0
  3

 72
65
 73
0
 40
0.0
  0
LTYPE
  5
16
100
AcDbSymbolTableRecord
100
AcDbLinetypeTableRecord
  2
CONTINUOUS
 70
64
  3
Solid line
 72
65
 73
0
 40
0.0
  0
LTYPE
  5
1F5
100
AcDbSymbolTableRecord
100
AcDbLinetypeTableRecord
  2
CENTER
 70
64
  3
____ _ ____ _ ____ _ ____ _ ____ _ ____ _ ____
 72
65
 73
4
 40
0.6
 49
0.375
 74
0
 49
-0.075
 74
0
 49
0.075
 74
0
 49
-0.075
 74
0
  0
LTYPE
  5
1F6
100
AcDbSymbolTableRecord
100
AcDbLinetypeTableRecord
  2
HIDDEN
 70
64
  3
- - - - - - - - - - - - - - - - - - - -
 72
65
 73
2
 40
0.2
 49
0.1
 74
0
 49
-0.1
 74
0
  0
LTYPE
  5
1F7
100
AcDbSymbolTableRecord
100
AcDbLinetypeTableRecord
  2
PHANTOM
 70
64
  3
_____ _ _ _____ _ _ _____ _ _ _____
 72
65
 73
6
 40
0.8
 49
0.45
 74
0
 49
-0.05
 74
0
 49
0.1
 74
0
 49
-0.05
 74
0
 49
0.1
 74
0
 49
-0.05
 74
0
  0
LTYPE
  5
1F8
100
AcDbSymbolTableRecord
100
AcDbLinetypeTableRecord
  2
DOT
 70
64
  3
. . . . . . . . . . . . . . . . . . . .
 72
65
 73
2
 40
0.2
 49
0.1
 74
0
 49
-0.1
 74
0
  0
LTYPE
  5
1F9
100
AcDbSymbolTableRecord
100
AcDbLinetypeTableRecord
  2
DASHED
 70
64
  3
- - - - - - - - - - - - - - - - - - - -
 72
65
 73
2
 40
0.2
 49
0.1
 74
0
 49
-0.1
 74
0
  0
ENDTAB
  0
TABLE
  2
LAYER
  5
2
100
AcDbSymbolTable
 70
36
  0
LAYER
  5
10
100
AcDbSymbolTableRecord
100
AcDbLayerTableRecord
  2
0
 70
0
 62
7
  6
CONTINUOUS
370
-3
390
F
  0
LAYER
  5
1FA
100
AcDbSymbolTableRecord
100
AcDbLayerTableRecord
  2
DEFAULT_1
 70
0
 62
7
  6
CENTER
370
-3
390
F
  0
LAYER
  5
1FB
100
AcDbSymbolTableRecord
100
AcDbLayerTableRecord
  2
DEFAULT_2
 70
0
 62
8
  6
HIDDEN
370
-3
390
F
  0
LAYER
  5
1FC
100
AcDbSymbolTableRecord
100
AcDbLayerTableRecord
  2
DEFAULT_3
 70
0
 62
7
  6
PHANTOM
370
-3
390
F
  0
LAYER
  5
1FD
100
AcDbSymbolTableRecord
100
AcDbLayerTableRecord
  2
01_ALL_DTM_PLN
 70
0
 62
7
  6
CONTINUOUS
370
-3
390
F
  0
LAYER
  5
1FE
100
AcDbSymbolTableRecord
100
AcDbLayerTableRecord
  2
01__ASM_ALL_DTM_PLN
 70
0
 62
7
  6
CONTINUOUS
370
-3
390
F
  0
LAYER
  5
1FF
100
AcDbSymbolTableRecord
100
AcDbLayerTableRecord
  2
01__ASM_DEF_DTM_PLN
 70
0
 62
7
  6
CONTINUOUS
370
-3
390
F
  0
LAYER
  5
200
100
AcDbSymbolTableRecord
100
AcDbLayerTableRecord
  2
01___PRT_ALL_DTM_PLN
 70
0
 62
7
  6
CONTINUOUS
370
-3
390
F
  0
LAYER
  5
201
100
AcDbSymbolTableRecord
100
AcDbLayerTableRecord
  2
01___PRT_DEF_DTM_PLN
 70
0
 62
7
  6
CONTINUOUS
370
-3
390
F
  0
LAYER
  5
202
100
AcDbSymbolTableRecord
100
AcDbLayerTableRecord
  2
02_ALL_AXES
 70
0
 62
7
  6
CONTINUOUS
370
-3
390
F
  0
LAYER
  5
203
100
AcDbSymbolTableRecord
100
AcDbLayerTableRecord
  2
02__ASM_ALL_AXES
 70
0
 62
7
  6
CONTINUOUS
370
-3
390
F
  0
LAYER
  5
204
100
AcDbSymbolTableRecord
100
AcDbLayerTableRecord
  2
02___PRT_ALL_AXES
 70
0
 62
7
  6
CONTINUOUS
370
-3
390
F
  0
LAYER
  5
205
100
AcDbSymbolTableRecord
100
AcDbLayerTableRecord
  2
03_ALL_CURVES
 70
0
 62
7
  6
CONTINUOUS
370
-3
390
F
  0
LAYER
  5
206
100
AcDbSymbolTableRecord
100
AcDbLayerTableRecord
  2
03__ASM_ALL_CURVES
 70
0
 62
7
  6
CONTINUOUS
370
-3
390
F
  0
LAYER
  5
207
100
AcDbSymbolTableRecord
100
AcDbLayerTableRecord
  2
03___PRT_ALL_CURVES
 70
0
 62
7
  6
CONTINUOUS
370
-3
390
F
  0
LAYER
  5
208
100
AcDbSymbolTableRecord
100
AcDbLayerTableRecord
  2
04_ALL_DTM_PNT
 70
0
 62
7
  6
CONTINUOUS
370
-3
390
F
  0
LAYER
  5
209
100
AcDbSymbolTableRecord
100
AcDbLayerTableRecord
  2
04__ASM_ALL_DTM_PNT
 70
0
 62
7
  6
CONTINUOUS
370
-3
390
F
  0
LAYER
  5
20A
100
AcDbSymbolTableRecord
100
AcDbLayerTableRecord
  2
04___PRT_ALL_DTM_PNT
 70
0
 62
7
  6
CONTINUOUS
370
-3
390
F
  0
LAYER
  5
20B
100
AcDbSymbolTableRecord
100
AcDbLayerTableRecord
  2
05_ALL_DTM_CSYS
 70
0
 62
7
  6
CONTINUOUS
370
-3
390
F
  0
LAYER
  5
20C
100
AcDbSymbolTableRecord
100
AcDbLayerTableRecord
  2
05__ASM_ALL_DTM_CSYS
 70
0
 62
7
  6
CONTINUOUS
370
-3
390
F
  0
LAYER
  5
20D
100
AcDbSymbolTableRecord
100
AcDbLayerTableRecord
  2
05__ASM_DEF_DTM_CSYS
 70
0
 62
7
  6
CONTINUOUS
370
-3
390
F
  0
LAYER
  5
20E
100
AcDbSymbolTableRecord
100
AcDbLayerTableRecord
  2
05___PRT_ALL_DTM_CSYS
 70
0
 62
7
  6
CONTINUOUS
370
-3
390
F
  0
LAYER
  5
20F
100
AcDbSymbolTableRecord
100
AcDbLayerTableRecord
  2
05___PRT_DEF_DTM_CSYS
 70
0
 62
7
  6
CONTINUOUS
370
-3
390
F
  0
LAYER
  5
210
100
AcDbSymbolTableRecord
100
AcDbLayerTableRecord
  2
06_ALL_SURFS
 70
0
 62
7
  6
CONTINUOUS
370
-3
390
F
  0
LAYER
  5
211
100
AcDbSymbolTableRecord
100
AcDbLayerTableRecord
  2
06__ASM_ALL_SURFS
 70
0
 62
7
  6
CONTINUOUS
370
-3
390
F
  0
LAYER
  5
212
100
AcDbSymbolTableRecord
100
AcDbLayerTableRecord
  2
06___PRT_ALL_SURFS
 70
0
 62
7
  6
CONTINUOUS
370
-3
390
F
  0
LAYER
  5
213
100
AcDbSymbolTableRecord
100
AcDbLayerTableRecord
  2
07__ASM_ALL_SKELETONS
 70
0
 62
7
  6
CONTINUOUS
370
-3
390
F
  0
LAYER
  5
214
100
AcDbSymbolTableRecord
100
AcDbLayerTableRecord
  2
CLOSED_SHELL
 70
0
 62
7
  6
CONTINUOUS
370
-3
390
F
  0
LAYER
  5
215
100
AcDbSymbolTableRecord
100
AcDbLayerTableRecord
  2
ORIENTED_CLOSED_SHE
 70
0
 62
7
  6
CONTINUOUS
370
-3
390
F
  0
ENDTAB
  0
TABLE
  2
STYLE
  5
3
100
AcDbSymbolTable
 70
1
  0
STYLE
  5
11
100
AcDbSymbolTableRecord
100
AcDbTextStyleTableRecord
  2
STANDARD
 70
0
 40
0.0
 41
0.6
 50
0.0
 71
0
 42
0.2
  3
txt
  4

  0
STYLE
  5
216
100
AcDbSymbolTableRecord
100
AcDbTextStyleTableRecord
  2
TEXTSTYLE_1
 70
0
 40
0.0
 41
0.8
 50
0.0
 71
0
 42
0.2
  3
gdt
  4

  0
ENDTAB
  0
TABLE
  2
VIEW
  5
6
100
AcDbSymbolTable
 70
0
  0
ENDTAB
  0
TABLE
  2
UCS
  5
7
100
AcDbSymbolTable
 70
0
  0
ENDTAB
  0
TABLE
  2
APPID
  5
9
100
AcDbSymbolTable
 70
1
  0
APPID
  5
217
100
AcDbSymbolTableRecord
100
AcDbRegAppTableRecord
  2
ACAD
 70
0
  0
ENDTAB
  0
TABLE
  2
BLOCK_RECORD
  5
1
100
AcDbSymbolTable
 70
0
  0
BLOCK_RECORD
  5
218
100
AcDbSymbolTableRecord
100
AcDbBlockTableRecord
  2
*Model_Space
  0
BLOCK_RECORD
  5
219
100
AcDbSymbolTableRecord
100
AcDbBlockTableRecord
  2
*Paper_Space
  0
BLOCK_RECORD
  5
21A
100
AcDbSymbolTableRecord
100
AcDbBlockTableRecord
  2
_FILLED
  0
ENDTAB
  0
TABLE
  2
DIMSTYLE
  5
A
100
AcDbSymbolTable
 70
1
100
AcDbDimStyleTable
 71
0
  0
DIMSTYLE
105
21B
100
AcDbSymbolTableRecord
100
AcDbDimStyleTableRecord
  2
STANDARD
 70
0
  3

  4

 40
1.0
 41
3.5
 42
1.0
 43
0.38
 44
3.0
 45
0.0
 46
0.0
 47
0.0001
 48
0.0001
140
4.0
141
0.09
142
0.0
143
25.4
144
1.0
145
0.0
146
1.0
147
0.625
 71
1.0
 72
0.0
 73
0
 74
0
 75
0
 76
0
 77
1
 78
8
 79
2
170
0
171
3
172
0
173
0
174
0
175
0
176
0
177
0
178
0
270
2
179
4
271
4
272
4
273
2
274
2
275
0
280
0
281
0
282
0
283
1
284
8
285
0
286
0
287
3
288
0
340
11
278
46
341
21A
342
21A
343
21A
344
21A
  0
ENDTAB
  0
ENDSEC
  0
SECTION
  2
BLOCKS
  0
BLOCK
  5
20
100
AcDbEntity
  8
0
100
AcDbBlockBegin
  2
*Model_Space
 70
0
 10
0.0
 20
0.0
 30
0.0
  3
*Model_Space
  1

  0
ENDBLK
  5
21
100
AcDbEntity
  8
0
100
AcDbBlockEnd
  0
BLOCK
  5
1C
100
AcDbEntity
  8
0
100
AcDbBlockBegin
  2
*Paper_Space
 70
0
 10
0.0
 20
0.0
 30
0.0
  3
*Paper_Space
  1

  0
ENDBLK
  5
1D
100
AcDbEntity
  8
0
100
AcDbBlockEnd
  0
BLOCK
  5
21C
100
AcDbEntity
  8
0
100
AcDbBlockBegin
  2
_FILLED
 70
64
 10
0.0
 20
0.0
  3
_FILLED
  1

  0
SOLID
  5
21D
100
AcDbEntity
  8
0
  6
BYBLOCK
 62
0
100
AcDbTrace
 10
0.0
 20
0.0
 11
-1.0
 21
0.2857142857
 12
-1.0
 22
-0.2857142857
 13
-1.0
 23
-0.2857142857
  0
ENDBLK
  5
21E
100
AcDbEntity
  8
0
  6
BYBLOCK
 62
0
100
AcDbBlockEnd
  0
ENDSEC
  0
SECTION
  2
ENTITIES
  0
LWPOLYLINE
  5
21F
100
AcDbEntity
  8
0
100
AcDbPolyline
 62
7
  6
CONTINUOUS
 90
7
 70
0
 10
232.3367867189
 20
88.8747929787
 10
234.5091805953
 20
89.4693948433
 10
236.9060341063
 20
90.7594661312
 10
238.9133193565
 20
92.5992897337
 10
240.4071836257
 20
94.8757940579
 10
241.2959116908
 20
97.4486091707
 10
241.5342657108
 20
99.7261024858
  0
LINE
  5
220
100
AcDbEntity
  8
0
100
AcDbLine
 62
9
  6
CONTINUOUS
 10
219.3608898214
 20
90.159458889
 11
219.4581254792
 21
90.1647082367
  0
LINE
  5
221
100
AcDbEntity
  8
0
100
AcDbLine
 62
9
  6
CONTINUOUS
 10
219.360713177
 20
90.1612576599
 11
219.4581254792
 21
90.1647082367
  0
LINE
  5
222
100
AcDbEntity
  8
0
100
AcDbLine
 62
7
  6
CONTINUOUS
 10
193.9092657125
 20
88.1175416962
 11
223.9092657125
 21
88.1175416962
  0
LINE
  5
223
100
AcDbEntity
  8
0
100
AcDbLine
 62
7
  6
CONTINUOUS
 10
219.2106738111
 20
89.5440334744
 11
213.8842657126
 21
89.5440334744
  0
LINE
  5
224
100
AcDbEntity
  8
0
100
AcDbLine
 62
7
  6
CONTINUOUS
 10
203.9342657118
 20
89.5440334745
 11
198.6079666051
 21
89.5440334745
  0
LINE
  5
225
100
AcDbEntity
  8
0
100
AcDbLine
 62
9
  6
CONTINUOUS
 10
203.934265713
 20
89.9345521967
 11
213.8842657126
 21
89.9345521967
  0
LINE
  5
226
100
AcDbEntity
  8
0
100
AcDbLine
 62
9
  6
CONTINUOUS
 10
198.0919100666
 20
90.3478237566
 11
198.3032238696
 21
90.3365345629
  0
LINE
  5
227
100
AcDbEntity
  8
0
100
AcDbLine
 62
9
  6
CONTINUOUS
 10
198.0919100666
 20
90.3478237566
 11
198.3027542401
 21
90.33253005
  0
LINE
  5
228
100
AcDbEntity
  8
0
100
AcDbLine
 62
7
  6
CONTINUOUS
 10
185.4441271515
 20
89.2574095771
 11
193.7342658165
 21
88.0092150863
  0
LINE
  5
229
100
AcDbEntity
  8
0
100
AcDbLine
 62
9
  6
CONTINUOUS
 10
213.8842657122
 20
106.0770085562
 11
203.934273559
 21
106.0770085562
  0
LINE
  5
22A
100
AcDbEntity
  8
0
100
AcDbLine
 62
9
  6
CONTINUOUS
 10
239.0510896618
 20
107.1093067577
 11
229.4504684068
 21
107.1093067577
  0
LINE
  5
22B
100
AcDbEntity
  8
0
100
AcDbLine
 62
9
  6
CONTINUOUS
 10
188.5187988524
 20
107.4294915348
 11
178.9181900347
 21
107.4294915348
  0
LINE
  5
22C
100
AcDbEntity
  8
0
100
AcDbLine
 62
9
  6
CONTINUOUS
 10
239.5720571707
 20
120.7431533689
 11
240.2456249954
 21
120.4833540175
  0
LINE
  5
22D
100
AcDbEntity
  8
0
100
AcDbLine
 62
9
  6
CONTINUOUS
 10
239.5728851186
 20
120.7455676435
 11
240.2456249884
 21
120.4833539977
  0
LINE
  5
22E
100
AcDbEntity
  8
0
100
AcDbLine
 62
7
  6
CONTINUOUS
 10
222.8387702207
 20
89.5680098498
 11
224.3592010213
 21
87.8021959062
  0
LINE
  5
22F
100
AcDbEntity
  8
0
100
AcDbLine
 62
7
  6
CONTINUOUS
 10
223.1103788808
 20
88.1175416962
 11
222.3804590895
 21
89.033682068
  0
LINE
  5
230
100
AcDbEntity
  8
0
100
AcDbLine
 62
7
  6
CONTINUOUS
 10
222.8929415442
 20
88.3901590182
 11
222.6496488333
 21
88.6955681552
  0
LINE
  5
231
100
AcDbEntity
  8
0
100
AcDbLine
 62
9
  6
CONTINUOUS
 10
240.7599485722
 20
114.2327138595
 11
240.0333846129
 21
114.8614127241
  0
LINE
  5
232
100
AcDbEntity
  8
0
100
AcDbLine
 62
9
  6
CONTINUOUS
 10
239.7789813356
 20
101.8446694136
 11
241.5342656894
 21
99.7267882467
  0
LWPOLYLINE
  5
233
100
AcDbEntity
  8
0
100
AcDbPolyline
 62
9
  6
CONTINUOUS
 90
3
 70
0
 10
239.778991726
 20
101.8440765256
 10
241.0918203233
 20
100.2572519699
 10
241.5342657125
 20
99.7262140347
  0
LINE
  5
234
100
AcDbEntity
  8
0
100
AcDbLine
 62
9
  6
CONTINUOUS
 10
232.3371633874
 20
88.8748555482
 11
230.5366409427
 21
91.1880828465
  0
LWPOLYLINE
  5
235
100
AcDbEntity
  8
0
100
AcDbPolyline
 62
7
  6
CONTINUOUS
 90
7
 70
0
 10
176.4342658164
 20
100.0758824462
 10
176.6581166257
 20
97.8680308615
 10
177.5166766724
 20
95.317581744
 10
178.9693624456
 20
93.0512535646
 10
180.9289941451
 20
91.2056265038
 10
183.2774269081
 20
89.8915469111
 10
185.4445211368
 20
89.2573374372
  0
LINE
  5
236
100
AcDbEntity
  8
0
100
AcDbLine
 62
7
  6
CONTINUOUS
 10
259.6842657126
 20
185.8675416961
 11
257.6842657131
 21
185.8675416961
  0
LINE
  5
237
100
AcDbEntity
  8
0
100
AcDbLine
 62
7
  6
CONTINUOUS
 10
257.6842657126
 20
186.7675416961
 11
240.3842657126
 21
186.7675416961
  0
LINE
  5
238
100
AcDbEntity
  8
0
100
AcDbLine
 62
7
  6
CONTINUOUS
 10
240.3842657126
 20
188.1175416961
 11
239.5728851186
 21
188.1175416961
  0
LINE
  5
239
100
AcDbEntity
  8
0
100
AcDbLine
 62
7
  6
CONTINUOUS
 10
174.4342658164
 20
113.1743778348
 11
174.4342658164
 21
252.5607056693
  0
LINE
  5
23A
100
AcDbEntity
  8
0
100
AcDbLine
 62
9
  6
CONTINUOUS
 10
175.4342658164
 20
105.0812931803
 11
175.4342658164
 21
260.6537903081
  0
LINE
  5
23B
100
AcDbEntity
  8
0
100
AcDbLine
 62
7
  6
CONTINUOUS
 10
176.6581921772
 20
267.8674212528
 11
176.4342658164
 21
265.6592009459
  0
LINE
  5
23C
100
AcDbEntity
  8
0
100
AcDbLine
 62
7
  6
CONTINUOUS
 10
176.4342658165
 20
100.0758824462
 11
176.4342658165
 21
101.310234477
  0
LINE
  5
23D
100
AcDbEntity
  8
0
100
AcDbLine
 62
7
  6
CONTINUOUS
 10
176.4342658165
 20
264.4248489424
 11
176.4342658165
 21
265.6592009459
  0
LINE
  5
23E
100
AcDbEntity
  8
0
100
AcDbLine
 62
7
  6
CONTINUOUS
 10
177.3185230602
 20
264.6082033041
 11
177.3185230625
 21
101.1268799056
  0
LINE
  5
23F
100
AcDbEntity
  8
0
100
AcDbLine
 62
9
  6
CONTINUOUS
 10
178.9181900347
 20
258.3055895253
 11
178.9181900347
 21
107.4294915348
  0
LINE
  5
240
100
AcDbEntity
  8
0
100
AcDbLine
 62
7
  6
CONTINUOUS
 10
200.4015920991
 20
401.1303950231
 11
199.0756219607
 21
388.1046883692
  0
LINE
  5
241
100
AcDbEntity
  8
0
100
AcDbLine
 62
7
  6
CONTINUOUS
 10
198.5692567698
 20
383.1303950231
 11
197.2432866314
 21
370.1046883692
  0
LINE
  5
242
100
AcDbEntity
  8
0
100
AcDbLine
 62
7
  6
CONTINUOUS
 10
196.7369214405
 20
365.1303950231
 11
195.410951302
 21
352.1046883692
  0
LINE
  5
243
100
AcDbEntity
  8
0
100
AcDbLine
 62
7
  6
CONTINUOUS
 10
194.9045861111
 20
347.1303950231
 11
193.5786159727
 21
334.1046883691
  0
LINE
  5
244
100
AcDbEntity
  8
0
100
AcDbLine
 62
7
  6
CONTINUOUS
 10
193.0722507818
 20
329.1303950231
 11
192.4092657126
 21
322.6175416961
  0
LWPOLYLINE
  5
245
100
AcDbEntity
  8
0
100
AcDbPolyline
 62
7
  6
CONTINUOUS
 90
6
 70
0
 10
185.4468708584
 20
276.4781778515
 10
183.2791663965
 20
275.8442462975
 10
180.9302066767
 20
274.5303460079
 10
178.9700824951
 20
272.68469742
 10
177.5170019019
 20
270.4181794553
 10
176.6581921772
 20
267.8674212528
  0
LINE
  5
246
100
AcDbEntity
  8
0
100
AcDbLine
 62
7
  6
CONTINUOUS
 10
240.3842657126
 20
215.1175416961
 11
239.5728851186
 21
215.1175416961
  0
LINE
  5
247
100
AcDbEntity
  8
0
100
AcDbLine
 62
9
  6
CONTINUOUS
 10
188.5187988524
 20
258.3051075725
 11
188.5187988524
 21
107.4294667218
  0
LINE
  5
248
100
AcDbEntity
  8
0
100
AcDbLine
 62
7
  6
CONTINUOUS
 10
193.9092657125
 20
88.1175416962
 11
193.9092657125
 21
88.2089857136
  0
LINE
  5
249
100
AcDbEntity
  8
0
100
AcDbLine
 62
9
  6
CONTINUOUS
 10
195.4380723355
 20
89.033682068
 11
195.4380723355
 21
89.8880305681
  0
LINE
  5
24A
100
AcDbEntity
  8
0
100
AcDbLine
 62
7
  6
CONTINUOUS
 10
187.9687415646
 20
301.6698917901
 11
187.5350823313
 21
276.8255709543
  0
LINE
  5
24B
100
AcDbEntity
  8
0
100
AcDbLine
 62
7
  6
CONTINUOUS
 10
192.4092657126
 20
322.6175416961
 11
191.8592657127
 21
305.0861847661
  0
LINE
  5
24C
100
AcDbEntity
  8
0
100
AcDbLine
 62
7
  6
CONTINUOUS
 10
257.6842657126
 20
216.4675416961
 11
240.3842657126
 21
216.4675416961
  0
LINE
  5
24D
100
AcDbEntity
  8
0
100
AcDbLine
 62
7
  6
CONTINUOUS
 10
259.6842657126
 20
217.3675416961
 11
257.6842657129
 21
217.3675416961
  0
LINE
  5
24E
100
AcDbEntity
  8
0
100
AcDbLine
 62
9
  6
CONTINUOUS
 10
198.6079666051
 20
89.5440334745
 11
198.6079666051
 21
90.0286321503
  0
LINE
  5
24F
100
AcDbEntity
  8
0
100
AcDbLine
 62
7
  6
CONTINUOUS
 10
199.9342658163
 20
275.8731899011
 11
199.9342658163
 21
276.8273307141
  0
LINE
  5
250
100
AcDbEntity
  8
0
100
AcDbLine
 62
7
  6
CONTINUOUS
 10
203.9092657126
 20
272.2899651411
 11
203.9092657126
 21
273.6175416961
  0
LINE
  5
251
100
AcDbEntity
  8
0
100
AcDbLine
 62
7
  6
CONTINUOUS
 10
203.9342657126
 20
89.5440334744
 11
203.9342657126
 21
106.0770098761
  0
LINE
  5
252
100
AcDbEntity
  8
0
100
AcDbLine
 62
7
  6
CONTINUOUS
 10
203.934265875
 20
106.172293312
 11
203.9342658747
 21
259.5632092451
  0
LINE
  5
253
100
AcDbEntity
  8
0
100
AcDbLine
 62
7
  6
CONTINUOUS
 10
203.9342657126
 20
259.6580739309
 11
203.9342657126
 21
272.3859968975
  0
LINE
  5
254
100
AcDbEntity
  8
0
100
AcDbLine
 62
7
  6
CONTINUOUS
 10
200.3814663644
 20
296.6698989151
 11
200.0143500291
 21
275.6378181514
  0
LINE
  5
255
100
AcDbEntity
  8
0
100
AcDbLine
 62
9
  6
CONTINUOUS
 10
200.3814895782
 20
296.6699005209
 11
200.4687373036
 21
301.6698917901
  0
LINE
  5
256
100
AcDbEntity
  8
0
100
AcDbLine
 62
9
  6
CONTINUOUS
 10
176.7513604585
 20
265.2831296494
 11
176.4342658165
 21
265.6591074745
  0
LINE
  5
257
100
AcDbEntity
  8
0
100
AcDbLine
 62
9
  6
CONTINUOUS
 10
217.3497966058
 20
301.6698989151
 11
217.4370404432
 21
296.6699043313
  0
LINE
  5
258
100
AcDbEntity
  8
0
100
AcDbLine
 62
7
  6
CONTINUOUS
 10
217.811806221
 20
275.2009922307
 11
217.4370650609
 21
296.6698989157
  0
LINE
  5
259
100
AcDbEntity
  8
0
100
AcDbLine
 62
7
  6
CONTINUOUS
 10
213.8842657126
 20
89.5440334744
 11
213.8842657126
 21
272.3859968978
  0
LINE
  5
25A
100
AcDbEntity
  8
0
100
AcDbLine
 62
7
  6
CONTINUOUS
 10
213.9092657126
 20
273.6175416961
 11
213.9092657126
 21
272.3548985191
  0
LINE
  5
25B
100
AcDbEntity
  8
0
100
AcDbLine
 62
7
  6
CONTINUOUS
 10
218.4736132564
 20
276.9589135632
 11
218.4736132564
 21
275.9739553872
  0
LINE
  5
25C
100
AcDbEntity
  8
0
100
AcDbLine
 62
9
  6
CONTINUOUS
 10
219.2106738111
 20
89.8561956237
 11
219.2106738111
 21
89.5440334744
  0
LINE
  5
25D
100
AcDbEntity
  8
0
100
AcDbLine
 62
9
  6
CONTINUOUS
 10
230.53661336
 20
274.5469916656
 11
232.3367088033
 21
276.8603033566
  0
LINE
  5
25E
100
AcDbEntity
  8
0
100
AcDbLine
 62
9
  6
CONTINUOUS
 10
185.4465755669
 20
276.4781236076
 11
185.4480667772
 21
276.4766729349
  0
LINE
  5
25F
100
AcDbEntity
  8
0
100
AcDbLine
 62
9
  6
CONTINUOUS
 10
185.4480667772
 20
276.4766729349
 11
185.9786521015
 21
275.8062606989
  0
LINE
  5
260
100
AcDbEntity
  8
0
100
AcDbLine
 62
9
  6
CONTINUOUS
 10
185.4467752919
 20
276.4781601475
 11
187.2497949941
 21
274.1860004194
  0
LINE
  5
261
100
AcDbEntity
  8
0
100
AcDbLine
 62
9
  6
CONTINUOUS
 10
185.9786521015
 20
275.8062606989
 11
186.4931290821
 21
275.1528002069
  0
LINE
  5
262
100
AcDbEntity
  8
0
100
AcDbLine
 62
9
  6
CONTINUOUS
 10
186.4931290821
 20
275.1528002069
 11
187.2497949941
 21
274.1860004194
  0
LINE
  5
263
100
AcDbEntity
  8
0
100
AcDbLine
 62
7
  6
CONTINUOUS
 10
225.4092657127
 20
322.6175416961
 11
225.9592657126
 21
305.0861847661
  0
LINE
  5
264
100
AcDbEntity
  8
0
100
AcDbLine
 62
9
  6
CONTINUOUS
 10
222.3804565228
 20
89.0336852911
 11
222.3804565228
 21
89.7503888877
  0
LINE
  5
265
100
AcDbEntity
  8
0
100
AcDbLine
 62
7
  6
CONTINUOUS
 10
223.9092657125
 20
88.1175416962
 11
223.9092657125
 21
88.3239544342
  0
LINE
  5
266
100
AcDbEntity
  8
0
100
AcDbLine
 62
7
  6
CONTINUOUS
 10
227.2657359615
 20
304.5442623654
 11
227.2657359615
 21
304.6175416961
  0
LINE
  5
267
100
AcDbEntity
  8
0
100
AcDbLine
 62
9
  6
CONTINUOUS
 10
229.4504684067
 20
107.1093187213
 11
229.4504684067
 21
258.6257579601
  0
LINE
  5
268
100
AcDbEntity
  8
0
100
AcDbLine
 62
9
  6
CONTINUOUS
 10
241.5342656857
 20
266.0082394508
 11
239.779086244
 21
263.8904857177
  0
LWPOLYLINE
  5
269
100
AcDbEntity
  8
0
100
AcDbPolyline
 62
9
  6
CONTINUOUS
 90
3
 70
0
 10
241.5342657125
 20
266.0087946268
 10
241.0918179469
 20
265.477771053
 10
239.7790970819
 20
263.8910977421
  0
LINE
  5
26A
100
AcDbEntity
  8
0
100
AcDbLine
 62
9
  6
CONTINUOUS
 10
178.9181900347
 20
258.3055895253
 11
188.5187988524
 21
258.3055895253
  0
LINE
  5
26B
100
AcDbEntity
  8
0
100
AcDbLine
 62
9
  6
CONTINUOUS
 10
229.4504684068
 20
258.6257579591
 11
239.0510896618
 21
258.6257579591
  0
LINE
  5
26C
100
AcDbEntity
  8
0
100
AcDbLine
 62
7
  6
CONTINUOUS
 10
217.4169393262
 20
401.1303950231
 11
218.7429094646
 21
388.1046883692
  0
LINE
  5
26D
100
AcDbEntity
  8
0
100
AcDbLine
 62
7
  6
CONTINUOUS
 10
219.2492746555
 20
383.1303950231
 11
220.5752447939
 21
370.1046883692
  0
LINE
  5
26E
100
AcDbEntity
  8
0
100
AcDbLine
 62
7
  6
CONTINUOUS
 10
221.0816099848
 20
365.1303950231
 11
222.4075801233
 21
352.1046883692
  0
LINE
  5
26F
100
AcDbEntity
  8
0
100
AcDbLine
 62
7
  6
CONTINUOUS
 10
222.9139453142
 20
347.1303950231
 11
224.2399154526
 21
334.1046883691
  0
LINE
  5
270
100
AcDbEntity
  8
0
100
AcDbLine
 62
7
  6
CONTINUOUS
 10
224.7462806435
 20
329.1303950231
 11
225.4092657127
 21
322.6175416961
  0
LINE
  5
271
100
AcDbEntity
  8
0
100
AcDbLine
 62
7
  6
CONTINUOUS
 10
229.6337813016
 20
301.6698989151
 11
230.0200423885
 21
279.7651690931
  0
LINE
  5
272
100
AcDbEntity
  8
0
100
AcDbLine
 62
7
  6
CONTINUOUS
 10
230.2218746634
 20
280.3531677196
 11
230.2779216308
 21
277.1422391064
  0
LINE
  5
273
100
AcDbEntity
  8
0
100
AcDbLine
 62
7
  6
CONTINUOUS
 10
231.909265722
 20
290.1454057456
 11
231.9092657685
 21
299.0896777061
  0
LINE
  5
274
100
AcDbEntity
  8
0
100
AcDbLine
 62
9
  6
CONTINUOUS
 10
239.0510896618
 20
107.1093067577
 11
239.0510896618
 21
258.6257579591
  0
LINE
  5
275
100
AcDbEntity
  8
0
100
AcDbLine
 62
7
  6
CONTINUOUS
 10
239.5728851186
 20
120.5749810196
 11
239.5728851186
 21
222.6730191917
  0
LINE
  5
276
100
AcDbEntity
  8
0
100
AcDbLine
 62
7
  6
CONTINUOUS
 10
240.2456249884
 20
222.7628146749
 11
240.2456249884
 21
215.1175416961
  0
LINE
  5
277
100
AcDbEntity
  8
0
100
AcDbLine
 62
7
  6
CONTINUOUS
 10
240.2456249884
 20
188.1175416961
 11
240.2456249884
 21
120.4833539977
  0
LINE
  5
278
100
AcDbEntity
  8
0
100
AcDbLine
 62
7
  6
CONTINUOUS
 10
240.3842657126
 20
186.7675499182
 11
240.3842657126
 21
216.4675334741
  0
LINE
  5
279
100
AcDbEntity
  8
0
100
AcDbLine
 62
9
  6
CONTINUOUS
 10
203.934273559
 20
259.6580748361
 11
213.8842657122
 21
259.6580748361
  0
LWPOLYLINE
  5
27A
100
AcDbEntity
  8
0
100
AcDbPolyline
 62
7
  6
CONTINUOUS
 90
7
 70
0
 10
241.5342657107
 20
266.0089809065
 10
241.2959041723
 20
268.2865097475
 10
240.4071275225
 20
270.8594035318
 10
238.9131779596
 20
273.1359598964
 10
236.9057819494
 20
274.9757964402
 10
234.5088074309
 20
276.265833158
 10
232.3367867186
 20
276.8602904133
  0
LINE
  5
27B
100
AcDbEntity
  8
0
100
AcDbLine
 62
7
  6
CONTINUOUS
 10
241.5342657125
 20
99.7262140347
 11
241.5342657125
 21
112.1538429126
  0
LINE
  5
27C
100
AcDbEntity
  8
0
100
AcDbLine
 62
7
  6
CONTINUOUS
 10
241.5342657125
 20
231.0819030168
 11
241.5342657125
 21
266.0087946268
  0
LINE
  5
27D
100
AcDbEntity
  8
0
100
AcDbLine
 62
9
  6
CONTINUOUS
 10
240.034450588
 20
228.3755328416
 11
240.7599130208
 21
229.0020885717
  0
LINE
  5
27E
100
AcDbEntity
  8
0
100
AcDbLine
 62
9
  6
CONTINUOUS
 10
240.0325949035
 20
228.3780444611
 11
240.4762882011
 21
228.7589516014
  0
LINE
  5
27F
100
AcDbEntity
  8
0
100
AcDbLine
 62
9
  6
CONTINUOUS
 10
240.2456249884
 20
222.7628146749
 11
239.5728851186
 21
222.5052655998
  0
LINE
  5
280
100
AcDbEntity
  8
0
100
AcDbLine
 62
9
  6
CONTINUOUS
 10
240.2456249938
 20
222.7628146596
 11
239.5720727992
 21
222.5076774625
  0
LINE
  5
281
100
AcDbEntity
  8
0
100
AcDbLine
 62
7
  6
CONTINUOUS
 10
230.5342502993
 20
277.1467212703
 11
218.4736305254
 21
276.958925567
  0
LINE
  5
282
100
AcDbEntity
  8
0
100
AcDbLine
 62
7
  6
CONTINUOUS
 10
213.9092657126
 20
272.3859968981
 11
203.9092657126
 21
272.3859968981
  0
LINE
  5
283
100
AcDbEntity
  8
0
100
AcDbLine
 62
7
  6
CONTINUOUS
 10
203.9092657126
 20
273.6175416961
 11
213.9092657126
 21
273.6175416961
  0
LINE
  5
284
100
AcDbEntity
  8
0
100
AcDbLine
 62
7
  6
CONTINUOUS
 10
199.9342658164
 20
276.8273307131
 11
187.4342658163
 21
276.8273307131
  0
LINE
  5
285
100
AcDbEntity
  8
0
100
AcDbLine
 62
7
  6
CONTINUOUS
 10
232.3367867187
 20
276.860290414
 11
230.5342657123
 21
277.1467212625
  0
LINE
  5
286
100
AcDbEntity
  8
0
100
AcDbLine
 62
7
  6
CONTINUOUS
 10
257.6842657126
 20
185.8676770346
 11
257.6842657126
 21
217.3674063577
  0
LINE
  5
287
100
AcDbEntity
  8
0
100
AcDbLine
 62
7
  6
CONTINUOUS
 10
259.6842657126
 20
217.3674063577
 11
259.6842657126
 21
185.8676770346
  0
LINE
  5
288
100
AcDbEntity
  8
0
100
AcDbLine
 62
7
  6
CONTINUOUS
 10
261.6842657126
 20
214.7191735043
 11
261.6842657126
 21
188.515909888
  0
LINE
  5
289
100
AcDbEntity
  8
0
100
AcDbLine
 62
7
  6
CONTINUOUS
 10
185.4468708584
 20
276.4781778516
 11
187.4342658162
 21
276.827330714
  0
LINE
  5
28A
100
AcDbEntity
  8
0
100
AcDbLine
 62
7
  6
CONTINUOUS
 10
206.8887831624
 20
284.7175416961
 11
210.9297482628
 21
284.7175416961
  0
LINE
  5
28B
100
AcDbEntity
  8
0
100
AcDbLine
 62
7
  6
CONTINUOUS
 10
210.8841856268
 20
289.7175416961
 11
206.9343457956
 21
289.7175416961
  0
LINE
  5
28C
100
AcDbEntity
  8
0
100
AcDbLine
 62
9
  6
CONTINUOUS
 10
200.3814663644
 20
296.6698989151
 11
217.4370650609
 21
296.6698989151
  0
LINE
  5
28D
100
AcDbEntity
  8
0
100
AcDbLine
 62
7
  6
CONTINUOUS
 10
203.3810489428
 20
299.6175416961
 11
214.4372965118
 21
299.6175416961
  0
LINE
  5
28E
100
AcDbEntity
  8
0
100
AcDbLine
 62
9
  6
CONTINUOUS
 10
211.7278004397
 20
301.6699012061
 11
229.6337813014
 21
301.6698989151
  0
LINE
  5
28F
100
AcDbEntity
  8
0
100
AcDbLine
 62
9
  6
CONTINUOUS
 10
206.090730483
 20
301.6699240469
 11
187.9687415646
 21
301.6698917901
  0
LINE
  5
290
100
AcDbEntity
  8
0
100
AcDbLine
 62
9
  6
CONTINUOUS
 10
185.4830572315
 20
89.3113393767
 11
185.4441271515
 21
89.2574095771
  0
LINE
  5
291
100
AcDbEntity
  8
0
100
AcDbLine
 62
9
  6
CONTINUOUS
 10
176.4357421975
 20
100.0763453594
 11
176.7513603754
 21
100.4519538434
  0
LINE
  5
292
100
AcDbEntity
  8
0
100
AcDbLine
 62
7
  6
CONTINUOUS
 10
227.2657359616
 20
304.5442623651
 11
190.3092657126
 21
304.5442567401
  0
LINE
  5
293
100
AcDbEntity
  8
0
100
AcDbLine
 62
7
  6
CONTINUOUS
 10
235.9092657112
 20
304.6175416961
 11
227.2657359615
 21
304.6175416961
  0
LINE
  5
294
100
AcDbEntity
  8
0
100
AcDbLine
 62
9
  6
CONTINUOUS
 10
225.9592657126
 20
305.0861847661
 11
191.8592657127
 21
305.0861847661
  0
LINE
  5
295
100
AcDbEntity
  8
0
100
AcDbLine
 62
7
  6
CONTINUOUS
 10
225.4092657127
 20
322.6175416961
 11
192.4092657126
 21
322.6175416961
  0
LINE
  5
296
100
AcDbEntity
  8
0
100
AcDbLine
 62
7
  6
CONTINUOUS
 10
195.4380723357
 20
89.033682068
 11
194.7081525445
 21
88.1175416962
  0
LINE
  5
297
100
AcDbEntity
  8
0
100
AcDbLine
 62
7
  6
CONTINUOUS
 10
193.7360707723
 20
88.0112581507
 11
193.7342658165
 21
88.0090266025
  0
LINE
  5
298
100
AcDbEntity
  8
0
100
AcDbLine
 62
7
  6
CONTINUOUS
 10
193.7342658165
 20
88.0090266025
 11
193.7547780037
 21
88.0327318709
  0
LINE
  5
299
100
AcDbEntity
  8
0
100
AcDbLine
 62
7
  6
CONTINUOUS
 10
193.7547780037
 20
88.0327318709
 11
195.3159753328
 21
89.8262654552
  0
LINE
  5
29A
100
AcDbEntity
  8
0
100
AcDbLine
 62
7
  6
CONTINUOUS
 10
193.7547780037
 20
88.0327318709
 11
193.8540320762
 21
88.1458103545
  0
LINE
  5
29B
100
AcDbEntity
  8
0
100
AcDbLine
 62
7
  6
CONTINUOUS
 10
193.7360707723
 20
88.0112581507
 11
193.7342664457
 21
88.0092707707
  0
LINE
  5
29C
100
AcDbEntity
  8
0
100
AcDbLine
 62
7
  6
CONTINUOUS
 10
193.0722507818
 20
329.1303950231
 11
224.7462806435
 21
329.1303950231
  0
LINE
  5
29D
100
AcDbEntity
  8
0
100
AcDbLine
 62
7
  6
CONTINUOUS
 10
193.3254333773
 20
334.1175416961
 11
224.4930980479
 21
334.1175416961
  0
LINE
  5
29E
100
AcDbEntity
  8
0
100
AcDbLine
 62
7
  6
CONTINUOUS
 10
194.9045861111
 20
347.1303950231
 11
222.9139453142
 21
347.1303950231
  0
LINE
  5
29F
100
AcDbEntity
  8
0
100
AcDbLine
 62
7
  6
CONTINUOUS
 10
195.1577687066
 20
352.1175416961
 11
222.6607627186
 21
352.1175416961
  0
LINE
  5
2A0
100
AcDbEntity
  8
0
100
AcDbLine
 62
7
  6
CONTINUOUS
 10
196.7369214405
 20
365.1303950231
 11
221.0816099848
 21
365.1303950231
  0
LINE
  5
2A1
100
AcDbEntity
  8
0
100
AcDbLine
 62
7
  6
CONTINUOUS
 10
196.9901040359
 20
370.1175416961
 11
220.8284273893
 21
370.1175416961
  0
LINE
  5
2A2
100
AcDbEntity
  8
0
100
AcDbLine
 62
7
  6
CONTINUOUS
 10
198.5692567698
 20
383.1303950231
 11
219.2492746555
 21
383.1303950231
  0
LINE
  5
2A3
100
AcDbEntity
  8
0
100
AcDbLine
 62
7
  6
CONTINUOUS
 10
198.8224393653
 20
388.1175416961
 11
218.9960920599
 21
388.1175416961
  0
LINE
  5
2A4
100
AcDbEntity
  8
0
100
AcDbLine
 62
7
  6
CONTINUOUS
 10
200.4015920991
 20
401.1303950231
 11
217.4169393262
 21
401.1303950231
  0
LINE
  5
2A5
100
AcDbEntity
  8
0
100
AcDbLine
 62
7
  6
CONTINUOUS
 10
200.6548219988
 20
406.1175416961
 11
217.1637567306
 21
406.1175416961
  0
ARC
  5
2A6
100
AcDbEntity
  8
0
100
AcDbCircle
 62
9
  6
CONTINUOUS
 10
-55.4114827439
 20
69.6752032689
 40
303.5821663365
100
AcDbArc
 50
39.6919520998
 51
39.9493020205
  0
ARC
  5
2A7
100
AcDbEntity
  8
0
100
AcDbCircle
 62
9
  6
CONTINUOUS
 10
-54.661988583
 20
295.4349677979
 40
302.6063323917
100
AcDbArc
 50
320.0502830179
 51
320.3084622803
  0
ARC
  5
2A8
100
AcDbEntity
  8
0
100
AcDbCircle
 62
9
  6
CONTINUOUS
 10
211.5323951551
 20
129.3159815968
 40
146.4691318851
100
AcDbArc
 50
82.5449138143
 51
87.3475059091
  0
ARC
  5
2A9
100
AcDbEntity
  8
0
100
AcDbCircle
 62
9
  6
CONTINUOUS
 10
208.7503120655
 20
129.7022395474
 40
146.0747390552
100
AcDbArc
 50
93.3895794978
 51
98.4640291436
  0
ARC
  5
2AA
100
AcDbEntity
  8
0
100
AcDbCircle
 62
9
  6
CONTINUOUS
 10
208.7197658897
 20
235.8389455887
 40
145.8784728643
100
AcDbArc
 50
261.5366665436
 51
264.7545709946
  0
ARC
  5
2AB
100
AcDbEntity
  8
0
100
AcDbCircle
 62
7
  6
CONTINUOUS
 10
211.0342657126
 20
217.1175416961
 40
130.0
100
AcDbArc
 50
275.8831498729
 51
279.4313380875
  0
ARC
  5
2AC
100
AcDbEntity
  8
0
100
AcDbCircle
 62
7
  6
CONTINUOUS
 10
211.0342657126
 20
217.1175416961
 40
127.5341522887
100
AcDbArc
 50
271.2804928153
 51
273.7482535214
  0
ARC
  5
2AD
100
AcDbEntity
  8
0
100
AcDbCircle
 62
7
  6
CONTINUOUS
 10
208.9342658163
 20
217.1175416961
 40
127.5341522887
100
AcDbArc
 50
265.2109514976
 51
267.7531324922
  0
ARC
  5
2AE
100
AcDbEntity
  8
0
100
AcDbCircle
 62
7
  6
CONTINUOUS
 10
209.256648749
 20
112.9473545633
 40
34.8242930332
100
AcDbArc
 50
199.5218751265
 51
201.7942049002
  0
ARC
  5
2AF
100
AcDbEntity
  8
0
100
AcDbCircle
 62
7
  6
CONTINUOUS
 10
219.2103359042
 20
73.7554001574
 40
15.7886333206
100
AcDbArc
 50
89.4450164116
 51
89.9987738054
  0
ARC
  5
2B0
100
AcDbEntity
  8
0
100
AcDbCircle
 62
7
  6
CONTINUOUS
 10
219.2163029641
 20
73.8313887357
 40
15.71259138
100
AcDbArc
 50
86.6514742333
 51
89.4640902583
  0
ARC
  5
2B1
100
AcDbEntity
  8
0
100
AcDbCircle
 62
7
  6
CONTINUOUS
 10
187.5988568112
 20
101.1227005416
 40
10.2803345982
100
AcDbArc
 50
179.9767069912
 51
190.6291121179
  0
ARC
  5
2B2
100
AcDbEntity
  8
0
100
AcDbCircle
 62
7
  6
CONTINUOUS
 10
259.6842657126
 20
188.515902639
 40
2.0
100
AcDbArc
 50
270.0
 51
360.0
  0
ARC
  5
2B3
100
AcDbEntity
  8
0
100
AcDbCircle
 62
7
  6
CONTINUOUS
 10
259.6842657126
 20
214.7191807532
 40
2.0
100
AcDbArc
 50
0.0
 51
90.0
  0
ARC
  5
2B4
100
AcDbEntity
  8
0
100
AcDbCircle
 62
9
  6
CONTINUOUS
 10
208.9250480778
 20
238.2924721261
 40
148.3407482304
100
AcDbArc
 50
265.8936843792
 51
268.0719745417
  0
ARC
  5
2B5
100
AcDbEntity
  8
0
100
AcDbCircle
 62
9
  6
CONTINUOUS
 10
211.4277848765
 20
238.0835225766
 40
148.1366354819
100
AcDbArc
 50
270.949886807
 51
273.069807609
  0
ARC
  5
2B6
100
AcDbEntity
  8
0
100
AcDbCircle
 62
9
  6
CONTINUOUS
 10
208.8458314326
 20
237.1673286186
 40
147.2128181669
100
AcDbArc
 50
264.7529776163
 51
265.8108021063
  0
ARC
  5
2B7
100
AcDbEntity
  8
0
100
AcDbCircle
 62
9
  6
CONTINUOUS
 10
211.4969777404
 20
236.8246870238
 40
146.875897448
100
AcDbArc
 50
273.1071389188
 51
277.4482672829
  0
ARC
  5
2B8
100
AcDbEntity
  8
0
100
AcDbCircle
 62
7
  6
CONTINUOUS
 10
209.256624613
 20
252.7877362413
 40
34.8242678171
100
AcDbArc
 50
158.205787571
 51
160.4781230549
  0
ARC
  5
2B9
100
AcDbEntity
  8
0
100
AcDbCircle
 62
7
  6
CONTINUOUS
 10
207.473565318
 20
289.3515624207
 40
17.5179299835
100
AcDbArc
 50
291.5539964225
 51
292.3480225502
  0
ARC
  5
2BA
100
AcDbEntity
  8
0
100
AcDbCircle
 62
7
  6
CONTINUOUS
 10
210.0130896413
 20
289.2712017039
 40
16.9928238655
100
AcDbArc
 50
248.6422138158
 51
248.9489208159
  0
ARC
  5
2BB
100
AcDbEntity
  8
0
100
AcDbCircle
 62
7
  6
CONTINUOUS
 10
187.5988569285
 20
264.6123828203
 40
10.2803347179
100
AcDbArc
 50
169.3708871228
 51
180.0232938567
  0
ARC
  5
2BC
100
AcDbEntity
  8
0
100
AcDbCircle
 62
7
  6
CONTINUOUS
 10
190.9682847744
 20
301.6175416961
 40
3.0
100
AcDbArc
 50
102.6898522544
 51
179.0
  0
ARC
  5
2BD
100
AcDbEntity
  8
0
100
AcDbCircle
 62
7
  6
CONTINUOUS
 10
203.3810094498
 20
296.6175416961
 40
3.0
100
AcDbArc
 50
89.9992457391
 51
179.0
  0
ARC
  5
2BE
100
AcDbEntity
  8
0
100
AcDbCircle
 62
7
  6
CONTINUOUS
 10
190.859757462
 20
305.1175416961
 40
1.0
100
AcDbArc
 50
324.2782186983
 51
358.2030856802
  0
ARC
  5
2BF
100
AcDbEntity
  8
0
100
AcDbCircle
 62
7
  6
CONTINUOUS
 10
193.3254333773
 20
331.6175416961
 40
2.5
100
AcDbArc
 50
90.0
 51
264.1875176148
  0
ARC
  5
2C0
100
AcDbEntity
  8
0
100
AcDbCircle
 62
7
  6
CONTINUOUS
 10
195.1577687066
 20
349.6175416961
 40
2.5
100
AcDbArc
 50
90.0
 51
264.1875176156
  0
ARC
  5
2C1
100
AcDbEntity
  8
0
100
AcDbCircle
 62
7
  6
CONTINUOUS
 10
196.9901040359
 20
367.6175416961
 40
2.5
100
AcDbArc
 50
90.0
 51
264.1875176159
  0
ARC
  5
2C2
100
AcDbEntity
  8
0
100
AcDbCircle
 62
7
  6
CONTINUOUS
 10
198.8224393653
 20
385.6175416961
 40
2.5
100
AcDbArc
 50
90.0
 51
264.1875176148
  0
ARC
  5
2C3
100
AcDbEntity
  8
0
100
AcDbCircle
 62
7
  6
CONTINUOUS
 10
200.6547746947
 20
403.6175416961
 40
2.5
100
AcDbArc
 50
90.0
 51
264.1875176146
  0
ARC
  5
2C4
100
AcDbEntity
  8
0
100
AcDbCircle
 62
7
  6
CONTINUOUS
 10
235.9092657126
 20
294.6175416961
 40
10.0
100
AcDbArc
 50
270.0000000421
 51
90.0000000085
  0
ARC
  5
2C5
100
AcDbEntity
  8
0
100
AcDbCircle
 62
7
  6
CONTINUOUS
 10
235.9092657126
 20
278.6175416961
 40
6.0
100
AcDbArc
 50
89.9999999298
 51
168.9730188115
  0
ARC
  5
2C6
100
AcDbEntity
  8
0
100
AcDbCircle
 62
9
  6
CONTINUOUS
 10
235.9092657126
 20
294.6175416961
 40
5.9999999997
100
AcDbArc
 50
228.1896851422
 51
131.8103141482
  0
CIRCLE
  5
2C7
100
AcDbEntity
  8
0
100
AcDbCircle
 62
7
  6
CONTINUOUS
 10
235.9092657126
 20
294.6175416961
 40
4.0
  0
ARC
  5
2C8
100
AcDbEntity
  8
0
100
AcDbCircle
 62
7
  6
CONTINUOUS
 10
226.6032663117
 20
301.5656187256
 40
3.0514232695
100
AcDbArc
 50
71.9656315181
 51
77.4611322489
  0
ARC
  5
2C9
100
AcDbEntity
  8
0
100
AcDbCircle
 62
7
  6
CONTINUOUS
 10
214.4375219754
 20
296.6175416961
 40
3.0
100
AcDbArc
 50
1.0
 51
90.0043060376
  0
ARC
  5
2CA
100
AcDbEntity
  8
0
100
AcDbCircle
 62
7
  6
CONTINUOUS
 10
226.9587739632
 20
305.1175416961
 40
1.0
100
AcDbArc
 50
181.7969143198
 51
215.7213860333
  0
ARC
  5
2CB
100
AcDbEntity
  8
0
100
AcDbCircle
 62
7
  6
CONTINUOUS
 10
224.4930980479
 20
331.6175416961
 40
2.5
100
AcDbArc
 50
275.8124823852
 51
90.0
  0
ARC
  5
2CC
100
AcDbEntity
  8
0
100
AcDbCircle
 62
7
  6
CONTINUOUS
 10
222.6607627186
 20
349.6175416961
 40
2.5
100
AcDbArc
 50
275.8124823844
 51
90.0
  0
ARC
  5
2CD
100
AcDbEntity
  8
0
100
AcDbCircle
 62
7
  6
CONTINUOUS
 10
220.8284273893
 20
367.6175416961
 40
2.5
100
AcDbArc
 50
275.8124823841
 51
90.0
  0
ARC
  5
2CE
100
AcDbEntity
  8
0
100
AcDbCircle
 62
7
  6
CONTINUOUS
 10
218.9960920599
 20
385.6175416961
 40
2.5
100
AcDbArc
 50
275.8124823852
 51
90.0
  0
ARC
  5
2CF
100
AcDbEntity
  8
0
100
AcDbCircle
 62
7
  6
CONTINUOUS
 10
217.1637567306
 20
403.6175416961
 40
2.5
100
AcDbArc
 50
275.8124823854
 51
90.0
  0
SPLINE
  5
2D0
100
AcDbEntity
  8
0
100
AcDbSpline
 62
7
  6
CONTINUOUS
 70
0
 71
3
 72
13
 73
9
 74
0
 42
0.0000001
 43
0.0000001
 44
0.0000000001
 40
0.0
 40
0.0
 40
0.0
 40
0.0
 40
0.0384963344
 40
0.101539327
 40
0.1894673542
 40
0.3023614472
 40
0.6025078905
 40
1.0
 40
1.0
 40
1.0
 40
1.0
 10
241.4871870394
 20
112.133769164
 30
0.0
 10
241.4629460468
 20
112.1531616185
 30
0.0
 10
241.4097048026
 20
112.2164561386
 30
0.0
 10
241.3200499753
 20
112.339714107
 30
0.0
 10
241.2037023505
 20
112.5181698726
 30
0.0
 10
240.9919387032
 20
112.8621013656
 30
0.0
 10
240.6654720189
 20
113.4285536221
 30
0.0
 10
240.3936251877
 20
113.9210672126
 30
0.0
 10
240.2404720495
 20
114.2026488811
 30
0.0
  0
SPLINE
  5
2D1
100
AcDbEntity
  8
0
100
AcDbSpline
 62
7
  6
CONTINUOUS
 70
0
 71
3
 72
9
 73
5
 74
0
 42
0.0000001
 43
0.0000001
 44
0.0000000001
 40
0.0
 40
0.0
 40
0.0
 40
0.0
 40
0.3450014242
 40
1.0
 40
1.0
 40
1.0
 40
1.0
 10
241.5342298521
 20
231.0812500886
 30
0.0
 10
241.5341891953
 20
231.0212404622
 30
0.0
 10
241.4819862726
 20
230.851631488
 30
0.0
 10
241.4286703487
 20
230.68779507
 30
0.0
 10
241.3899700159
 20
230.5806387722
 30
0.0
  0
SPLINE
  5
2D2
100
AcDbEntity
  8
0
100
AcDbSpline
 62
7
  6
CONTINUOUS
 70
0
 71
3
 72
9
 73
5
 74
0
 42
0.0000001
 43
0.0000001
 44
0.0000000001
 40
0.0
 40
0.0
 40
0.0
 40
0.0
 40
0.1871957516
 40
1.0
 40
1.0
 40
1.0
 40
1.0
 10
241.3899700159
 20
230.5806387722
 30
0.0
 10
241.353942831
 20
230.4808840809
 30
0.0
 10
241.1538030307
 20
229.9507836474
 30
0.0
 10
240.9371031631
 20
229.4271538299
 30
0.0
 10
240.7599122606
 20
229.0020894701
 30
0.0
  0
SPLINE
  5
2D3
100
AcDbEntity
  8
0
100
AcDbSpline
 62
7
  6
CONTINUOUS
 70
0
 71
3
 72
9
 73
5
 74
0
 42
0.0000001
 43
0.0000001
 44
0.0000000001
 40
0.0
 40
0.0
 40
0.0
 40
0.0
 40
0.2478940298
 40
1.0
 40
1.0
 40
1.0
 40
1.0
 10
174.4342658164
 20
113.1743778349
 30
0.0
 10
174.4342658164
 20
112.1775737216
 30
0.0
 10
174.5961411626
 20
108.1589043684
 30
0.0
 10
175.4236516441
 20
104.1606663558
 30
0.0
 10
176.4342658164
 20
101.310234477
 30
0.0
  0
SPLINE
  5
2D4
100
AcDbEntity
  8
0
100
AcDbSpline
 62
7
  6
CONTINUOUS
 70
0
 71
3
 72
9
 73
5
 74
0
 42
0.0000001
 43
0.0000001
 44
0.0000000001
 40
0.0
 40
0.0
 40
0.0
 40
0.0
 40
0.2241026025
 40
1.0
 40
1.0
 40
1.0
 40
1.0
 10
218.4736132565
 20
275.9739553861
 30
0.0
 10
218.4736132565
 20
275.9449809281
 30
0.0
 10
218.4578495467
 20
275.8152702447
 30
0.0
 10
218.3795796973
 20
275.7012729777
 30
0.0
 10
218.3108015031
 20
275.6282457489
 30
0.0
  0
SPLINE
  5
2D5
100
AcDbEntity
  8
0
100
AcDbSpline
 62
7
  6
CONTINUOUS
 70
0
 71
3
 72
13
 73
9
 74
0
 42
0.0000001
 43
0.0000001
 44
0.0000000001
 40
0.0
 40
0.0
 40
0.0
 40
0.0
 40
0.3501793418
 40
0.6555171184
 40
0.7792870793
 40
0.8788679514
 40
0.9522932716
 40
1.0
 40
1.0
 40
1.0
 40
1.0
 10
219.3715192042
 20
89.8561956237
 30
0.0
 10
219.7814794622
 20
89.8830532886
 30
0.0
 10
220.5504133983
 20
89.9097913576
 30
0.0
 10
221.4658246253
 20
89.8852717813
 30
0.0
 10
222.0824871347
 20
89.8191640549
 30
0.0
 10
222.4263664651
 20
89.7564370183
 30
0.0
 10
222.6729038903
 20
89.681752183
 30
0.0
 10
222.8023978316
 20
89.6107801269
 30
0.0
 10
222.8387702208
 20
89.5682387321
 30
0.0
  0
SPLINE
  5
2D6
100
AcDbEntity
  8
0
100
AcDbSpline
 62
7
  6
CONTINUOUS
 70
0
 71
3
 72
13
 73
9
 74
0
 42
0.0000001
 43
0.0000001
 44
0.0000000001
 40
0.0
 40
0.0
 40
0.0
 40
0.0
 40
0.3330855352
 40
0.6305329272
 40
0.7564415155
 40
0.8622787897
 40
0.9445498904
 40
1.0
 40
1.0
 40
1.0
 40
1.0
 10
239.5728851186
 20
222.673016396
 30
0.0
 10
239.5728851949
 20
223.3857482589
 30
0.0
 10
239.6068618333
 20
224.7350651087
 30
0.0
 10
239.7261315628
 20
226.3503676462
 30
0.0
 10
239.8651766722
 20
227.474137365
 30
0.0
 10
239.9743843027
 20
228.1379244253
 30
0.0
 10
240.0910614161
 20
228.6450395884
 30
0.0
 10
240.1836099555
 20
228.9277868904
 30
0.0
 10
240.2403085421
 20
229.0320146281
 30
0.0
  0
SPLINE
  5
2D7
100
AcDbEntity
  8
0
100
AcDbSpline
 62
7
  6
CONTINUOUS
 70
0
 71
3
 72
13
 73
9
 74
0
 42
0.0000001
 43
0.0000001
 44
0.0000000001
 40
0.0
 40
0.0
 40
0.0
 40
0.0
 40
0.3978368918
 40
0.6981607908
 40
0.8110414639
 40
0.8988770814
 40
0.9617484039
 40
1.0
 40
1.0
 40
1.0
 40
1.0
 10
240.2403085421
 20
229.0320146281
 30
0.0
 10
240.3937229712
 20
229.3140354646
 30
0.0
 10
240.6659524461
 20
229.807282347
 30
0.0
 10
240.992739883
 20
230.3745757043
 30
0.0
 10
241.2046350924
 20
230.7188312574
 30
0.0
 10
241.32094023
 20
230.8972451515
 30
0.0
 10
241.4104697355
 20
231.0201975829
 30
0.0
 10
241.4636016358
 20
231.0832655528
 30
0.0
 10
241.4878101543
 20
231.1024177482
 30
0.0
  0
SPLINE
  5
2D8
100
AcDbEntity
  8
0
100
AcDbSpline
 62
7
  6
CONTINUOUS
 70
0
 71
3
 72
8
 73
4
 74
0
 42
0.0000001
 43
0.0000001
 44
0.0000000001
 40
0.0
 40
0.0
 40
0.0
 40
0.0
 40
1.0
 40
1.0
 40
1.0
 40
1.0
 10
240.7599122606
 20
229.0020894701
 30
0.0
 10
240.7508070647
 20
228.9802472624
 30
0.0
 10
240.7426065503
 20
228.9580221272
 30
0.0
 10
240.734942564
 20
228.9356335152
 30
0.0
  0
SPLINE
  5
2D9
100
AcDbEntity
  8
0
100
AcDbSpline
 62
7
  6
CONTINUOUS
 70
0
 71
3
 72
9
 73
5
 74
0
 42
0.0000001
 43
0.0000001
 44
0.0000000001
 40
0.0
 40
0.0
 40
0.0
 40
0.0
 40
0.1994037143
 40
1.0
 40
1.0
 40
1.0
 40
1.0
 10
240.734942564
 20
228.9356335152
 30
0.0
 10
240.7239184614
 20
228.9034290793
 30
0.0
 10
240.6743298197
 20
228.7399900736
 30
0.0
 10
240.6397826483
 20
228.5724400105
 30
0.0
 10
240.6147615506
 20
228.438084886
 30
0.0
  0
SPLINE
  5
2DA
100
AcDbEntity
  8
0
100
AcDbSpline
 62
7
  6
CONTINUOUS
 70
0
 71
3
 72
10
 73
6
 74
0
 42
0.0000001
 43
0.0000001
 44
0.0000000001
 40
0.0
 40
0.0
 40
0.0
 40
0.0
 40
0.1818311001
 40
0.4212366195
 40
1.0
 40
1.0
 40
1.0
 40
1.0
 10
240.6147615506
 20
228.438084886
 30
0.0
 10
240.5515953232
 20
228.0989028711
 30
0.0
 10
240.4490954146
 20
227.3053298611
 30
0.0
 10
240.2903782274
 20
225.4145119274
 30
0.0
 10
240.24562306
 20
223.8609822152
 30
0.0
 10
240.245625278
 20
222.7628133081
 30
0.0
  0
SPLINE
  5
2DB
100
AcDbEntity
  8
0
100
AcDbSpline
 62
7
  6
CONTINUOUS
 70
0
 71
3
 72
10
 73
6
 74
0
 42
0.0000001
 43
0.0000001
 44
0.0000000001
 40
0.0
 40
0.0
 40
0.0
 40
0.0
 40
0.5786087066
 40
0.8181782044
 40
1.0
 40
1.0
 40
1.0
 40
1.0
 10
240.245625278
 20
120.4833582798
 30
0.0
 10
240.2456231136
 20
119.3833294699
 30
0.0
 10
240.2905865096
 20
117.8267565275
 30
0.0
 10
240.4489326703
 20
115.9321696707
 30
0.0
 10
240.5516755937
 20
115.1367469403
 30
0.0
 10
240.6149303257
 20
114.7969110535
 30
0.0
  0
SPLINE
  5
2DC
100
AcDbEntity
  8
0
100
AcDbSpline
 62
7
  6
CONTINUOUS
 70
0
 71
3
 72
9
 73
5
 74
0
 42
0.0000001
 43
0.0000001
 44
0.0000000001
 40
0.0
 40
0.0
 40
0.0
 40
0.0
 40
0.2995092157
 40
1.0
 40
1.0
 40
1.0
 40
1.0
 10
240.6149303257
 20
114.7969110535
 30
0.0
 10
240.6242927914
 20
114.7466112304
 30
0.0
 10
240.6574542276
 20
114.5791258134
 30
0.0
 10
240.6963520392
 20
114.4121360296
 30
0.0
 10
240.7350835723
 20
114.2989161273
 30
0.0
  0
SPLINE
  5
2DD
100
AcDbEntity
  8
0
100
AcDbSpline
 62
7
  6
CONTINUOUS
 70
0
 71
3
 72
8
 73
4
 74
0
 42
0.0000001
 43
0.0000001
 44
0.0000000001
 40
0.0
 40
0.0
 40
0.0
 40
0.0
 40
1.0
 40
1.0
 40
1.0
 40
1.0
 10
240.7350835723
 20
114.2989161273
 30
0.0
 10
240.7427136139
 20
114.2766120123
 30
0.0
 10
240.7508780177
 20
114.2544705115
 30
0.0
 10
240.7599456715
 20
114.2327111747
 30
0.0
  0
SPLINE
  5
2DE
100
AcDbEntity
  8
0
100
AcDbSpline
 62
7
  6
CONTINUOUS
 70
0
 71
3
 72
9
 73
5
 74
0
 42
0.0000001
 43
0.0000001
 44
0.0000000001
 40
0.0
 40
0.0
 40
0.0
 40
0.0
 40
0.3123784338
 40
1.0
 40
1.0
 40
1.0
 40
1.0
 10
240.7599456715
 20
114.2327111747
 30
0.0
 10
240.8280065737
 20
114.06938714
 30
0.0
 10
241.0441766785
 20
113.5458883387
 30
0.0
 10
241.2575088451
 20
113.0208839478
 30
0.0
 10
241.3898907641
 20
112.654588125
 30
0.0
  0
SPLINE
  5
2DF
100
AcDbEntity
  8
0
100
AcDbSpline
 62
7
  6
CONTINUOUS
 70
0
 71
3
 72
9
 73
5
 74
0
 42
0.0000001
 43
0.0000001
 44
0.0000000001
 40
0.0
 40
0.0
 40
0.0
 40
0.0
 40
0.6551612562
 40
1.0
 40
1.0
 40
1.0
 40
1.0
 10
241.3898907641
 20
112.654588125
 30
0.0
 10
241.4286039416
 20
112.5474702096
 30
0.0
 10
241.481922154
 20
112.3837365803
 30
0.0
 10
241.5341889985
 20
112.2142341956
 30
0.0
 10
241.5342297692
 20
112.1542844628
 30
0.0
  0
SPLINE
  5
2E0
100
AcDbEntity
  8
0
100
AcDbSpline
 62
7
  6
CONTINUOUS
 70
0
 71
3
 72
13
 73
9
 74
0
 42
0.0000001
 43
0.0000001
 44
0.0000000001
 40
0.0
 40
0.0
 40
0.0
 40
0.0
 40
0.0554929776
 40
0.137823876
 40
0.2436992394
 40
0.369721501
 40
0.6671248504
 40
1.0
 40
1.0
 40
1.0
 40
1.0
 10
240.2404720495
 20
114.2026488811
 30
0.0
 10
240.1836189747
 20
114.3071759267
 30
0.0
 10
240.0911299434
 20
114.5908446103
 30
0.0
 10
239.9742743863
 20
115.0993039538
 30
0.0
 10
239.8649388629
 20
115.7649495516
 30
0.0
 10
239.7262776428
 20
116.8913481163
 30
0.0
 10
239.6067101672
 20
118.5096639455
 30
0.0
 10
239.5728851178
 20
119.8612295925
 30
0.0
 10
239.5728851186
 20
120.57498102
 30
0.0
  0
SPLINE
  5
2E1
100
AcDbEntity
  8
0
100
AcDbSpline
 62
7
  6
CONTINUOUS
 70
0
 71
3
 72
12
 73
8
 74
0
 42
0.0000001
 43
0.0000001
 44
0.0000000001
 40
0.0
 40
0.0
 40
0.0
 40
0.0
 40
0.0653473462
 40
0.151130937
 40
0.3772436251
 40
0.6644024566
 40
1.0
 40
1.0
 40
1.0
 40
1.0
 10
218.3108015031
 20
275.6282457489
 30
0.0
 10
218.2379396037
 20
275.5508934192
 30
0.0
 10
218.0555190098
 20
275.3853439458
 30
0.0
 10
217.5729123366
 20
275.0064067289
 30
0.0
 10
216.7601643418
 20
274.4666474697
 30
0.0
 10
215.5586677829
 20
273.7852841111
 30
0.0
 10
214.6391821015
 20
273.3568767744
 30
0.0
 10
214.1344339754
 20
273.1493804801
 30
0.0
  0
SPLINE
  5
2E2
100
AcDbEntity
  8
0
100
AcDbSpline
 62
7
  6
CONTINUOUS
 70
0
 71
3
 72
9
 73
5
 74
0
 42
0.0000001
 43
0.0000001
 44
0.0000000001
 40
0.0
 40
0.0
 40
0.0
 40
0.0
 40
0.2929384331
 40
1.0
 40
1.0
 40
1.0
 40
1.0
 10
200.1136749439
 20
275.521429508
 30
0.0
 10
200.0856348829
 20
275.5486789659
 30
0.0
 10
199.9955165512
 20
275.6459293846
 30
0.0
 10
199.9342658163
 20
275.7788157439
 30
0.0
 10
199.9342658163
 20
275.8731899011
 30
0.0
  0
SPLINE
  5
2E3
100
AcDbEntity
  8
0
100
AcDbSpline
 62
7
  6
CONTINUOUS
 70
0
 71
3
 72
9
 73
5
 74
0
 42
0.0000001
 43
0.0000001
 44
0.0000000001
 40
0.0
 40
0.0
 40
0.0
 40
0.0
 40
0.2478941721
 40
1.0
 40
1.0
 40
1.0
 40
1.0
 10
174.4342658164
 20
252.5607056694
 30
0.0
 10
174.4342658164
 20
253.5575106346
 30
0.0
 10
174.5960861808
 20
257.5761839178
 30
0.0
 10
175.4236515487
 20
261.574416803
 30
0.0
 10
176.4342658164
 20
264.4248489421
 30
0.0
  0
SPLINE
  5
2E4
100
AcDbEntity
  8
0
100
AcDbSpline
 62
7
  6
CONTINUOUS
 70
0
 71
3
 72
11
 73
7
 74
0
 42
0.0000001
 43
0.0000001
 44
0.0000000001
 40
0.0
 40
0.0
 40
0.0
 40
0.0
 40
0.3343252387
 40
0.6201955636
 40
0.8459407199
 40
1.0
 40
1.0
 40
1.0
 40
1.0
 10
203.8244610307
 20
273.4453703246
 30
0.0
 10
203.3813707965
 20
273.6186380269
 30
0.0
 10
202.5727792059
 20
273.9748568594
 30
0.0
 10
201.5079818942
 20
274.5395371112
 30
0.0
 10
200.706427958
 20
275.0438710015
 30
0.0
 10
200.2708973588
 20
275.3686387091
 30
0.0
 10
200.1136749439
 20
275.521429508
 30
0.0
  0
SPLINE
  5
2E5
100
AcDbEntity
  8
0
100
AcDbSpline
 62
7
  6
CONTINUOUS
 70
0
 71
3
 72
13
 73
9
 74
0
 42
0.0000001
 43
0.0000001
 44
0.0000000001
 40
0.0
 40
0.0
 40
0.0
 40
0.0
 40
0.0480568068
 40
0.1216069086
 40
0.2212066576
 40
0.3449804317
 40
0.6501949329
 40
1.0
 40
1.0
 40
1.0
 40
1.0
 10
195.3159753326
 20
89.8265833054
 30
0.0
 10
195.3475436847
 20
89.863113947
 30
0.0
 10
195.4590338536
 20
89.9238321687
 30
0.0
 10
195.6713783338
 20
89.9858401741
 30
0.0
 10
195.9667306246
 20
90.0353387117
 30
0.0
 10
196.4954711948
 20
90.0841600487
 30
0.0
 10
197.279146172
 20
90.0938326864
 30
0.0
 10
197.9365649744
 20
90.0579726594
 30
0.0
 10
198.2867745415
 20
90.0286321503
 30
0.0
  0
SPLINE
  5
2E6
100
AcDbEntity
  8
0
100
AcDbSpline
 62
7
  6
CONTINUOUS
 70
0
 71
3
 72
9
 73
5
 74
0
 42
0.0000001
 43
0.0000001
 44
0.0000000001
 40
0.0
 40
0.0
 40
0.0
 40
0.0
 40
0.4885187149
 40
1.0
 40
1.0
 40
1.0
 40
1.0
 10
241.5342297692
 20
112.1542844628
 30
0.0
 10
241.5342379714
 20
112.1422238672
 30
0.0
 10
241.5285112736
 20
112.1056704931
 30
0.0
 10
241.4970475281
 20
112.1258809111
 30
0.0
 10
241.4871870394
 20
112.133769164
 30
0.0
  0
SPLINE
  5
2E7
100
AcDbEntity
  8
0
100
AcDbSpline
 62
7
  6
CONTINUOUS
 70
0
 71
3
 72
15
 73
11
 74
0
 42
0.0000001
 43
0.0000001
 44
0.0000000001
 40
0.0
 40
0.0
 40
0.0
 40
0.0
 40
0.124278133
 40
0.2471183895
 40
0.3724720842
 40
0.5011722443
 40
0.6295233584
 40
0.7540257784
 40
0.8760590112
 40
1.0
 40
1.0
 40
1.0
 40
1.0
 10
210.8841856218
 20
289.7175416961
 30
0.0
 10
211.1996630784
 20
289.7175416961
 30
0.0
 10
211.8363333758
 20
289.599335831
 30
0.0
 10
212.6332473986
 20
289.0384383627
 30
0.0
 10
213.1367891223
 20
288.1956818654
 30
0.0
 10
213.3109307951
 20
287.2215260373
 30
0.0
 10
213.1563341846
 20
286.246104335
 30
0.0
 10
212.6681517404
 20
285.3994172005
 30
0.0
 10
211.8785146929
 20
284.8352494581
 30
0.0
 10
211.2443698858
 20
284.7175416961
 30
0.0
 10
210.9297482628
 20
284.7175416961
 30
0.0
  0
SPLINE
  5
2E8
100
AcDbEntity
  8
0
100
AcDbSpline
 62
7
  6
CONTINUOUS
 70
0
 71
3
 72
15
 73
11
 74
0
 42
0.0000001
 43
0.0000001
 44
0.0000000001
 40
0.0
 40
0.0
 40
0.0
 40
0.0
 40
0.1239308035
 40
0.2459576957
 40
0.3704757356
 40
0.4988202235
 40
0.6275404255
 40
0.7528957877
 40
0.8757288424
 40
1.0
 40
1.0
 40
1.0
 40
1.0
 10
206.8887831623
 20
284.7175416961
 30
0.0
 10
206.5741873924
 20
284.7175416961
 30
0.0
 10
205.9400868287
 20
284.8352307161
 30
0.0
 10
205.1504282158
 20
285.3993575361
 30
0.0
 10
204.6622122557
 20
286.246043232
 30
0.0
 10
204.5075944708
 20
287.2215340802
 30
0.0
 10
204.6817496342
 20
288.1957350585
 30
0.0
 10
205.1853485681
 20
289.0385026233
 30
0.0
 10
205.9822532499
 20
289.5993504213
 30
0.0
 10
206.6188860634
 20
289.7175416961
 30
0.0
 10
206.9343458153
 20
289.7175416961
 30
0.0
  0
SPLINE
  5
2E9
100
AcDbEntity
  8
0
100
AcDbSpline
 62
7
  6
CONTINUOUS
 70
0
 71
3
 72
8
 73
4
 74
0
 42
0.0000001
 43
0.0000001
 44
0.0000000001
 40
0.0
 40
0.0
 40
0.0
 40
0.0
 40
1.0
 40
1.0
 40
1.0
 40
1.0
 10
206.0908803958
 20
301.6699002896
 30
0.0
 10
206.0758015711
 20
300.9857892332
 30
0.0
 10
206.0615820886
 20
300.3016594985
 30
0.0
 10
206.0468124894
 20
299.6175416961
 30
0.0
  0
SPLINE
  5
2EA
100
AcDbEntity
  8
0
100
AcDbSpline
 62
7
  6
CONTINUOUS
 70
0
 71
3
 72
12
 73
8
 74
0
 42
0.0000001
 43
0.0000001
 44
0.0000000001
 40
0.0
 40
0.0
 40
0.0
 40
0.0
 40
0.255515397
 40
0.5025837561
 40
0.6244868824
 40
0.7475445165
 40
1.0
 40
1.0
 40
1.0
 40
1.0
 10
208.9092657126
 20
303.8895989941
 30
0.0
 10
208.5679789627
 20
303.889598994
 30
0.0
 10
207.8945685215
 20
303.8217404881
 30
0.0
 10
207.1005467162
 20
303.5055923836
 30
0.0
 10
206.6002039776
 20
303.0692391102
 30
0.0
 10
206.2188290471
 20
302.5182426738
 30
0.0
 10
206.0983170324
 20
302.0070179609
 30
0.0
 10
206.0908803958
 20
301.6699002896
 30
0.0
  0
SPLINE
  5
2EB
100
AcDbEntity
  8
0
100
AcDbSpline
 62
7
  6
CONTINUOUS
 70
0
 71
3
 72
8
 73
4
 74
0
 42
0.0000001
 43
0.0000001
 44
0.0000000001
 40
0.0
 40
0.0
 40
0.0
 40
0.0
 40
1.0
 40
1.0
 40
1.0
 40
1.0
 10
211.7718637988
 20
299.6175331611
 30
0.0
 10
211.757101032
 20
300.3016514962
 30
0.0
 10
211.7429292868
 20
300.9857826352
 30
0.0
 10
211.7278578697
 20
301.6698942401
 30
0.0
  0
SPLINE
  5
2EC
100
AcDbEntity
  8
0
100
AcDbSpline
 62
7
  6
CONTINUOUS
 70
0
 71
3
 72
12
 73
8
 74
0
 42
0.0000001
 43
0.0000001
 44
0.0000000001
 40
0.0
 40
0.0
 40
0.0
 40
0.0
 40
0.2525691357
 40
0.3755408977
 40
0.4973558494
 40
0.7444631801
 40
1.0
 40
1.0
 40
1.0
 40
1.0
 10
211.7278578697
 20
301.6698942401
 30
0.0
 10
211.7204213425
 20
302.0071836206
 30
0.0
 10
211.5995597849
 20
302.5180993841
 30
0.0
 10
211.2192749486
 20
303.0701242675
 30
0.0
 10
210.716564822
 20
303.5033921176
 30
0.0
 10
209.9248882472
 20
303.8238695429
 30
0.0
 10
209.2506011722
 20
303.8895989953
 30
0.0
 10
208.9092657126
 20
303.8895989951
 30
0.0
  0
SPLINE
  5
2ED
100
AcDbEntity
  8
0
100
AcDbSpline
 62
7
  6
CONTINUOUS
 70
0
 71
3
 72
9
 73
5
 74
0
 42
0.0000001
 43
0.0000001
 44
0.0000000001
 40
0.0
 40
0.0
 40
0.0
 40
0.0
 40
0.2485620442
 40
1.0
 40
1.0
 40
1.0
 40
1.0
 10
174.4342658164
 20
252.5607056694
 30
0.0
 10
174.4342658164
 20
253.2372976551
 30
0.0
 10
174.5180675934
 20
255.9588133442
 30
0.0
 10
174.9407062772
 20
258.6687982814
 30
0.0
 10
175.4342658164
 20
260.6537903081
 30
0.0
  0
SPLINE
  5
2EE
100
AcDbEntity
  8
0
100
AcDbSpline
 62
7
  6
CONTINUOUS
 70
0
 71
3
 72
9
 73
5
 74
0
 42
0.0000001
 43
0.0000001
 44
0.0000000001
 40
0.0
 40
0.0
 40
0.0
 40
0.0
 40
0.5072314842
 40
1.0
 40
1.0
 40
1.0
 40
1.0
 10
241.4878101543
 20
231.1024177482
 30
0.0
 10
241.4975413789
 20
231.1101164562
 30
0.0
 10
241.5288947747
 20
231.1295618169
 30
0.0
 10
241.5342380191
 20
231.0933046175
 30
0.0
 10
241.5342298521
 20
231.0812500886
 30
0.0
  0
SPLINE
  5
2EF
100
AcDbEntity
  8
0
100
AcDbSpline
 62
9
  6
CONTINUOUS
 70
0
 71
3
 72
13
 73
9
 74
0
 42
0.0000001
 43
0.0000001
 44
0.0000000001
 40
0.0
 40
0.0
 40
0.0
 40
0.0
 40
0.3522540874
 40
0.6554575673
 40
0.7773962712
 40
0.8758614323
 40
0.9499466205
 40
1.0
 40
1.0
 40
1.0
 40
1.0
 10
239.0510896617
 20
258.6257784451
 30
0.0
 10
239.0511048372
 20
259.2547692305
 30
0.0
 10
239.0868485305
 20
260.4253705201
 30
0.0
 10
239.2207632835
 20
261.8088266741
 30
0.0
 10
239.3770788816
 20
262.7307723501
 30
0.0
 10
239.4968094128
 20
263.243827206
 30
0.0
 10
239.6216897864
 20
263.6206459654
 30
0.0
 10
239.7223943251
 20
263.8220116094
 30
0.0
 10
239.7790970819
 20
263.8910977421
 30
0.0
  0
SPLINE
  5
2F0
100
AcDbEntity
  8
0
100
AcDbSpline
 62
9
  6
CONTINUOUS
 70
0
 71
3
 72
11
 73
7
 74
0
 42
0.0000001
 43
0.0000001
 44
0.0000000001
 40
0.0
 40
0.0
 40
0.0
 40
0.0
 40
0.240539545
 40
0.4984747614
 40
0.7573236349
 40
1.0
 40
1.0
 40
1.0
 40
1.0
 10
239.779207993
 20
263.8912341587
 30
0.0
 10
239.7485880311
 20
265.1086663904
 30
0.0
 10
239.2491102555
 20
267.6394562648
 30
0.0
 10
237.236580495
 20
270.9945642306
 30
0.0
 10
234.1903404841
 20
273.4653338446
 30
0.0
 10
231.7464544752
 20
274.3328553365
 30
0.0
 10
230.5366232267
 20
274.5469906018
 30
0.0
  0
SPLINE
  5
2F1
100
AcDbEntity
  8
0
100
AcDbSpline
 62
9
  6
CONTINUOUS
 70
0
 71
3
 72
9
 73
5
 74
0
 42
0.0000001
 43
0.0000001
 44
0.0000000001
 40
0.0
 40
0.0
 40
0.0
 40
0.0
 40
0.2506156734
 40
1.0
 40
1.0
 40
1.0
 40
1.0
 10
213.8842643653
 20
106.1043919165
 30
0.0
 10
215.1875189114
 20
106.1232949195
 30
0.0
 10
220.3865706279
 20
106.2634916627
 30
0.0
 10
225.5787908256
 20
106.6625710452
 30
0.0
 10
229.4504658783
 20
107.1093393187
 30
0.0
  0
SPLINE
  5
2F2
100
AcDbEntity
  8
0
100
AcDbSpline
 62
9
  6
CONTINUOUS
 70
0
 71
3
 72
9
 73
5
 74
0
 42
0.0000001
 43
0.0000001
 44
0.0000000001
 40
0.0
 40
0.0
 40
0.0
 40
0.0
 40
0.2493213584
 40
1.0
 40
1.0
 40
1.0
 40
1.0
 10
229.4504507465
 20
258.6256044771
 30
0.0
 10
228.162337963
 20
258.7742450687
 30
0.0
 10
222.9884676016
 20
259.3046425803
 30
0.0
 10
217.7879542148
 20
259.5739299585
 30
0.0
 10
213.8842653811
 20
259.6305509944
 30
0.0
  0
SPLINE
  5
2F3
100
AcDbEntity
  8
0
100
AcDbSpline
 62
9
  6
CONTINUOUS
 70
0
 71
3
 72
12
 73
8
 74
0
 42
0.0000001
 43
0.0000001
 44
0.0000000001
 40
0.0
 40
0.0
 40
0.0
 40
0.0
 40
0.0494224309
 40
0.1263930223
 40
0.3537407458
 40
0.6565196086
 40
1.0
 40
1.0
 40
1.0
 40
1.0
 10
230.5366464043
 20
91.1880777394
 30
0.0
 10
230.5395466751
 20
91.4509873177
 30
0.0
 10
230.5222157372
 20
92.1234637164
 30
0.0
 10
230.4249928709
 20
94.0027812179
 30
0.0
 10
230.2046953046
 20
97.225208636
 30
0.0
 10
229.8639607073
 20
101.8601857393
 30
0.0
 10
229.5967407307
 20
105.2878999174
 30
0.0
 10
229.4504669906
 20
107.1093394471
 30
0.0
  0
SPLINE
  5
2F4
100
AcDbEntity
  8
0
100
AcDbSpline
 62
9
  6
CONTINUOUS
 70
0
 71
3
 72
11
 73
7
 74
0
 42
0.0000001
 43
0.0000001
 44
0.0000000001
 40
0.0
 40
0.0
 40
0.0
 40
0.0
 40
0.2431022245
 40
0.5021106788
 40
0.7598825477
 40
1.0
 40
1.0
 40
1.0
 40
1.0
 10
230.536606575
 20
91.1881922706
 30
0.0
 10
231.748540164
 20
91.4027064688
 30
0.0
 10
234.1951722592
 20
92.2720132308
 30
0.0
 10
237.2414251765
 20
94.7462622435
 30
0.0
 10
239.2504437694
 20
98.100734088
 30
0.0
 10
239.7485710514
 20
100.6284475965
 30
0.0
 10
239.779161842
 20
101.8437232709
 30
0.0
  0
SPLINE
  5
2F5
100
AcDbEntity
  8
0
100
AcDbSpline
 62
9
  6
CONTINUOUS
 70
0
 71
3
 72
13
 73
9
 74
0
 42
0.0000001
 43
0.0000001
 44
0.0000000001
 40
0.0
 40
0.0
 40
0.0
 40
0.0
 40
0.3433236793
 40
0.6443112903
 40
0.7682086584
 40
0.870034999
 40
0.9474877341
 40
1.0
 40
1.0
 40
1.0
 40
1.0
 10
239.0510902664
 20
107.1093149422
 30
0.0
 10
239.0511091992
 20
106.4962734683
 30
0.0
 10
239.0854454656
 20
105.3456278847
 30
0.0
 10
239.2140101065
 20
103.9782005807
 30
0.0
 10
239.3680210036
 20
103.0502974519
 30
0.0
 10
239.4882491588
 20
102.5213789908
 30
0.0
 10
239.6157588854
 20
102.1283280896
 30
0.0
 10
239.7195460177
 20
101.9164876101
 30
0.0
 10
239.7789881545
 20
101.8439703393
 30
0.0
  0
SPLINE
  5
2F6
100
AcDbEntity
  8
0
100
AcDbSpline
 62
9
  6
CONTINUOUS
 70
0
 71
3
 72
13
 73
9
 74
0
 42
0.0000001
 43
0.0000001
 44
0.0000000001
 40
0.0
 40
0.0
 40
0.0
 40
0.0
 40
0.3434494638
 40
0.6462220779
 40
0.7711899721
 40
0.8735851557
 40
0.95057703
 40
1.0
 40
1.0
 40
1.0
 40
1.0
 10
229.4504541628
 20
258.6256040828
 30
0.0
 10
229.5952131121
 20
260.4470144205
 30
0.0
 10
229.8653911727
 20
263.8742941618
 30
0.0
 10
230.164596468
 20
267.9661458616
 30
0.0
 10
230.3588310692
 20
270.779754593
 30
0.0
 10
230.4607383305
 20
272.3957872397
 30
0.0
 10
230.5205788575
 20
273.6115291981
 30
0.0
 10
230.5390908202
 20
274.2840765019
 30
0.0
 10
230.5366280187
 20
274.5469955401
 30
0.0
  0
SPLINE
  5
2F7
100
AcDbEntity
  8
0
100
AcDbSpline
 62
7
  6
CONTINUOUS
 70
0
 71
3
 72
9
 73
5
 74
0
 42
0.0000001
 43
0.0000001
 44
0.0000000001
 40
0.0
 40
0.0
 40
0.0
 40
0.0
 40
0.3104901363
 40
1.0
 40
1.0
 40
1.0
 40
1.0
 10
195.6413977507
 20
89.1683274962
 30
0.0
 10
195.6182416438
 20
89.1580369247
 30
0.0
 10
195.5452936444
 20
89.1225948342
 30
0.0
 10
195.4731096124
 20
89.0777156587
 30
0.0
 10
195.4380723357
 20
89.033682068
 30
0.0
  0
SPLINE
  5
2F8
100
AcDbEntity
  8
0
100
AcDbSpline
 62
7
  6
CONTINUOUS
 70
0
 71
3
 72
11
 73
7
 74
0
 42
0.0000001
 43
0.0000001
 44
0.0000000001
 40
0.0
 40
0.0
 40
0.0
 40
0.0
 40
0.3131005397
 40
0.5990884993
 40
0.8336345399
 40
1.0
 40
1.0
 40
1.0
 40
1.0
 10
198.6079666046
 20
89.5440334744
 30
0.0
 10
198.2944999588
 20
89.5440334744
 30
0.0
 10
197.6947069649
 20
89.5263353582
 30
0.0
 10
196.8622231865
 20
89.4537843529
 30
0.0
 10
196.1841115978
 20
89.3411696349
 30
0.0
 10
195.7936047096
 20
89.2359682526
 30
0.0
 10
195.6413977507
 20
89.1683274962
 30
0.0
  0
SPLINE
  5
2F9
100
AcDbEntity
  8
0
100
AcDbSpline
 62
7
  6
CONTINUOUS
 70
0
 71
3
 72
10
 73
6
 74
0
 42
0.0000001
 43
0.0000001
 44
0.0000000001
 40
0.0
 40
0.0
 40
0.0
 40
0.0
 40
0.1715503448
 40
0.4020081539
 40
1.0
 40
1.0
 40
1.0
 40
1.0
 10
222.1771288391
 20
89.1683277591
 30
0.0
 10
222.0684571857
 20
89.216621296
 30
0.0
 10
221.8006829442
 20
89.2988044161
 30
0.0
 10
221.1216144743
 20
89.4384200078
 30
0.0
 10
220.5478842441
 20
89.4928371086
 30
0.0
 10
220.1340681398
 20
89.5171540966
 30
0.0
  0
SPLINE
  5
2FA
100
AcDbEntity
  8
0
100
AcDbSpline
 62
7
  6
CONTINUOUS
 70
0
 71
3
 72
9
 73
5
 74
0
 42
0.0000001
 43
0.0000001
 44
0.0000000001
 40
0.0
 40
0.0
 40
0.0
 40
0.0
 40
0.1934303067
 40
1.0
 40
1.0
 40
1.0
 40
1.0
 10
222.3804590895
 20
89.033682068
 30
0.0
 10
222.370614968
 20
89.0460532714
 30
0.0
 10
222.3120713848
 20
89.1038324037
 30
0.0
 10
222.2373724405
 20
89.1415555835
 30
0.0
 10
222.1771288391
 20
89.1683277591
 30
0.0
  0
SPLINE
  5
2FB
100
AcDbEntity
  8
0
100
AcDbSpline
 62
7
  6
CONTINUOUS
 70
0
 71
3
 72
11
 73
7
 74
0
 42
0.0000001
 43
0.0000001
 44
0.0000000001
 40
0.0
 40
0.0
 40
0.0
 40
0.0
 40
0.2499158907
 40
0.4999127693
 40
0.7498007861
 40
1.0
 40
1.0
 40
1.0
 40
1.0
 10
229.6337813016
 20
301.6698989151
 30
0.0
 10
229.6283334893
 20
301.9787844139
 30
0.0
 10
229.5192598813
 20
302.5992262705
 30
0.0
 10
229.0781729003
 20
303.4309495806
 30
0.0
 10
228.4047640084
 20
304.089151087
 30
0.0
 10
227.8420488078
 20
304.3714128251
 30
0.0
 10
227.5479485797
 20
304.4671285709
 30
0.0
  0
SPLINE
  5
2FC
100
AcDbEntity
  8
0
100
AcDbSpline
 62
9
  6
CONTINUOUS
 70
0
 71
3
 72
13
 73
9
 74
0
 42
0.0000001
 43
0.0000001
 44
0.0000000001
 40
0.0
 40
0.0
 40
0.0
 40
0.0
 40
0.3524007768
 40
0.6557973097
 40
0.7777518028
 40
0.8764309898
 40
0.9503127997
 40
1.0
 40
1.0
 40
1.0
 40
1.0
 10
178.9181900349
 20
107.4294918619
 30
0.0
 10
178.9181810288
 20
106.8013819574
 30
0.0
 10
178.8824118016
 20
105.6323415106
 30
0.0
 10
178.7498457204
 20
104.2506049217
 30
0.0
 10
178.5929583677
 20
103.3297182126
 30
0.0
 10
178.4740969224
 20
102.8174242122
 30
0.0
 10
178.349547992
 20
102.4418306782
 30
0.0
 10
178.2482938894
 20
102.2423140527
 30
0.0
 10
178.191735149
 20
102.1741657697
 30
0.0
  0
SPLINE
  5
2FD
100
AcDbEntity
  8
0
100
AcDbSpline
 62
9
  6
CONTINUOUS
 70
0
 71
3
 72
13
 73
9
 74
0
 42
0.0000001
 43
0.0000001
 44
0.0000000001
 40
0.0
 40
0.0
 40
0.0
 40
0.0
 40
0.3438338728
 40
0.6449974688
 40
0.7688458075
 40
0.8705280814
 40
0.9477579266
 40
1.0
 40
1.0
 40
1.0
 40
1.0
 10
178.9181899415
 20
258.3055878198
 30
0.0
 10
178.9181885866
 20
258.9184132916
 30
0.0
 10
178.8840127877
 20
260.0681655288
 30
0.0
 10
178.7558844354
 20
261.434255243
 30
0.0
 10
178.6021583024
 20
262.3604172735
 30
0.0
 10
178.4821566319
 20
262.8876317018
 30
0.0
 10
178.3549109273
 20
263.2787340557
 30
0.0
 10
178.2512023615
 20
263.4892662625
 30
0.0
 10
178.1917370558
 20
263.5609170666
 30
0.0
  0
SPLINE
  5
2FE
100
AcDbEntity
  8
0
100
AcDbSpline
 62
9
  6
CONTINUOUS
 70
0
 71
3
 72
11
 73
7
 74
0
 42
0.0000001
 43
0.0000001
 44
0.0000000001
 40
0.0
 40
0.0
 40
0.0
 40
0.0
 40
0.2433026067
 40
0.5020888355
 40
0.7596555928
 40
1.0
 40
1.0
 40
1.0
 40
1.0
 10
187.2498977337
 20
91.5490637758
 30
0.0
 10
186.0551352554
 20
91.7812167329
 30
0.0
 10
183.651863592
 20
92.6753466461
 30
0.0
 10
180.6706092823
 20
95.1501805146
 30
0.0
 10
178.708187253
 20
98.4746725433
 30
0.0
 10
178.2217059713
 20
100.9722339756
 30
0.0
 10
178.1917349543
 20
102.174170329
 30
0.0
  0
SPLINE
  5
2FF
100
AcDbEntity
  8
0
100
AcDbSpline
 62
7
  6
CONTINUOUS
 70
0
 71
3
 72
9
 73
5
 74
0
 42
0.0000001
 43
0.0000001
 44
0.0000000001
 40
0.0
 40
0.0
 40
0.0
 40
0.0
 40
0.3156506434
 40
1.0
 40
1.0
 40
1.0
 40
1.0
 10
177.4949147007
 20
99.2264850266
 30
0.0
 10
177.4354141314
 20
99.3103664809
 30
0.0
 10
177.2468764022
 20
99.5760852919
 30
0.0
 10
177.0542435198
 20
99.8388734522
 30
0.0
 10
176.9214796724
 20
100.0180047212
 30
0.0
  0
SPLINE
  5
300
100
AcDbEntity
  8
0
100
AcDbSpline
 62
7
  6
CONTINUOUS
 70
0
 71
3
 72
10
 73
6
 74
0
 42
0.0000001
 43
0.0000001
 44
0.0000000001
 40
0.0
 40
0.0
 40
0.0
 40
0.0
 40
0.5036333315
 40
0.7512515153
 40
1.0
 40
1.0
 40
1.0
 40
1.0
 10
212.005661141
 20
287.2175500331
 30
0.0
 10
212.0056626298
 20
286.702054713
 30
0.0
 10
211.7900431599
 20
285.9017772164
 30
0.0
 10
211.0773153093
 20
285.1439986126
 30
0.0
 10
210.6124582814
 20
284.9104782674
 30
0.0
 10
210.3694739089
 20
284.8344294114
 30
0.0
  0
SPLINE
  5
301
100
AcDbEntity
  8
0
100
AcDbSpline
 62
7
  6
CONTINUOUS
 70
0
 71
3
 72
8
 73
4
 74
0
 42
0.0000001
 43
0.0000001
 44
0.0000000001
 40
0.0
 40
0.0
 40
0.0
 40
0.0
 40
1.0
 40
1.0
 40
1.0
 40
1.0
 10
210.3694739089
 20
284.8344294114
 30
0.0
 10
210.1146821064
 20
284.7546850851
 30
0.0
 10
209.8440901449
 20
284.7175416961
 30
0.0
 10
209.5771107071
 20
284.7175416961
 30
0.0
  0
SPLINE
  5
302
100
AcDbEntity
  8
0
100
AcDbSpline
 62
7
  6
CONTINUOUS
 70
0
 71
3
 72
8
 73
4
 74
0
 42
0.0000001
 43
0.0000001
 44
0.0000000001
 40
0.0
 40
0.0
 40
0.0
 40
0.0
 40
1.0
 40
1.0
 40
1.0
 40
1.0
 10
209.5787905613
 20
289.7175411972
 30
0.0
 10
209.8463942753
 20
289.7173855858
 30
0.0
 10
210.11759475
 20
289.6796166452
 30
0.0
 10
210.3728333727
 20
289.5992113128
 30
0.0
  0
SPLINE
  5
303
100
AcDbEntity
  8
0
100
AcDbSpline
 62
7
  6
CONTINUOUS
 70
0
 71
3
 72
10
 73
6
 74
0
 42
0.0000001
 43
0.0000001
 44
0.0000000001
 40
0.0
 40
0.0
 40
0.0
 40
0.0
 40
0.2488569726
 40
0.4964994939
 40
1.0
 40
1.0
 40
1.0
 40
1.0
 10
210.3728333727
 20
289.5992113128
 30
0.0
 10
210.6155110986
 20
289.522762917
 30
0.0
 10
211.0797543887
 20
289.2891861121
 30
0.0
 10
211.7912709912
 20
288.5317192925
 30
0.0
 10
212.0056596543
 20
287.7323349719
 30
0.0
 10
212.005661141
 20
287.2175500331
 30
0.0
  0
SPLINE
  5
304
100
AcDbEntity
  8
0
100
AcDbSpline
 62
7
  6
CONTINUOUS
 70
0
 71
3
 72
9
 73
5
 74
0
 42
0.0000001
 43
0.0000001
 44
0.0000000001
 40
0.0
 40
0.0
 40
0.0
 40
0.0
 40
0.2485612857
 40
1.0
 40
1.0
 40
1.0
 40
1.0
 10
174.4342658164
 20
113.1743778358
 30
0.0
 10
174.4342658164
 20
112.4977880971
 30
0.0
 10
174.5181152894
 20
109.7762749883
 30
0.0
 10
174.9407059135
 20
107.0662866748
 30
0.0
 10
175.4342658164
 20
105.0812931798
 30
0.0
  0
SPLINE
  5
305
100
AcDbEntity
  8
0
100
AcDbSpline
 62
7
  6
CONTINUOUS
 70
0
 71
3
 72
9
 73
5
 74
0
 42
0.0000001
 43
0.0000001
 44
0.0000000001
 40
0.0
 40
0.0
 40
0.0
 40
0.0
 40
0.2518599726
 40
1.0
 40
1.0
 40
1.0
 40
1.0
 10
175.4342658164
 20
105.0812931803
 30
0.0
 10
175.5601094232
 20
104.5751768215
 30
0.0
 10
176.1076902568
 20
102.5779146011
 30
0.0
 10
176.8432625148
 20
100.6319361905
 30
0.0
 10
177.4949147007
 20
99.2264850266
 30
0.0
  0
SPLINE
  5
306
100
AcDbEntity
  8
0
100
AcDbSpline
 62
7
  6
CONTINUOUS
 70
0
 71
3
 72
9
 73
5
 74
0
 42
0.0000001
 43
0.0000001
 44
0.0000000001
 40
0.0
 40
0.0
 40
0.0
 40
0.0
 40
0.2482786873
 40
1.0
 40
1.0
 40
1.0
 40
1.0
 10
177.4949147255
 20
266.5085984913
 30
0.0
 10
177.2786552735
 20
266.0421808195
 30
0.0
 10
176.4525929755
 20
264.1430113564
 30
0.0
 10
175.8098709839
 20
262.1643948119
 30
0.0
 10
175.4342658164
 20
260.6537903081
 30
0.0
  0
SPLINE
  5
307
100
AcDbEntity
  8
0
100
AcDbSpline
 62
9
  6
CONTINUOUS
 70
0
 71
3
 72
11
 73
7
 74
0
 42
0.0000001
 43
0.0000001
 44
0.0000000001
 40
0.0
 40
0.0
 40
0.0
 40
0.0
 40
0.2403441895
 40
0.4979107019
 40
0.7566969389
 40
1.0
 40
1.0
 40
1.0
 40
1.0
 10
178.1917346115
 20
263.5609133116
 30
0.0
 10
178.221705373
 20
264.7628403723
 30
0.0
 10
178.7081794362
 20
267.2603822598
 30
0.0
 10
180.6705732181
 20
270.5848563197
 30
0.0
 10
183.6517914015
 20
273.0596924078
 30
0.0
 10
186.055040786
 20
273.9538371923
 30
0.0
 10
187.2497951637
 20
274.1860001993
 30
0.0
  0
SPLINE
  5
308
100
AcDbEntity
  8
0
100
AcDbSpline
 62
7
  6
CONTINUOUS
 70
0
 71
3
 72
9
 73
5
 74
0
 42
0.0000001
 43
0.0000001
 44
0.0000000001
 40
0.0
 40
0.0
 40
0.0
 40
0.0
 40
0.1925056811
 40
1.0
 40
1.0
 40
1.0
 40
1.0
 10
176.9214798394
 20
265.7170816157
 30
0.0
 10
176.9588257605
 20
265.7674705206
 30
0.0
 10
177.1531379114
 20
266.0289931956
 30
0.0
 10
177.3427017356
 20
266.2940149013
 30
0.0
 10
177.4949147246
 20
266.5085984892
 30
0.0
  0
SPLINE
  5
309
100
AcDbEntity
  8
0
100
AcDbSpline
 62
7
  6
CONTINUOUS
 70
0
 71
3
 72
8
 73
4
 74
0
 42
0.0000001
 43
0.0000001
 44
0.0000000001
 40
0.0
 40
0.0
 40
0.0
 40
0.0
 40
1.0
 40
1.0
 40
1.0
 40
1.0
 10
208.2414539617
 20
289.7175411971
 30
0.0
 10
207.9496271495
 20
289.7175411971
 30
0.0
 10
207.6529961351
 20
289.6727126207
 30
0.0
 10
207.3773419475
 20
289.5769125309
 30
0.0
  0
SPLINE
  5
30A
100
AcDbEntity
  8
0
100
AcDbSpline
 62
7
  6
CONTINUOUS
 70
0
 71
3
 72
15
 73
11
 74
0
 42
0.0000001
 43
0.0000001
 44
0.0000000001
 40
0.0
 40
0.0
 40
0.0
 40
0.0
 40
0.1235297389
 40
0.246698658
 40
0.3721838738
 40
0.500003552
 40
0.6278125568
 40
0.7532810215
 40
0.8764618586
 40
1.0
 40
1.0
 40
1.0
 40
1.0
 10
207.3773419475
 20
289.5769125309
 30
0.0
 10
207.1427807375
 20
289.4953937802
 30
0.0
 10
206.6960039372
 20
289.2553538445
 30
0.0
 10
206.1886794838
 20
288.6867994874
 30
0.0
 10
205.8809315324
 20
287.9831702837
 30
0.0
 10
205.7782313299
 20
287.2146362894
 30
0.0
 10
205.8811209058
 20
286.446024763
 30
0.0
 10
206.1912659113
 20
285.7432112658
 30
0.0
 10
206.701012684
 20
285.1770738134
 30
0.0
 10
207.1478790176
 20
284.9373525742
 30
0.0
 10
207.3826052487
 20
284.8562584711
 30
0.0
  0
SPLINE
  5
30B
100
AcDbEntity
  8
0
100
AcDbSpline
 62
7
  6
CONTINUOUS
 70
0
 71
3
 72
8
 73
4
 74
0
 42
0.0000001
 43
0.0000001
 44
0.0000000001
 40
0.0
 40
0.0
 40
0.0
 40
0.0
 40
1.0
 40
1.0
 40
1.0
 40
1.0
 10
207.3826052487
 20
284.8562584711
 30
0.0
 10
207.6567019632
 20
284.761562505
 30
0.0
 10
207.9514623785
 20
284.7175418561
 30
0.0
 10
208.2414560593
 20
284.7175418561
 30
0.0
  0
SPLINE
  5
30C
100
AcDbEntity
  8
0
100
AcDbSpline
 62
7
  6
CONTINUOUS
 70
0
 71
3
 72
9
 73
5
 74
0
 42
0.0000001
 43
0.0000001
 44
0.0000000001
 40
0.0
 40
0.0
 40
0.0
 40
0.0
 40
0.4997195366
 40
1.0
 40
1.0
 40
1.0
 40
1.0
 10
203.9342658747
 20
259.5632092451
 30
0.0
 10
203.934248414
 20
259.5790115454
 30
0.0
 10
203.9363891939
 20
259.6104734406
 30
0.0
 10
203.9311090044
 20
259.6425745295
 30
0.0
 10
203.934273559
 20
259.6580748361
 30
0.0
  0
SPLINE
  5
30D
100
AcDbEntity
  8
0
100
AcDbSpline
 62
9
  6
CONTINUOUS
 70
0
 71
3
 72
13
 73
9
 74
0
 42
0.0000001
 43
0.0000001
 44
0.0000000001
 40
0.0
 40
0.0
 40
0.0
 40
0.0
 40
0.0494702489
 40
0.1264553274
 40
0.2288558774
 40
0.3537978822
 40
0.656538683
 40
1.0
 40
1.0
 40
1.0
 40
1.0
 10
187.2497950814
 20
274.1859999146
 30
0.0
 10
187.2498370816
 20
273.9232619064
 30
0.0
 10
187.2768198163
 20
273.2518732615
 30
0.0
 10
187.3537269595
 20
272.0389324471
 30
0.0
 10
187.4736499866
 20
270.4270278822
 30
0.0
 10
187.6980531778
 20
267.6207132648
 30
0.0
 10
188.0465563349
 20
263.5399610381
 30
0.0
 10
188.3515821868
 20
260.1215364464
 30
0.0
 10
188.5188518973
 20
258.3050881929
 30
0.0
  0
SPLINE
  5
30E
100
AcDbEntity
  8
0
100
AcDbSpline
 62
9
  6
CONTINUOUS
 70
0
 71
3
 72
9
 73
5
 74
0
 42
0.0000001
 43
0.0000001
 44
0.0000000001
 40
0.0
 40
0.0
 40
0.0
 40
0.0
 40
0.2493079562
 40
1.0
 40
1.0
 40
1.0
 40
1.0
 10
188.5187583998
 20
107.4291534927
 30
0.0
 10
189.7932818112
 20
107.2605591868
 30
0.0
 10
194.9138871846
 20
106.648959978
 30
0.0
 10
200.0650305631
 20
106.2941156461
 30
0.0
 10
203.9342231597
 20
106.1709452342
 30
0.0
  0
SPLINE
  5
30F
100
AcDbEntity
  8
0
100
AcDbSpline
 62
9
  6
CONTINUOUS
 70
0
 71
3
 72
9
 73
5
 74
0
 42
0.0000001
 43
0.0000001
 44
0.0000000001
 40
0.0
 40
0.0
 40
0.0
 40
0.0
 40
0.2506437384
 40
1.0
 40
1.0
 40
1.0
 40
1.0
 10
203.9342645294
 20
259.5632921859
 30
0.0
 10
202.6424066269
 20
259.5221677921
 30
0.0
 10
197.49049053
 20
259.2943852034
 30
0.0
 10
192.349689719
 20
258.8118340973
 30
0.0
 10
188.5188026819
 20
258.3050816827
 30
0.0
  0
SPLINE
  5
310
100
AcDbEntity
  8
0
100
AcDbSpline
 62
9
  6
CONTINUOUS
 70
0
 71
3
 72
13
 73
9
 74
0
 42
0.0000001
 43
0.0000001
 44
0.0000000001
 40
0.0
 40
0.0
 40
0.0
 40
0.0
 40
0.3443974623
 40
0.6475913579
 40
0.7723208743
 40
0.8743596056
 40
0.9508481772
 40
1.0
 40
1.0
 40
1.0
 40
1.0
 10
188.5185943658
 20
107.4294938417
 30
0.0
 10
188.3508584101
 20
105.6081614071
 30
0.0
 10
188.0455151854
 20
102.182484831
 30
0.0
 10
187.6964356157
 20
98.0956447072
 30
0.0
 10
187.472111539
 20
95.2900906966
 30
0.0
 10
187.3526172929
 20
93.6838728885
 30
0.0
 10
187.2778040671
 20
92.4771913777
 30
0.0
 10
187.2483502721
 20
91.8101802497
 30
0.0
 10
187.2492743531
 20
91.5491443979
 30
0.0
  0
SPLINE
  5
311
100
AcDbEntity
  8
0
100
AcDbSpline
 62
7
  6
CONTINUOUS
 70
0
 71
3
 72
9
 73
5
 74
0
 42
0.0000001
 43
0.0000001
 44
0.0000000001
 40
0.0
 40
0.0
 40
0.0
 40
0.0
 40
0.500280439
 40
1.0
 40
1.0
 40
1.0
 40
1.0
 10
203.934273559
 20
106.0770085562
 30
0.0
 10
203.9310950155
 20
106.0925773518
 30
0.0
 10
203.9364101549
 20
106.1248202647
 30
0.0
 10
203.9342309657
 20
106.1564212143
 30
0.0
 10
203.934265875
 20
106.172293312
 30
0.0
  0
SPLINE
  5
312
100
AcDbEntity
  8
0
100
AcDbSpline
 62
9
  6
CONTINUOUS
 70
0
 71
3
 72
12
 73
8
 74
0
 42
0.0000001
 43
0.0000001
 44
0.0000000001
 40
0.0
 40
0.0
 40
0.0
 40
0.0
 40
0.3861332515
 40
0.682212277
 40
0.8869522225
 40
0.9554352713
 40
1.0
 40
1.0
 40
1.0
 40
1.0
 10
187.2498889093
 20
91.5490525689
 30
0.0
 10
187.0355738189
 20
91.2511529586
 30
0.0
 10
186.6211778924
 20
90.7515792591
 30
0.0
 10
186.101485418
 20
90.0881646811
 30
0.0
 10
185.7678933777
 20
89.6619328124
 30
0.0
 10
185.575733
 20
89.4291059206
 30
0.0
 10
185.5071484112
 20
89.346174761
 30
0.0
 10
185.4830572315
 20
89.3113393767
 30
0.0
  0
ENDSEC
  0
SECTION
  2
OBJECTS
  0
DICTIONARY
  5
C
100
AcDbDictionary
280
0
281
1
  3
ACAD_GROUP
350
D
  3
ACAD_MLINESTYLE
350
17
  3
ACAD_LAYOUT
350
1A
  3
ACAD_PLOTSETTINGS
350
19
  3
ACAD_PLOTSTYLENAME
350
E
  0
DICTIONARY
  5
D
102
{ACAD_REACTORS
330
C
102
}
100
AcDbDictionary
280
0
281
1
  0
ACDBDICTIONARYWDFLT
  5
E
102
{ACAD_REACTORS
330
C
102
}
100
AcDbDictionary
281
1
  3
Normal
350
F
100
AcDbDictionaryWithDefault
340
F
  0
DICTIONARY
  5
17
102
{ACAD_REACTORS
330
C
102
}
100
AcDbDictionary
280
0
281
1
  3
Standard
350
18
  0
DICTIONARY
  5
19
102
{ACAD_REACTORS
330
C
102
}
100
AcDbDictionary
281
1
  0
DICTIONARY
  5
1A
102
{ACAD_REACTORS
330
C
102
}
100
AcDbDictionary
281
1
  3
Model
350
313
  3
Layout1
350
314
  0
ACDBPLACEHOLDER
  5
F
102
{ACAD_REACTORS
330
E
102
}
  0
MLINESTYLE
  5
18
102
{ACAD_REACTORS
330
17
102
}
100
AcDbMlineStyle
  2
STANDARD
 70
0
  3

 62
256
 51
90.0
 52
90.0
 71
2
 49
0.5
 62
256
  6
BYLAYER
 49
-0.5
 62
256
  6
BYLAYER
  0
LAYOUT
  5
313
102
{ACAD_REACTORS
330
1A
102
}
100
AcDbPlotSettings
  1

  2
none_device
  4
ANSI_C_(22.00_x_17.00_Inches)
  6

 40
0.0
 41
0.0
 42
0.0
 43
0.0
 44
558.8
 45
431.8
 46
0.0
 47
0.0
 48
0.0
 49
0.0
140
0.0
141
0.0
142
1.0
143
1.0
 70
1024
 72
1
 73
0
 74
0
  7

 75
0
147
1.0
148
0.0
149
0.0
100
AcDbLayout
  1
Model
 70
0
 71
0
 10
0.0
 20
0.0
 11
558.8
 21
431.8
 12
0.0
 22
0.0
 32
0.0
 14
0.0
 24
0.0
 34
0.0
 15
0.0
 25
0.0
 35
0.0
146
0.0
 13
0.0
 23
0.0
 33
0.0
 16
1.0
 26
0.0
 36
0.0
 17
0.0
 27
1.0
 37
0.0
 76
0
330
218
345
0
346
0
  0
LAYOUT
  5
314
102
{ACAD_REACTORS
330
1A
102
}
100
AcDbPlotSettings
  1

  2
none_device
  4
ANSI_C_(22.00_x_17.00_Inches)
  6

 40
0.0
 41
0.0
 42
0.0
 43
0.0
 44
558.8
 45
431.8
 46
0.0
 47
0.0
 48
0.0
 49
0.0
140
0.0
141
0.0
142
1.0
143
1.0
 70
0
 72
1
 73
0
 74
0
  7

 75
0
147
1.0
148
0.0
149
0.0
100
AcDbLayout
  1
Layout1
 70
0
 71
1
 10
0.0
 20
0.0
 11
558.8
 21
431.8
 12
0.0
 22
0.0
 32
0.0
 14
0.0
 24
0.0
 34
0.0
 15
0.0
 25
0.0
 35
0.0
146
0.0
 13
0.0
 23
0.0
 33
0.0
 16
1.0
 26
0.0
 36
0.0
 17
0.0
 27
1.0
 37
0.0
 76
0
330
219
345
0
346
0
  0
ENDSEC
  0
EOF
