  0
SECTION
  2
HEADER
  9
$ACADVER
  1
AC1012
  9
$DWGCODEPAGE
  3
ANSI_1252
  9
$INSBASE
 10
0.0
 20
0.0
 30
0.0
  9
$EXTMIN
 10
-0.2030700945725492
 20
3.014785791065992
 30
-0.0000000349181948
  9
$EXTMAX
 10
6.573620324909416
 20
7.521240253608254
 30
0.0000000814935746
  9
$LIMMIN
 10
0.0
 20
0.0
  9
$LIMMAX
 10
12.0
 20
9.0
  9
$ORTHOMODE
 70
     0
  9
$REGENMODE
 70
     1
  9
$FILLMODE
 70
     1
  9
$QTEXTMODE
 70
     0
  9
$MIRRTEXT
 70
     1
  9
$DRAGMODE
 70
     2
  9
$LTSCALE
 40
1.0
  9
$OSMODE
 70
   547
  9
$ATTMODE
 70
     1
  9
$TEXTSIZE
 40
0.2
  9
$TRACEWID
 40
0.05
  9
$TEXTSTYLE
  7
STANDARD
  9
$CLAYER
  8
0
  9
$CELTYPE
  6
BYLAYER
  9
$CECOLOR
 62
   256
  9
$CELTSCALE
 40
1.0
  9
$DELOBJ
 70
     1
  9
$DISPSILH
 70
     0
  9
$DIMSCALE
 40
1.0
  9
$DIMASZ
 40
0.18
  9
$DIMEXO
 40
0.0625
  9
$DIMDLI
 40
0.38
  9
$DIMRND
 40
0.0
  9
$DIMDLE
 40
0.0
  9
$DIMEXE
 40
0.18
  9
$DIMTP
 40
0.0
  9
$DIMTM
 40
0.0
  9
$DIMTXT
 40
0.18
  9
$DIMCEN
 40
0.09
  9
$DIMTSZ
 40
0.0
  9
$DIMTOL
 70
     0
  9
$DIMLIM
 70
     0
  9
$DIMTIH
 70
     1
  9
$DIMTOH
 70
     1
  9
$DIMSE1
 70
     0
  9
$DIMSE2
 70
     0
  9
$DIMTAD
 70
     0
  9
$DIMZIN
 70
     0
  9
$DIMBLK
  1

  9
$DIMASO
 70
     1
  9
$DIMSHO
 70
     1
  9
$DIMPOST
  1

  9
$DIMAPOST
  1

  9
$DIMALT
 70
     0
  9
$DIMALTD
 70
     2
  9
$DIMALTF
 40
25.4
  9
$DIMLFAC
 40
1.0
  9
$DIMTOFL
 70
     0
  9
$DIMTVP
 40
0.0
  9
$DIMTIX
 70
     0
  9
$DIMSOXD
 70
     0
  9
$DIMSAH
 70
     0
  9
$DIMBLK1
  1

  9
$DIMBLK2
  1

  9
$DIMSTYLE
  2
STANDARD
  9
$DIMCLRD
 70
     0
  9
$DIMCLRE
 70
     0
  9
$DIMCLRT
 70
     0
  9
$DIMTFAC
 40
1.0
  9
$DIMGAP
 40
0.09
  9
$DIMJUST
 70
     0
  9
$DIMSD1
 70
     0
  9
$DIMSD2
 70
     0
  9
$DIMTOLJ
 70
     1
  9
$DIMTZIN
 70
     0
  9
$DIMALTZ
 70
     0
  9
$DIMALTTZ
 70
     0
  9
$DIMFIT
 70
     5
  9
$DIMUPT
 70
     0
  9
$DIMUNIT
 70
     2
  9
$DIMDEC
 70
     4
  9
$DIMTDEC
 70
     4
  9
$DIMALTU
 70
     2
  9
$DIMALTTD
 70
     2
  9
$DIMTXSTY
  7
STANDARD
  9
$DIMAUNIT
 70
     0
  9
$LUNITS
 70
     2
  9
$LUPREC
 70
     4
  9
$SKETCHINC
 40
0.1
  9
$FILLETRAD
 40
0.0
  9
$AUNITS
 70
     0
  9
$AUPREC
 70
     0
  9
$MENU
  1
acad
  9
$ELEVATION
 40
0.0
  9
$PELEVATION
 40
0.0
  9
$THICKNESS
 40
0.0
  9
$LIMCHECK
 70
     0
  9
$BLIPMODE
 70
     0
  9
$CHAMFERA
 40
0.0
  9
$CHAMFERB
 40
0.0
  9
$CHAMFERC
 40
0.0
  9
$CHAMFERD
 40
0.0
  9
$SKPOLY
 70
     0
  9
$TDCREATE
 40
2453537.427812499
  9
$TDUPDATE
 40
2453944.471142014
  9
$TDINDWG
 40
0.0042188773
  9
$TDUSRTIMER
 40
0.0042188773
  9
$USRTIMER
 70
     1
  9
$ANGBASE
 50
0.0
  9
$ANGDIR
 70
     0
  9
$PDMODE
 70
     0
  9
$PDSIZE
 40
0.0
  9
$PLINEWID
 40
0.0
  9
$COORDS
 70
     1
  9
$SPLFRAME
 70
     0
  9
$SPLINETYPE
 70
     6
  9
$SPLINESEGS
 70
     8
  9
$ATTDIA
 70
     0
  9
$ATTREQ
 70
     1
  9
$HANDLING
 70
  4097
  9
$HANDSEED
  5
5576
  9
$SURFTAB1
 70
     6
  9
$SURFTAB2
 70
     6
  9
$SURFTYPE
 70
     6
  9
$SURFU
 70
     6
  9
$SURFV
 70
     6
  9
$UCSNAME
  2

  9
$UCSORG
 10
0.0
 20
0.0
 30
0.0
  9
$UCSXDIR
 10
1.0
 20
0.0
 30
0.0
  9
$UCSYDIR
 10
0.0
 20
1.0
 30
0.0
  9
$PUCSNAME
  2

  9
$PUCSORG
 10
0.0
 20
0.0
 30
0.0
  9
$PUCSXDIR
 10
1.0
 20
0.0
 30
0.0
  9
$PUCSYDIR
 10
0.0
 20
1.0
 30
0.0
  9
$USERI1
 70
     0
  9
$USERI2
 70
     0
  9
$USERI3
 70
     0
  9
$USERI4
 70
     0
  9
$USERI5
 70
     0
  9
$USERR1
 40
0.0
  9
$USERR2
 40
0.0
  9
$USERR3
 40
0.0
  9
$USERR4
 40
0.0
  9
$USERR5
 40
0.0
  9
$WORLDVIEW
 70
     1
  9
$SHADEDGE
 70
     3
  9
$SHADEDIF
 70
    70
  9
$TILEMODE
 70
     1
  9
$MAXACTVP
 70
    16
  9
$PINSBASE
 10
0.0
 20
0.0
 30
0.0
  9
$PLIMCHECK
 70
     0
  9
$PEXTMIN
 10
1.000000000000000E+20
 20
1.000000000000000E+20
 30
1.000000000000000E+20
  9
$PEXTMAX
 10
-1.000000000000000E+20
 20
-1.000000000000000E+20
 30
-1.000000000000000E+20
  9
$PLIMMIN
 10
0.0
 20
0.0
  9
$PLIMMAX
 10
12.0
 20
9.0
  9
$UNITMODE
 70
     0
  9
$VISRETAIN
 70
     0
  9
$PLINEGEN
 70
     0
  9
$PSLTSCALE
 70
     1
  9
$TREEDEPTH
 70
  3020
  9
$PICKSTYLE
 70
     1
  9
$CMLSTYLE
  2
STANDARD
  9
$CMLJUST
 70
     0
  9
$CMLSCALE
 40
1.0
  9
$SAVEIMAGES
 70
     1
  0
ENDSEC
  0
SECTION
  2
CLASSES
  0
CLASS
  1
ACDBDICTIONARYWDFLT
  2
AcDbDictionaryWithDefault
  3
AutoCAD 2000
 90
    32768
280
     0
281
     0
  0
CLASS
  1
ACDBPLACEHOLDER
  2
AcDbPlaceHolder
  3
AutoCAD 2000
 90
    32768
280
     0
281
     0
  0
CLASS
  1
LAYOUT
  2
AcDbLayout
  3
AutoCAD 2000
 90
    32768
280
     0
281
     0
  0
CLASS
  1
LONG_TRANSACTION
  2
AcDbLongTransaction
  3
AutoCAD 2000
 90
    32768
280
     0
281
     0
  0
CLASS
  1
LWPOLYLINE
  2
AcDbPolyline
  3
AutoCAD 2000
 90
    32768
280
     0
281
     1
  0
CLASS
  1
HATCH
  2
AcDbHatch
  3
AutoCAD 2000
 90
    32768
280
     0
281
     1
  0
CLASS
  1
XRECORD
  2
AcDbXrecord
  3
AutoCAD 2000
 90
    32768
280
     0
281
     0
  0
CLASS
  1
LONG_TRANSACTION
  2
AcDbLongTransaction
  3
AutoCAD 2000
 90
    32768
280
     0
281
     0
  0
CLASS
  1
LWPOLYLINE
  2
AcDbPolyline
  3
AutoCAD 2000
 90
    32768
280
     0
281
     1
  0
CLASS
  1
HATCH
  2
AcDbHatch
  3
AutoCAD 2000
 90
    32768
280
     0
281
     1
  0
CLASS
  1
XRECORD
  2
AcDbXrecord
  3
AutoCAD 2000
 90
    32768
280
     0
281
     0
  0
ENDSEC
  0
SECTION
  2
TABLES
  0
TABLE
  2
VPORT
  5
8
330
0
100
AcDbSymbolTable
 70
     3
  0
VPORT
  5
5573
330
8
100
AcDbSymbolTableRecord
100
AcDbViewportTableRecord
  2
*ACTIVE
 70
     0
 10
0.0
 20
0.0
 11
1.0
 21
1.0
 12
3.185275115168433
 22
5.268013022337123
 13
0.0
 23
0.0
 14
1.0
 24
1.0
 15
0.0
 25
0.0
 16
0.0
 26
0.0
 36
1.0
 17
0.0
 27
0.0
 37
0.0
 40
4.553315340835595
 41
1.647569444444444
 42
50.0
 43
0.0
 44
0.0
 50
0.0
 51
0.0
 71
     0
 72
   100
 73
     1
 74
     1
 75
     0
 76
     0
 77
     0
 78
     0
  0
ENDTAB
  0
TABLE
  2
LTYPE
  5
5
330
0
100
AcDbSymbolTable
 70
    25
  0
LTYPE
  5
13
330
5
100
AcDbSymbolTableRecord
100
AcDbLinetypeTableRecord
  2
BYBLOCK
 70
     0
  3

 72
    65
 73
     0
 40
0.0
  0
LTYPE
  5
14
330
5
100
AcDbSymbolTableRecord
100
AcDbLinetypeTableRecord
  2
BYLAYER
 70
     0
  3

 72
    65
 73
     0
 40
0.0
  0
LTYPE
  5
15
330
5
100
AcDbSymbolTableRecord
100
AcDbLinetypeTableRecord
  2
CONTINUOUS
 70
     0
  3
Solid line
 72
    65
 73
     0
 40
0.0
  0
LTYPE
  5
22
330
5
100
AcDbSymbolTableRecord
100
AcDbLinetypeTableRecord
  2
BORDER
 70
     0
  3
__ __ . __ __ . __ __ . __ __ . __ __ . __ __ .
 72
    65
 73
     6
 40
1.75
 49
0.5
 74
     0
 49
-0.25
 74
     0
 49
0.5
 74
     0
 49
-0.25
 74
     0
 49
0.5
 74
     0
 49
-0.25
 74
     0
  0
LTYPE
  5
23
330
5
100
AcDbSymbolTableRecord
100
AcDbLinetypeTableRecord
  2
BORDER2
 70
     0
  3
__.__.__.__.__.__.__.__.__.__.__.__.__.__.__.__
 72
    65
 73
     6
 40
0.875
 49
0.25
 74
     0
 49
-0.125
 74
     0
 49
0.25
 74
     0
 49
-0.125
 74
     0
 49
0.25
 74
     0
 49
-0.125
 74
     0
  0
LTYPE
  5
24
330
5
100
AcDbSymbolTableRecord
100
AcDbLinetypeTableRecord
  2
BORDERX2
 70
     0
  3
____  ____  .  ____  ____  .  
 72
    65
 73
     6
 40
3.5
 49
1.0
 74
     0
 49
-0.5
 74
     0
 49
1.0
 74
     0
 49
-0.5
 74
     0
 49
1.0
 74
     0
 49
-0.5
 74
     0
  0
LTYPE
  5
25
330
5
100
AcDbSymbolTableRecord
100
AcDbLinetypeTableRecord
  2
CENTER
 70
     0
  3
____ _ ____ _ ____ _ ____ _ ____ _ ____ _ ____
 72
    65
 73
     4
 40
2.0
 49
1.25
 74
     0
 49
-0.25
 74
     0
 49
0.25
 74
     0
 49
-0.25
 74
     0
  0
LTYPE
  5
26
330
5
100
AcDbSymbolTableRecord
100
AcDbLinetypeTableRecord
  2
CENTER2
 70
     0
  3
____ _ ____ _ ____ _ ____ _ ____ _ ____ _ ____
 72
    65
 73
     4
 40
1.125
 49
0.75
 74
     0
 49
-0.125
 74
     0
 49
0.125
 74
     0
 49
-0.125
 74
     0
  0
LTYPE
  5
27
330
5
100
AcDbSymbolTableRecord
100
AcDbLinetypeTableRecord
  2
CENTERX2
 70
     0
  3
________  __  ________  __  ________  __  
 72
    65
 73
     4
 40
4.0
 49
2.5
 74
     0
 49
-0.5
 74
     0
 49
0.5
 74
     0
 49
-0.5
 74
     0
  0
LTYPE
  5
28
330
5
100
AcDbSymbolTableRecord
100
AcDbLinetypeTableRecord
  2
DASHDOT
 70
     0
  3
__ . __ . __ . __ . __ . __ . __ . 
 72
    65
 73
     4
 40
1.0
 49
0.5
 74
     0
 49
-0.25
 74
     0
 49
0.0
 74
     0
 49
-0.25
 74
     0
  0
LTYPE
  5
29
330
5
100
AcDbSymbolTableRecord
100
AcDbLinetypeTableRecord
  2
DASHDOT2
 70
     0
  3
_._._._._._._._._._._._._._._._.
 72
    65
 73
     4
 40
0.5
 49
0.25
 74
     0
 49
-0.125
 74
     0
 49
0.0
 74
     0
 49
-0.125
 74
     0
  0
LTYPE
  5
2A
330
5
100
AcDbSymbolTableRecord
100
AcDbLinetypeTableRecord
  2
DASHDOTX2
 70
     0
  3
____  .  ____  .  ____  .  ____  .  
 72
    65
 73
     4
 40
2.0
 49
1.0
 74
     0
 49
-0.5
 74
     0
 49
0.0
 74
     0
 49
-0.5
 74
     0
  0
LTYPE
  5
2B
330
5
100
AcDbSymbolTableRecord
100
AcDbLinetypeTableRecord
  2
DASHED
 70
     0
  3
__ __ __ __ __ __ __ __ __ __ __ __ 
 72
    65
 73
     2
 40
0.75
 49
0.5
 74
     0
 49
-0.25
 74
     0
  0
LTYPE
  5
2C
330
5
100
AcDbSymbolTableRecord
100
AcDbLinetypeTableRecord
  2
DASHED2
 70
     0
  3
_ _ _ _ _ _ _ _ _ _ _ _ _ _ _ _ _ _ 
 72
    65
 73
     2
 40
0.375
 49
0.25
 74
     0
 49
-0.125
 74
     0
  0
LTYPE
  5
2D
330
5
100
AcDbSymbolTableRecord
100
AcDbLinetypeTableRecord
  2
DASHEDX2
 70
     0
  3
____  ____  ____  ____  ____  ____  
 72
    65
 73
     2
 40
1.5
 49
1.0
 74
     0
 49
-0.5
 74
     0
  0
LTYPE
  5
2E
330
5
100
AcDbSymbolTableRecord
100
AcDbLinetypeTableRecord
  2
DIVIDE
 70
     0
  3
____ . . ____ . . ____ . . ____ . . 
 72
    65
 73
     6
 40
1.25
 49
0.5
 74
     0
 49
-0.25
 74
     0
 49
0.0
 74
     0
 49
-0.25
 74
     0
 49
0.0
 74
     0
 49
-0.25
 74
     0
  0
LTYPE
  5
2F
330
5
100
AcDbSymbolTableRecord
100
AcDbLinetypeTableRecord
  2
DIVIDE2
 70
     0
  3
__..__..__..__..__..__..__..__..__..
 72
    65
 73
     6
 40
0.625
 49
0.25
 74
     0
 49
-0.125
 74
     0
 49
0.0
 74
     0
 49
-0.125
 74
     0
 49
0.0
 74
     0
 49
-0.125
 74
     0
  0
LTYPE
  5
30
330
5
100
AcDbSymbolTableRecord
100
AcDbLinetypeTableRecord
  2
DIVIDEX2
 70
     0
  3
________  .  .  ________  .  .  ________  .  . 
 72
    65
 73
     6
 40
2.5
 49
1.0
 74
     0
 49
-0.5
 74
     0
 49
0.0
 74
     0
 49
-0.5
 74
     0
 49
0.0
 74
     0
 49
-0.5
 74
     0
  0
LTYPE
  5
31
330
5
100
AcDbSymbolTableRecord
100
AcDbLinetypeTableRecord
  2
DOT
 70
     0
  3
. . . . . . . . . . . . . . . . . . 
 72
    65
 73
     2
 40
0.25
 49
0.0
 74
     0
 49
-0.25
 74
     0
  0
LTYPE
  5
32
330
5
100
AcDbSymbolTableRecord
100
AcDbLinetypeTableRecord
  2
DOT2
 70
     0
  3
....................................
 72
    65
 73
     2
 40
0.125
 49
0.0
 74
     0
 49
-0.125
 74
     0
  0
LTYPE
  5
33
330
5
100
AcDbSymbolTableRecord
100
AcDbLinetypeTableRecord
  2
DOTX2
 70
     0
  3
.  .  .  .  .  .  .  .  .  .  .  .  .  
 72
    65
 73
     2
 40
0.5
 49
0.0
 74
     0
 49
-0.5
 74
     0
  0
LTYPE
  5
34
330
5
100
AcDbSymbolTableRecord
100
AcDbLinetypeTableRecord
  2
HIDDEN
 70
     0
  3
__ __ __ __ __ __ __ __ __ __ __ __ 
 72
    65
 73
     2
 40
0.375
 49
0.25
 74
     0
 49
-0.125
 74
     0
  0
LTYPE
  5
35
330
5
100
AcDbSymbolTableRecord
100
AcDbLinetypeTableRecord
  2
HIDDEN2
 70
     0
  3
_ _ _ _ _ _ _ _ _ _ _ _ _ _ _ _ _ _ 
 72
    65
 73
     2
 40
0.1875
 49
0.125
 74
     0
 49
-0.0625
 74
     0
  0
LTYPE
  5
36
330
5
100
AcDbSymbolTableRecord
100
AcDbLinetypeTableRecord
  2
HIDDENX2
 70
     0
  3
____ ____ ____ ____ ____ ____ ____ 
 72
    65
 73
     2
 40
0.75
 49
0.5
 74
     0
 49
-0.25
 74
     0
  0
LTYPE
  5
37
330
5
100
AcDbSymbolTableRecord
100
AcDbLinetypeTableRecord
  2
PHANTOM
 70
     0
  3
______  __  __  ______  __  __  
 72
    65
 73
     6
 40
2.5
 49
1.25
 74
     0
 49
-0.25
 74
     0
 49
0.25
 74
     0
 49
-0.25
 74
     0
 49
0.25
 74
     0
 49
-0.25
 74
     0
  0
LTYPE
  5
38
330
5
100
AcDbSymbolTableRecord
100
AcDbLinetypeTableRecord
  2
PHANTOM2
 70
     0
  3
___ _ _ ___ _ _ ___ _ _ ___ _ _ 
 72
    65
 73
     6
 40
1.25
 49
0.625
 74
     0
 49
-0.125
 74
     0
 49
0.125
 74
     0
 49
-0.125
 74
     0
 49
0.125
 74
     0
 49
-0.125
 74
     0
  0
LTYPE
  5
39
330
5
100
AcDbSymbolTableRecord
100
AcDbLinetypeTableRecord
  2
PHANTOMX2
 70
     0
  3
___ _ _ ___ _ _ ___ _ _ ___ _ _ 
 72
    65
 73
     6
 40
5.0
 49
2.5
 74
     0
 49
-0.5
 74
     0
 49
0.5
 74
     0
 49
-0.5
 74
     0
 49
0.5
 74
     0
 49
-0.5
 74
     0
  0
ENDTAB
  0
TABLE
  2
LAYER
  5
2
330
0
100
AcDbSymbolTable
 70
   257
  0
LAYER
  5
10
330
2
100
AcDbSymbolTableRecord
100
AcDbLayerTableRecord
  2
0
 70
     0
 62
     7
  6
CONTINUOUS
  0
LAYER
  5
3A
330
2
100
AcDbSymbolTableRecord
100
AcDbLayerTableRecord
  2
1
 70
     0
 62
     1
  6
CONTINUOUS
  0
LAYER
  5
3B
330
2
100
AcDbSymbolTableRecord
100
AcDbLayerTableRecord
  2
2
 70
     0
 62
     2
  6
CONTINUOUS
  0
LAYER
  5
3C
330
2
100
AcDbSymbolTableRecord
100
AcDbLayerTableRecord
  2
3
 70
     0
 62
     3
  6
CONTINUOUS
  0
LAYER
  5
3D
330
2
100
AcDbSymbolTableRecord
100
AcDbLayerTableRecord
  2
4
 70
     0
 62
     4
  6
CONTINUOUS
  0
LAYER
  5
3E
330
2
100
AcDbSymbolTableRecord
100
AcDbLayerTableRecord
  2
5
 70
     0
 62
     5
  6
CONTINUOUS
  0
LAYER
  5
3F
330
2
100
AcDbSymbolTableRecord
100
AcDbLayerTableRecord
  2
6
 70
     0
 62
     6
  6
CONTINUOUS
  0
LAYER
  5
40
330
2
100
AcDbSymbolTableRecord
100
AcDbLayerTableRecord
  2
7
 70
     0
 62
     7
  6
CONTINUOUS
  0
LAYER
  5
41
330
2
100
AcDbSymbolTableRecord
100
AcDbLayerTableRecord
  2
8
 70
     0
 62
     8
  6
CONTINUOUS
  0
LAYER
  5
42
330
2
100
AcDbSymbolTableRecord
100
AcDbLayerTableRecord
  2
9
 70
     0
 62
     9
  6
CONTINUOUS
  0
LAYER
  5
43
330
2
100
AcDbSymbolTableRecord
100
AcDbLayerTableRecord
  2
10
 70
     0
 62
    10
  6
CONTINUOUS
  0
LAYER
  5
44
330
2
100
AcDbSymbolTableRecord
100
AcDbLayerTableRecord
  2
11
 70
     0
 62
    11
  6
CONTINUOUS
  0
LAYER
  5
45
330
2
100
AcDbSymbolTableRecord
100
AcDbLayerTableRecord
  2
12
 70
     0
 62
    12
  6
CONTINUOUS
  0
LAYER
  5
46
330
2
100
AcDbSymbolTableRecord
100
AcDbLayerTableRecord
  2
13
 70
     0
 62
    13
  6
CONTINUOUS
  0
LAYER
  5
47
330
2
100
AcDbSymbolTableRecord
100
AcDbLayerTableRecord
  2
14
 70
     0
 62
    14
  6
CONTINUOUS
  0
LAYER
  5
48
330
2
100
AcDbSymbolTableRecord
100
AcDbLayerTableRecord
  2
15
 70
     0
 62
    15
  6
CONTINUOUS
  0
LAYER
  5
49
330
2
100
AcDbSymbolTableRecord
100
AcDbLayerTableRecord
  2
16
 70
     0
 62
    16
  6
CONTINUOUS
  0
LAYER
  5
4A
330
2
100
AcDbSymbolTableRecord
100
AcDbLayerTableRecord
  2
17
 70
     0
 62
    17
  6
CONTINUOUS
  0
LAYER
  5
4B
330
2
100
AcDbSymbolTableRecord
100
AcDbLayerTableRecord
  2
18
 70
     0
 62
    18
  6
CONTINUOUS
  0
LAYER
  5
4C
330
2
100
AcDbSymbolTableRecord
100
AcDbLayerTableRecord
  2
19
 70
     0
 62
    19
  6
CONTINUOUS
  0
LAYER
  5
4D
330
2
100
AcDbSymbolTableRecord
100
AcDbLayerTableRecord
  2
20
 70
     0
 62
    20
  6
CONTINUOUS
  0
LAYER
  5
4E
330
2
100
AcDbSymbolTableRecord
100
AcDbLayerTableRecord
  2
21
 70
     0
 62
    21
  6
CONTINUOUS
  0
LAYER
  5
4F
330
2
100
AcDbSymbolTableRecord
100
AcDbLayerTableRecord
  2
22
 70
     0
 62
    22
  6
CONTINUOUS
  0
LAYER
  5
50
330
2
100
AcDbSymbolTableRecord
100
AcDbLayerTableRecord
  2
23
 70
     0
 62
    23
  6
CONTINUOUS
  0
LAYER
  5
51
330
2
100
AcDbSymbolTableRecord
100
AcDbLayerTableRecord
  2
24
 70
     0
 62
    24
  6
CONTINUOUS
  0
LAYER
  5
52
330
2
100
AcDbSymbolTableRecord
100
AcDbLayerTableRecord
  2
25
 70
     0
 62
    25
  6
CONTINUOUS
  0
LAYER
  5
53
330
2
100
AcDbSymbolTableRecord
100
AcDbLayerTableRecord
  2
26
 70
     0
 62
    26
  6
CONTINUOUS
  0
LAYER
  5
54
330
2
100
AcDbSymbolTableRecord
100
AcDbLayerTableRecord
  2
27
 70
     0
 62
    27
  6
CONTINUOUS
  0
LAYER
  5
55
330
2
100
AcDbSymbolTableRecord
100
AcDbLayerTableRecord
  2
28
 70
     0
 62
    28
  6
CONTINUOUS
  0
LAYER
  5
56
330
2
100
AcDbSymbolTableRecord
100
AcDbLayerTableRecord
  2
29
 70
     0
 62
    29
  6
CONTINUOUS
  0
LAYER
  5
57
330
2
100
AcDbSymbolTableRecord
100
AcDbLayerTableRecord
  2
30
 70
     0
 62
    30
  6
CONTINUOUS
  0
LAYER
  5
58
330
2
100
AcDbSymbolTableRecord
100
AcDbLayerTableRecord
  2
31
 70
     0
 62
    31
  6
CONTINUOUS
  0
LAYER
  5
59
330
2
100
AcDbSymbolTableRecord
100
AcDbLayerTableRecord
  2
32
 70
     0
 62
    32
  6
CONTINUOUS
  0
LAYER
  5
5A
330
2
100
AcDbSymbolTableRecord
100
AcDbLayerTableRecord
  2
33
 70
     0
 62
    33
  6
CONTINUOUS
  0
LAYER
  5
5B
330
2
100
AcDbSymbolTableRecord
100
AcDbLayerTableRecord
  2
34
 70
     0
 62
    34
  6
CONTINUOUS
  0
LAYER
  5
5C
330
2
100
AcDbSymbolTableRecord
100
AcDbLayerTableRecord
  2
35
 70
     0
 62
    35
  6
CONTINUOUS
  0
LAYER
  5
5D
330
2
100
AcDbSymbolTableRecord
100
AcDbLayerTableRecord
  2
36
 70
     0
 62
    36
  6
CONTINUOUS
  0
LAYER
  5
5E
330
2
100
AcDbSymbolTableRecord
100
AcDbLayerTableRecord
  2
37
 70
     0
 62
    37
  6
CONTINUOUS
  0
LAYER
  5
5F
330
2
100
AcDbSymbolTableRecord
100
AcDbLayerTableRecord
  2
38
 70
     0
 62
    38
  6
CONTINUOUS
  0
LAYER
  5
60
330
2
100
AcDbSymbolTableRecord
100
AcDbLayerTableRecord
  2
39
 70
     0
 62
    39
  6
CONTINUOUS
  0
LAYER
  5
61
330
2
100
AcDbSymbolTableRecord
100
AcDbLayerTableRecord
  2
40
 70
     0
 62
    40
  6
CONTINUOUS
  0
LAYER
  5
62
330
2
100
AcDbSymbolTableRecord
100
AcDbLayerTableRecord
  2
41
 70
     0
 62
    41
  6
CONTINUOUS
  0
LAYER
  5
63
330
2
100
AcDbSymbolTableRecord
100
AcDbLayerTableRecord
  2
42
 70
     0
 62
    42
  6
CONTINUOUS
  0
LAYER
  5
64
330
2
100
AcDbSymbolTableRecord
100
AcDbLayerTableRecord
  2
43
 70
     0
 62
    43
  6
CONTINUOUS
  0
LAYER
  5
65
330
2
100
AcDbSymbolTableRecord
100
AcDbLayerTableRecord
  2
44
 70
     0
 62
    44
  6
CONTINUOUS
  0
LAYER
  5
66
330
2
100
AcDbSymbolTableRecord
100
AcDbLayerTableRecord
  2
45
 70
     0
 62
    45
  6
CONTINUOUS
  0
LAYER
  5
67
330
2
100
AcDbSymbolTableRecord
100
AcDbLayerTableRecord
  2
46
 70
     0
 62
    46
  6
CONTINUOUS
  0
LAYER
  5
68
330
2
100
AcDbSymbolTableRecord
100
AcDbLayerTableRecord
  2
47
 70
     0
 62
    47
  6
CONTINUOUS
  0
LAYER
  5
69
330
2
100
AcDbSymbolTableRecord
100
AcDbLayerTableRecord
  2
48
 70
     0
 62
    48
  6
CONTINUOUS
  0
LAYER
  5
6A
330
2
100
AcDbSymbolTableRecord
100
AcDbLayerTableRecord
  2
49
 70
     0
 62
    49
  6
CONTINUOUS
  0
LAYER
  5
6B
330
2
100
AcDbSymbolTableRecord
100
AcDbLayerTableRecord
  2
50
 70
     0
 62
    50
  6
CONTINUOUS
  0
LAYER
  5
6C
330
2
100
AcDbSymbolTableRecord
100
AcDbLayerTableRecord
  2
51
 70
     0
 62
    51
  6
CONTINUOUS
  0
LAYER
  5
6D
330
2
100
AcDbSymbolTableRecord
100
AcDbLayerTableRecord
  2
52
 70
     0
 62
    52
  6
CONTINUOUS
  0
LAYER
  5
6E
330
2
100
AcDbSymbolTableRecord
100
AcDbLayerTableRecord
  2
53
 70
     0
 62
    53
  6
CONTINUOUS
  0
LAYER
  5
6F
330
2
100
AcDbSymbolTableRecord
100
AcDbLayerTableRecord
  2
54
 70
     0
 62
    54
  6
CONTINUOUS
  0
LAYER
  5
70
330
2
100
AcDbSymbolTableRecord
100
AcDbLayerTableRecord
  2
55
 70
     0
 62
    55
  6
CONTINUOUS
  0
LAYER
  5
71
330
2
100
AcDbSymbolTableRecord
100
AcDbLayerTableRecord
  2
56
 70
     0
 62
    56
  6
CONTINUOUS
  0
LAYER
  5
72
330
2
100
AcDbSymbolTableRecord
100
AcDbLayerTableRecord
  2
57
 70
     0
 62
    57
  6
CONTINUOUS
  0
LAYER
  5
73
330
2
100
AcDbSymbolTableRecord
100
AcDbLayerTableRecord
  2
58
 70
     0
 62
    58
  6
CONTINUOUS
  0
LAYER
  5
74
330
2
100
AcDbSymbolTableRecord
100
AcDbLayerTableRecord
  2
59
 70
     0
 62
    59
  6
CONTINUOUS
  0
LAYER
  5
75
330
2
100
AcDbSymbolTableRecord
100
AcDbLayerTableRecord
  2
60
 70
     0
 62
    60
  6
CONTINUOUS
  0
LAYER
  5
76
330
2
100
AcDbSymbolTableRecord
100
AcDbLayerTableRecord
  2
61
 70
     0
 62
    61
  6
CONTINUOUS
  0
LAYER
  5
77
330
2
100
AcDbSymbolTableRecord
100
AcDbLayerTableRecord
  2
62
 70
     0
 62
    62
  6
CONTINUOUS
  0
LAYER
  5
78
330
2
100
AcDbSymbolTableRecord
100
AcDbLayerTableRecord
  2
63
 70
     0
 62
    63
  6
CONTINUOUS
  0
LAYER
  5
79
330
2
100
AcDbSymbolTableRecord
100
AcDbLayerTableRecord
  2
64
 70
     0
 62
    64
  6
CONTINUOUS
  0
LAYER
  5
7A
330
2
100
AcDbSymbolTableRecord
100
AcDbLayerTableRecord
  2
65
 70
     0
 62
    65
  6
CONTINUOUS
  0
LAYER
  5
7B
330
2
100
AcDbSymbolTableRecord
100
AcDbLayerTableRecord
  2
66
 70
     0
 62
    66
  6
CONTINUOUS
  0
LAYER
  5
7C
330
2
100
AcDbSymbolTableRecord
100
AcDbLayerTableRecord
  2
67
 70
     0
 62
    67
  6
CONTINUOUS
  0
LAYER
  5
7D
330
2
100
AcDbSymbolTableRecord
100
AcDbLayerTableRecord
  2
68
 70
     0
 62
    68
  6
CONTINUOUS
  0
LAYER
  5
7E
330
2
100
AcDbSymbolTableRecord
100
AcDbLayerTableRecord
  2
69
 70
     0
 62
    69
  6
CONTINUOUS
  0
LAYER
  5
7F
330
2
100
AcDbSymbolTableRecord
100
AcDbLayerTableRecord
  2
70
 70
     0
 62
    70
  6
CONTINUOUS
  0
LAYER
  5
80
330
2
100
AcDbSymbolTableRecord
100
AcDbLayerTableRecord
  2
71
 70
     0
 62
    71
  6
CONTINUOUS
  0
LAYER
  5
81
330
2
100
AcDbSymbolTableRecord
100
AcDbLayerTableRecord
  2
72
 70
     0
 62
    72
  6
CONTINUOUS
  0
LAYER
  5
82
330
2
100
AcDbSymbolTableRecord
100
AcDbLayerTableRecord
  2
73
 70
     0
 62
    73
  6
CONTINUOUS
  0
LAYER
  5
83
330
2
100
AcDbSymbolTableRecord
100
AcDbLayerTableRecord
  2
74
 70
     0
 62
    74
  6
CONTINUOUS
  0
LAYER
  5
84
330
2
100
AcDbSymbolTableRecord
100
AcDbLayerTableRecord
  2
75
 70
     0
 62
    75
  6
CONTINUOUS
  0
LAYER
  5
85
330
2
100
AcDbSymbolTableRecord
100
AcDbLayerTableRecord
  2
76
 70
     0
 62
    76
  6
CONTINUOUS
  0
LAYER
  5
86
330
2
100
AcDbSymbolTableRecord
100
AcDbLayerTableRecord
  2
77
 70
     0
 62
    77
  6
CONTINUOUS
  0
LAYER
  5
87
330
2
100
AcDbSymbolTableRecord
100
AcDbLayerTableRecord
  2
78
 70
     0
 62
    78
  6
CONTINUOUS
  0
LAYER
  5
88
330
2
100
AcDbSymbolTableRecord
100
AcDbLayerTableRecord
  2
79
 70
     0
 62
    79
  6
CONTINUOUS
  0
LAYER
  5
89
330
2
100
AcDbSymbolTableRecord
100
AcDbLayerTableRecord
  2
80
 70
     0
 62
    80
  6
CONTINUOUS
  0
LAYER
  5
8A
330
2
100
AcDbSymbolTableRecord
100
AcDbLayerTableRecord
  2
81
 70
     0
 62
    81
  6
CONTINUOUS
  0
LAYER
  5
8B
330
2
100
AcDbSymbolTableRecord
100
AcDbLayerTableRecord
  2
82
 70
     0
 62
    82
  6
CONTINUOUS
  0
LAYER
  5
8C
330
2
100
AcDbSymbolTableRecord
100
AcDbLayerTableRecord
  2
83
 70
     0
 62
    83
  6
CONTINUOUS
  0
LAYER
  5
8D
330
2
100
AcDbSymbolTableRecord
100
AcDbLayerTableRecord
  2
84
 70
     0
 62
    84
  6
CONTINUOUS
  0
LAYER
  5
8E
330
2
100
AcDbSymbolTableRecord
100
AcDbLayerTableRecord
  2
85
 70
     0
 62
    85
  6
CONTINUOUS
  0
LAYER
  5
8F
330
2
100
AcDbSymbolTableRecord
100
AcDbLayerTableRecord
  2
86
 70
     0
 62
    86
  6
CONTINUOUS
  0
LAYER
  5
90
330
2
100
AcDbSymbolTableRecord
100
AcDbLayerTableRecord
  2
87
 70
     0
 62
    87
  6
CONTINUOUS
  0
LAYER
  5
91
330
2
100
AcDbSymbolTableRecord
100
AcDbLayerTableRecord
  2
88
 70
     0
 62
    88
  6
CONTINUOUS
  0
LAYER
  5
92
330
2
100
AcDbSymbolTableRecord
100
AcDbLayerTableRecord
  2
89
 70
     0
 62
    89
  6
CONTINUOUS
  0
LAYER
  5
93
330
2
100
AcDbSymbolTableRecord
100
AcDbLayerTableRecord
  2
90
 70
     0
 62
    90
  6
CONTINUOUS
  0
LAYER
  5
94
330
2
100
AcDbSymbolTableRecord
100
AcDbLayerTableRecord
  2
91
 70
     0
 62
    91
  6
CONTINUOUS
  0
LAYER
  5
95
330
2
100
AcDbSymbolTableRecord
100
AcDbLayerTableRecord
  2
92
 70
     0
 62
    92
  6
CONTINUOUS
  0
LAYER
  5
96
330
2
100
AcDbSymbolTableRecord
100
AcDbLayerTableRecord
  2
93
 70
     0
 62
    93
  6
CONTINUOUS
  0
LAYER
  5
97
330
2
100
AcDbSymbolTableRecord
100
AcDbLayerTableRecord
  2
94
 70
     0
 62
    94
  6
CONTINUOUS
  0
LAYER
  5
98
330
2
100
AcDbSymbolTableRecord
100
AcDbLayerTableRecord
  2
95
 70
     0
 62
    95
  6
CONTINUOUS
  0
LAYER
  5
99
330
2
100
AcDbSymbolTableRecord
100
AcDbLayerTableRecord
  2
96
 70
     0
 62
    96
  6
CONTINUOUS
  0
LAYER
  5
9A
330
2
100
AcDbSymbolTableRecord
100
AcDbLayerTableRecord
  2
97
 70
     0
 62
    97
  6
CONTINUOUS
  0
LAYER
  5
9B
330
2
100
AcDbSymbolTableRecord
100
AcDbLayerTableRecord
  2
98
 70
     0
 62
    98
  6
CONTINUOUS
  0
LAYER
  5
9C
330
2
100
AcDbSymbolTableRecord
100
AcDbLayerTableRecord
  2
99
 70
     0
 62
    99
  6
CONTINUOUS
  0
LAYER
  5
9D
330
2
100
AcDbSymbolTableRecord
100
AcDbLayerTableRecord
  2
100
 70
     0
 62
   100
  6
CONTINUOUS
  0
LAYER
  5
9E
330
2
100
AcDbSymbolTableRecord
100
AcDbLayerTableRecord
  2
101
 70
     0
 62
   101
  6
CONTINUOUS
  0
LAYER
  5
9F
330
2
100
AcDbSymbolTableRecord
100
AcDbLayerTableRecord
  2
102
 70
     0
 62
   102
  6
CONTINUOUS
  0
LAYER
  5
A0
330
2
100
AcDbSymbolTableRecord
100
AcDbLayerTableRecord
  2
103
 70
     0
 62
   103
  6
CONTINUOUS
  0
LAYER
  5
A1
330
2
100
AcDbSymbolTableRecord
100
AcDbLayerTableRecord
  2
104
 70
     0
 62
   104
  6
CONTINUOUS
  0
LAYER
  5
A2
330
2
100
AcDbSymbolTableRecord
100
AcDbLayerTableRecord
  2
105
 70
     0
 62
   105
  6
CONTINUOUS
  0
LAYER
  5
A3
330
2
100
AcDbSymbolTableRecord
100
AcDbLayerTableRecord
  2
106
 70
     0
 62
   106
  6
CONTINUOUS
  0
LAYER
  5
A4
330
2
100
AcDbSymbolTableRecord
100
AcDbLayerTableRecord
  2
107
 70
     0
 62
   107
  6
CONTINUOUS
  0
LAYER
  5
A5
330
2
100
AcDbSymbolTableRecord
100
AcDbLayerTableRecord
  2
108
 70
     0
 62
   108
  6
CONTINUOUS
  0
LAYER
  5
A6
330
2
100
AcDbSymbolTableRecord
100
AcDbLayerTableRecord
  2
109
 70
     0
 62
   109
  6
CONTINUOUS
  0
LAYER
  5
A7
330
2
100
AcDbSymbolTableRecord
100
AcDbLayerTableRecord
  2
110
 70
     0
 62
   110
  6
CONTINUOUS
  0
LAYER
  5
A8
330
2
100
AcDbSymbolTableRecord
100
AcDbLayerTableRecord
  2
111
 70
     0
 62
   111
  6
CONTINUOUS
  0
LAYER
  5
A9
330
2
100
AcDbSymbolTableRecord
100
AcDbLayerTableRecord
  2
112
 70
     0
 62
   112
  6
CONTINUOUS
  0
LAYER
  5
AA
330
2
100
AcDbSymbolTableRecord
100
AcDbLayerTableRecord
  2
113
 70
     0
 62
   113
  6
CONTINUOUS
  0
LAYER
  5
AB
330
2
100
AcDbSymbolTableRecord
100
AcDbLayerTableRecord
  2
114
 70
     0
 62
   114
  6
CONTINUOUS
  0
LAYER
  5
AC
330
2
100
AcDbSymbolTableRecord
100
AcDbLayerTableRecord
  2
115
 70
     0
 62
   115
  6
CONTINUOUS
  0
LAYER
  5
AD
330
2
100
AcDbSymbolTableRecord
100
AcDbLayerTableRecord
  2
116
 70
     0
 62
   116
  6
CONTINUOUS
  0
LAYER
  5
AE
330
2
100
AcDbSymbolTableRecord
100
AcDbLayerTableRecord
  2
117
 70
     0
 62
   117
  6
CONTINUOUS
  0
LAYER
  5
AF
330
2
100
AcDbSymbolTableRecord
100
AcDbLayerTableRecord
  2
118
 70
     0
 62
   118
  6
CONTINUOUS
  0
LAYER
  5
B0
330
2
100
AcDbSymbolTableRecord
100
AcDbLayerTableRecord
  2
119
 70
     0
 62
   119
  6
CONTINUOUS
  0
LAYER
  5
B1
330
2
100
AcDbSymbolTableRecord
100
AcDbLayerTableRecord
  2
120
 70
     0
 62
   120
  6
CONTINUOUS
  0
LAYER
  5
B2
330
2
100
AcDbSymbolTableRecord
100
AcDbLayerTableRecord
  2
121
 70
     0
 62
   121
  6
CONTINUOUS
  0
LAYER
  5
B3
330
2
100
AcDbSymbolTableRecord
100
AcDbLayerTableRecord
  2
122
 70
     0
 62
   122
  6
CONTINUOUS
  0
LAYER
  5
B4
330
2
100
AcDbSymbolTableRecord
100
AcDbLayerTableRecord
  2
123
 70
     0
 62
   123
  6
CONTINUOUS
  0
LAYER
  5
B5
330
2
100
AcDbSymbolTableRecord
100
AcDbLayerTableRecord
  2
124
 70
     0
 62
   124
  6
CONTINUOUS
  0
LAYER
  5
B6
330
2
100
AcDbSymbolTableRecord
100
AcDbLayerTableRecord
  2
125
 70
     0
 62
   125
  6
CONTINUOUS
  0
LAYER
  5
B7
330
2
100
AcDbSymbolTableRecord
100
AcDbLayerTableRecord
  2
126
 70
     0
 62
   126
  6
CONTINUOUS
  0
LAYER
  5
B8
330
2
100
AcDbSymbolTableRecord
100
AcDbLayerTableRecord
  2
127
 70
     0
 62
   127
  6
CONTINUOUS
  0
LAYER
  5
B9
330
2
100
AcDbSymbolTableRecord
100
AcDbLayerTableRecord
  2
128
 70
     0
 62
   128
  6
CONTINUOUS
  0
LAYER
  5
BA
330
2
100
AcDbSymbolTableRecord
100
AcDbLayerTableRecord
  2
129
 70
     0
 62
   129
  6
CONTINUOUS
  0
LAYER
  5
BB
330
2
100
AcDbSymbolTableRecord
100
AcDbLayerTableRecord
  2
130
 70
     0
 62
   130
  6
CONTINUOUS
  0
LAYER
  5
BC
330
2
100
AcDbSymbolTableRecord
100
AcDbLayerTableRecord
  2
131
 70
     0
 62
   131
  6
CONTINUOUS
  0
LAYER
  5
BD
330
2
100
AcDbSymbolTableRecord
100
AcDbLayerTableRecord
  2
132
 70
     0
 62
   132
  6
CONTINUOUS
  0
LAYER
  5
BE
330
2
100
AcDbSymbolTableRecord
100
AcDbLayerTableRecord
  2
133
 70
     0
 62
   133
  6
CONTINUOUS
  0
LAYER
  5
BF
330
2
100
AcDbSymbolTableRecord
100
AcDbLayerTableRecord
  2
134
 70
     0
 62
   134
  6
CONTINUOUS
  0
LAYER
  5
C0
330
2
100
AcDbSymbolTableRecord
100
AcDbLayerTableRecord
  2
135
 70
     0
 62
   135
  6
CONTINUOUS
  0
LAYER
  5
C1
330
2
100
AcDbSymbolTableRecord
100
AcDbLayerTableRecord
  2
136
 70
     0
 62
   136
  6
CONTINUOUS
  0
LAYER
  5
C2
330
2
100
AcDbSymbolTableRecord
100
AcDbLayerTableRecord
  2
137
 70
     0
 62
   137
  6
CONTINUOUS
  0
LAYER
  5
C3
330
2
100
AcDbSymbolTableRecord
100
AcDbLayerTableRecord
  2
138
 70
     0
 62
   138
  6
CONTINUOUS
  0
LAYER
  5
C4
330
2
100
AcDbSymbolTableRecord
100
AcDbLayerTableRecord
  2
139
 70
     0
 62
   139
  6
CONTINUOUS
  0
LAYER
  5
C5
330
2
100
AcDbSymbolTableRecord
100
AcDbLayerTableRecord
  2
140
 70
     0
 62
   140
  6
CONTINUOUS
  0
LAYER
  5
C6
330
2
100
AcDbSymbolTableRecord
100
AcDbLayerTableRecord
  2
141
 70
     0
 62
   141
  6
CONTINUOUS
  0
LAYER
  5
C7
330
2
100
AcDbSymbolTableRecord
100
AcDbLayerTableRecord
  2
142
 70
     0
 62
   142
  6
CONTINUOUS
  0
LAYER
  5
C8
330
2
100
AcDbSymbolTableRecord
100
AcDbLayerTableRecord
  2
143
 70
     0
 62
   143
  6
CONTINUOUS
  0
LAYER
  5
C9
330
2
100
AcDbSymbolTableRecord
100
AcDbLayerTableRecord
  2
144
 70
     0
 62
   144
  6
CONTINUOUS
  0
LAYER
  5
CA
330
2
100
AcDbSymbolTableRecord
100
AcDbLayerTableRecord
  2
145
 70
     0
 62
   145
  6
CONTINUOUS
  0
LAYER
  5
CB
330
2
100
AcDbSymbolTableRecord
100
AcDbLayerTableRecord
  2
146
 70
     0
 62
   146
  6
CONTINUOUS
  0
LAYER
  5
CC
330
2
100
AcDbSymbolTableRecord
100
AcDbLayerTableRecord
  2
147
 70
     0
 62
   147
  6
CONTINUOUS
  0
LAYER
  5
CD
330
2
100
AcDbSymbolTableRecord
100
AcDbLayerTableRecord
  2
148
 70
     0
 62
   148
  6
CONTINUOUS
  0
LAYER
  5
CE
330
2
100
AcDbSymbolTableRecord
100
AcDbLayerTableRecord
  2
149
 70
     0
 62
   149
  6
CONTINUOUS
  0
LAYER
  5
CF
330
2
100
AcDbSymbolTableRecord
100
AcDbLayerTableRecord
  2
150
 70
     0
 62
   150
  6
CONTINUOUS
  0
LAYER
  5
D0
330
2
100
AcDbSymbolTableRecord
100
AcDbLayerTableRecord
  2
151
 70
     0
 62
   151
  6
CONTINUOUS
  0
LAYER
  5
D1
330
2
100
AcDbSymbolTableRecord
100
AcDbLayerTableRecord
  2
152
 70
     0
 62
   152
  6
CONTINUOUS
  0
LAYER
  5
D2
330
2
100
AcDbSymbolTableRecord
100
AcDbLayerTableRecord
  2
153
 70
     0
 62
   153
  6
CONTINUOUS
  0
LAYER
  5
D3
330
2
100
AcDbSymbolTableRecord
100
AcDbLayerTableRecord
  2
154
 70
     0
 62
   154
  6
CONTINUOUS
  0
LAYER
  5
D4
330
2
100
AcDbSymbolTableRecord
100
AcDbLayerTableRecord
  2
155
 70
     0
 62
   155
  6
CONTINUOUS
  0
LAYER
  5
D5
330
2
100
AcDbSymbolTableRecord
100
AcDbLayerTableRecord
  2
156
 70
     0
 62
   156
  6
CONTINUOUS
  0
LAYER
  5
D6
330
2
100
AcDbSymbolTableRecord
100
AcDbLayerTableRecord
  2
157
 70
     0
 62
   157
  6
CONTINUOUS
  0
LAYER
  5
D7
330
2
100
AcDbSymbolTableRecord
100
AcDbLayerTableRecord
  2
158
 70
     0
 62
   158
  6
CONTINUOUS
  0
LAYER
  5
D8
330
2
100
AcDbSymbolTableRecord
100
AcDbLayerTableRecord
  2
159
 70
     0
 62
   159
  6
CONTINUOUS
  0
LAYER
  5
D9
330
2
100
AcDbSymbolTableRecord
100
AcDbLayerTableRecord
  2
160
 70
     0
 62
   160
  6
CONTINUOUS
  0
LAYER
  5
DA
330
2
100
AcDbSymbolTableRecord
100
AcDbLayerTableRecord
  2
161
 70
     0
 62
   161
  6
CONTINUOUS
  0
LAYER
  5
DB
330
2
100
AcDbSymbolTableRecord
100
AcDbLayerTableRecord
  2
162
 70
     0
 62
   162
  6
CONTINUOUS
  0
LAYER
  5
DC
330
2
100
AcDbSymbolTableRecord
100
AcDbLayerTableRecord
  2
163
 70
     0
 62
   163
  6
CONTINUOUS
  0
LAYER
  5
DD
330
2
100
AcDbSymbolTableRecord
100
AcDbLayerTableRecord
  2
164
 70
     0
 62
   164
  6
CONTINUOUS
  0
LAYER
  5
DE
330
2
100
AcDbSymbolTableRecord
100
AcDbLayerTableRecord
  2
165
 70
     0
 62
   165
  6
CONTINUOUS
  0
LAYER
  5
DF
330
2
100
AcDbSymbolTableRecord
100
AcDbLayerTableRecord
  2
166
 70
     0
 62
   166
  6
CONTINUOUS
  0
LAYER
  5
E0
330
2
100
AcDbSymbolTableRecord
100
AcDbLayerTableRecord
  2
167
 70
     0
 62
   167
  6
CONTINUOUS
  0
LAYER
  5
E1
330
2
100
AcDbSymbolTableRecord
100
AcDbLayerTableRecord
  2
168
 70
     0
 62
   168
  6
CONTINUOUS
  0
LAYER
  5
E2
330
2
100
AcDbSymbolTableRecord
100
AcDbLayerTableRecord
  2
169
 70
     0
 62
   169
  6
CONTINUOUS
  0
LAYER
  5
E3
330
2
100
AcDbSymbolTableRecord
100
AcDbLayerTableRecord
  2
170
 70
     0
 62
   170
  6
CONTINUOUS
  0
LAYER
  5
E4
330
2
100
AcDbSymbolTableRecord
100
AcDbLayerTableRecord
  2
171
 70
     0
 62
   171
  6
CONTINUOUS
  0
LAYER
  5
E5
330
2
100
AcDbSymbolTableRecord
100
AcDbLayerTableRecord
  2
172
 70
     0
 62
   172
  6
CONTINUOUS
  0
LAYER
  5
E6
330
2
100
AcDbSymbolTableRecord
100
AcDbLayerTableRecord
  2
173
 70
     0
 62
   173
  6
CONTINUOUS
  0
LAYER
  5
E7
330
2
100
AcDbSymbolTableRecord
100
AcDbLayerTableRecord
  2
174
 70
     0
 62
   174
  6
CONTINUOUS
  0
LAYER
  5
E8
330
2
100
AcDbSymbolTableRecord
100
AcDbLayerTableRecord
  2
175
 70
     0
 62
   175
  6
CONTINUOUS
  0
LAYER
  5
E9
330
2
100
AcDbSymbolTableRecord
100
AcDbLayerTableRecord
  2
176
 70
     0
 62
   176
  6
CONTINUOUS
  0
LAYER
  5
EA
330
2
100
AcDbSymbolTableRecord
100
AcDbLayerTableRecord
  2
177
 70
     0
 62
   177
  6
CONTINUOUS
  0
LAYER
  5
EB
330
2
100
AcDbSymbolTableRecord
100
AcDbLayerTableRecord
  2
178
 70
     0
 62
   178
  6
CONTINUOUS
  0
LAYER
  5
EC
330
2
100
AcDbSymbolTableRecord
100
AcDbLayerTableRecord
  2
179
 70
     0
 62
   179
  6
CONTINUOUS
  0
LAYER
  5
ED
330
2
100
AcDbSymbolTableRecord
100
AcDbLayerTableRecord
  2
180
 70
     0
 62
   180
  6
CONTINUOUS
  0
LAYER
  5
EE
330
2
100
AcDbSymbolTableRecord
100
AcDbLayerTableRecord
  2
181
 70
     0
 62
   181
  6
CONTINUOUS
  0
LAYER
  5
EF
330
2
100
AcDbSymbolTableRecord
100
AcDbLayerTableRecord
  2
182
 70
     0
 62
   182
  6
CONTINUOUS
  0
LAYER
  5
F0
330
2
100
AcDbSymbolTableRecord
100
AcDbLayerTableRecord
  2
183
 70
     0
 62
   183
  6
CONTINUOUS
  0
LAYER
  5
F1
330
2
100
AcDbSymbolTableRecord
100
AcDbLayerTableRecord
  2
184
 70
     0
 62
   184
  6
CONTINUOUS
  0
LAYER
  5
F2
330
2
100
AcDbSymbolTableRecord
100
AcDbLayerTableRecord
  2
185
 70
     0
 62
   185
  6
CONTINUOUS
  0
LAYER
  5
F3
330
2
100
AcDbSymbolTableRecord
100
AcDbLayerTableRecord
  2
186
 70
     0
 62
   186
  6
CONTINUOUS
  0
LAYER
  5
F4
330
2
100
AcDbSymbolTableRecord
100
AcDbLayerTableRecord
  2
187
 70
     0
 62
   187
  6
CONTINUOUS
  0
LAYER
  5
F5
330
2
100
AcDbSymbolTableRecord
100
AcDbLayerTableRecord
  2
188
 70
     0
 62
   188
  6
CONTINUOUS
  0
LAYER
  5
F6
330
2
100
AcDbSymbolTableRecord
100
AcDbLayerTableRecord
  2
189
 70
     0
 62
   189
  6
CONTINUOUS
  0
LAYER
  5
F7
330
2
100
AcDbSymbolTableRecord
100
AcDbLayerTableRecord
  2
190
 70
     0
 62
   190
  6
CONTINUOUS
  0
LAYER
  5
F8
330
2
100
AcDbSymbolTableRecord
100
AcDbLayerTableRecord
  2
191
 70
     0
 62
   191
  6
CONTINUOUS
  0
LAYER
  5
F9
330
2
100
AcDbSymbolTableRecord
100
AcDbLayerTableRecord
  2
192
 70
     0
 62
   192
  6
CONTINUOUS
  0
LAYER
  5
FA
330
2
100
AcDbSymbolTableRecord
100
AcDbLayerTableRecord
  2
193
 70
     0
 62
   193
  6
CONTINUOUS
  0
LAYER
  5
FB
330
2
100
AcDbSymbolTableRecord
100
AcDbLayerTableRecord
  2
194
 70
     0
 62
   194
  6
CONTINUOUS
  0
LAYER
  5
FC
330
2
100
AcDbSymbolTableRecord
100
AcDbLayerTableRecord
  2
195
 70
     0
 62
   195
  6
CONTINUOUS
  0
LAYER
  5
FD
330
2
100
AcDbSymbolTableRecord
100
AcDbLayerTableRecord
  2
196
 70
     0
 62
   196
  6
CONTINUOUS
  0
LAYER
  5
FE
330
2
100
AcDbSymbolTableRecord
100
AcDbLayerTableRecord
  2
197
 70
     0
 62
   197
  6
CONTINUOUS
  0
LAYER
  5
FF
330
2
100
AcDbSymbolTableRecord
100
AcDbLayerTableRecord
  2
198
 70
     0
 62
   198
  6
CONTINUOUS
  0
LAYER
  5
100
330
2
100
AcDbSymbolTableRecord
100
AcDbLayerTableRecord
  2
199
 70
     0
 62
   199
  6
CONTINUOUS
  0
LAYER
  5
101
330
2
100
AcDbSymbolTableRecord
100
AcDbLayerTableRecord
  2
200
 70
     0
 62
   200
  6
CONTINUOUS
  0
LAYER
  5
102
330
2
100
AcDbSymbolTableRecord
100
AcDbLayerTableRecord
  2
201
 70
     0
 62
   201
  6
CONTINUOUS
  0
LAYER
  5
103
330
2
100
AcDbSymbolTableRecord
100
AcDbLayerTableRecord
  2
202
 70
     0
 62
   202
  6
CONTINUOUS
  0
LAYER
  5
104
330
2
100
AcDbSymbolTableRecord
100
AcDbLayerTableRecord
  2
203
 70
     0
 62
   203
  6
CONTINUOUS
  0
LAYER
  5
105
330
2
100
AcDbSymbolTableRecord
100
AcDbLayerTableRecord
  2
204
 70
     0
 62
   204
  6
CONTINUOUS
  0
LAYER
  5
106
330
2
100
AcDbSymbolTableRecord
100
AcDbLayerTableRecord
  2
205
 70
     0
 62
   205
  6
CONTINUOUS
  0
LAYER
  5
107
330
2
100
AcDbSymbolTableRecord
100
AcDbLayerTableRecord
  2
206
 70
     0
 62
   206
  6
CONTINUOUS
  0
LAYER
  5
108
330
2
100
AcDbSymbolTableRecord
100
AcDbLayerTableRecord
  2
207
 70
     0
 62
   207
  6
CONTINUOUS
  0
LAYER
  5
109
330
2
100
AcDbSymbolTableRecord
100
AcDbLayerTableRecord
  2
208
 70
     0
 62
   208
  6
CONTINUOUS
  0
LAYER
  5
10A
330
2
100
AcDbSymbolTableRecord
100
AcDbLayerTableRecord
  2
209
 70
     0
 62
   209
  6
CONTINUOUS
  0
LAYER
  5
10B
330
2
100
AcDbSymbolTableRecord
100
AcDbLayerTableRecord
  2
210
 70
     0
 62
   210
  6
CONTINUOUS
  0
LAYER
  5
10C
330
2
100
AcDbSymbolTableRecord
100
AcDbLayerTableRecord
  2
211
 70
     0
 62
   211
  6
CONTINUOUS
  0
LAYER
  5
10D
330
2
100
AcDbSymbolTableRecord
100
AcDbLayerTableRecord
  2
212
 70
     0
 62
   212
  6
CONTINUOUS
  0
LAYER
  5
10E
330
2
100
AcDbSymbolTableRecord
100
AcDbLayerTableRecord
  2
213
 70
     0
 62
   213
  6
CONTINUOUS
  0
LAYER
  5
10F
330
2
100
AcDbSymbolTableRecord
100
AcDbLayerTableRecord
  2
214
 70
     0
 62
   214
  6
CONTINUOUS
  0
LAYER
  5
110
330
2
100
AcDbSymbolTableRecord
100
AcDbLayerTableRecord
  2
215
 70
     0
 62
   215
  6
CONTINUOUS
  0
LAYER
  5
111
330
2
100
AcDbSymbolTableRecord
100
AcDbLayerTableRecord
  2
216
 70
     0
 62
   216
  6
CONTINUOUS
  0
LAYER
  5
112
330
2
100
AcDbSymbolTableRecord
100
AcDbLayerTableRecord
  2
217
 70
     0
 62
   217
  6
CONTINUOUS
  0
LAYER
  5
113
330
2
100
AcDbSymbolTableRecord
100
AcDbLayerTableRecord
  2
218
 70
     0
 62
   218
  6
CONTINUOUS
  0
LAYER
  5
114
330
2
100
AcDbSymbolTableRecord
100
AcDbLayerTableRecord
  2
219
 70
     0
 62
   219
  6
CONTINUOUS
  0
LAYER
  5
115
330
2
100
AcDbSymbolTableRecord
100
AcDbLayerTableRecord
  2
220
 70
     0
 62
   220
  6
CONTINUOUS
  0
LAYER
  5
116
330
2
100
AcDbSymbolTableRecord
100
AcDbLayerTableRecord
  2
221
 70
     0
 62
   221
  6
CONTINUOUS
  0
LAYER
  5
117
330
2
100
AcDbSymbolTableRecord
100
AcDbLayerTableRecord
  2
222
 70
     0
 62
   222
  6
CONTINUOUS
  0
LAYER
  5
118
330
2
100
AcDbSymbolTableRecord
100
AcDbLayerTableRecord
  2
223
 70
     0
 62
   223
  6
CONTINUOUS
  0
LAYER
  5
119
330
2
100
AcDbSymbolTableRecord
100
AcDbLayerTableRecord
  2
224
 70
     0
 62
   224
  6
CONTINUOUS
  0
LAYER
  5
11A
330
2
100
AcDbSymbolTableRecord
100
AcDbLayerTableRecord
  2
225
 70
     0
 62
   225
  6
CONTINUOUS
  0
LAYER
  5
11B
330
2
100
AcDbSymbolTableRecord
100
AcDbLayerTableRecord
  2
226
 70
     0
 62
   226
  6
CONTINUOUS
  0
LAYER
  5
11C
330
2
100
AcDbSymbolTableRecord
100
AcDbLayerTableRecord
  2
227
 70
     0
 62
   227
  6
CONTINUOUS
  0
LAYER
  5
11D
330
2
100
AcDbSymbolTableRecord
100
AcDbLayerTableRecord
  2
228
 70
     0
 62
   228
  6
CONTINUOUS
  0
LAYER
  5
11E
330
2
100
AcDbSymbolTableRecord
100
AcDbLayerTableRecord
  2
229
 70
     0
 62
   229
  6
CONTINUOUS
  0
LAYER
  5
11F
330
2
100
AcDbSymbolTableRecord
100
AcDbLayerTableRecord
  2
230
 70
     0
 62
   230
  6
CONTINUOUS
  0
LAYER
  5
120
330
2
100
AcDbSymbolTableRecord
100
AcDbLayerTableRecord
  2
231
 70
     0
 62
   231
  6
CONTINUOUS
  0
LAYER
  5
121
330
2
100
AcDbSymbolTableRecord
100
AcDbLayerTableRecord
  2
232
 70
     0
 62
   232
  6
CONTINUOUS
  0
LAYER
  5
122
330
2
100
AcDbSymbolTableRecord
100
AcDbLayerTableRecord
  2
233
 70
     0
 62
   233
  6
CONTINUOUS
  0
LAYER
  5
123
330
2
100
AcDbSymbolTableRecord
100
AcDbLayerTableRecord
  2
234
 70
     0
 62
   234
  6
CONTINUOUS
  0
LAYER
  5
124
330
2
100
AcDbSymbolTableRecord
100
AcDbLayerTableRecord
  2
235
 70
     0
 62
   235
  6
CONTINUOUS
  0
LAYER
  5
125
330
2
100
AcDbSymbolTableRecord
100
AcDbLayerTableRecord
  2
236
 70
     0
 62
   236
  6
CONTINUOUS
  0
LAYER
  5
126
330
2
100
AcDbSymbolTableRecord
100
AcDbLayerTableRecord
  2
237
 70
     0
 62
   237
  6
CONTINUOUS
  0
LAYER
  5
127
330
2
100
AcDbSymbolTableRecord
100
AcDbLayerTableRecord
  2
238
 70
     0
 62
   238
  6
CONTINUOUS
  0
LAYER
  5
128
330
2
100
AcDbSymbolTableRecord
100
AcDbLayerTableRecord
  2
239
 70
     0
 62
   239
  6
CONTINUOUS
  0
LAYER
  5
129
330
2
100
AcDbSymbolTableRecord
100
AcDbLayerTableRecord
  2
240
 70
     0
 62
   240
  6
CONTINUOUS
  0
LAYER
  5
12A
330
2
100
AcDbSymbolTableRecord
100
AcDbLayerTableRecord
  2
241
 70
     0
 62
   241
  6
CONTINUOUS
  0
LAYER
  5
12B
330
2
100
AcDbSymbolTableRecord
100
AcDbLayerTableRecord
  2
242
 70
     0
 62
   242
  6
CONTINUOUS
  0
LAYER
  5
12C
330
2
100
AcDbSymbolTableRecord
100
AcDbLayerTableRecord
  2
243
 70
     0
 62
   243
  6
CONTINUOUS
  0
LAYER
  5
12D
330
2
100
AcDbSymbolTableRecord
100
AcDbLayerTableRecord
  2
244
 70
     0
 62
   244
  6
CONTINUOUS
  0
LAYER
  5
12E
330
2
100
AcDbSymbolTableRecord
100
AcDbLayerTableRecord
  2
245
 70
     0
 62
   245
  6
CONTINUOUS
  0
LAYER
  5
12F
330
2
100
AcDbSymbolTableRecord
100
AcDbLayerTableRecord
  2
246
 70
     0
 62
   246
  6
CONTINUOUS
  0
LAYER
  5
130
330
2
100
AcDbSymbolTableRecord
100
AcDbLayerTableRecord
  2
247
 70
     0
 62
   247
  6
CONTINUOUS
  0
LAYER
  5
131
330
2
100
AcDbSymbolTableRecord
100
AcDbLayerTableRecord
  2
248
 70
     0
 62
   248
  6
CONTINUOUS
  0
LAYER
  5
132
330
2
100
AcDbSymbolTableRecord
100
AcDbLayerTableRecord
  2
249
 70
     0
 62
   249
  6
CONTINUOUS
  0
LAYER
  5
133
330
2
100
AcDbSymbolTableRecord
100
AcDbLayerTableRecord
  2
250
 70
     0
 62
   250
  6
CONTINUOUS
  0
LAYER
  5
134
330
2
100
AcDbSymbolTableRecord
100
AcDbLayerTableRecord
  2
251
 70
     0
 62
   251
  6
CONTINUOUS
  0
LAYER
  5
135
330
2
100
AcDbSymbolTableRecord
100
AcDbLayerTableRecord
  2
252
 70
     0
 62
   252
  6
CONTINUOUS
  0
LAYER
  5
136
330
2
100
AcDbSymbolTableRecord
100
AcDbLayerTableRecord
  2
253
 70
     0
 62
   253
  6
CONTINUOUS
  0
LAYER
  5
137
330
2
100
AcDbSymbolTableRecord
100
AcDbLayerTableRecord
  2
254
 70
     0
 62
   254
  6
CONTINUOUS
  0
LAYER
  5
138
330
2
100
AcDbSymbolTableRecord
100
AcDbLayerTableRecord
  2
255
 70
     0
 62
   255
  6
CONTINUOUS
  0
LAYER
  5
552B
330
2
100
AcDbSymbolTableRecord
100
AcDbLayerTableRecord
  2
DEFPOINTS
 70
     0
 62
     7
  6
CONTINUOUS
  0
ENDTAB
  0
TABLE
  2
STYLE
  5
3
330
0
100
AcDbSymbolTable
 70
     1
  0
STYLE
  5
11
330
3
100
AcDbSymbolTableRecord
100
AcDbTextStyleTableRecord
  2
STANDARD
 70
     0
 40
0.0
 41
1.0
 50
0.0
 71
     0
 42
0.2
  3
monotxt
  4

  0
ENDTAB
  0
TABLE
  2
VIEW
  5
6
330
0
100
AcDbSymbolTable
 70
     0
  0
ENDTAB
  0
TABLE
  2
UCS
  5
7
330
0
100
AcDbSymbolTable
 70
     0
  0
ENDTAB
  0
TABLE
  2
APPID
  5
9
330
0
100
AcDbSymbolTable
 70
     1
  0
APPID
  5
12
330
9
100
AcDbSymbolTableRecord
100
AcDbRegAppTableRecord
  2
ACAD
 70
     0
  0
ENDTAB
  0
TABLE
  2
DIMSTYLE
  5
A
330
0
100
AcDbSymbolTable
 70
     1
  0
DIMSTYLE
105
3C67
330
A
100
AcDbSymbolTableRecord
100
AcDbDimStyleTableRecord
  2
STANDARD
 70
     0
  3

  4

  5

  6

  7

 40
1.0
 41
0.18
 42
0.0625
 43
0.38
 44
0.18
 45
0.0
 46
0.0
 47
0.0
 48
0.0
140
0.18
141
0.09
142
0.0
143
25.4
144
1.0
145
0.0
146
1.0
147
0.09
 71
     0
 72
     0
 73
     1
 74
     1
 75
     0
 76
     0
 77
     0
 78
     0
170
     0
171
     2
172
     0
173
     0
174
     0
175
     0
176
     0
177
     0
178
     0
270
     2
271
     4
272
     4
273
     2
274
     2
340
11
275
     0
280
     0
281
     0
282
     0
283
     1
284
     0
285
     0
286
     0
287
     3
288
     0
  0
ENDTAB
  0
TABLE
  2
BLOCK_RECORD
  5
1
330
0
100
AcDbSymbolTable
 70
     1
  0
BLOCK_RECORD
  5
1E
102
{ACAD_XDICTIONARY
360
553A
102
}
330
1
100
AcDbSymbolTableRecord
100
AcDbBlockTableRecord
  2
*MODEL_SPACE
  0
BLOCK_RECORD
  5
1A
102
{ACAD_XDICTIONARY
360
553C
102
}
330
1
100
AcDbSymbolTableRecord
100
AcDbBlockTableRecord
  2
*PAPER_SPACE
  0
ENDTAB
  0
ENDSEC
  0
SECTION
  2
BLOCKS
  0
BLOCK
  5
13B
330
1E
100
AcDbEntity
  8
0
100
AcDbBlockBegin
  2
*MODEL_SPACE
 70
     0
 10
0.0
 20
0.0
 30
0.0
  3
*MODEL_SPACE
  1

  0
ENDBLK
  5
13C
330
1E
100
AcDbEntity
  8
0
100
AcDbBlockEnd
  0
BLOCK
  5
139
330
1A
100
AcDbEntity
 67
     1
  8
0
100
AcDbBlockBegin
  2
*PAPER_SPACE
 70
     0
 10
0.0
 20
0.0
 30
0.0
  3
*PAPER_SPACE
  1

  0
ENDBLK
  5
13A
330
1A
100
AcDbEntity
 67
     1
  8
0
100
AcDbBlockEnd
  0
ENDSEC
  0
SECTION
  2
ENTITIES
  0
LINE
  5
28EA
330
1E
100
AcDbEntity
  8
7
100
AcDbLine
 10
3.081019994094487
 20
3.870948999994483
 30
0.0
 11
3.081019994094487
 21
3.860450248025979
 31
0.0
  0
LINE
  5
28EB
330
1E
100
AcDbEntity
  8
7
100
AcDbLine
 10
2.927475746555118
 20
3.870948999994483
 30
0.0
 11
2.934037466535432
 21
3.870948999994483
 31
0.0
  0
LINE
  5
28EC
330
1E
100
AcDbEntity
  8
7
100
AcDbLine
 10
3.074458274114173
 20
3.870948999994483
 30
0.0
 11
3.081019994094487
 21
3.870948999994483
 31
0.0
  0
LINE
  5
28ED
330
1E
100
AcDbEntity
  8
7
100
AcDbLine
 10
2.927475746555118
 20
3.860450248025979
 30
0.0
 11
2.927475746555118
 21
3.870948999994483
 31
0.0
  0
LINE
  5
28EE
330
1E
100
AcDbEntity
  8
7
100
AcDbLine
 10
3.479972568897637
 20
3.890634159935428
 30
0.0
 11
3.42879115305118
 21
3.890634159935428
 31
0.0
  0
LINE
  5
28EF
330
1E
100
AcDbEntity
  8
7
100
AcDbLine
 10
3.487846632874014
 20
3.898508223911805
 30
0.0
 11
3.479972568897637
 21
3.890634159935428
 31
0.0
  0
LINE
  5
28F0
330
1E
100
AcDbEntity
  8
7
100
AcDbLine
 10
3.235876585629921
 20
3.890634159935428
 30
0.0
 11
3.228002521653543
 21
3.898508223911805
 31
0.0
  0
LINE
  5
28F1
330
1E
100
AcDbEntity
  8
7
100
AcDbLine
 10
3.28837034547244
 20
3.890634159935428
 30
0.0
 11
3.235876585629921
 21
3.890634159935428
 31
0.0
  0
LINE
  5
290B
330
1E
100
AcDbEntity
  8
7
100
AcDbLine
 10
3.217503769685039
 20
6.645244207671649
 30
0.0
 11
3.166322353838582
 21
6.645244207671649
 31
0.0
  0
LINE
  5
290C
330
1E
100
AcDbEntity
  8
7
100
AcDbLine
 10
3.166322353838582
 20
6.645244207671649
 30
0.0
 11
3.158448289862204
 21
6.63737014369527
 31
0.0
  0
LINE
  5
291C
330
1E
100
AcDbEntity
  8
7
100
AcDbLine
 10
2.923538714566928
 20
3.89588353591968
 30
0.0
 11
2.923538714566928
 21
3.873573687986609
 31
0.0
  0
LINE
  5
291D
330
1E
100
AcDbEntity
  8
7
100
AcDbLine
 10
3.084957026082677
 20
3.873573687986609
 30
0.0
 11
3.084957026082677
 21
3.89588353591968
 31
0.0
  0
LINE
  5
2925
330
1E
100
AcDbEntity
  8
7
100
AcDbLine
 10
3.583647744586613
 20
3.411628601372436
 30
0.0
 11
3.583647744586613
 21
3.84338977607716
 31
0.0
  0
LINE
  5
292C
330
1E
100
AcDbEntity
  8
7
100
AcDbLine
 10
0.6426848494094486
 20
3.381444689462987
 30
0.0
 11
3.553463832677164
 21
3.381444689462987
 31
0.0
  0
LINE
  5
2937
330
1E
100
AcDbEntity
  8
7
100
AcDbLine
 10
1.111191656003936
 20
3.873573687986609
 30
0.0
 11
0.6426848494094486
 21
3.873573687986609
 31
0.0
  0
LINE
  5
2938
330
1E
100
AcDbEntity
  8
7
100
AcDbLine
 10
1.111191656003936
 20
3.873573687986609
 30
0.0
 11
1.111191656003936
 21
3.89588353591968
 31
0.0
  0
LINE
  5
2939
330
1E
100
AcDbEntity
  8
7
100
AcDbLine
 10
1.111191656003936
 20
6.639994831687397
 30
0.0
 11
1.111191656003936
 21
6.662304679620468
 31
0.0
  0
LINE
  5
293A
330
1E
100
AcDbEntity
  8
7
100
AcDbLine
 10
0.6426848494094486
 20
6.662304679620468
 30
0.0
 11
1.111191656003936
 21
6.662304679620468
 31
0.0
  0
LINE
  5
2950
330
1E
100
AcDbEntity
  8
7
100
AcDbLine
 10
3.084957026082677
 20
6.662304679620468
 30
0.0
 11
3.553463832677164
 21
6.662304679620468
 31
0.0
  0
LINE
  5
2951
330
1E
100
AcDbEntity
  8
7
100
AcDbLine
 10
3.084957026082677
 20
6.662304679620468
 30
0.0
 11
3.084957026082677
 21
6.639994831687397
 31
0.0
  0
LINE
  5
2952
330
1E
100
AcDbEntity
  8
7
100
AcDbLine
 10
2.923538714566928
 20
6.639994831687397
 30
0.0
 11
2.923538714566928
 21
6.662304679620468
 31
0.0
  0
LINE
  5
2953
330
1E
100
AcDbEntity
  8
7
100
AcDbLine
 10
1.272609967519684
 20
6.662304679620468
 30
0.0
 11
2.923538714566928
 21
6.662304679620468
 31
0.0
  0
LINE
  5
2954
330
1E
100
AcDbEntity
  8
7
100
AcDbLine
 10
1.272609967519684
 20
6.662304679620468
 30
0.0
 11
1.272609967519684
 21
6.639994831687397
 31
0.0
  0
LINE
  5
2955
330
1E
100
AcDbEntity
  8
7
100
AcDbLine
 10
3.411730681102361
 20
6.596687479817317
 30
0.0
 11
3.410418337106297
 21
6.596687479817317
 31
0.0
  0
LINE
  5
2967
330
1E
100
AcDbEntity
  8
7
100
AcDbLine
 10
1.031138672244093
 20
6.596687479817317
 30
0.0
 11
1.029826328248031
 21
6.596687479817317
 31
0.0
  0
LINE
  5
297A
330
1E
100
AcDbEntity
  8
7
100
AcDbLine
 10
1.217491519685038
 20
5.545499938970861
 30
0.0
 11
1.217491519685038
 21
5.536313530998421
 31
0.0
  0
LINE
  5
297B
330
1E
100
AcDbEntity
  8
7
100
AcDbLine
 10
1.217491519685038
 20
5.545499938970861
 30
0.0
 11
1.208305111712597
 21
5.545499938970861
 31
0.0
  0
LINE
  5
297C
330
1E
100
AcDbEntity
  8
7
100
AcDbLine
 10
2.987843570374015
 20
5.545499938970861
 30
0.0
 11
2.978657162401574
 21
5.545499938970861
 31
0.0
  0
LINE
  5
297D
330
1E
100
AcDbEntity
  8
7
100
AcDbLine
 10
2.978657162401574
 20
5.536313530998421
 30
0.0
 11
2.978657162401574
 21
5.545499938970861
 31
0.0
  0
LINE
  5
297E
330
1E
100
AcDbEntity
  8
7
100
AcDbLine
 10
2.487840507874015
 20
5.545499938970861
 30
0.0
 11
2.487840507874015
 21
5.536313530998421
 31
0.0
  0
LINE
  5
297F
330
1E
100
AcDbEntity
  8
7
100
AcDbLine
 10
2.487840507874015
 20
5.545499938970861
 30
0.0
 11
2.478654099901574
 21
5.545499938970861
 31
0.0
  0
LINE
  5
2980
330
1E
100
AcDbEntity
  8
7
100
AcDbLine
 10
1.717494582185039
 20
5.545499938970861
 30
0.0
 11
1.708308174212597
 21
5.545499938970861
 31
0.0
  0
LINE
  5
2981
330
1E
100
AcDbEntity
  8
7
100
AcDbLine
 10
1.708308174212597
 20
5.536313530998421
 30
0.0
 11
1.708308174212597
 21
5.545499938970861
 31
0.0
  0
LINE
  5
2982
330
1E
100
AcDbEntity
  8
7
100
AcDbLine
 10
1.217491519685038
 20
4.395886598419679
 30
0.0
 11
1.217491519685038
 21
4.385387846451176
 31
0.0
  0
LINE
  5
2983
330
1E
100
AcDbEntity
  8
7
100
AcDbLine
 10
1.217491519685038
 20
4.395886598419679
 30
0.0
 11
1.208305111712597
 21
4.395886598419679
 31
0.0
  0
LINE
  5
2984
330
1E
100
AcDbEntity
  8
7
100
AcDbLine
 10
2.987843570374015
 20
4.395886598419679
 30
0.0
 11
2.978657162401574
 21
4.395886598419679
 31
0.0
  0
LINE
  5
2985
330
1E
100
AcDbEntity
  8
7
100
AcDbLine
 10
2.978657162401574
 20
4.385387846451176
 30
0.0
 11
2.978657162401574
 21
4.395886598419679
 31
0.0
  0
LINE
  5
2986
330
1E
100
AcDbEntity
  8
7
100
AcDbLine
 10
2.487840507874015
 20
4.395886598419679
 30
0.0
 11
2.487840507874015
 21
4.385387846451176
 31
0.0
  0
LINE
  5
2987
330
1E
100
AcDbEntity
  8
7
100
AcDbLine
 10
2.487840507874015
 20
4.395886598419679
 30
0.0
 11
2.478654099901574
 21
4.395886598419679
 31
0.0
  0
LINE
  5
2988
330
1E
100
AcDbEntity
  8
7
100
AcDbLine
 10
1.717494582185039
 20
4.395886598419679
 30
0.0
 11
1.708308174212597
 21
4.395886598419679
 31
0.0
  0
LINE
  5
2989
330
1E
100
AcDbEntity
  8
7
100
AcDbLine
 10
1.708308174212597
 20
4.385387846451176
 30
0.0
 11
1.708308174212597
 21
4.395886598419679
 31
0.0
  0
LINE
  5
298A
330
1E
100
AcDbEntity
  8
7
100
AcDbLine
 10
3.481284912893699
 20
3.940503231785822
 30
0.0
 11
3.479972568897637
 21
3.940503231785822
 31
0.0
  0
LINE
  5
2990
330
1E
100
AcDbEntity
  8
7
100
AcDbLine
 10
3.497033040846456
 20
3.894571191923617
 30
0.0
 11
3.497033040846456
 21
3.923442759837002
 31
0.0
  0
LINE
  5
2996
330
1E
100
AcDbEntity
  8
7
100
AcDbLine
 10
3.234564241633858
 20
3.877510719974798
 30
0.0
 11
3.481284912893699
 21
3.877510719974798
 31
0.0
  0
LINE
  5
299C
330
1E
100
AcDbEntity
  8
7
100
AcDbLine
 10
3.218816113681102
 20
3.923442759837002
 30
0.0
 11
3.218816113681102
 21
3.894571191923617
 31
0.0
  0
LINE
  5
29A2
330
1E
100
AcDbEntity
  8
7
100
AcDbLine
 10
3.235876585629921
 20
3.940503231785822
 30
0.0
 11
3.234564241633858
 21
3.940503231785822
 31
0.0
  0
LINE
  5
29B5
330
1E
100
AcDbEntity
  8
7
100
AcDbLine
 10
-0.1722807721456698
 20
3.015300714561412
 30
0.0
 11
4.368429454232282
 21
3.015300714561412
 31
0.0
  0
LINE
  5
29BC
330
1E
100
AcDbEntity
  8
7
100
AcDbLine
 10
-0.2024646840551192
 20
7.491706085132278
 30
0.0
 11
-0.2024646840551192
 21
3.045484626470861
 31
0.0
  0
LINE
  5
29CB
330
1E
100
AcDbEntity
  8
7
100
AcDbLine
 10
-0.2024646840551192
 20
3.045484626470861
 30
0.0
 11
-0.1998399960629928
 21
3.048109314462986
 31
0.0
  0
LINE
  5
29CC
330
1E
100
AcDbEntity
  8
7
100
AcDbLine
 10
-0.1998399960629928
 20
7.48776905314409
 30
0.0
 11
-0.2024646840551192
 21
7.491706085132278
 31
0.0
  0
LINE
  5
29CD
330
1E
100
AcDbEntity
  8
7
100
AcDbLine
 10
4.395988678149605
 20
3.048109314462986
 30
0.0
 11
4.398613366141731
 21
3.045484626470861
 31
0.0
  0
LINE
  5
29CE
330
1E
100
AcDbEntity
  8
7
100
AcDbLine
 10
4.398613366141731
 20
7.491706085132278
 30
0.0
 11
4.395988678149605
 21
7.48776905314409
 31
0.0
  0
LINE
  5
29CF
330
1E
100
AcDbEntity
  8
7
100
AcDbLine
 10
4.365804766240156
 20
7.517952965053538
 30
0.0
 11
4.368429454232282
 21
7.520577653045664
 31
0.0
  0
LINE
  5
29D0
330
1E
100
AcDbEntity
  8
7
100
AcDbLine
 10
-0.1722807721456698
 20
7.520577653045664
 30
0.0
 11
-0.1696560841535435
 21
7.517952965053538
 31
0.0
  0
LINE
  5
29D1
330
1E
100
AcDbEntity
  8
7
100
AcDbLine
 10
0.6951786092519683
 20
7.104564606293696
 30
0.0
 11
0.6964909532480315
 21
7.104564606293696
 31
0.0
  0
LINE
  5
29D7
330
1E
100
AcDbEntity
  8
7
100
AcDbLine
 10
0.7056773612204728
 20
7.1150633582622
 30
0.0
 11
0.7056773612204728
 21
7.113751014266137
 31
0.0
  0
LINE
  5
29E2
330
1E
100
AcDbEntity
  8
7
100
AcDbLine
 10
0.6951786092519683
 20
7.104564606293696
 30
0.0
 11
0.6951786092519683
 21
6.712173751470862
 31
0.0
  0
LINE
  5
29F2
330
1E
100
AcDbEntity
  8
7
100
AcDbLine
 10
0.7450476811023617
 20
6.702987343498421
 30
0.0
 11
0.7056773612204728
 21
6.702987343498421
 31
0.0
  0
LINE
  5
29F8
330
1E
100
AcDbEntity
  8
7
100
AcDbLine
 10
0.7463600250984248
 20
7.113751014266137
 30
0.0
 11
0.7463600250984248
 21
6.704299687494483
 31
0.0
  0
LINE
  5
29F9
330
1E
100
AcDbEntity
  8
7
100
AcDbLine
 10
0.7463600250984248
 20
6.704299687494483
 30
0.0
 11
0.7450476811023617
 21
6.702987343498421
 31
0.0
  0
LINE
  5
29FA
330
1E
100
AcDbEntity
  8
7
100
AcDbLine
 10
1.109879312007874
 20
6.702987343498421
 30
0.0
 11
1.112503999999999
 21
6.704299687494483
 31
0.0
  0
LINE
  5
29FB
330
1E
100
AcDbEntity
  8
7
100
AcDbLine
 10
0.7463600250984248
 20
6.704299687494483
 30
0.0
 11
1.112503999999999
 21
6.704299687494483
 31
0.0
  0
LINE
  5
29FC
330
1E
100
AcDbEntity
  8
7
100
AcDbLine
 10
0.7056773612204728
 20
6.702987343498421
 30
0.0
 11
1.109879312007874
 21
6.702987343498421
 31
0.0
  0
LINE
  5
29FD
330
1E
100
AcDbEntity
  8
7
100
AcDbLine
 10
1.112503999999999
 20
6.704299687494483
 30
0.0
 11
1.112503999999999
 21
6.758105791333065
 31
0.0
  0
LINE
  5
2A0B
330
1E
100
AcDbEntity
  8
7
100
AcDbLine
 10
1.073133680118109
 20
6.769916887297633
 30
0.0
 11
1.112503999999999
 21
6.759418135329129
 31
0.0
  0
LINE
  5
2A0C
330
1E
100
AcDbEntity
  8
7
100
AcDbLine
 10
1.251612463582676
 20
7.059944910427553
 30
0.0
 11
1.132189159940944
 21
7.059944910427553
 31
0.0
  0
LINE
  5
2A35
330
1E
100
AcDbEntity
  8
7
100
AcDbLine
 10
3.063959522145669
 20
7.059944910427553
 30
0.0
 11
2.944536218503936
 21
7.059944910427553
 31
0.0
  0
LINE
  5
2A49
330
1E
100
AcDbEntity
  8
7
100
AcDbLine
 10
3.449788656988188
 20
6.704299687494483
 30
0.0
 11
3.449788656988188
 21
7.113751014266137
 31
0.0
  0
LINE
  5
2A4A
330
1E
100
AcDbEntity
  8
7
100
AcDbLine
 10
0.7463600250984248
 20
7.113751014266137
 30
0.0
 11
3.449788656988188
 21
7.113751014266137
 31
0.0
  0
LINE
  5
2A50
330
1E
100
AcDbEntity
  8
7
100
AcDbLine
 10
1.109879312007874
 20
6.66361702361653
 30
0.0
 11
1.111191656003936
 21
6.662304679620468
 31
0.0
  0
LINE
  5
2A56
330
1E
100
AcDbEntity
  8
7
100
AcDbLine
 10
0.6125009375000002
 20
6.693800935525979
 30
0.0
 11
0.617750313484252
 21
6.678052807573223
 31
0.0
  0
LINE
  5
2A5C
330
1E
100
AcDbEntity
  8
7
100
AcDbLine
 10
1.109879312007874
 20
6.702987343498421
 30
0.0
 11
1.109879312007874
 21
6.66361702361653
 31
0.0
  0
LINE
  5
2A5D
330
1E
100
AcDbEntity
  8
7
100
AcDbLine
 10
0.7056773612204728
 20
7.1150633582622
 30
0.0
 11
3.490471320866141
 21
7.1150633582622
 31
0.0
  0
LINE
  5
2A63
330
1E
100
AcDbEntity
  8
7
100
AcDbLine
 10
3.500970072834645
 20
7.104564606293696
 30
0.0
 11
3.500970072834645
 21
6.712173751470862
 31
0.0
  0
LINE
  5
2A69
330
1E
100
AcDbEntity
  8
7
100
AcDbLine
 10
3.086269370078739
 20
6.702987343498421
 30
0.0
 11
3.490471320866141
 21
6.702987343498421
 31
0.0
  0
LINE
  5
2A6A
330
1E
100
AcDbEntity
  8
7
100
AcDbLine
 10
3.086269370078739
 20
6.702987343498421
 30
0.0
 11
3.086269370078739
 21
6.66361702361653
 31
0.0
  0
LINE
  5
2A6B
330
1E
100
AcDbEntity
  8
7
100
AcDbLine
 10
3.552151488681102
 20
6.66361702361653
 30
0.0
 11
3.086269370078739
 21
6.66361702361653
 31
0.0
  0
LINE
  5
2A71
330
1E
100
AcDbEntity
  8
7
100
AcDbLine
 10
3.578398368602361
 20
6.678052807573223
 30
0.0
 11
3.58233540059055
 21
6.693800935525979
 31
0.0
  0
LINE
  5
2A72
330
1E
100
AcDbEntity
  8
7
100
AcDbLine
 10
3.58233540059055
 20
7.12424976623464
 30
0.0
 11
3.58233540059055
 21
6.693800935525979
 31
0.0
  0
LINE
  5
2A84
330
1E
100
AcDbEntity
  8
7
100
AcDbLine
 10
3.490471320866141
 20
7.1150633582622
 30
0.0
 11
3.490471320866141
 21
7.113751014266137
 31
0.0
  0
LINE
  5
2A8A
330
1E
100
AcDbEntity
  8
7
100
AcDbLine
 10
1.271297623523621
 20
6.704299687494483
 30
0.0
 11
1.273922311515748
 21
6.702987343498421
 31
0.0
  0
LINE
  5
2A8B
330
1E
100
AcDbEntity
  8
7
100
AcDbLine
 10
2.922226370570865
 20
6.66361702361653
 30
0.0
 11
1.273922311515748
 21
6.66361702361653
 31
0.0
  0
LINE
  5
2A8C
330
1E
100
AcDbEntity
  8
7
100
AcDbLine
 10
2.922226370570865
 20
6.702987343498421
 30
0.0
 11
2.922226370570865
 21
6.66361702361653
 31
0.0
  0
LINE
  5
2A8D
330
1E
100
AcDbEntity
  8
7
100
AcDbLine
 10
1.273922311515748
 20
6.702987343498421
 30
0.0
 11
1.273922311515748
 21
6.66361702361653
 31
0.0
  0
LINE
  5
2A8E
330
1E
100
AcDbEntity
  8
7
100
AcDbLine
 10
2.922226370570865
 20
6.66361702361653
 30
0.0
 11
2.923538714566928
 21
6.662304679620468
 31
0.0
  0
LINE
  5
2A8F
330
1E
100
AcDbEntity
  8
7
100
AcDbLine
 10
1.272609967519684
 20
6.662304679620468
 30
0.0
 11
1.273922311515748
 21
6.66361702361653
 31
0.0
  0
LINE
  5
2AA1
330
1E
100
AcDbEntity
  8
7
100
AcDbLine
 10
1.115128687992125
 20
6.759418135329129
 30
0.0
 11
1.115128687992125
 21
6.832909399108657
 31
0.0
  0
LINE
  5
2AAC
330
1E
100
AcDbEntity
  8
7
100
AcDbLine
 10
1.251612463582676
 20
6.986453646648026
 30
0.0
 11
1.132189159940944
 21
6.986453646648026
 31
0.0
  0
LINE
  5
2AB7
330
1E
100
AcDbEntity
  8
7
100
AcDbLine
 10
1.267360591535432
 20
6.832909399108657
 30
0.0
 11
1.267360591535432
 21
6.759418135329129
 31
0.0
  0
LINE
  5
2AC6
330
1E
100
AcDbEntity
  8
7
100
AcDbLine
 10
1.251612463582676
 20
7.058632566431491
 30
0.0
 11
1.132189159940944
 21
7.058632566431491
 31
0.0
  0
LINE
  5
2AC7
330
1E
100
AcDbEntity
  8
7
100
AcDbLine
 10
1.267360591535432
 20
6.759418135329129
 30
0.0
 11
1.271297623523621
 21
6.758105791333065
 31
0.0
  0
LINE
  5
2AC8
330
1E
100
AcDbEntity
  8
7
100
AcDbLine
 10
1.251612463582676
 20
7.059944910427553
 30
0.0
 11
1.251612463582676
 21
7.058632566431491
 31
0.0
  0
LINE
  5
2AC9
330
1E
100
AcDbEntity
  8
7
100
AcDbLine
 10
1.132189159940944
 20
7.058632566431491
 30
0.0
 11
1.132189159940944
 21
7.059944910427553
 31
0.0
  0
LINE
  5
2ACA
330
1E
100
AcDbEntity
  8
7
100
AcDbLine
 10
1.112503999999999
 20
6.758105791333065
 30
0.0
 11
1.115128687992125
 21
6.759418135329129
 31
0.0
  0
LINE
  5
2AD0
330
1E
100
AcDbEntity
  8
7
100
AcDbLine
 10
1.115128687992125
 20
6.685926871549602
 30
0.0
 11
1.116441031988188
 21
6.687239215545664
 31
0.0
  0
LINE
  5
2AD1
330
1E
100
AcDbEntity
  8
7
100
AcDbLine
 10
1.267360591535432
 20
6.687239215545664
 30
0.0
 11
1.268672935531496
 21
6.685926871549602
 31
0.0
  0
LINE
  5
2AE8
330
1E
100
AcDbEntity
  8
7
100
AcDbLine
 10
1.084944776082676
 20
6.848657527061412
 30
0.0
 11
1.297544503444881
 21
6.848657527061412
 31
0.0
  0
LINE
  5
2AE9
330
1E
100
AcDbEntity
  8
7
100
AcDbLine
 10
1.084944776082676
 20
6.968080830703145
 30
0.0
 11
1.297544503444881
 21
6.968080830703145
 31
0.0
  0
LINE
  5
2AEA
330
1E
100
AcDbEntity
  8
7
100
AcDbLine
 10
1.28835809547244
 20
6.840783463085034
 30
0.0
 11
1.09544352805118
 21
6.840783463085034
 31
0.0
  0
LINE
  5
2AEB
330
1E
100
AcDbEntity
  8
7
100
AcDbLine
 10
1.297544503444881
 20
6.848657527061412
 30
0.0
 11
1.28835809547244
 21
6.840783463085034
 31
0.0
  0
LINE
  5
2AEC
330
1E
100
AcDbEntity
  8
7
100
AcDbLine
 10
1.09544352805118
 20
6.840783463085034
 30
0.0
 11
1.084944776082676
 21
6.848657527061412
 31
0.0
  0
LINE
  5
2AED
330
1E
100
AcDbEntity
  8
7
100
AcDbLine
 10
1.28835809547244
 20
6.975954894679523
 30
0.0
 11
1.09544352805118
 21
6.975954894679523
 31
0.0
  0
LINE
  5
2AF3
330
1E
100
AcDbEntity
  8
7
100
AcDbLine
 10
1.251612463582676
 20
6.985141302651964
 30
0.0
 11
1.132189159940944
 21
6.985141302651964
 31
0.0
  0
LINE
  5
2AF9
330
1E
100
AcDbEntity
  8
7
100
AcDbLine
 10
1.28835809547244
 20
6.975954894679523
 30
0.0
 11
1.297544503444881
 21
6.968080830703145
 31
0.0
  0
LINE
  5
2AFA
330
1E
100
AcDbEntity
  8
7
100
AcDbLine
 10
1.084944776082676
 20
6.968080830703145
 30
0.0
 11
1.09544352805118
 21
6.975954894679523
 31
0.0
  0
LINE
  5
2B00
330
1E
100
AcDbEntity
  8
7
100
AcDbLine
 10
1.251612463582676
 20
6.831597055112593
 30
0.0
 11
1.132189159940944
 21
6.831597055112593
 31
0.0
  0
LINE
  5
2B0C
330
1E
100
AcDbEntity
  8
7
100
AcDbLine
 10
1.318542007381889
 20
6.941833950781886
 30
0.0
 11
1.297544503444881
 21
6.968080830703145
 31
0.0
  0
LINE
  5
2B19
330
1E
100
AcDbEntity
  8
7
100
AcDbLine
 10
1.267360591535432
 20
6.83422174310472
 30
0.0
 11
1.267360591535432
 21
6.832909399108657
 31
0.0
  0
LINE
  5
2B1A
330
1E
100
AcDbEntity
  8
7
100
AcDbLine
 10
1.251612463582676
 20
6.986453646648026
 30
0.0
 11
1.251612463582676
 21
6.985141302651964
 31
0.0
  0
LINE
  5
2B1B
330
1E
100
AcDbEntity
  8
7
100
AcDbLine
 10
1.132189159940944
 20
6.986453646648026
 30
0.0
 11
1.132189159940944
 21
6.985141302651964
 31
0.0
  0
LINE
  5
2B1C
330
1E
100
AcDbEntity
  8
7
100
AcDbLine
 10
1.115128687992125
 20
6.832909399108657
 30
0.0
 11
1.116441031988188
 21
6.83422174310472
 31
0.0
  0
LINE
  5
2B22
330
1E
100
AcDbEntity
  8
7
100
AcDbLine
 10
1.132189159940944
 20
6.831597055112593
 30
0.0
 11
1.251612463582676
 21
6.831597055112593
 31
0.0
  0
LINE
  5
2B23
330
1E
100
AcDbEntity
  8
7
100
AcDbLine
 10
1.112503999999999
 20
6.66361702361653
 30
0.0
 11
1.115128687992125
 21
6.666241711608657
 31
0.0
  0
LINE
  5
2B24
330
1E
100
AcDbEntity
  8
7
100
AcDbLine
 10
1.112503999999999
 20
6.66361702361653
 30
0.0
 11
1.12169040797244
 21
6.66361702361653
 31
0.0
  0
LINE
  5
2B2A
330
1E
100
AcDbEntity
  8
7
100
AcDbLine
 10
1.267360591535432
 20
6.83422174310472
 30
0.0
 11
1.267360591535432
 21
6.687239215545664
 31
0.0
  0
LINE
  5
2B35
330
1E
100
AcDbEntity
  8
7
100
AcDbLine
 10
1.116441031988188
 20
6.83422174310472
 30
0.0
 11
1.116441031988188
 21
6.687239215545664
 31
0.0
  0
LINE
  5
2B3B
330
1E
100
AcDbEntity
  8
7
100
AcDbLine
 10
3.083644682086613
 20
6.704299687494483
 30
0.0
 11
3.086269370078739
 21
6.702987343498421
 31
0.0
  0
LINE
  5
2B3C
330
1E
100
AcDbEntity
  8
7
100
AcDbLine
 10
3.490471320866141
 20
6.702987343498421
 30
0.0
 11
3.45110100098425
 21
6.702987343498421
 31
0.0
  0
LINE
  5
2B3D
330
1E
100
AcDbEntity
  8
7
100
AcDbLine
 10
3.553463832677164
 20
6.662304679620468
 30
0.0
 11
3.552151488681102
 21
6.66361702361653
 31
0.0
  0
LINE
  5
2B3E
330
1E
100
AcDbEntity
  8
7
100
AcDbLine
 10
3.084957026082677
 20
6.662304679620468
 30
0.0
 11
3.086269370078739
 21
6.66361702361653
 31
0.0
  0
LINE
  5
2B50
330
1E
100
AcDbEntity
  8
7
100
AcDbLine
 10
2.927475746555118
 20
6.759418135329129
 30
0.0
 11
2.927475746555118
 21
6.832909399108657
 31
0.0
  0
LINE
  5
2B5B
330
1E
100
AcDbEntity
  8
7
100
AcDbLine
 10
3.063959522145669
 20
6.986453646648026
 30
0.0
 11
2.944536218503936
 21
6.986453646648026
 31
0.0
  0
LINE
  5
2B66
330
1E
100
AcDbEntity
  8
7
100
AcDbLine
 10
3.081019994094487
 20
6.832909399108657
 30
0.0
 11
3.081019994094487
 21
6.759418135329129
 31
0.0
  0
LINE
  5
2B75
330
1E
100
AcDbEntity
  8
7
100
AcDbLine
 10
3.063959522145669
 20
7.058632566431491
 30
0.0
 11
2.944536218503936
 21
7.058632566431491
 31
0.0
  0
LINE
  5
2B76
330
1E
100
AcDbEntity
  8
7
100
AcDbLine
 10
3.081019994094487
 20
6.759418135329129
 30
0.0
 11
3.083644682086613
 21
6.758105791333065
 31
0.0
  0
LINE
  5
2B77
330
1E
100
AcDbEntity
  8
7
100
AcDbLine
 10
3.063959522145669
 20
7.059944910427553
 30
0.0
 11
3.063959522145669
 21
7.058632566431491
 31
0.0
  0
LINE
  5
2B78
330
1E
100
AcDbEntity
  8
7
100
AcDbLine
 10
2.944536218503936
 20
7.058632566431491
 30
0.0
 11
2.944536218503936
 21
7.059944910427553
 31
0.0
  0
LINE
  5
2B79
330
1E
100
AcDbEntity
  8
7
100
AcDbLine
 10
2.924851058562991
 20
6.758105791333065
 30
0.0
 11
2.927475746555118
 21
6.759418135329129
 31
0.0
  0
LINE
  5
2B7F
330
1E
100
AcDbEntity
  8
7
100
AcDbLine
 10
2.927475746555118
 20
6.685926871549602
 30
0.0
 11
2.92878809055118
 21
6.687239215545664
 31
0.0
  0
LINE
  5
2B80
330
1E
100
AcDbEntity
  8
7
100
AcDbLine
 10
3.079707650098424
 20
6.687239215545664
 30
0.0
 11
3.081019994094487
 21
6.685926871549602
 31
0.0
  0
LINE
  5
2B97
330
1E
100
AcDbEntity
  8
7
100
AcDbLine
 10
2.898604178641731
 20
6.848657527061412
 30
0.0
 11
3.109891562007874
 21
6.848657527061412
 31
0.0
  0
LINE
  5
2B98
330
1E
100
AcDbEntity
  8
7
100
AcDbLine
 10
2.898604178641731
 20
6.968080830703145
 30
0.0
 11
3.109891562007874
 21
6.968080830703145
 31
0.0
  0
LINE
  5
2B99
330
1E
100
AcDbEntity
  8
7
100
AcDbLine
 10
3.100705154035432
 20
6.840783463085034
 30
0.0
 11
2.907790586614173
 21
6.840783463085034
 31
0.0
  0
LINE
  5
2B9A
330
1E
100
AcDbEntity
  8
7
100
AcDbLine
 10
3.109891562007874
 20
6.848657527061412
 30
0.0
 11
3.100705154035432
 21
6.840783463085034
 31
0.0
  0
LINE
  5
2B9B
330
1E
100
AcDbEntity
  8
7
100
AcDbLine
 10
2.907790586614173
 20
6.840783463085034
 30
0.0
 11
2.898604178641731
 21
6.848657527061412
 31
0.0
  0
LINE
  5
2B9C
330
1E
100
AcDbEntity
  8
7
100
AcDbLine
 10
3.100705154035432
 20
6.975954894679523
 30
0.0
 11
2.907790586614173
 21
6.975954894679523
 31
0.0
  0
LINE
  5
2BA2
330
1E
100
AcDbEntity
  8
7
100
AcDbLine
 10
3.063959522145669
 20
6.985141302651964
 30
0.0
 11
2.944536218503936
 21
6.985141302651964
 31
0.0
  0
LINE
  5
2BA8
330
1E
100
AcDbEntity
  8
7
100
AcDbLine
 10
3.100705154035432
 20
6.975954894679523
 30
0.0
 11
3.109891562007874
 21
6.968080830703145
 31
0.0
  0
LINE
  5
2BA9
330
1E
100
AcDbEntity
  8
7
100
AcDbLine
 10
2.898604178641731
 20
6.968080830703145
 30
0.0
 11
2.907790586614173
 21
6.975954894679523
 31
0.0
  0
LINE
  5
2BAF
330
1E
100
AcDbEntity
  8
7
100
AcDbLine
 10
3.063959522145669
 20
6.831597055112593
 30
0.0
 11
2.944536218503936
 21
6.831597055112593
 31
0.0
  0
LINE
  5
2BBB
330
1E
100
AcDbEntity
  8
7
100
AcDbLine
 10
3.130889065944881
 20
6.941833950781886
 30
0.0
 11
3.109891562007874
 21
6.968080830703145
 31
0.0
  0
LINE
  5
2BC8
330
1E
100
AcDbEntity
  8
7
100
AcDbLine
 10
3.079707650098424
 20
6.83422174310472
 30
0.0
 11
3.081019994094487
 21
6.832909399108657
 31
0.0
  0
LINE
  5
2BC9
330
1E
100
AcDbEntity
  8
7
100
AcDbLine
 10
3.063959522145669
 20
6.986453646648026
 30
0.0
 11
3.063959522145669
 21
6.985141302651964
 31
0.0
  0
LINE
  5
2BCA
330
1E
100
AcDbEntity
  8
7
100
AcDbLine
 10
2.944536218503936
 20
6.986453646648026
 30
0.0
 11
2.944536218503936
 21
6.985141302651964
 31
0.0
  0
LINE
  5
2BCB
330
1E
100
AcDbEntity
  8
7
100
AcDbLine
 10
2.927475746555118
 20
6.832909399108657
 30
0.0
 11
2.92878809055118
 21
6.83422174310472
 31
0.0
  0
LINE
  5
2BD1
330
1E
100
AcDbEntity
  8
7
100
AcDbLine
 10
2.944536218503936
 20
6.831597055112593
 30
0.0
 11
3.063959522145669
 21
6.831597055112593
 31
0.0
  0
LINE
  5
2BD2
330
1E
100
AcDbEntity
  8
7
100
AcDbLine
 10
2.924851058562991
 20
6.66361702361653
 30
0.0
 11
2.927475746555118
 21
6.666241711608657
 31
0.0
  0
LINE
  5
2BD3
330
1E
100
AcDbEntity
  8
7
100
AcDbLine
 10
2.924851058562991
 20
6.66361702361653
 30
0.0
 11
2.934037466535432
 21
6.66361702361653
 31
0.0
  0
LINE
  5
2BD9
330
1E
100
AcDbEntity
  8
7
100
AcDbLine
 10
3.079707650098424
 20
6.83422174310472
 30
0.0
 11
3.079707650098424
 21
6.687239215545664
 31
0.0
  0
LINE
  5
2BE4
330
1E
100
AcDbEntity
  8
7
100
AcDbLine
 10
2.92878809055118
 20
6.83422174310472
 30
0.0
 11
2.92878809055118
 21
6.687239215545664
 31
0.0
  0
LINE
  5
2BE5
330
1E
100
AcDbEntity
  8
7
100
AcDbLine
 10
3.500970072834645
 20
6.712173751470862
 30
0.0
 11
3.499657728838582
 21
6.712173751470862
 31
0.0
  0
LINE
  5
2BF0
330
1E
100
AcDbEntity
  8
7
100
AcDbLine
 10
3.58233540059055
 20
6.693800935525979
 30
0.0
 11
3.583647744586613
 21
6.692488591529917
 31
0.0
  0
LINE
  5
2BF1
330
1E
100
AcDbEntity
  8
7
100
AcDbLine
 10
3.583647744586613
 20
7.12424976623464
 30
0.0
 11
3.58233540059055
 21
7.12424976623464
 31
0.0
  0
LINE
  5
2BF7
330
1E
100
AcDbEntity
  8
7
100
AcDbLine
 10
3.158448289862204
 20
6.613747951766137
 30
0.0
 11
3.166322353838582
 21
6.605873887789758
 31
0.0
  0
LINE
  5
2BF8
330
1E
100
AcDbEntity
  8
7
100
AcDbLine
 10
3.350050513287401
 20
6.645244207671649
 30
0.0
 11
3.348738169291338
 21
6.643931863675586
 31
0.0
  0
LINE
  5
2BF9
330
1E
100
AcDbEntity
  8
7
100
AcDbLine
 10
3.225377833661417
 20
6.645244207671649
 30
0.0
 11
3.226690177657479
 21
6.643931863675586
 31
0.0
  0
LINE
  5
2BFA
330
1E
100
AcDbEntity
  8
7
100
AcDbLine
 10
3.410418337106297
 20
6.605873887789758
 30
0.0
 11
3.418292401082676
 21
6.613747951766137
 31
0.0
  0
LINE
  5
2BFB
330
1E
100
AcDbEntity
  8
7
100
AcDbLine
 10
3.411730681102361
 20
6.604561543793696
 30
0.0
 11
3.410418337106297
 21
6.604561543793696
 31
0.0
  0
LINE
  5
2BFC
330
1E
100
AcDbEntity
  8
7
100
AcDbLine
 10
3.411730681102361
 20
6.604561543793696
 30
0.0
 11
3.419604745078739
 21
6.612435607770073
 31
0.0
  0
LINE
  5
2C03
330
1E
100
AcDbEntity
  8
7
100
AcDbLine
 10
3.418292401082676
 20
6.613747951766137
 30
0.0
 11
3.418292401082676
 21
6.63737014369527
 31
0.0
  0
LINE
  5
2C0A
330
1E
100
AcDbEntity
  8
7
100
AcDbLine
 10
3.158448289862204
 20
6.63737014369527
 30
0.0
 11
3.158448289862204
 21
6.613747951766137
 31
0.0
  0
LINE
  5
2C0B
330
1E
100
AcDbEntity
  8
7
100
AcDbLine
 10
3.157135945866141
 20
6.612435607770073
 30
0.0
 11
3.165010009842519
 21
6.604561543793696
 31
0.0
  0
LINE
  5
2C0C
330
1E
100
AcDbEntity
  8
7
100
AcDbLine
 10
3.410418337106297
 20
6.604561543793696
 30
0.0
 11
3.411730681102361
 21
6.604561543793696
 31
0.0
  0
LINE
  5
2C0D
330
1E
100
AcDbEntity
  8
7
100
AcDbLine
 10
3.165010009842519
 20
6.650493583655901
 30
0.0
 11
3.166322353838582
 21
6.645244207671649
 31
0.0
  0
LINE
  5
2C0E
330
1E
100
AcDbEntity
  8
7
100
AcDbLine
 10
3.165010009842519
 20
6.650493583655901
 30
0.0
 11
3.157135945866141
 21
6.642619519679522
 31
0.0
  0
LINE
  5
2C0F
330
1E
100
AcDbEntity
  8
7
100
AcDbLine
 10
3.217503769685039
 20
6.645244207671649
 30
0.0
 11
3.225377833661417
 21
6.645244207671649
 31
0.0
  0
LINE
  5
2C10
330
1E
100
AcDbEntity
  8
7
100
AcDbLine
 10
3.350050513287401
 20
6.645244207671649
 30
0.0
 11
3.357924577263779
 21
6.645244207671649
 31
0.0
  0
LINE
  5
2C16
330
1E
100
AcDbEntity
  8
7
100
AcDbLine
 10
3.419604745078739
 20
6.642619519679522
 30
0.0
 11
3.411730681102361
 21
6.650493583655901
 31
0.0
  0
LINE
  5
2C3F
330
1E
100
AcDbEntity
  8
7
100
AcDbLine
 10
0.7778562810039365
 20
6.613747951766137
 30
0.0
 11
0.7857303449803146
 21
6.605873887789758
 31
0.0
  0
LINE
  5
2C40
330
1E
100
AcDbEntity
  8
7
100
AcDbLine
 10
0.9707708484251966
 20
6.645244207671649
 30
0.0
 11
0.9694585044291335
 21
6.643931863675586
 31
0.0
  0
LINE
  5
2C41
330
1E
100
AcDbEntity
  8
7
100
AcDbLine
 10
0.8460981687992124
 20
6.645244207671649
 30
0.0
 11
0.8474105127952755
 21
6.643931863675586
 31
0.0
  0
LINE
  5
2C42
330
1E
100
AcDbEntity
  8
7
100
AcDbLine
 10
1.029826328248031
 20
6.605873887789758
 30
0.0
 11
1.037700392224409
 21
6.613747951766137
 31
0.0
  0
LINE
  5
2C43
330
1E
100
AcDbEntity
  8
7
100
AcDbLine
 10
1.031138672244093
 20
6.604561543793696
 30
0.0
 11
1.029826328248031
 21
6.604561543793696
 31
0.0
  0
LINE
  5
2C44
330
1E
100
AcDbEntity
  8
7
100
AcDbLine
 10
1.031138672244093
 20
6.604561543793696
 30
0.0
 11
1.039012736220471
 21
6.612435607770073
 31
0.0
  0
LINE
  5
2C4B
330
1E
100
AcDbEntity
  8
7
100
AcDbLine
 10
1.037700392224409
 20
6.613747951766137
 30
0.0
 11
1.037700392224409
 21
6.63737014369527
 31
0.0
  0
LINE
  5
2C52
330
1E
100
AcDbEntity
  8
7
100
AcDbLine
 10
0.7778562810039365
 20
6.63737014369527
 30
0.0
 11
0.7778562810039365
 21
6.613747951766137
 31
0.0
  0
LINE
  5
2C53
330
1E
100
AcDbEntity
  8
7
100
AcDbLine
 10
0.7765439370078742
 20
6.612435607770073
 30
0.0
 11
0.7844180009842514
 21
6.604561543793696
 31
0.0
  0
LINE
  5
2C59
330
1E
100
AcDbEntity
  8
7
100
AcDbLine
 10
1.029826328248031
 20
6.604561543793696
 30
0.0
 11
1.031138672244093
 21
6.604561543793696
 31
0.0
  0
LINE
  5
2C5A
330
1E
100
AcDbEntity
  8
7
100
AcDbLine
 10
0.7844180009842514
 20
6.650493583655901
 30
0.0
 11
0.7857303449803146
 21
6.645244207671649
 31
0.0
  0
LINE
  5
2C5B
330
1E
100
AcDbEntity
  8
7
100
AcDbLine
 10
0.7844180009842514
 20
6.650493583655901
 30
0.0
 11
0.7765439370078742
 21
6.642619519679522
 31
0.0
  0
LINE
  5
2C5C
330
1E
100
AcDbEntity
  8
7
100
AcDbLine
 10
0.8382241048228342
 20
6.645244207671649
 30
0.0
 11
0.8460981687992124
 21
6.645244207671649
 31
0.0
  0
LINE
  5
2C5D
330
1E
100
AcDbEntity
  8
7
100
AcDbLine
 10
0.9707708484251966
 20
6.645244207671649
 30
0.0
 11
0.9786449124015739
 21
6.645244207671649
 31
0.0
  0
LINE
  5
2C63
330
1E
100
AcDbEntity
  8
7
100
AcDbLine
 10
1.039012736220471
 20
6.642619519679522
 30
0.0
 11
1.031138672244093
 21
6.650493583655901
 31
0.0
  0
LINE
  5
2C8C
330
1E
100
AcDbEntity
  8
7
100
AcDbLine
 10
1.565262678641731
 20
4.357828622533854
 30
0.0
 11
1.360537015255904
 21
4.357828622533854
 31
0.0
  0
LINE
  5
2C8D
330
1E
100
AcDbEntity
  8
7
100
AcDbLine
 10
1.565262678641731
 20
4.368327374502357
 30
0.0
 11
1.565262678641731
 21
4.357828622533854
 31
0.0
  0
LINE
  5
2C98
330
1E
100
AcDbEntity
  8
7
100
AcDbLine
 10
1.360537015255904
 20
4.405073006392121
 30
0.0
 11
1.566575022637795
 21
4.405073006392121
 31
0.0
  0
LINE
  5
2CA3
330
1E
100
AcDbEntity
  8
7
100
AcDbLine
 10
1.360537015255904
 20
4.405073006392121
 30
0.0
 11
1.360537015255904
 21
4.410322382376373
 31
0.0
  0
LINE
  5
2CA9
330
1E
100
AcDbEntity
  8
7
100
AcDbLine
 10
1.566575022637795
 20
4.439193950289758
 30
0.0
 11
1.566575022637795
 21
4.410322382376373
 31
0.0
  0
LINE
  5
2CAA
330
1E
100
AcDbEntity
  8
7
100
AcDbLine
 10
2.835611666830708
 20
4.357828622533854
 30
0.0
 11
2.630886003444881
 21
4.357828622533854
 31
0.0
  0
LINE
  5
2CAB
330
1E
100
AcDbEntity
  8
7
100
AcDbLine
 10
2.835611666830708
 20
4.368327374502357
 30
0.0
 11
2.835611666830708
 21
4.357828622533854
 31
0.0
  0
LINE
  5
2CB6
330
1E
100
AcDbEntity
  8
7
100
AcDbLine
 10
2.629573659448818
 20
4.405073006392121
 30
0.0
 11
2.835611666830708
 21
4.405073006392121
 31
0.0
  0
LINE
  5
2CC1
330
1E
100
AcDbEntity
  8
7
100
AcDbLine
 10
2.629573659448818
 20
4.405073006392121
 30
0.0
 11
2.629573659448818
 21
4.410322382376373
 31
0.0
  0
LINE
  5
2CC7
330
1E
100
AcDbEntity
  8
7
100
AcDbLine
 10
2.835611666830708
 20
4.439193950289758
 30
0.0
 11
2.835611666830708
 21
4.410322382376373
 31
0.0
  0
LINE
  5
2CC8
330
1E
100
AcDbEntity
  8
7
100
AcDbLine
 10
2.645321787401574
 20
5.016625308557475
 30
0.0
 11
2.819863538877952
 21
5.016625308557475
 31
0.0
  0
LINE
  5
2CC9
330
1E
100
AcDbEntity
  8
7
100
AcDbLine
 10
1.374972799212597
 20
5.016625308557475
 30
0.0
 11
1.550826894685038
 21
5.016625308557475
 31
0.0
  0
LINE
  5
2CCA
330
1E
100
AcDbEntity
  8
7
100
AcDbLine
 10
1.374972799212597
 20
5.055995628439365
 30
0.0
 11
1.374972799212597
 21
5.016625308557475
 31
0.0
  0
LINE
  5
2CCB
330
1E
100
AcDbEntity
  8
7
100
AcDbLine
 10
1.550826894685038
 20
5.055995628439365
 30
0.0
 11
1.550826894685038
 21
5.016625308557475
 31
0.0
  0
LINE
  5
2CCC
330
1E
100
AcDbEntity
  8
7
100
AcDbLine
 10
2.645321787401574
 20
5.055995628439365
 30
0.0
 11
2.645321787401574
 21
5.016625308557475
 31
0.0
  0
LINE
  5
2CCD
330
1E
100
AcDbEntity
  8
7
100
AcDbLine
 10
2.819863538877952
 20
5.055995628439365
 30
0.0
 11
2.819863538877952
 21
5.016625308557475
 31
0.0
  0
LINE
  5
2CCE
330
1E
100
AcDbEntity
  8
7
100
AcDbLine
 10
1.565262678641731
 20
5.507441963085033
 30
0.0
 11
1.360537015255904
 21
5.507441963085033
 31
0.0
  0
LINE
  5
2CCF
330
1E
100
AcDbEntity
  8
7
100
AcDbLine
 10
1.565262678641731
 20
5.519253059049602
 30
0.0
 11
1.565262678641731
 21
5.507441963085033
 31
0.0
  0
LINE
  5
2CDA
330
1E
100
AcDbEntity
  8
7
100
AcDbLine
 10
1.360537015255904
 20
5.554686346943301
 30
0.0
 11
1.566575022637795
 21
5.554686346943301
 31
0.0
  0
LINE
  5
2CE5
330
1E
100
AcDbEntity
  8
7
100
AcDbLine
 10
1.360537015255904
 20
5.554686346943301
 30
0.0
 11
1.360537015255904
 21
5.559935722927553
 31
0.0
  0
LINE
  5
2CEB
330
1E
100
AcDbEntity
  8
7
100
AcDbLine
 10
1.566575022637795
 20
5.588807290840939
 30
0.0
 11
1.566575022637795
 21
5.559935722927553
 31
0.0
  0
LINE
  5
2CEC
330
1E
100
AcDbEntity
  8
7
100
AcDbLine
 10
2.835611666830708
 20
5.507441963085033
 30
0.0
 11
2.630886003444881
 21
5.507441963085033
 31
0.0
  0
LINE
  5
2CED
330
1E
100
AcDbEntity
  8
7
100
AcDbLine
 10
2.835611666830708
 20
5.519253059049602
 30
0.0
 11
2.835611666830708
 21
5.507441963085033
 31
0.0
  0
LINE
  5
2CF8
330
1E
100
AcDbEntity
  8
7
100
AcDbLine
 10
2.629573659448818
 20
5.554686346943301
 30
0.0
 11
2.835611666830708
 21
5.554686346943301
 31
0.0
  0
LINE
  5
2D03
330
1E
100
AcDbEntity
  8
7
100
AcDbLine
 10
2.629573659448818
 20
5.554686346943301
 30
0.0
 11
2.629573659448818
 21
5.559935722927553
 31
0.0
  0
LINE
  5
2D09
330
1E
100
AcDbEntity
  8
7
100
AcDbLine
 10
2.835611666830708
 20
5.588807290840939
 30
0.0
 11
2.835611666830708
 21
5.559935722927553
 31
0.0
  0
LINE
  5
2D0A
330
1E
100
AcDbEntity
  8
7
100
AcDbLine
 10
2.645321787401574
 20
6.167550993104719
 30
0.0
 11
2.819863538877952
 21
6.167550993104719
 31
0.0
  0
LINE
  5
2D0B
330
1E
100
AcDbEntity
  8
7
100
AcDbLine
 10
1.374972799212597
 20
6.167550993104719
 30
0.0
 11
1.550826894685038
 21
6.167550993104719
 31
0.0
  0
LINE
  5
2D0C
330
1E
100
AcDbEntity
  8
7
100
AcDbLine
 10
1.374972799212597
 20
6.205608968990546
 30
0.0
 11
1.374972799212597
 21
6.167550993104719
 31
0.0
  0
LINE
  5
2D0D
330
1E
100
AcDbEntity
  8
7
100
AcDbLine
 10
1.550826894685038
 20
6.205608968990546
 30
0.0
 11
1.550826894685038
 21
6.167550993104719
 31
0.0
  0
LINE
  5
2D0E
330
1E
100
AcDbEntity
  8
7
100
AcDbLine
 10
2.645321787401574
 20
6.205608968990546
 30
0.0
 11
2.645321787401574
 21
6.167550993104719
 31
0.0
  0
LINE
  5
2D0F
330
1E
100
AcDbEntity
  8
7
100
AcDbLine
 10
2.819863538877952
 20
6.205608968990546
 30
0.0
 11
2.819863538877952
 21
6.167550993104719
 31
0.0
  0
LINE
  5
2D1C
330
1E
100
AcDbEntity
  8
7
100
AcDbLine
 10
1.590197214566928
 20
4.33026939861653
 30
0.0
 11
1.566575022637795
 21
4.342080494581098
 31
0.0
  0
LINE
  5
2D1D
330
1E
100
AcDbEntity
  8
7
100
AcDbLine
 10
1.708308174212597
 20
4.395886598419679
 30
0.0
 11
1.708308174212597
 21
4.384075502455114
 31
0.0
  0
LINE
  5
2D1E
330
1E
100
AcDbEntity
  8
7
100
AcDbLine
 10
1.708308174212597
 20
4.395886598419679
 30
0.0
 11
1.720119270177165
 21
4.395886598419679
 31
0.0
  0
LINE
  5
2D1F
330
1E
100
AcDbEntity
  8
7
100
AcDbLine
 10
2.476029411909448
 20
4.395886598419679
 30
0.0
 11
2.487840507874015
 21
4.395886598419679
 31
0.0
  0
LINE
  5
2D20
330
1E
100
AcDbEntity
  8
7
100
AcDbLine
 10
2.487840507874015
 20
4.384075502455114
 30
0.0
 11
2.487840507874015
 21
4.395886598419679
 31
0.0
  0
LINE
  5
2D2D
330
1E
100
AcDbEntity
  8
7
100
AcDbLine
 10
2.860546202755905
 20
4.33026939861653
 30
0.0
 11
2.835611666830708
 21
4.342080494581098
 31
0.0
  0
LINE
  5
2D2E
330
1E
100
AcDbEntity
  8
7
100
AcDbLine
 10
2.977344818405511
 20
4.395886598419679
 30
0.0
 11
2.977344818405511
 21
4.384075502455114
 31
0.0
  0
LINE
  5
2D2F
330
1E
100
AcDbEntity
  8
7
100
AcDbLine
 10
2.977344818405511
 20
4.395886598419679
 30
0.0
 11
2.990468258366141
 21
4.395886598419679
 31
0.0
  0
LINE
  5
2D30
330
1E
100
AcDbEntity
  8
7
100
AcDbLine
 10
1.205680423720472
 20
4.395886598419679
 30
0.0
 11
1.217491519685038
 21
4.395886598419679
 31
0.0
  0
LINE
  5
2D31
330
1E
100
AcDbEntity
  8
7
100
AcDbLine
 10
1.217491519685038
 20
4.384075502455114
 30
0.0
 11
1.217491519685038
 21
4.395886598419679
 31
0.0
  0
LINE
  5
2D3E
330
1E
100
AcDbEntity
  8
7
100
AcDbLine
 10
1.590197214566928
 20
5.481195083163774
 30
0.0
 11
1.566575022637795
 21
5.493006179128342
 31
0.0
  0
LINE
  5
2D3F
330
1E
100
AcDbEntity
  8
7
100
AcDbLine
 10
1.708308174212597
 20
5.545499938970861
 30
0.0
 11
1.708308174212597
 21
5.533688843006293
 31
0.0
  0
LINE
  5
2D40
330
1E
100
AcDbEntity
  8
7
100
AcDbLine
 10
1.708308174212597
 20
5.545499938970861
 30
0.0
 11
1.720119270177165
 21
5.545499938970861
 31
0.0
  0
LINE
  5
2D41
330
1E
100
AcDbEntity
  8
7
100
AcDbLine
 10
2.476029411909448
 20
5.545499938970861
 30
0.0
 11
2.487840507874015
 21
5.545499938970861
 31
0.0
  0
LINE
  5
2D42
330
1E
100
AcDbEntity
  8
7
100
AcDbLine
 10
2.487840507874015
 20
5.533688843006293
 30
0.0
 11
2.487840507874015
 21
5.545499938970861
 31
0.0
  0
LINE
  5
2D4F
330
1E
100
AcDbEntity
  8
7
100
AcDbLine
 10
2.860546202755905
 20
5.481195083163774
 30
0.0
 11
2.835611666830708
 21
5.493006179128342
 31
0.0
  0
LINE
  5
2D50
330
1E
100
AcDbEntity
  8
7
100
AcDbLine
 10
2.977344818405511
 20
5.545499938970861
 30
0.0
 11
2.977344818405511
 21
5.533688843006293
 31
0.0
  0
LINE
  5
2D51
330
1E
100
AcDbEntity
  8
7
100
AcDbLine
 10
2.977344818405511
 20
5.545499938970861
 30
0.0
 11
2.990468258366141
 21
5.545499938970861
 31
0.0
  0
LINE
  5
2D52
330
1E
100
AcDbEntity
  8
7
100
AcDbLine
 10
1.205680423720472
 20
5.545499938970861
 30
0.0
 11
1.217491519685038
 21
5.545499938970861
 31
0.0
  0
LINE
  5
2D53
330
1E
100
AcDbEntity
  8
7
100
AcDbLine
 10
1.217491519685038
 20
5.533688843006293
 30
0.0
 11
1.217491519685038
 21
5.545499938970861
 31
0.0
  0
LINE
  5
2D54
330
1E
100
AcDbEntity
  8
7
100
AcDbLine
 10
2.978657162401574
 20
4.395886598419679
 30
0.0
 11
2.977344818405511
 21
4.395886598419679
 31
0.0
  0
LINE
  5
2D55
330
1E
100
AcDbEntity
  8
7
100
AcDbLine
 10
2.978657162401574
 20
5.545499938970861
 30
0.0
 11
2.977344818405511
 21
5.545499938970861
 31
0.0
  0
LINE
  5
2D56
330
1E
100
AcDbEntity
  8
7
100
AcDbLine
 10
3.083644682086613
 20
3.832891024108656
 30
0.0
 11
3.449788656988188
 21
3.832891024108656
 31
0.0
  0
LINE
  5
2D57
330
1E
100
AcDbEntity
  8
7
100
AcDbLine
 10
3.083644682086613
 20
3.77777257627401
 30
0.0
 11
3.083644682086613
 21
3.832891024108656
 31
0.0
  0
LINE
  5
2D69
330
1E
100
AcDbEntity
  8
7
100
AcDbLine
 10
3.063959522145669
 20
3.475933457179523
 30
0.0
 11
2.944536218503936
 21
3.475933457179523
 31
0.0
  0
LINE
  5
2D6A
330
1E
100
AcDbEntity
  8
7
100
AcDbLine
 10
2.924851058562991
 20
3.77777257627401
 30
0.0
 11
2.885480738681101
 21
3.767273824305506
 31
0.0
  0
LINE
  5
2D78
330
1E
100
AcDbEntity
  8
7
100
AcDbLine
 10
2.924851058562991
 20
3.832891024108656
 30
0.0
 11
2.924851058562991
 21
3.77777257627401
 31
0.0
  0
LINE
  5
2D79
330
1E
100
AcDbEntity
  8
7
100
AcDbLine
 10
1.271297623523621
 20
3.832891024108656
 30
0.0
 11
2.924851058562991
 21
3.832891024108656
 31
0.0
  0
LINE
  5
2D7A
330
1E
100
AcDbEntity
  8
7
100
AcDbLine
 10
1.271297623523621
 20
3.832891024108656
 30
0.0
 11
1.271297623523621
 21
3.77777257627401
 31
0.0
  0
LINE
  5
2D8C
330
1E
100
AcDbEntity
  8
7
100
AcDbLine
 10
1.132189159940944
 20
3.475933457179523
 30
0.0
 11
1.251612463582676
 21
3.475933457179523
 31
0.0
  0
LINE
  5
2DA3
330
1E
100
AcDbEntity
  8
7
100
AcDbLine
 10
0.7463600250984248
 20
3.831578680112594
 30
0.0
 11
0.7463600250984248
 21
3.423439697337002
 31
0.0
  0
LINE
  5
2DA4
330
1E
100
AcDbEntity
  8
7
100
AcDbLine
 10
0.7463600250984248
 20
3.42212735334094
 30
0.0
 11
3.449788656988188
 21
3.42212735334094
 31
0.0
  0
LINE
  5
2DA5
330
1E
100
AcDbEntity
  8
7
100
AcDbLine
 10
3.449788656988188
 20
3.831578680112594
 30
0.0
 11
3.449788656988188
 21
3.423439697337002
 31
0.0
  0
LINE
  5
2DA6
330
1E
100
AcDbEntity
  8
7
100
AcDbLine
 10
0.6125009375000002
 20
3.412940945368498
 30
0.0
 11
0.6125009375000002
 21
3.84338977607716
 31
0.0
  0
LINE
  5
2DA7
330
1E
100
AcDbEntity
  8
7
100
AcDbLine
 10
0.6125009375000002
 20
3.412940945368498
 30
0.0
 11
0.617750313484252
 21
3.397192817415742
 31
0.0
  0
LINE
  5
2DB6
330
1E
100
AcDbEntity
  8
7
100
AcDbLine
 10
3.086269370078739
 20
3.834203368104719
 30
0.0
 11
3.086269370078739
 21
3.872261343990545
 31
0.0
  0
LINE
  5
2DB7
330
1E
100
AcDbEntity
  8
7
100
AcDbLine
 10
3.086269370078739
 20
3.834203368104719
 30
0.0
 11
3.490471320866141
 21
3.834203368104719
 31
0.0
  0
LINE
  5
2DBD
330
1E
100
AcDbEntity
  8
7
100
AcDbLine
 10
3.500970072834645
 20
3.431313761313381
 30
0.0
 11
3.500970072834645
 21
3.823704616136215
 31
0.0
  0
LINE
  5
2DC3
330
1E
100
AcDbEntity
  8
7
100
AcDbLine
 10
0.7056773612204728
 20
3.42212735334094
 30
0.0
 11
3.490471320866141
 21
3.42212735334094
 31
0.0
  0
LINE
  5
2DC9
330
1E
100
AcDbEntity
  8
7
100
AcDbLine
 10
0.6951786092519683
 20
3.431313761313381
 30
0.0
 11
0.6951786092519683
 21
3.823704616136215
 31
0.0
  0
LINE
  5
2DCF
330
1E
100
AcDbEntity
  8
7
100
AcDbLine
 10
1.109879312007874
 20
3.834203368104719
 30
0.0
 11
0.7056773612204728
 21
3.834203368104719
 31
0.0
  0
LINE
  5
2DD0
330
1E
100
AcDbEntity
  8
7
100
AcDbLine
 10
1.109879312007874
 20
3.834203368104719
 30
0.0
 11
1.109879312007874
 21
3.872261343990545
 31
0.0
  0
LINE
  5
2DD1
330
1E
100
AcDbEntity
  8
7
100
AcDbLine
 10
0.6426848494094486
 20
3.872261343990545
 30
0.0
 11
1.109879312007874
 21
3.872261343990545
 31
0.0
  0
LINE
  5
2DD8
330
1E
100
AcDbEntity
  8
7
100
AcDbLine
 10
3.083644682086613
 20
3.832891024108656
 30
0.0
 11
3.086269370078739
 21
3.834203368104719
 31
0.0
  0
LINE
  5
2DD9
330
1E
100
AcDbEntity
  8
7
100
AcDbLine
 10
3.45110100098425
 20
3.832891024108656
 30
0.0
 11
3.449788656988188
 21
3.832891024108656
 31
0.0
  0
LINE
  5
2DDA
330
1E
100
AcDbEntity
  8
7
100
AcDbLine
 10
3.490471320866141
 20
3.832891024108656
 30
0.0
 11
3.45110100098425
 21
3.832891024108656
 31
0.0
  0
LINE
  5
2DDB
330
1E
100
AcDbEntity
  8
7
100
AcDbLine
 10
3.490471320866141
 20
3.834203368104719
 30
0.0
 11
3.490471320866141
 21
3.832891024108656
 31
0.0
  0
LINE
  5
2DDC
330
1E
100
AcDbEntity
  8
7
100
AcDbLine
 10
3.552151488681102
 20
3.872261343990545
 30
0.0
 11
3.553463832677164
 21
3.873573687986609
 31
0.0
  0
LINE
  5
2DDD
330
1E
100
AcDbEntity
  8
7
100
AcDbLine
 10
3.084957026082677
 20
3.873573687986609
 30
0.0
 11
3.086269370078739
 21
3.872261343990545
 31
0.0
  0
LINE
  5
2DDE
330
1E
100
AcDbEntity
  8
7
100
AcDbLine
 10
3.228002521653543
 20
3.922130415840939
 30
0.0
 11
3.235876585629921
 21
3.930004479817317
 31
0.0
  0
LINE
  5
2DDF
330
1E
100
AcDbEntity
  8
7
100
AcDbLine
 10
3.419604745078739
 20
3.890634159935428
 30
0.0
 11
3.419604745078739
 21
3.891946503931491
 31
0.0
  0
LINE
  5
2DE0
330
1E
100
AcDbEntity
  8
7
100
AcDbLine
 10
3.296244409448818
 20
3.890634159935428
 30
0.0
 11
3.296244409448818
 21
3.891946503931491
 31
0.0
  0
LINE
  5
2DE1
330
1E
100
AcDbEntity
  8
7
100
AcDbLine
 10
3.479972568897637
 20
3.930004479817317
 30
0.0
 11
3.487846632874014
 21
3.922130415840939
 31
0.0
  0
LINE
  5
2DE2
330
1E
100
AcDbEntity
  8
7
100
AcDbLine
 10
3.481284912893699
 20
3.932629167809444
 30
0.0
 11
3.479972568897637
 21
3.931316823813381
 31
0.0
  0
LINE
  5
2DE3
330
1E
100
AcDbEntity
  8
7
100
AcDbLine
 10
3.487846632874014
 20
3.922130415840939
 30
0.0
 11
3.489158976870078
 21
3.923442759837002
 31
0.0
  0
LINE
  5
2DE4
330
1E
100
AcDbEntity
  8
7
100
AcDbLine
 10
3.481284912893699
 20
3.932629167809444
 30
0.0
 11
3.489158976870078
 21
3.923442759837002
 31
0.0
  0
LINE
  5
2DE5
330
1E
100
AcDbEntity
  8
7
100
AcDbLine
 10
3.487846632874014
 20
3.922130415840939
 30
0.0
 11
3.487846632874014
 21
3.898508223911805
 31
0.0
  0
LINE
  5
2DE6
330
1E
100
AcDbEntity
  8
7
100
AcDbLine
 10
3.489158976870078
 20
3.894571191923617
 30
0.0
 11
3.487846632874014
 21
3.898508223911805
 31
0.0
  0
LINE
  5
2DE7
330
1E
100
AcDbEntity
  8
7
100
AcDbLine
 10
3.489158976870078
 20
3.923442759837002
 30
0.0
 11
3.489158976870078
 21
3.894571191923617
 31
0.0
  0
LINE
  5
2DE8
330
1E
100
AcDbEntity
  8
7
100
AcDbLine
 10
3.228002521653543
 20
3.898508223911805
 30
0.0
 11
3.226690177657479
 21
3.894571191923617
 31
0.0
  0
LINE
  5
2DE9
330
1E
100
AcDbEntity
  8
7
100
AcDbLine
 10
3.228002521653543
 20
3.898508223911805
 30
0.0
 11
3.228002521653543
 21
3.922130415840939
 31
0.0
  0
LINE
  5
2DEA
330
1E
100
AcDbEntity
  8
7
100
AcDbLine
 10
3.226690177657479
 20
3.923442759837002
 30
0.0
 11
3.228002521653543
 21
3.922130415840939
 31
0.0
  0
LINE
  5
2DEB
330
1E
100
AcDbEntity
  8
7
100
AcDbLine
 10
3.226690177657479
 20
3.894571191923617
 30
0.0
 11
3.226690177657479
 21
3.923442759837002
 31
0.0
  0
LINE
  5
2DEC
330
1E
100
AcDbEntity
  8
7
100
AcDbLine
 10
3.235876585629921
 20
3.931316823813381
 30
0.0
 11
3.234564241633858
 21
3.932629167809444
 31
0.0
  0
LINE
  5
2DED
330
1E
100
AcDbEntity
  8
7
100
AcDbLine
 10
3.226690177657479
 20
3.923442759837002
 30
0.0
 11
3.234564241633858
 21
3.932629167809444
 31
0.0
  0
LINE
  5
2DEE
330
1E
100
AcDbEntity
  8
7
100
AcDbLine
 10
3.234564241633858
 20
3.932629167809444
 30
0.0
 11
3.235876585629921
 21
3.932629167809444
 31
0.0
  0
LINE
  5
2DEF
330
1E
100
AcDbEntity
  8
7
100
AcDbLine
 10
3.479972568897637
 20
3.932629167809444
 30
0.0
 11
3.481284912893699
 21
3.932629167809444
 31
0.0
  0
LINE
  5
2DF0
330
1E
100
AcDbEntity
  8
7
100
AcDbLine
 10
3.234564241633858
 20
3.885384783951176
 30
0.0
 11
3.235876585629921
 21
3.890634159935428
 31
0.0
  0
LINE
  5
2DF1
330
1E
100
AcDbEntity
  8
7
100
AcDbLine
 10
3.234564241633858
 20
3.885384783951176
 30
0.0
 11
3.226690177657479
 21
3.894571191923617
 31
0.0
  0
LINE
  5
2DF2
330
1E
100
AcDbEntity
  8
7
100
AcDbLine
 10
3.28837034547244
 20
3.890634159935428
 30
0.0
 11
3.296244409448818
 21
3.890634159935428
 31
0.0
  0
LINE
  5
2DF3
330
1E
100
AcDbEntity
  8
7
100
AcDbLine
 10
3.419604745078739
 20
3.890634159935428
 30
0.0
 11
3.42879115305118
 21
3.890634159935428
 31
0.0
  0
LINE
  5
2DF4
330
1E
100
AcDbEntity
  8
7
100
AcDbLine
 10
3.479972568897637
 20
3.890634159935428
 30
0.0
 11
3.481284912893699
 21
3.885384783951176
 31
0.0
  0
LINE
  5
2DF5
330
1E
100
AcDbEntity
  8
7
100
AcDbLine
 10
3.481284912893699
 20
3.885384783951176
 30
0.0
 11
3.234564241633858
 21
3.885384783951176
 31
0.0
  0
LINE
  5
2DF6
330
1E
100
AcDbEntity
  8
7
100
AcDbLine
 10
3.489158976870078
 20
3.894571191923617
 30
0.0
 11
3.481284912893699
 21
3.885384783951176
 31
0.0
  0
LINE
  5
2E1F
330
1E
100
AcDbEntity
  8
7
100
AcDbLine
 10
-0.1696560841535435
 20
3.017925402553538
 30
0.0
 11
-0.1722807721456698
 21
3.015300714561412
 31
0.0
  0
LINE
  5
2E20
330
1E
100
AcDbEntity
  8
7
100
AcDbLine
 10
4.368429454232282
 20
3.015300714561412
 30
0.0
 11
4.365804766240156
 21
3.017925402553538
 31
0.0
  0
LINE
  5
2E21
330
1E
100
AcDbEntity
  8
7
100
AcDbLine
 10
0.6426848494094486
 20
3.38275703345905
 30
0.0
 11
0.6426848494094486
 21
3.381444689462987
 31
0.0
  0
LINE
  5
2E22
330
1E
100
AcDbEntity
  8
7
100
AcDbLine
 10
3.553463832677164
 20
3.381444689462987
 30
0.0
 11
3.552151488681102
 21
3.38275703345905
 31
0.0
  0
LINE
  5
2E28
330
1E
100
AcDbEntity
  8
7
100
AcDbLine
 10
3.45110100098425
 20
3.42212735334094
 30
0.0
 11
3.490471320866141
 21
3.42212735334094
 31
0.0
  0
LINE
  5
2E29
330
1E
100
AcDbEntity
  8
7
100
AcDbLine
 10
3.449788656988188
 20
3.42212735334094
 30
0.0
 11
3.45110100098425
 21
3.42212735334094
 31
0.0
  0
LINE
  5
2E2A
330
1E
100
AcDbEntity
  8
7
100
AcDbLine
 10
1.273922311515748
 20
3.834203368104719
 30
0.0
 11
2.922226370570865
 21
3.834203368104719
 31
0.0
  0
LINE
  5
2E2B
330
1E
100
AcDbEntity
  8
7
100
AcDbLine
 10
1.273922311515748
 20
3.834203368104719
 30
0.0
 11
1.271297623523621
 21
3.832891024108656
 31
0.0
  0
LINE
  5
2E2C
330
1E
100
AcDbEntity
  8
7
100
AcDbLine
 10
2.922226370570865
 20
3.834203368104719
 30
0.0
 11
2.924851058562991
 21
3.832891024108656
 31
0.0
  0
LINE
  5
2E2D
330
1E
100
AcDbEntity
  8
7
100
AcDbLine
 10
2.922226370570865
 20
3.872261343990545
 30
0.0
 11
1.273922311515748
 21
3.872261343990545
 31
0.0
  0
LINE
  5
2E2E
330
1E
100
AcDbEntity
  8
7
100
AcDbLine
 10
1.273922311515748
 20
3.834203368104719
 30
0.0
 11
1.273922311515748
 21
3.872261343990545
 31
0.0
  0
LINE
  5
2E2F
330
1E
100
AcDbEntity
  8
7
100
AcDbLine
 10
2.922226370570865
 20
3.834203368104719
 30
0.0
 11
2.922226370570865
 21
3.872261343990545
 31
0.0
  0
LINE
  5
2E30
330
1E
100
AcDbEntity
  8
7
100
AcDbLine
 10
1.273922311515748
 20
3.872261343990545
 30
0.0
 11
1.272609967519684
 21
3.873573687986609
 31
0.0
  0
LINE
  5
2E31
330
1E
100
AcDbEntity
  8
7
100
AcDbLine
 10
2.922226370570865
 20
3.872261343990545
 30
0.0
 11
2.923538714566928
 21
3.873573687986609
 31
0.0
  0
LINE
  5
2E40
330
1E
100
AcDbEntity
  8
7
100
AcDbLine
 10
3.063959522145669
 20
3.477245801175585
 30
0.0
 11
2.944536218503936
 21
3.477245801175585
 31
0.0
  0
LINE
  5
2E4F
330
1E
100
AcDbEntity
  8
7
100
AcDbLine
 10
3.081019994094487
 20
3.70296896849842
 30
0.0
 11
3.081019994094487
 21
3.776460232277948
 31
0.0
  0
LINE
  5
2E5A
330
1E
100
AcDbEntity
  8
7
100
AcDbLine
 10
3.063959522145669
 20
3.54942472095905
 30
0.0
 11
2.944536218503936
 21
3.54942472095905
 31
0.0
  0
LINE
  5
2E65
330
1E
100
AcDbEntity
  8
7
100
AcDbLine
 10
2.927475746555118
 20
3.776460232277948
 30
0.0
 11
2.927475746555118
 21
3.70296896849842
 31
0.0
  0
LINE
  5
2E66
330
1E
100
AcDbEntity
  8
7
100
AcDbLine
 10
3.063959522145669
 20
3.475933457179523
 30
0.0
 11
3.063959522145669
 21
3.477245801175585
 31
0.0
  0
LINE
  5
2E67
330
1E
100
AcDbEntity
  8
7
100
AcDbLine
 10
3.081019994094487
 20
3.776460232277948
 30
0.0
 11
3.083644682086613
 21
3.77777257627401
 31
0.0
  0
LINE
  5
2E68
330
1E
100
AcDbEntity
  8
7
100
AcDbLine
 10
2.944536218503936
 20
3.477245801175585
 30
0.0
 11
2.944536218503936
 21
3.475933457179523
 31
0.0
  0
LINE
  5
2E69
330
1E
100
AcDbEntity
  8
7
100
AcDbLine
 10
2.924851058562991
 20
3.77777257627401
 30
0.0
 11
2.927475746555118
 21
3.776460232277948
 31
0.0
  0
LINE
  5
2E6A
330
1E
100
AcDbEntity
  8
7
100
AcDbLine
 10
2.927475746555118
 20
3.849951496057475
 30
0.0
 11
2.92878809055118
 21
3.848639152061412
 31
0.0
  0
LINE
  5
2E75
330
1E
100
AcDbEntity
  8
7
100
AcDbLine
 10
3.079707650098424
 20
3.848639152061412
 30
0.0
 11
3.081019994094487
 21
3.849951496057475
 31
0.0
  0
LINE
  5
2E84
330
1E
100
AcDbEntity
  8
7
100
AcDbLine
 10
2.898604178641731
 20
3.687220840545664
 30
0.0
 11
3.109891562007874
 21
3.687220840545664
 31
0.0
  0
LINE
  5
2E85
330
1E
100
AcDbEntity
  8
7
100
AcDbLine
 10
2.898604178641731
 20
3.567797536903932
 30
0.0
 11
3.109891562007874
 21
3.567797536903932
 31
0.0
  0
LINE
  5
2E8B
330
1E
100
AcDbEntity
  8
7
100
AcDbLine
 10
3.109891562007874
 20
3.687220840545664
 30
0.0
 11
3.100705154035432
 21
3.695094904522042
 31
0.0
  0
LINE
  5
2E8C
330
1E
100
AcDbEntity
  8
7
100
AcDbLine
 10
3.100705154035432
 20
3.559923472927554
 30
0.0
 11
2.907790586614173
 21
3.559923472927554
 31
0.0
  0
LINE
  5
2E92
330
1E
100
AcDbEntity
  8
7
100
AcDbLine
 10
3.063959522145669
 20
3.550737064955113
 30
0.0
 11
2.944536218503936
 21
3.550737064955113
 31
0.0
  0
LINE
  5
2E98
330
1E
100
AcDbEntity
  8
7
100
AcDbLine
 10
2.898604178641731
 20
3.567797536903932
 30
0.0
 11
2.907790586614173
 21
3.559923472927554
 31
0.0
  0
LINE
  5
2E99
330
1E
100
AcDbEntity
  8
7
100
AcDbLine
 10
3.100705154035432
 20
3.559923472927554
 30
0.0
 11
3.109891562007874
 21
3.567797536903932
 31
0.0
  0
LINE
  5
2E9A
330
1E
100
AcDbEntity
  8
7
100
AcDbLine
 10
2.944536218503936
 20
3.704281312494483
 30
0.0
 11
2.926163402559054
 21
3.701656624502357
 31
0.0
  0
LINE
  5
2E9B
330
1E
100
AcDbEntity
  8
7
100
AcDbLine
 10
2.926163402559054
 20
3.701656624502357
 30
0.0
 11
2.909102930610235
 21
3.695094904522042
 31
0.0
  0
LINE
  5
2EA1
330
1E
100
AcDbEntity
  8
7
100
AcDbLine
 10
3.063959522145669
 20
3.704281312494483
 30
0.0
 11
2.944536218503936
 21
3.704281312494483
 31
0.0
  0
LINE
  5
2EB3
330
1E
100
AcDbEntity
  8
7
100
AcDbLine
 10
3.078395306102361
 20
3.70296896849842
 30
0.0
 11
3.071833586122047
 21
3.704281312494483
 31
0.0
  0
LINE
  5
2EB4
330
1E
100
AcDbEntity
  8
7
100
AcDbLine
 10
3.071833586122047
 20
3.704281312494483
 30
0.0
 11
3.063959522145669
 21
3.704281312494483
 31
0.0
  0
LINE
  5
2EB5
330
1E
100
AcDbEntity
  8
7
100
AcDbLine
 10
3.063959522145669
 20
3.54942472095905
 30
0.0
 11
3.063959522145669
 21
3.550737064955113
 31
0.0
  0
LINE
  5
2EB6
330
1E
100
AcDbEntity
  8
7
100
AcDbLine
 10
3.079707650098424
 20
3.70296896849842
 30
0.0
 11
3.081019994094487
 21
3.70296896849842
 31
0.0
  0
LINE
  5
2EB7
330
1E
100
AcDbEntity
  8
7
100
AcDbLine
 10
2.944536218503936
 20
3.54942472095905
 30
0.0
 11
2.944536218503936
 21
3.550737064955113
 31
0.0
  0
LINE
  5
2EBD
330
1E
100
AcDbEntity
  8
7
100
AcDbLine
 10
2.927475746555118
 20
3.70296896849842
 30
0.0
 11
2.92878809055118
 21
3.70296896849842
 31
0.0
  0
LINE
  5
2EBE
330
1E
100
AcDbEntity
  8
7
100
AcDbLine
 10
2.944536218503936
 20
3.704281312494483
 30
0.0
 11
3.063959522145669
 21
3.704281312494483
 31
0.0
  0
LINE
  5
2EBF
330
1E
100
AcDbEntity
  8
7
100
AcDbLine
 10
2.924851058562991
 20
3.872261343990545
 30
0.0
 11
2.927475746555118
 21
3.870948999994483
 31
0.0
  0
LINE
  5
2EC0
330
1E
100
AcDbEntity
  8
7
100
AcDbLine
 10
3.083644682086613
 20
3.872261343990545
 30
0.0
 11
3.081019994094487
 21
3.870948999994483
 31
0.0
  0
LINE
  5
2EC1
330
1E
100
AcDbEntity
  8
7
100
AcDbLine
 10
2.924851058562991
 20
3.872261343990545
 30
0.0
 11
2.934037466535432
 21
3.872261343990545
 31
0.0
  0
LINE
  5
2EC8
330
1E
100
AcDbEntity
  8
7
100
AcDbLine
 10
3.079707650098424
 20
3.70296896849842
 30
0.0
 11
3.079707650098424
 21
3.848639152061412
 31
0.0
  0
LINE
  5
2EC9
330
1E
100
AcDbEntity
  8
7
100
AcDbLine
 10
2.92878809055118
 20
3.70296896849842
 30
0.0
 11
2.92878809055118
 21
3.848639152061412
 31
0.0
  0
LINE
  5
2ECF
330
1E
100
AcDbEntity
  8
7
100
AcDbLine
 10
3.500970072834645
 20
3.823704616136215
 30
0.0
 11
3.499657728838582
 21
3.823704616136215
 31
0.0
  0
LINE
  5
2EDA
330
1E
100
AcDbEntity
  8
7
100
AcDbLine
 10
3.58233540059055
 20
3.412940945368498
 30
0.0
 11
3.583647744586613
 21
3.411628601372436
 31
0.0
  0
LINE
  5
2EDB
330
1E
100
AcDbEntity
  8
7
100
AcDbLine
 10
3.583647744586613
 20
3.84338977607716
 30
0.0
 11
3.58233540059055
 21
3.84338977607716
 31
0.0
  0
LINE
  5
2EDC
330
1E
100
AcDbEntity
  8
7
100
AcDbLine
 10
3.490471320866141
 20
3.42212735334094
 30
0.0
 11
3.497033040846456
 21
3.424752041333066
 31
0.0
  0
LINE
  5
2EDD
330
1E
100
AcDbEntity
  8
7
100
AcDbLine
 10
3.497033040846456
 20
3.424752041333066
 30
0.0
 11
3.499657728838582
 21
3.431313761313381
 31
0.0
  0
LINE
  5
2EE4
330
1E
100
AcDbEntity
  8
7
100
AcDbLine
 10
1.112503999999999
 20
3.832891024108656
 30
0.0
 11
1.109879312007874
 21
3.834203368104719
 31
0.0
  0
LINE
  5
2EE5
330
1E
100
AcDbEntity
  8
7
100
AcDbLine
 10
0.6426848494094486
 20
3.873573687986609
 30
0.0
 11
0.6426848494094486
 21
3.872261343990545
 31
0.0
  0
LINE
  5
2EE6
330
1E
100
AcDbEntity
  8
7
100
AcDbLine
 10
1.111191656003936
 20
3.873573687986609
 30
0.0
 11
1.109879312007874
 21
3.872261343990545
 31
0.0
  0
LINE
  5
2EE7
330
1E
100
AcDbEntity
  8
7
100
AcDbLine
 10
0.9681461604330703
 20
3.922130415840939
 30
0.0
 11
0.9602720964566922
 21
3.930004479817317
 31
0.0
  0
LINE
  5
2EE8
330
1E
100
AcDbEntity
  8
7
100
AcDbLine
 10
0.7752315930118101
 20
3.890634159935428
 30
0.0
 11
0.7765439370078742
 21
3.891946503931491
 31
0.0
  0
LINE
  5
2EE9
330
1E
100
AcDbEntity
  8
7
100
AcDbLine
 10
0.8999042726377952
 20
3.890634159935428
 30
0.0
 11
0.8985919286417312
 21
3.891946503931491
 31
0.0
  0
LINE
  5
2EEA
330
1E
100
AcDbEntity
  8
7
100
AcDbLine
 10
0.7161761131889764
 20
3.930004479817317
 30
0.0
 11
0.7083020492125974
 21
3.922130415840939
 31
0.0
  0
LINE
  5
2EEB
330
1E
100
AcDbEntity
  8
7
100
AcDbLine
 10
0.7148637691929132
 20
3.932629167809444
 30
0.0
 11
0.7148637691929132
 21
3.931316823813381
 31
0.0
  0
LINE
  5
2EEC
330
1E
100
AcDbEntity
  8
7
100
AcDbLine
 10
0.7148637691929132
 20
3.932629167809444
 30
0.0
 11
0.7069897052165351
 21
3.923442759837002
 31
0.0
  0
LINE
  5
2EF3
330
1E
100
AcDbEntity
  8
7
100
AcDbLine
 10
0.7083020492125974
 20
3.922130415840939
 30
0.0
 11
0.7083020492125974
 21
3.898508223911805
 31
0.0
  0
LINE
  5
2EFA
330
1E
100
AcDbEntity
  8
7
100
AcDbLine
 10
0.9681461604330703
 20
3.898508223911805
 30
0.0
 11
0.9681461604330703
 21
3.922130415840939
 31
0.0
  0
LINE
  5
2EFB
330
1E
100
AcDbEntity
  8
7
100
AcDbLine
 10
0.9694585044291335
 20
3.923442759837002
 30
0.0
 11
0.9615844404527553
 21
3.932629167809444
 31
0.0
  0
LINE
  5
2F01
330
1E
100
AcDbEntity
  8
7
100
AcDbLine
 10
0.9615844404527553
 20
3.885384783951176
 30
0.0
 11
0.9602720964566922
 21
3.890634159935428
 31
0.0
  0
LINE
  5
2F02
330
1E
100
AcDbEntity
  8
7
100
AcDbLine
 10
0.9615844404527553
 20
3.885384783951176
 30
0.0
 11
0.9694585044291335
 21
3.894571191923617
 31
0.0
  0
LINE
  5
2F03
330
1E
100
AcDbEntity
  8
7
100
AcDbLine
 10
0.9077783366141725
 20
3.890634159935428
 30
0.0
 11
0.8999042726377952
 21
3.890634159935428
 31
0.0
  0
LINE
  5
2F04
330
1E
100
AcDbEntity
  8
7
100
AcDbLine
 10
0.7752315930118101
 20
3.890634159935428
 30
0.0
 11
0.7673575290354329
 21
3.890634159935428
 31
0.0
  0
LINE
  5
2F05
330
1E
100
AcDbEntity
  8
7
100
AcDbLine
 10
0.7161761131889764
 20
3.890634159935428
 30
0.0
 11
0.7148637691929132
 21
3.885384783951176
 31
0.0
  0
LINE
  5
2F06
330
1E
100
AcDbEntity
  8
7
100
AcDbLine
 10
0.7148637691929132
 20
3.885384783951176
 30
0.0
 11
0.9615844404527553
 21
3.885384783951176
 31
0.0
  0
LINE
  5
2F07
330
1E
100
AcDbEntity
  8
7
100
AcDbLine
 10
0.7069897052165351
 20
3.894571191923617
 30
0.0
 11
0.7148637691929132
 21
3.885384783951176
 31
0.0
  0
LINE
  5
2F17
330
1E
100
AcDbEntity
  8
7
100
AcDbLine
 10
0.7148637691929132
 20
3.877510719974798
 30
0.0
 11
0.7148637691929132
 21
3.884072439955113
 31
0.0
  0
LINE
  5
2F18
330
1E
100
AcDbEntity
  8
7
100
AcDbLine
 10
0.7148637691929132
 20
3.884072439955113
 30
0.0
 11
0.7148637691929132
 21
3.885384783951176
 31
0.0
  0
LINE
  5
2F3B
330
1E
100
AcDbEntity
  8
7
100
AcDbLine
 10
1.267360591535432
 20
3.776460232277948
 30
0.0
 11
1.267360591535432
 21
3.70296896849842
 31
0.0
  0
LINE
  5
2F46
330
1E
100
AcDbEntity
  8
7
100
AcDbLine
 10
1.132189159940944
 20
3.54942472095905
 30
0.0
 11
1.251612463582676
 21
3.54942472095905
 31
0.0
  0
LINE
  5
2F51
330
1E
100
AcDbEntity
  8
7
100
AcDbLine
 10
1.115128687992125
 20
3.70296896849842
 30
0.0
 11
1.115128687992125
 21
3.776460232277948
 31
0.0
  0
LINE
  5
2F60
330
1E
100
AcDbEntity
  8
7
100
AcDbLine
 10
1.132189159940944
 20
3.477245801175585
 30
0.0
 11
1.251612463582676
 21
3.477245801175585
 31
0.0
  0
LINE
  5
2F61
330
1E
100
AcDbEntity
  8
7
100
AcDbLine
 10
1.115128687992125
 20
3.776460232277948
 30
0.0
 11
1.112503999999999
 21
3.77777257627401
 31
0.0
  0
LINE
  5
2F62
330
1E
100
AcDbEntity
  8
7
100
AcDbLine
 10
1.132189159940944
 20
3.475933457179523
 30
0.0
 11
1.132189159940944
 21
3.477245801175585
 31
0.0
  0
LINE
  5
2F63
330
1E
100
AcDbEntity
  8
7
100
AcDbLine
 10
1.251612463582676
 20
3.477245801175585
 30
0.0
 11
1.251612463582676
 21
3.475933457179523
 31
0.0
  0
LINE
  5
2F64
330
1E
100
AcDbEntity
  8
7
100
AcDbLine
 10
1.271297623523621
 20
3.77777257627401
 30
0.0
 11
1.267360591535432
 21
3.776460232277948
 31
0.0
  0
LINE
  5
2F6A
330
1E
100
AcDbEntity
  8
7
100
AcDbLine
 10
1.268672935531496
 20
3.849951496057475
 30
0.0
 11
1.267360591535432
 21
3.848639152061412
 31
0.0
  0
LINE
  5
2F6B
330
1E
100
AcDbEntity
  8
7
100
AcDbLine
 10
1.116441031988188
 20
3.848639152061412
 30
0.0
 11
1.115128687992125
 21
3.849951496057475
 31
0.0
  0
LINE
  5
2F7F
330
1E
100
AcDbEntity
  8
7
100
AcDbLine
 10
1.297544503444881
 20
3.687220840545664
 30
0.0
 11
1.084944776082676
 21
3.687220840545664
 31
0.0
  0
LINE
  5
2F80
330
1E
100
AcDbEntity
  8
7
100
AcDbLine
 10
1.297544503444881
 20
3.567797536903932
 30
0.0
 11
1.084944776082676
 21
3.567797536903932
 31
0.0
  0
LINE
  5
2F81
330
1E
100
AcDbEntity
  8
7
100
AcDbLine
 10
1.09544352805118
 20
3.695094904522042
 30
0.0
 11
1.28835809547244
 21
3.695094904522042
 31
0.0
  0
LINE
  5
2F82
330
1E
100
AcDbEntity
  8
7
100
AcDbLine
 10
1.084944776082676
 20
3.687220840545664
 30
0.0
 11
1.09544352805118
 21
3.695094904522042
 31
0.0
  0
LINE
  5
2F83
330
1E
100
AcDbEntity
  8
7
100
AcDbLine
 10
1.28835809547244
 20
3.695094904522042
 30
0.0
 11
1.297544503444881
 21
3.687220840545664
 31
0.0
  0
LINE
  5
2F84
330
1E
100
AcDbEntity
  8
7
100
AcDbLine
 10
1.09544352805118
 20
3.559923472927554
 30
0.0
 11
1.28835809547244
 21
3.559923472927554
 31
0.0
  0
LINE
  5
2F8A
330
1E
100
AcDbEntity
  8
7
100
AcDbLine
 10
1.132189159940944
 20
3.550737064955113
 30
0.0
 11
1.251612463582676
 21
3.550737064955113
 31
0.0
  0
LINE
  5
2F90
330
1E
100
AcDbEntity
  8
7
100
AcDbLine
 10
1.09544352805118
 20
3.559923472927554
 30
0.0
 11
1.084944776082676
 21
3.567797536903932
 31
0.0
  0
LINE
  5
2F91
330
1E
100
AcDbEntity
  8
7
100
AcDbLine
 10
1.297544503444881
 20
3.567797536903932
 30
0.0
 11
1.28835809547244
 21
3.559923472927554
 31
0.0
  0
LINE
  5
2F97
330
1E
100
AcDbEntity
  8
7
100
AcDbLine
 10
1.132189159940944
 20
3.704281312494483
 30
0.0
 11
1.251612463582676
 21
3.704281312494483
 31
0.0
  0
LINE
  5
2FB0
330
1E
100
AcDbEntity
  8
7
100
AcDbLine
 10
1.116441031988188
 20
3.70296896849842
 30
0.0
 11
1.115128687992125
 21
3.70296896849842
 31
0.0
  0
LINE
  5
2FB1
330
1E
100
AcDbEntity
  8
7
100
AcDbLine
 10
1.132189159940944
 20
3.54942472095905
 30
0.0
 11
1.132189159940944
 21
3.550737064955113
 31
0.0
  0
LINE
  5
2FB2
330
1E
100
AcDbEntity
  8
7
100
AcDbLine
 10
1.251612463582676
 20
3.54942472095905
 30
0.0
 11
1.251612463582676
 21
3.550737064955113
 31
0.0
  0
LINE
  5
2FB8
330
1E
100
AcDbEntity
  8
7
100
AcDbLine
 10
1.251612463582676
 20
3.704281312494483
 30
0.0
 11
1.132189159940944
 21
3.704281312494483
 31
0.0
  0
LINE
  5
2FB9
330
1E
100
AcDbEntity
  8
7
100
AcDbLine
 10
1.271297623523621
 20
3.872261343990545
 30
0.0
 11
1.268672935531496
 21
3.870948999994483
 31
0.0
  0
LINE
  5
2FBA
330
1E
100
AcDbEntity
  8
7
100
AcDbLine
 10
1.271297623523621
 20
3.872261343990545
 30
0.0
 11
1.26211121555118
 21
3.872261343990545
 31
0.0
  0
LINE
  5
2FC0
330
1E
100
AcDbEntity
  8
7
100
AcDbLine
 10
1.116441031988188
 20
3.70296896849842
 30
0.0
 11
1.116441031988188
 21
3.848639152061412
 31
0.0
  0
LINE
  5
2FCB
330
1E
100
AcDbEntity
  8
7
100
AcDbLine
 10
1.267360591535432
 20
3.70296896849842
 30
0.0
 11
1.267360591535432
 21
3.848639152061412
 31
0.0
  0
LINE
  5
2FCC
330
1E
100
AcDbEntity
  8
7
100
AcDbLine
 10
0.6951786092519683
 20
3.823704616136215
 30
0.0
 11
0.6964909532480315
 21
3.823704616136215
 31
0.0
  0
LINE
  5
2FD7
330
1E
100
AcDbEntity
  8
7
100
AcDbLine
 10
0.6125009375000002
 20
3.411628601372436
 30
0.0
 11
0.6125009375000002
 21
3.412940945368498
 31
0.0
  0
LINE
  5
2FDD
330
1E
100
AcDbEntity
  8
7
100
AcDbLine
 10
1.763426622047243
 20
6.205608968990546
 30
0.0
 11
1.162373071850393
 21
6.205608968990546
 31
0.0
  0
LINE
  5
2FDE
330
1E
100
AcDbEntity
  8
7
100
AcDbLine
 10
1.162373071850393
 20
5.545499938970861
 30
0.0
 11
1.205680423720472
 21
5.545499938970861
 31
0.0
  0
LINE
  5
2FDF
330
1E
100
AcDbEntity
  8
7
100
AcDbLine
 10
1.763426622047243
 20
5.055995628439365
 30
0.0
 11
1.162373071850393
 21
5.055995628439365
 31
0.0
  0
LINE
  5
2FE0
330
1E
100
AcDbEntity
  8
7
100
AcDbLine
 10
1.162373071850393
 20
4.395886598419679
 30
0.0
 11
1.205680423720472
 21
4.395886598419679
 31
0.0
  0
LINE
  5
2FE1
330
1E
100
AcDbEntity
  8
7
100
AcDbLine
 10
3.03377561023622
 20
5.055995628439365
 30
0.0
 11
2.432722060039369
 21
5.055995628439365
 31
0.0
  0
LINE
  5
2FE2
330
1E
100
AcDbEntity
  8
7
100
AcDbLine
 10
2.990468258366141
 20
4.395886598419679
 30
0.0
 11
3.03377561023622
 21
4.395886598419679
 31
0.0
  0
LINE
  5
2FE3
330
1E
100
AcDbEntity
  8
7
100
AcDbLine
 10
3.03377561023622
 20
6.205608968990546
 30
0.0
 11
2.432722060039369
 21
6.205608968990546
 31
0.0
  0
LINE
  5
2FE4
330
1E
100
AcDbEntity
  8
7
100
AcDbLine
 10
2.990468258366141
 20
5.545499938970861
 30
0.0
 11
3.03377561023622
 21
5.545499938970861
 31
0.0
  0
LINE
  5
2FEA
330
1E
100
AcDbEntity
  8
7
100
AcDbLine
 10
1.150561975885826
 20
5.557311034935428
 30
0.0
 11
1.150561975885826
 21
6.193797873025979
 31
0.0
  0
LINE
  5
2FF5
330
1E
100
AcDbEntity
  8
7
100
AcDbLine
 10
1.77523771801181
 20
6.193797873025979
 30
0.0
 11
1.77523771801181
 21
5.557311034935428
 31
0.0
  0
LINE
  5
2FFB
330
1E
100
AcDbEntity
  8
7
100
AcDbLine
 10
1.720119270177165
 20
5.545499938970861
 30
0.0
 11
1.763426622047243
 21
5.545499938970861
 31
0.0
  0
LINE
  5
3001
330
1E
100
AcDbEntity
  8
7
100
AcDbLine
 10
1.708308174212597
 20
5.533688843006293
 30
0.0
 11
1.708308174212597
 21
5.493006179128342
 31
0.0
  0
LINE
  5
3007
330
1E
100
AcDbEntity
  8
7
100
AcDbLine
 10
1.229302615649605
 20
5.481195083163774
 30
0.0
 11
1.696497078248031
 21
5.481195083163774
 31
0.0
  0
LINE
  5
300D
330
1E
100
AcDbEntity
  8
7
100
AcDbLine
 10
1.217491519685038
 20
5.533688843006293
 30
0.0
 11
1.217491519685038
 21
5.493006179128342
 31
0.0
  0
LINE
  5
3013
330
1E
100
AcDbEntity
  8
7
100
AcDbLine
 10
3.045586706200787
 20
4.407697694384246
 30
0.0
 11
3.045586706200787
 21
5.044184532474798
 31
0.0
  0
LINE
  5
301E
330
1E
100
AcDbEntity
  8
7
100
AcDbLine
 10
2.977344818405511
 20
4.384075502455114
 30
0.0
 11
2.977344818405511
 21
4.342080494581098
 31
0.0
  0
LINE
  5
3024
330
1E
100
AcDbEntity
  8
7
100
AcDbLine
 10
2.499651603838582
 20
4.33026939861653
 30
0.0
 11
2.965533722440944
 21
4.33026939861653
 31
0.0
  0
LINE
  5
302A
330
1E
100
AcDbEntity
  8
7
100
AcDbLine
 10
2.487840507874015
 20
4.384075502455114
 30
0.0
 11
2.487840507874015
 21
4.342080494581098
 31
0.0
  0
LINE
  5
3030
330
1E
100
AcDbEntity
  8
7
100
AcDbLine
 10
2.432722060039369
 20
4.395886598419679
 30
0.0
 11
2.476029411909448
 21
4.395886598419679
 31
0.0
  0
LINE
  5
3036
330
1E
100
AcDbEntity
  8
7
100
AcDbLine
 10
2.420910964074802
 20
5.044184532474798
 30
0.0
 11
2.420910964074802
 21
4.407697694384246
 31
0.0
  0
LINE
  5
304B
330
1E
100
AcDbEntity
  8
7
100
AcDbLine
 10
3.175508761811023
 20
3.912944007868498
 30
0.0
 11
3.175508761811023
 21
3.947064951766137
 31
0.0
  0
LINE
  5
3054
330
1E
100
AcDbEntity
  8
7
100
AcDbLine
 10
3.479972568897637
 20
3.947064951766137
 30
0.0
 11
3.235876585629921
 21
3.947064951766137
 31
0.0
  0
LINE
  5
305D
330
1E
100
AcDbEntity
  8
7
100
AcDbLine
 10
3.540340392716534
 20
3.912944007868498
 30
0.0
 11
3.540340392716534
 21
3.947064951766137
 31
0.0
  0
LINE
  5
3068
330
1E
100
AcDbEntity
  8
7
100
AcDbLine
 10
3.592834152559053
 20
3.401129849403932
 30
0.0
 11
3.592834152559053
 21
3.853888528045664
 31
0.0
  0
LINE
  5
3069
330
1E
100
AcDbEntity
  8
7
100
AcDbLine
 10
3.563962584645668
 20
3.372258281490546
 30
0.0
 11
3.584960088582676
 21
3.380132345466924
 31
0.0
  0
LINE
  5
306A
330
1E
100
AcDbEntity
  8
7
100
AcDbLine
 10
3.584960088582676
 20
3.380132345466924
 30
0.0
 11
3.592834152559053
 21
3.401129849403932
 31
0.0
  0
LINE
  5
306B
330
1E
100
AcDbEntity
  8
7
100
AcDbLine
 10
0.6321860974409442
 20
3.370945937494483
 30
0.0
 11
3.563962584645668
 21
3.370945937494483
 31
0.0
  0
LINE
  5
3071
330
1E
100
AcDbEntity
  8
7
100
AcDbLine
 10
0.6020021855314957
 20
3.401129849403932
 30
0.0
 11
0.6020021855314957
 21
3.853888528045664
 31
0.0
  0
LINE
  5
307C
330
1E
100
AcDbEntity
  8
7
100
AcDbLine
 10
0.6558082893700786
 20
3.947064951766137
 30
0.0
 11
0.6558082893700786
 21
3.912944007868498
 31
0.0
  0
LINE
  5
307D
330
1E
100
AcDbEntity
  8
7
100
AcDbLine
 10
0.7148637691929132
 20
3.947064951766137
 30
0.0
 11
0.7096143932086614
 21
3.964125423714955
 31
0.0
  0
LINE
  5
3085
330
1E
100
AcDbEntity
  8
7
100
AcDbLine
 10
0.7148637691929132
 20
3.947064951766137
 30
0.0
 11
0.9602720964566922
 21
3.947064951766137
 31
0.0
  0
LINE
  5
308E
330
1E
100
AcDbEntity
  8
7
100
AcDbLine
 10
1.02063992027559
 20
3.947064951766137
 30
0.0
 11
1.02063992027559
 21
3.912944007868498
 31
0.0
  0
LINE
  5
309E
330
1E
100
AcDbEntity
  8
7
100
AcDbLine
 10
1.091506496062992
 20
3.903757599896057
 30
0.0
 11
1.090194152066928
 21
3.903757599896057
 31
0.0
  0
LINE
  5
30A4
330
1E
100
AcDbEntity
  8
7
100
AcDbLine
 10
1.266048247539369
 20
3.888009471943301
 30
0.0
 11
1.117753375984252
 21
3.888009471943301
 31
0.0
  0
LINE
  5
30AA
330
1E
100
AcDbEntity
  8
7
100
AcDbLine
 10
1.292295127460629
 20
3.903757599896057
 30
0.0
 11
1.293607471456692
 21
3.903757599896057
 31
0.0
  0
LINE
  5
30B0
330
1E
100
AcDbEntity
  8
7
100
AcDbLine
 10
1.317229663385826
 20
3.893258847927553
 30
0.0
 11
1.326416071358267
 21
3.886697127947239
 31
0.0
  0
LINE
  5
30B1
330
1E
100
AcDbEntity
  8
7
100
AcDbLine
 10
1.326416071358267
 20
3.886697127947239
 30
0.0
 11
1.338227167322834
 21
3.884072439955113
 31
0.0
  0
LINE
  5
30B2
330
1E
100
AcDbEntity
  8
7
100
AcDbLine
 10
1.338227167322834
 20
3.884072439955113
 30
0.0
 11
2.857921514763779
 21
3.884072439955113
 31
0.0
  0
LINE
  5
30BD
330
1E
100
AcDbEntity
  8
7
100
AcDbLine
 10
2.903853554625983
 20
3.903757599896057
 30
0.0
 11
2.902541210629921
 21
3.903757599896057
 31
0.0
  0
LINE
  5
30C3
330
1E
100
AcDbEntity
  8
7
100
AcDbLine
 10
2.930100434547244
 20
3.888009471943301
 30
0.0
 11
3.078395306102361
 21
3.888009471943301
 31
0.0
  0
LINE
  5
30C9
330
1E
100
AcDbEntity
  8
7
100
AcDbLine
 10
3.104642186023621
 20
3.903757599896057
 30
0.0
 11
3.105954530019684
 21
3.903757599896057
 31
0.0
  0
LINE
  5
30D9
330
1E
100
AcDbEntity
  8
7
100
AcDbLine
 10
1.090194152066928
 20
6.609810919777948
 30
0.0
 11
1.090194152066928
 21
6.590125759837002
 31
0.0
  0
LINE
  5
30E2
330
1E
100
AcDbEntity
  8
7
100
AcDbLine
 10
0.7857303449803146
 20
6.590125759837002
 30
0.0
 11
1.029826328248031
 21
6.590125759837002
 31
0.0
  0
LINE
  5
30EB
330
1E
100
AcDbEntity
  8
7
100
AcDbLine
 10
0.7253625211614168
 20
6.622934359738579
 30
0.0
 11
0.7253625211614168
 21
6.590125759837002
 31
0.0
  0
LINE
  5
30F1
330
1E
100
AcDbEntity
  8
7
100
AcDbLine
 10
0.6321860974409442
 20
6.653118271648026
 30
0.0
 11
0.6951786092519683
 21
6.653118271648026
 31
0.0
  0
LINE
  5
30F7
330
1E
100
AcDbEntity
  8
7
100
AcDbLine
 10
0.6020021855314957
 20
7.134748518203145
 30
0.0
 11
0.6020021855314957
 21
6.681989839561413
 31
0.0
  0
LINE
  5
30FD
330
1E
100
AcDbEntity
  8
7
100
AcDbLine
 10
0.6321860974409442
 20
7.164932430112594
 30
0.0
 11
3.563962584645668
 21
7.164932430112594
 31
0.0
  0
LINE
  5
3103
330
1E
100
AcDbEntity
  8
7
100
AcDbLine
 10
3.592834152559053
 20
7.134748518203145
 30
0.0
 11
3.592834152559053
 21
6.681989839561413
 31
0.0
  0
LINE
  5
3109
330
1E
100
AcDbEntity
  8
7
100
AcDbLine
 10
3.500970072834645
 20
6.653118271648026
 30
0.0
 11
3.563962584645668
 21
6.653118271648026
 31
0.0
  0
LINE
  5
310F
330
1E
100
AcDbEntity
  8
7
100
AcDbLine
 10
3.470786160925196
 20
6.622934359738579
 30
0.0
 11
3.470786160925196
 21
6.590125759837002
 31
0.0
  0
LINE
  5
3118
330
1E
100
AcDbEntity
  8
7
100
AcDbLine
 10
3.410418337106297
 20
6.590125759837002
 30
0.0
 11
3.165010009842519
 21
6.590125759837002
 31
0.0
  0
LINE
  5
3119
330
1E
100
AcDbEntity
  8
7
100
AcDbLine
 10
3.105954530019684
 20
6.590125759837002
 30
0.0
 11
3.111203906003936
 21
6.573065287888184
 31
0.0
  0
LINE
  5
3121
330
1E
100
AcDbEntity
  8
7
100
AcDbLine
 10
3.105954530019684
 20
6.609810919777948
 30
0.0
 11
3.105954530019684
 21
6.590125759837002
 31
0.0
  0
LINE
  5
312C
330
1E
100
AcDbEntity
  8
7
100
AcDbLine
 10
2.930100434547244
 20
6.647868895663775
 30
0.0
 11
3.078395306102361
 21
6.647868895663775
 31
0.0
  0
LINE
  5
3132
330
1E
100
AcDbEntity
  8
7
100
AcDbLine
 10
2.903853554625983
 20
6.632120767711018
 30
0.0
 11
2.902541210629921
 21
6.632120767711018
 31
0.0
  0
LINE
  5
313D
330
1E
100
AcDbEntity
  8
7
100
AcDbLine
 10
1.338227167322834
 20
6.653118271648026
 30
0.0
 11
2.857921514763779
 21
6.653118271648026
 31
0.0
  0
LINE
  5
3148
330
1E
100
AcDbEntity
  8
7
100
AcDbLine
 10
1.292295127460629
 20
6.632120767711018
 30
0.0
 11
1.293607471456692
 21
6.632120767711018
 31
0.0
  0
LINE
  5
314E
330
1E
100
AcDbEntity
  8
7
100
AcDbLine
 10
1.117753375984252
 20
6.647868895663775
 30
0.0
 11
1.266048247539369
 21
6.647868895663775
 31
0.0
  0
LINE
  5
314F
330
1E
100
AcDbEntity
  8
7
100
AcDbLine
 10
-0.0147994926181099
 20
3.20296590599842
 30
0.0
 11
-0.0147994926181099
 21
7.332912461608657
 31
0.0
  0
LINE
  5
3150
330
1E
100
AcDbEntity
  8
7
100
AcDbLine
 10
4.210948174704723
 20
3.20296590599842
 30
0.0
 11
-0.0147994926181099
 21
3.20296590599842
 31
0.0
  0
LINE
  5
3156
330
1E
100
AcDbEntity
  8
7
100
AcDbLine
 10
3.045586706200787
 20
5.557311034935428
 30
0.0
 11
3.045586706200787
 21
6.193797873025979
 31
0.0
  0
LINE
  5
3161
330
1E
100
AcDbEntity
  8
7
100
AcDbLine
 10
2.977344818405511
 20
5.533688843006293
 30
0.0
 11
2.977344818405511
 21
5.493006179128342
 31
0.0
  0
LINE
  5
3167
330
1E
100
AcDbEntity
  8
7
100
AcDbLine
 10
2.499651603838582
 20
5.481195083163774
 30
0.0
 11
2.965533722440944
 21
5.481195083163774
 31
0.0
  0
LINE
  5
316D
330
1E
100
AcDbEntity
  8
7
100
AcDbLine
 10
2.487840507874015
 20
5.533688843006293
 30
0.0
 11
2.487840507874015
 21
5.493006179128342
 31
0.0
  0
LINE
  5
3173
330
1E
100
AcDbEntity
  8
7
100
AcDbLine
 10
2.432722060039369
 20
5.545499938970861
 30
0.0
 11
2.476029411909448
 21
5.545499938970861
 31
0.0
  0
LINE
  5
3179
330
1E
100
AcDbEntity
  8
7
100
AcDbLine
 10
2.420910964074802
 20
6.193797873025979
 30
0.0
 11
2.420910964074802
 21
5.557311034935428
 31
0.0
  0
LINE
  5
3189
330
1E
100
AcDbEntity
  8
7
100
AcDbLine
 10
1.150561975885826
 20
4.407697694384246
 30
0.0
 11
1.150561975885826
 21
5.044184532474798
 31
0.0
  0
LINE
  5
3194
330
1E
100
AcDbEntity
  8
7
100
AcDbLine
 10
1.77523771801181
 20
5.044184532474798
 30
0.0
 11
1.77523771801181
 21
4.407697694384246
 31
0.0
  0
LINE
  5
3195
330
1E
100
AcDbEntity
  8
7
100
AcDbLine
 10
1.763426622047243
 20
4.395886598419679
 30
0.0
 11
1.771300686023622
 21
4.399823630407869
 31
0.0
  0
LINE
  5
3196
330
1E
100
AcDbEntity
  8
7
100
AcDbLine
 10
1.771300686023622
 20
4.399823630407869
 30
0.0
 11
1.77523771801181
 21
4.407697694384246
 31
0.0
  0
LINE
  5
3197
330
1E
100
AcDbEntity
  8
7
100
AcDbLine
 10
1.720119270177165
 20
4.395886598419679
 30
0.0
 11
1.763426622047243
 21
4.395886598419679
 31
0.0
  0
LINE
  5
319D
330
1E
100
AcDbEntity
  8
7
100
AcDbLine
 10
1.708308174212597
 20
4.384075502455114
 30
0.0
 11
1.708308174212597
 21
4.342080494581098
 31
0.0
  0
LINE
  5
31A3
330
1E
100
AcDbEntity
  8
7
100
AcDbLine
 10
1.229302615649605
 20
4.33026939861653
 30
0.0
 11
1.696497078248031
 21
4.33026939861653
 31
0.0
  0
LINE
  5
31A9
330
1E
100
AcDbEntity
  8
7
100
AcDbLine
 10
1.217491519685038
 20
4.384075502455114
 30
0.0
 11
1.217491519685038
 21
4.342080494581098
 31
0.0
  0
LINE
  5
31AF
330
1E
100
AcDbEntity
  8
7
100
AcDbLine
 10
-0.0791043484251972
 20
7.332912461608657
 30
0.0
 11
-0.0791043484251972
 21
3.20296590599842
 31
0.0
  0
LINE
  5
31BF
330
1E
100
AcDbEntity
  8
7
100
AcDbLine
 10
-0.0791043484251972
 20
7.332912461608657
 30
0.0
 11
-0.1998399960629928
 21
7.453648109246452
 31
0.0
  0
LINE
  5
31C0
330
1E
100
AcDbEntity
  8
7
100
AcDbLine
 10
-0.1998399960629928
 20
3.048109314462986
 30
0.0
 11
-0.1998399960629928
 21
3.082230258360624
 31
0.0
  0
LINE
  5
31C1
330
1E
100
AcDbEntity
  8
7
100
AcDbLine
 10
-0.1998399960629928
 20
7.453648109246452
 30
0.0
 11
-0.1998399960629928
 21
7.48776905314409
 31
0.0
  0
LINE
  5
31C2
330
1E
100
AcDbEntity
  8
7
100
AcDbLine
 10
4.275253030511811
 20
7.332912461608657
 30
0.0
 11
4.275253030511811
 21
3.20296590599842
 31
0.0
  0
LINE
  5
31C3
330
1E
100
AcDbEntity
  8
7
100
AcDbLine
 10
4.395988678149605
 20
3.082230258360624
 30
0.0
 11
4.275253030511811
 21
3.20296590599842
 31
0.0
  0
LINE
  5
31C4
330
1E
100
AcDbEntity
  8
7
100
AcDbLine
 10
4.395988678149605
 20
7.453648109246452
 30
0.0
 11
4.395988678149605
 21
3.082230258360624
 31
0.0
  0
LINE
  5
31C5
330
1E
100
AcDbEntity
  8
7
100
AcDbLine
 10
4.395988678149605
 20
7.453648109246452
 30
0.0
 11
4.275253030511811
 21
7.332912461608657
 31
0.0
  0
LINE
  5
31D0
330
1E
100
AcDbEntity
  8
7
100
AcDbLine
 10
4.395988678149605
 20
3.048109314462986
 30
0.0
 11
4.395988678149605
 21
3.082230258360624
 31
0.0
  0
LINE
  5
31D1
330
1E
100
AcDbEntity
  8
7
100
AcDbLine
 10
4.395988678149605
 20
7.48776905314409
 30
0.0
 11
4.395988678149605
 21
7.453648109246452
 31
0.0
  0
LINE
  5
31E4
330
1E
100
AcDbEntity
  8
7
100
AcDbLine
 10
4.331683822342518
 20
7.517952965053538
 30
0.0
 11
4.365804766240156
 21
7.517952965053538
 31
0.0
  0
LINE
  5
31E5
330
1E
100
AcDbEntity
  8
7
100
AcDbLine
 10
4.210948174704723
 20
7.397217317415742
 30
0.0
 11
4.331683822342518
 21
7.517952965053538
 31
0.0
  0
LINE
  5
31EB
330
1E
100
AcDbEntity
  8
7
100
AcDbLine
 10
-0.0147994926181099
 20
7.397217317415742
 30
0.0
 11
4.210948174704723
 21
7.397217317415742
 31
0.0
  0
LINE
  5
31EC
330
1E
100
AcDbEntity
  8
7
100
AcDbLine
 10
-0.0147994926181099
 20
7.332912461608657
 30
0.0
 11
-0.0147994926181099
 21
7.367033405506294
 31
0.0
  0
LINE
  5
31ED
330
1E
100
AcDbEntity
  8
7
100
AcDbLine
 10
-0.0147994926181099
 20
7.367033405506294
 30
0.0
 11
-0.0147994926181099
 21
7.397217317415742
 31
0.0
  0
LINE
  5
31EE
330
1E
100
AcDbEntity
  8
7
100
AcDbLine
 10
-0.1355351402559064
 20
7.517952965053538
 30
0.0
 11
-0.0147994926181099
 21
7.397217317415742
 31
0.0
  0
LINE
  5
3209
330
1E
100
AcDbEntity
  8
7
100
AcDbLine
 10
3.074458274114173
 20
6.720047815447239
 30
0.0
 11
3.074458274114173
 21
6.814536583163774
 31
0.0
  0
LINE
  5
3214
330
1E
100
AcDbEntity
  8
7
100
AcDbLine
 10
3.058710146161417
 20
6.828972367120467
 30
0.0
 11
2.949785594488188
 21
6.828972367120467
 31
0.0
  0
LINE
  5
321F
330
1E
100
AcDbEntity
  8
7
100
AcDbLine
 10
2.934037466535432
 20
6.720047815447239
 30
0.0
 11
2.934037466535432
 21
6.814536583163774
 31
0.0
  0
LINE
  5
3220
330
1E
100
AcDbEntity
  8
7
100
AcDbLine
 10
3.074458274114173
 20
6.720047815447239
 30
0.0
 11
2.934037466535432
 21
6.720047815447239
 31
0.0
  0
LINE
  5
3226
330
1E
100
AcDbEntity
  8
7
100
AcDbLine
 10
3.074458274114173
 20
6.701674999502357
 30
0.0
 11
2.934037466535432
 21
6.701674999502357
 31
0.0
  0
LINE
  5
3236
330
1E
100
AcDbEntity
  8
7
100
AcDbLine
 10
1.26211121555118
 20
6.720047815447239
 30
0.0
 11
1.26211121555118
 21
6.814536583163774
 31
0.0
  0
LINE
  5
3241
330
1E
100
AcDbEntity
  8
7
100
AcDbLine
 10
1.246363087598425
 20
6.828972367120467
 30
0.0
 11
1.136126191929133
 21
6.828972367120467
 31
0.0
  0
LINE
  5
324C
330
1E
100
AcDbEntity
  8
7
100
AcDbLine
 10
1.12169040797244
 20
6.720047815447239
 30
0.0
 11
1.12169040797244
 21
6.814536583163774
 31
0.0
  0
LINE
  5
324D
330
1E
100
AcDbEntity
  8
7
100
AcDbLine
 10
1.26211121555118
 20
6.720047815447239
 30
0.0
 11
1.12169040797244
 21
6.720047815447239
 31
0.0
  0
LINE
  5
3253
330
1E
100
AcDbEntity
  8
7
100
AcDbLine
 10
1.26211121555118
 20
6.701674999502357
 30
0.0
 11
1.12169040797244
 21
6.701674999502357
 31
0.0
  0
LINE
  5
3263
330
1E
100
AcDbEntity
  8
7
100
AcDbLine
 10
1.029826328248031
 20
6.643931863675586
 30
0.0
 11
0.7857303449803146
 21
6.643931863675586
 31
0.0
  0
LINE
  5
3270
330
1E
100
AcDbEntity
  8
7
100
AcDbLine
 10
3.074458274114173
 20
3.817142896155901
 30
0.0
 11
3.074458274114173
 21
3.721341784443302
 31
0.0
  0
LINE
  5
3271
330
1E
100
AcDbEntity
  8
7
100
AcDbLine
 10
3.058710146161417
 20
3.706906000486609
 30
0.0
 11
2.949785594488188
 21
3.706906000486609
 31
0.0
  0
LINE
  5
3272
330
1E
100
AcDbEntity
  8
7
100
AcDbLine
 10
2.934037466535432
 20
3.817142896155901
 30
0.0
 11
2.934037466535432
 21
3.721341784443302
 31
0.0
  0
LINE
  5
3278
330
1E
100
AcDbEntity
  8
7
100
AcDbLine
 10
3.058710146161417
 20
3.706906000486609
 30
0.0
 11
3.069208898129921
 21
3.710843032474798
 31
0.0
  0
LINE
  5
3279
330
1E
100
AcDbEntity
  8
7
100
AcDbLine
 10
3.069208898129921
 20
3.710843032474798
 30
0.0
 11
3.073145930118109
 21
3.721341784443302
 31
0.0
  0
LINE
  5
327A
330
1E
100
AcDbEntity
  8
7
100
AcDbLine
 10
3.074458274114173
 20
3.817142896155901
 30
0.0
 11
2.934037466535432
 21
3.817142896155901
 31
0.0
  0
LINE
  5
329A
330
1E
100
AcDbEntity
  8
7
100
AcDbLine
 10
3.235876585629921
 20
3.891946503931491
 30
0.0
 11
3.479972568897637
 21
3.891946503931491
 31
0.0
  0
LINE
  5
32AC
330
1E
100
AcDbEntity
  8
7
100
AcDbLine
 10
4.275253030511811
 20
3.20296590599842
 30
0.0
 11
4.246381462598424
 21
3.167532618104719
 31
0.0
  0
LINE
  5
32AD
330
1E
100
AcDbEntity
  8
7
100
AcDbLine
 10
4.246381462598424
 20
3.167532618104719
 30
0.0
 11
4.210948174704723
 21
3.138661050191333
 31
0.0
  0
LINE
  5
32B7
330
1E
100
AcDbEntity
  8
7
100
AcDbLine
 10
4.210948174704723
 20
3.138661050191333
 30
0.0
 11
4.331683822342518
 21
3.017925402553538
 31
0.0
  0
LINE
  5
32B8
330
1E
100
AcDbEntity
  8
7
100
AcDbLine
 10
-0.0147994926181099
 20
3.138661050191333
 30
0.0
 11
4.210948174704723
 21
3.138661050191333
 31
0.0
  0
LINE
  5
32BE
330
1E
100
AcDbEntity
  8
7
100
AcDbLine
 10
-0.1355351402559064
 20
3.017925402553538
 30
0.0
 11
-0.1696560841535435
 21
3.017925402553538
 31
0.0
  0
LINE
  5
32C4
330
1E
100
AcDbEntity
  8
7
100
AcDbLine
 10
1.12169040797244
 20
3.817142896155901
 30
0.0
 11
1.12169040797244
 21
3.721341784443302
 31
0.0
  0
LINE
  5
32C5
330
1E
100
AcDbEntity
  8
7
100
AcDbLine
 10
1.136126191929133
 20
3.706906000486609
 30
0.0
 11
1.246363087598425
 21
3.706906000486609
 31
0.0
  0
LINE
  5
32C6
330
1E
100
AcDbEntity
  8
7
100
AcDbLine
 10
1.26211121555118
 20
3.817142896155901
 30
0.0
 11
1.26211121555118
 21
3.721341784443302
 31
0.0
  0
LINE
  5
32D1
330
1E
100
AcDbEntity
  8
7
100
AcDbLine
 10
1.12169040797244
 20
3.817142896155901
 30
0.0
 11
1.26211121555118
 21
3.817142896155901
 31
0.0
  0
LINE
  5
32F1
330
1E
100
AcDbEntity
  8
7
100
AcDbLine
 10
0.9602720964566922
 20
3.891946503931491
 30
0.0
 11
0.7148637691929132
 21
3.891946503931491
 31
0.0
  0
LINE
  5
330B
330
1E
100
AcDbEntity
  8
7
100
AcDbLine
 10
6.146655568897637
 20
4.117669671254326
 30
0.0
 11
6.159779008858267
 21
4.117669671254326
 31
0.0
  0
LINE
  5
3323
330
1E
100
AcDbEntity
  8
7
100
AcDbLine
 10
5.976050849409448
 20
3.048109314462986
 30
0.0
 11
6.146655568897637
 21
3.045484626470861
 31
0.0
  0
LINE
  5
3324
330
1E
100
AcDbEntity
  8
7
100
AcDbLine
 10
6.146655568897637
 20
7.491706085132278
 30
0.0
 11
5.976050849409448
 21
7.48776905314409
 31
0.0
  0
LINE
  5
3325
330
1E
100
AcDbEntity
  8
7
100
AcDbLine
 10
5.976050849409448
 20
7.517952965053538
 30
0.0
 11
6.146655568897637
 21
7.520577653045664
 31
0.0
  0
LINE
  5
3326
330
1E
100
AcDbEntity
  8
7
100
AcDbLine
 10
6.270015904527558
 20
6.657055303636216
 30
0.0
 11
6.270015904527558
 21
6.643931863675586
 31
0.0
  0
LINE
  5
3327
330
1E
100
AcDbEntity
  8
7
100
AcDbLine
 10
6.26214184055118
 20
6.666241711608657
 30
0.0
 11
6.270015904527558
 21
6.657055303636216
 31
0.0
  0
LINE
  5
332D
330
1E
100
AcDbEntity
  8
7
100
AcDbLine
 10
6.263454184547243
 20
6.657055303636216
 30
0.0
 11
6.260829496555118
 21
6.658367647632278
 31
0.0
  0
LINE
  5
3333
330
1E
100
AcDbEntity
  8
7
100
AcDbLine
 10
6.263454184547243
 20
6.643931863675586
 30
0.0
 11
6.263454184547243
 21
6.657055303636216
 31
0.0
  0
LINE
  5
333B
330
1E
100
AcDbEntity
  8
7
100
AcDbLine
 10
6.146655568897637
 20
6.683302183557476
 30
0.0
 11
6.26214184055118
 21
6.666241711608657
 31
0.0
  0
LINE
  5
333C
330
1E
100
AcDbEntity
  8
7
100
AcDbLine
 10
6.260829496555118
 20
6.658367647632278
 30
0.0
 11
6.146655568897637
 21
6.675428119581098
 31
0.0
  0
LINE
  5
334C
330
1E
100
AcDbEntity
  8
7
100
AcDbLine
 10
6.260829496555118
 20
6.570440599896057
 30
0.0
 11
6.260829496555118
 21
6.618997327750389
 31
0.0
  0
LINE
  5
336B
330
1E
100
AcDbEntity
  8
7
100
AcDbLine
 10
6.260829496555118
 20
6.541569031982673
 30
0.0
 11
6.260829496555118
 21
6.550755439955113
 31
0.0
  0
LINE
  5
3376
330
1E
100
AcDbEntity
  8
7
100
AcDbLine
 10
6.146655568897637
 20
6.638682487691334
 30
0.0
 11
6.260829496555118
 21
6.628183735722831
 31
0.0
  0
LINE
  5
3377
330
1E
100
AcDbEntity
  8
7
100
AcDbLine
 10
6.260829496555118
 20
6.618997327750389
 30
0.0
 11
6.146655568897637
 21
6.628183735722831
 31
0.0
  0
LINE
  5
3378
330
1E
100
AcDbEntity
  8
7
100
AcDbLine
 10
6.146655568897637
 20
6.569128255899995
 30
0.0
 11
6.260829496555118
 21
6.570440599896057
 31
0.0
  0
LINE
  5
3379
330
1E
100
AcDbEntity
  8
7
100
AcDbLine
 10
6.260829496555118
 20
6.561254191923618
 30
0.0
 11
6.146655568897637
 21
6.558629503931491
 31
0.0
  0
LINE
  5
337A
330
1E
100
AcDbEntity
  8
7
100
AcDbLine
 10
6.260829496555118
 20
6.550755439955113
 30
0.0
 11
6.146655568897637
 21
6.54944309595905
 31
0.0
  0
LINE
  5
337B
330
1E
100
AcDbEntity
  8
7
100
AcDbLine
 10
6.146655568897637
 20
6.538944343990546
 30
0.0
 11
6.260829496555118
 21
6.541569031982673
 31
0.0
  0
LINE
  5
337C
330
1E
100
AcDbEntity
  8
7
100
AcDbLine
 10
6.260829496555118
 20
6.531070280014168
 30
0.0
 11
6.146655568897637
 21
6.528445592022042
 31
0.0
  0
LINE
  5
3382
330
1E
100
AcDbEntity
  8
7
100
AcDbLine
 10
6.340882480314959
 20
4.368327374502357
 30
0.0
 11
6.340882480314959
 21
4.357828622533854
 31
0.0
  0
LINE
  5
3389
330
1E
100
AcDbEntity
  8
7
100
AcDbLine
 10
6.32775904035433
 20
4.439193950289758
 30
0.0
 11
6.32775904035433
 21
4.410322382376373
 31
0.0
  0
LINE
  5
338A
330
1E
100
AcDbEntity
  8
7
100
AcDbLine
 10
6.32775904035433
 20
4.439193950289758
 30
0.0
 11
6.336945448326771
 21
4.437881606293696
 31
0.0
  0
LINE
  5
3391
330
1E
100
AcDbEntity
  8
7
100
AcDbLine
 10
6.435371248031495
 20
4.359140966529916
 30
0.0
 11
6.410436712106298
 21
4.395886598419679
 31
0.0
  0
LINE
  5
3397
330
1E
100
AcDbEntity
  8
7
100
AcDbLine
 10
6.483927975885826
 20
4.334206430604719
 30
0.0
 11
6.557419239665354
 21
4.332894086608656
 31
0.0
  0
LINE
  5
339D
330
1E
100
AcDbEntity
  8
7
100
AcDbLine
 10
6.573167367618109
 20
4.317145958655901
 30
0.0
 11
6.573167367618109
 21
4.296148454718893
 31
0.0
  0
LINE
  5
339E
330
1E
100
AcDbEntity
  8
7
100
AcDbLine
 10
6.558731583661416
 20
4.2817126707622
 30
0.0
 11
6.159779008858267
 21
4.254153446844877
 31
0.0
  0
LINE
  5
33A4
330
1E
100
AcDbEntity
  8
7
100
AcDbLine
 10
6.340882480314959
 20
5.519253059049602
 30
0.0
 11
6.340882480314959
 21
5.507441963085033
 31
0.0
  0
LINE
  5
33AB
330
1E
100
AcDbEntity
  8
7
100
AcDbLine
 10
6.32775904035433
 20
5.588807290840939
 30
0.0
 11
6.32775904035433
 21
5.559935722927553
 31
0.0
  0
LINE
  5
33AC
330
1E
100
AcDbEntity
  8
7
100
AcDbLine
 10
6.32775904035433
 20
5.588807290840939
 30
0.0
 11
6.336945448326771
 21
5.588807290840939
 31
0.0
  0
LINE
  5
33B3
330
1E
100
AcDbEntity
  8
7
100
AcDbLine
 10
6.435371248031495
 20
5.508754307081098
 30
0.0
 11
6.410436712106298
 21
5.546812282966924
 31
0.0
  0
LINE
  5
33B9
330
1E
100
AcDbEntity
  8
7
100
AcDbLine
 10
6.483927975885826
 20
5.483819771155901
 30
0.0
 11
6.557419239665354
 21
5.482507427159838
 31
0.0
  0
LINE
  5
33BF
330
1E
100
AcDbEntity
  8
7
100
AcDbLine
 10
6.573167367618109
 20
5.468071643203145
 30
0.0
 11
6.573167367618109
 21
5.447074139266137
 31
0.0
  0
LINE
  5
33C0
330
1E
100
AcDbEntity
  8
7
100
AcDbLine
 10
6.558731583661416
 20
5.431326011313381
 30
0.0
 11
6.159779008858267
 21
5.403766787396057
 31
0.0
  0
LINE
  5
33C1
330
1E
100
AcDbEntity
  8
7
100
AcDbLine
 10
6.159779008858267
 20
4.117669671254326
 30
0.0
 11
6.159779008858267
 21
6.458891360230704
 31
0.0
  0
LINE
  5
33C7
330
1E
100
AcDbEntity
  8
7
100
AcDbLine
 10
6.159779008858267
 20
4.338143462592908
 30
0.0
 11
6.326446696358266
 21
4.342080494581098
 31
0.0
  0
LINE
  5
33CD
330
1E
100
AcDbEntity
  8
7
100
AcDbLine
 10
6.159779008858267
 20
5.48775680314409
 30
0.0
 11
6.326446696358266
 21
5.493006179128342
 31
0.0
  0
LINE
  5
33CE
330
1E
100
AcDbEntity
  8
7
100
AcDbLine
 10
6.146655568897637
 20
6.458891360230704
 30
0.0
 11
6.159779008858267
 21
6.458891360230704
 31
0.0
  0
LINE
  5
33CF
330
1E
100
AcDbEntity
  8
7
100
AcDbLine
 10
6.270015904527558
 20
3.878823063970861
 30
0.0
 11
6.270015904527558
 21
3.891946503931491
 31
0.0
  0
LINE
  5
33D0
330
1E
100
AcDbEntity
  8
7
100
AcDbLine
 10
6.26214184055118
 20
3.86963665599842
 30
0.0
 11
6.270015904527558
 21
3.878823063970861
 31
0.0
  0
LINE
  5
33DC
330
1E
100
AcDbEntity
  8
7
100
AcDbLine
 10
6.263454184547243
 20
3.891946503931491
 30
0.0
 11
6.263454184547243
 21
3.878823063970861
 31
0.0
  0
LINE
  5
33DD
330
1E
100
AcDbEntity
  8
7
100
AcDbLine
 10
6.270015904527558
 20
3.985122927651963
 30
0.0
 11
6.270015904527558
 21
3.995621679620467
 31
0.0
  0
LINE
  5
33E3
330
1E
100
AcDbEntity
  8
7
100
AcDbLine
 10
6.270015904527558
 20
3.91819338385275
 30
0.0
 11
6.270015904527558
 21
3.965437767711018
 31
0.0
  0
LINE
  5
33E4
330
1E
100
AcDbEntity
  8
7
100
AcDbLine
 10
6.146655568897637
 20
3.852576184049601
 30
0.0
 11
6.26214184055118
 21
3.86963665599842
 31
0.0
  0
LINE
  5
33E5
330
1E
100
AcDbEntity
  8
7
100
AcDbLine
 10
6.260829496555118
 20
3.877510719974798
 30
0.0
 11
6.146655568897637
 21
3.861762592022041
 31
0.0
  0
LINE
  5
33FA
330
1E
100
AcDbEntity
  8
7
100
AcDbLine
 10
6.260829496555118
 20
3.965437767711018
 30
0.0
 11
6.260829496555118
 21
3.91819338385275
 31
0.0
  0
LINE
  5
3414
330
1E
100
AcDbEntity
  8
7
100
AcDbLine
 10
6.260829496555118
 20
3.995621679620467
 30
0.0
 11
6.260829496555118
 21
3.985122927651963
 31
0.0
  0
LINE
  5
341F
330
1E
100
AcDbEntity
  8
7
100
AcDbLine
 10
6.146655568897637
 20
3.897195879915742
 30
0.0
 11
6.260829496555118
 21
3.907694631884247
 31
0.0
  0
LINE
  5
3420
330
1E
100
AcDbEntity
  8
7
100
AcDbLine
 10
6.260829496555118
 20
3.91819338385275
 30
0.0
 11
6.146655568897637
 21
3.907694631884247
 31
0.0
  0
LINE
  5
3421
330
1E
100
AcDbEntity
  8
7
100
AcDbLine
 10
6.146655568897637
 20
3.966750111707082
 30
0.0
 11
6.260829496555118
 21
3.965437767711018
 31
0.0
  0
LINE
  5
3422
330
1E
100
AcDbEntity
  8
7
100
AcDbLine
 10
6.260829496555118
 20
3.974624175683459
 30
0.0
 11
6.146655568897637
 21
3.977248863675586
 31
0.0
  0
LINE
  5
3423
330
1E
100
AcDbEntity
  8
7
100
AcDbLine
 10
6.260829496555118
 20
3.985122927651963
 30
0.0
 11
6.146655568897637
 21
3.98774761564409
 31
0.0
  0
LINE
  5
3424
330
1E
100
AcDbEntity
  8
7
100
AcDbLine
 10
6.146655568897637
 20
3.99693402361653
 30
0.0
 11
6.260829496555118
 21
3.995621679620467
 31
0.0
  0
LINE
  5
3425
330
1E
100
AcDbEntity
  8
7
100
AcDbLine
 10
6.260829496555118
 20
4.004808087592908
 30
0.0
 11
6.146655568897637
 21
4.007432775585034
 31
0.0
  0
LINE
  5
3426
330
1E
100
AcDbEntity
  8
7
100
AcDbLine
 10
6.146655568897637
 20
3.015300714561412
 30
0.0
 11
5.976050849409448
 21
3.017925402553538
 31
0.0
  0
LINE
  5
3427
330
1E
100
AcDbEntity
  8
7
100
AcDbLine
 10
6.159779008858267
 20
4.117669671254326
 30
0.0
 11
6.146655568897637
 21
4.109795607277948
 31
0.0
  0
LINE
  5
3428
330
1E
100
AcDbEntity
  8
7
100
AcDbLine
 10
5.815944881889762
 20
3.20296590599842
 30
0.0
 11
5.815944881889762
 21
7.332912461608657
 31
0.0
  0
LINE
  5
3429
330
1E
100
AcDbEntity
  8
7
100
AcDbLine
 10
5.976050849409448
 20
3.048109314462986
 30
0.0
 11
5.976050849409448
 21
7.48776905314409
 31
0.0
  0
LINE
  5
3434
330
1E
100
AcDbEntity
  8
7
100
AcDbLine
 10
5.839567073818897
 20
7.332912461608657
 30
0.0
 11
5.839567073818897
 21
3.20296590599842
 31
0.0
  0
LINE
  5
3435
330
1E
100
AcDbEntity
  8
7
100
AcDbLine
 10
5.94192990551181
 20
3.082230258360624
 30
0.0
 11
5.839567073818897
 21
3.20296590599842
 31
0.0
  0
LINE
  5
3436
330
1E
100
AcDbEntity
  8
7
100
AcDbLine
 10
5.94192990551181
 20
7.453648109246452
 30
0.0
 11
5.94192990551181
 21
3.082230258360624
 31
0.0
  0
LINE
  5
3437
330
1E
100
AcDbEntity
  8
7
100
AcDbLine
 10
5.94192990551181
 20
7.453648109246452
 30
0.0
 11
5.839567073818897
 21
7.332912461608657
 31
0.0
  0
LINE
  5
3442
330
1E
100
AcDbEntity
  8
7
100
AcDbLine
 10
5.945866937499999
 20
3.048109314462986
 30
0.0
 11
5.94192990551181
 21
3.082230258360624
 31
0.0
  0
LINE
  5
3443
330
1E
100
AcDbEntity
  8
7
100
AcDbLine
 10
5.945866937499999
 20
3.048109314462986
 30
0.0
 11
5.976050849409448
 21
3.048109314462986
 31
0.0
  0
LINE
  5
345E
330
1E
100
AcDbEntity
  8
7
100
AcDbLine
 10
5.94192990551181
 20
7.517952965053538
 30
0.0
 11
5.945866937499999
 21
7.517952965053538
 31
0.0
  0
LINE
  5
345F
330
1E
100
AcDbEntity
  8
7
100
AcDbLine
 10
5.839567073818897
 20
7.397217317415742
 30
0.0
 11
5.94192990551181
 21
7.517952965053538
 31
0.0
  0
LINE
  5
3460
330
1E
100
AcDbEntity
  8
7
100
AcDbLine
 10
5.945866937499999
 20
7.517952965053538
 30
0.0
 11
5.976050849409448
 21
7.517952965053538
 31
0.0
  0
LINE
  5
3461
330
1E
100
AcDbEntity
  8
7
100
AcDbLine
 10
6.270015904527558
 20
6.643931863675586
 30
0.0
 11
6.270015904527558
 21
6.618997327750389
 31
0.0
  0
LINE
  5
3462
330
1E
100
AcDbEntity
  8
7
100
AcDbLine
 10
6.220146832677165
 20
6.643931863675586
 30
0.0
 11
6.245081368602361
 21
6.643931863675586
 31
0.0
  0
LINE
  5
3468
330
1E
100
AcDbEntity
  8
7
100
AcDbLine
 10
6.220146832677165
 20
6.632120767711018
 30
0.0
 11
6.220146832677165
 21
6.643931863675586
 31
0.0
  0
LINE
  5
3469
330
1E
100
AcDbEntity
  8
7
100
AcDbLine
 10
6.146655568897637
 20
6.643931863675586
 30
0.0
 11
6.220146832677165
 21
6.643931863675586
 31
0.0
  0
LINE
  5
3472
330
1E
100
AcDbEntity
  8
7
100
AcDbLine
 10
6.146655568897637
 20
3.891946503931491
 30
0.0
 11
6.220146832677165
 21
3.891946503931491
 31
0.0
  0
LINE
  5
3485
330
1E
100
AcDbEntity
  8
7
100
AcDbLine
 10
5.947179281496062
 20
3.040235250486609
 30
0.0
 11
5.945866937499999
 21
3.048109314462986
 31
0.0
  0
LINE
  5
3486
330
1E
100
AcDbEntity
  8
7
100
AcDbLine
 10
5.839567073818897
 20
3.138661050191333
 30
0.0
 11
5.94192990551181
 21
3.017925402553538
 31
0.0
  0
LINE
  5
3487
330
1E
100
AcDbEntity
  8
7
100
AcDbLine
 10
5.976050849409448
 20
3.017925402553538
 30
0.0
 11
5.945866937499999
 21
3.017925402553538
 31
0.0
  0
LINE
  5
3EAC
330
1E
100
AcDbEntity
  8
7
100
AcDbLine
 10
5.94192990551181
 20
3.017925402553538
 30
0.0
 11
5.945866937499999
 21
3.017925402553538
 31
0.0
  0
LINE
  5
3EAD
330
1E
100
AcDbEntity
  8
7
100
AcDbLine
 10
5.945866937499999
 20
3.017925402553538
 30
0.0
 11
5.947179281496062
 21
3.019237746549601
 31
0.0
  0
LINE
  5
3EAE
330
1E
100
AcDbEntity
  8
7
100
AcDbLine
 10
5.947179281496062
 20
3.019237746549601
 30
0.0
 11
5.948491625492126
 21
3.024487122533852
 31
0.0
  0
LINE
  5
3EAF
330
1E
100
AcDbEntity
  8
7
100
AcDbLine
 10
5.948491625492126
 20
3.024487122533852
 30
0.0
 11
5.948491625492126
 21
3.031048842514168
 31
0.0
  0
LINE
  5
3EB0
330
1E
100
AcDbEntity
  8
7
100
AcDbLine
 10
5.948491625492126
 20
3.031048842514168
 30
0.0
 11
5.947179281496062
 21
3.040235250486609
 31
0.0
  0
LINE
  5
3EB1
330
1E
100
AcDbEntity
  8
7
100
AcDbLine
 10
5.839567073818897
 20
3.20296590599842
 30
0.0
 11
5.830380665846456
 21
3.167532618104719
 31
0.0
  0
LINE
  5
3EB2
330
1E
100
AcDbEntity
  8
7
100
AcDbLine
 10
5.830380665846456
 20
3.167532618104719
 30
0.0
 11
5.839567073818897
 21
3.138661050191333
 31
0.0
  0
LINE
  5
3EB3
330
1E
100
AcDbEntity
  8
7
100
AcDbLine
 10
5.817257225885827
 20
3.20296590599842
 30
0.0
 11
5.823818945866141
 21
3.168844962100782
 31
0.0
  0
LINE
  5
3EB4
330
1E
100
AcDbEntity
  8
7
100
AcDbLine
 10
5.823818945866141
 20
3.168844962100782
 30
0.0
 11
5.840879417814959
 21
3.138661050191333
 31
0.0
  0
LINE
  5
3EB5
330
1E
100
AcDbEntity
  8
7
100
AcDbLine
 10
6.270015904527558
 20
3.91819338385275
 30
0.0
 11
6.270015904527558
 21
3.891946503931491
 31
0.0
  0
LINE
  5
3EB6
330
1E
100
AcDbEntity
  8
7
100
AcDbLine
 10
6.270015904527558
 20
3.891946503931491
 30
0.0
 11
6.263454184547243
 21
3.891946503931491
 31
0.0
  0
LINE
  5
3EB7
330
1E
100
AcDbEntity
  8
7
100
AcDbLine
 10
6.263454184547243
 20
3.891946503931491
 30
0.0
 11
6.245081368602361
 21
3.891946503931491
 31
0.0
  0
LINE
  5
3EB8
330
1E
100
AcDbEntity
  8
7
100
AcDbLine
 10
6.245081368602361
 20
3.891946503931491
 30
0.0
 11
6.220146832677165
 21
3.891946503931491
 31
0.0
  0
LINE
  5
3EB9
330
1E
100
AcDbEntity
  8
7
100
AcDbLine
 10
6.220146832677165
 20
3.891946503931491
 30
0.0
 11
6.220146832677165
 21
3.903757599896057
 31
0.0
  0
LINE
  5
3EBA
330
1E
100
AcDbEntity
  8
7
100
AcDbLine
 10
6.245081368602361
 20
6.643931863675586
 30
0.0
 11
6.263454184547243
 21
6.643931863675586
 31
0.0
  0
LINE
  5
3EBB
330
1E
100
AcDbEntity
  8
7
100
AcDbLine
 10
6.263454184547243
 20
6.643931863675586
 30
0.0
 11
6.270015904527558
 21
6.643931863675586
 31
0.0
  0
LINE
  5
3EBC
330
1E
100
AcDbEntity
  8
7
100
AcDbLine
 10
5.948491625492126
 20
7.506141869088971
 30
0.0
 11
5.948491625492126
 21
7.512703589069285
 31
0.0
  0
LINE
  5
3EBD
330
1E
100
AcDbEntity
  8
7
100
AcDbLine
 10
5.948491625492126
 20
7.512703589069285
 30
0.0
 11
5.947179281496062
 21
7.516640621057476
 31
0.0
  0
LINE
  5
3EBE
330
1E
100
AcDbEntity
  8
7
100
AcDbLine
 10
5.947179281496062
 20
7.516640621057476
 30
0.0
 11
5.945866937499999
 21
7.517952965053538
 31
0.0
  0
LINE
  5
3EBF
330
1E
100
AcDbEntity
  8
7
100
AcDbLine
 10
5.945866937499999
 20
7.48776905314409
 30
0.0
 11
5.947179281496062
 21
7.498267805112594
 31
0.0
  0
LINE
  5
3EC0
330
1E
100
AcDbEntity
  8
7
100
AcDbLine
 10
5.947179281496062
 20
7.498267805112594
 30
0.0
 11
5.948491625492126
 21
7.506141869088971
 31
0.0
  0
LINE
  5
3EC1
330
1E
100
AcDbEntity
  8
7
100
AcDbLine
 10
5.840879417814959
 20
7.397217317415742
 30
0.0
 11
5.823818945866141
 21
7.367033405506294
 31
0.0
  0
LINE
  5
3EC2
330
1E
100
AcDbEntity
  8
7
100
AcDbLine
 10
5.823818945866141
 20
7.367033405506294
 30
0.0
 11
5.817257225885827
 21
7.332912461608657
 31
0.0
  0
LINE
  5
3EC3
330
1E
100
AcDbEntity
  8
7
100
AcDbLine
 10
5.839567073818897
 20
7.332912461608657
 30
0.0
 11
5.830380665846456
 21
7.368345749502358
 31
0.0
  0
LINE
  5
3EC4
330
1E
100
AcDbEntity
  8
7
100
AcDbLine
 10
5.830380665846456
 20
7.368345749502358
 30
0.0
 11
5.839567073818897
 21
7.397217317415742
 31
0.0
  0
LINE
  5
3EC5
330
1E
100
AcDbEntity
  8
7
100
AcDbLine
 10
5.976050849409448
 20
7.48776905314409
 30
0.0
 11
5.945866937499999
 21
7.48776905314409
 31
0.0
  0
LINE
  5
3EC6
330
1E
100
AcDbEntity
  8
7
100
AcDbLine
 10
5.945866937499999
 20
7.48776905314409
 30
0.0
 11
5.94192990551181
 21
7.453648109246452
 31
0.0
  0
LINE
  5
3EC7
330
1E
100
AcDbEntity
  8
7
100
AcDbLine
 10
5.815944881889762
 20
7.332912461608657
 30
0.0
 11
5.822506601870078
 21
7.332912461608657
 31
0.0
  0
LINE
  5
3EC8
330
1E
100
AcDbEntity
  8
7
100
AcDbLine
 10
5.822506601870078
 20
7.332912461608657
 30
0.0
 11
5.839567073818897
 21
7.332912461608657
 31
0.0
  0
LINE
  5
3EC9
330
1E
100
AcDbEntity
  8
7
100
AcDbLine
 10
5.815944881889762
 20
3.20296590599842
 30
0.0
 11
5.822506601870078
 21
3.20296590599842
 31
0.0
  0
LINE
  5
3ECA
330
1E
100
AcDbEntity
  8
7
100
AcDbLine
 10
5.822506601870078
 20
3.20296590599842
 30
0.0
 11
5.839567073818897
 21
3.20296590599842
 31
0.0
  0
LINE
  5
3ECB
330
1E
100
AcDbEntity
  8
7
100
AcDbLine
 10
5.976050849409448
 20
7.517952965053538
 30
0.0
 11
5.976050849409448
 21
7.508766557081099
 31
0.0
  0
LINE
  5
3ECC
330
1E
100
AcDbEntity
  8
7
100
AcDbLine
 10
5.976050849409448
 20
7.508766557081099
 30
0.0
 11
5.976050849409448
 21
7.48776905314409
 31
0.0
  0
LINE
  5
3ECD
330
1E
100
AcDbEntity
  8
7
100
AcDbLine
 10
5.976050849409448
 20
3.048109314462986
 30
0.0
 11
5.976050849409448
 21
3.027111810525979
 31
0.0
  0
LINE
  5
3ECE
330
1E
100
AcDbEntity
  8
7
100
AcDbLine
 10
5.976050849409448
 20
3.027111810525979
 30
0.0
 11
5.976050849409448
 21
3.017925402553538
 31
0.0
  0
LINE
  5
3ECF
330
1E
100
AcDbEntity
  8
7
100
AcDbLine
 10
6.270015904527558
 20
3.995621679620467
 30
0.0
 11
6.267391216535433
 21
4.002183399600782
 31
0.0
  0
LINE
  5
3ED0
330
1E
100
AcDbEntity
  8
7
100
AcDbLine
 10
6.267391216535433
 20
4.002183399600782
 30
0.0
 11
6.260829496555118
 21
4.004808087592908
 31
0.0
  0
LINE
  5
3ED1
330
1E
100
AcDbEntity
  8
7
100
AcDbLine
 10
6.260829496555118
 20
4.004808087592908
 30
0.0
 11
6.260829496555118
 21
4.002183399600782
 31
0.0
  0
LINE
  5
3ED2
330
1E
100
AcDbEntity
  8
7
100
AcDbLine
 10
6.260829496555118
 20
4.002183399600782
 30
0.0
 11
6.260829496555118
 21
3.995621679620467
 31
0.0
  0
LINE
  5
3ED3
330
1E
100
AcDbEntity
  8
7
100
AcDbLine
 10
6.260829496555118
 20
3.995621679620467
 30
0.0
 11
6.267391216535433
 21
3.995621679620467
 31
0.0
  0
LINE
  5
3ED4
330
1E
100
AcDbEntity
  8
7
100
AcDbLine
 10
6.267391216535433
 20
3.995621679620467
 30
0.0
 11
6.270015904527558
 21
3.995621679620467
 31
0.0
  0
LINE
  5
3ED5
330
1E
100
AcDbEntity
  8
7
100
AcDbLine
 10
6.260829496555118
 20
3.985122927651963
 30
0.0
 11
6.260829496555118
 21
3.978561207671648
 31
0.0
  0
LINE
  5
3ED6
330
1E
100
AcDbEntity
  8
7
100
AcDbLine
 10
6.260829496555118
 20
3.978561207671648
 30
0.0
 11
6.260829496555118
 21
3.974624175683459
 31
0.0
  0
LINE
  5
3ED7
330
1E
100
AcDbEntity
  8
7
100
AcDbLine
 10
6.260829496555118
 20
3.985122927651963
 30
0.0
 11
6.267391216535433
 21
3.985122927651963
 31
0.0
  0
LINE
  5
3ED8
330
1E
100
AcDbEntity
  8
7
100
AcDbLine
 10
6.267391216535433
 20
3.985122927651963
 30
0.0
 11
6.270015904527558
 21
3.985122927651963
 31
0.0
  0
LINE
  5
3ED9
330
1E
100
AcDbEntity
  8
7
100
AcDbLine
 10
6.270015904527558
 20
3.965437767711018
 30
0.0
 11
6.267391216535433
 21
3.971999487691334
 31
0.0
  0
LINE
  5
3EDA
330
1E
100
AcDbEntity
  8
7
100
AcDbLine
 10
6.267391216535433
 20
3.971999487691334
 30
0.0
 11
6.260829496555118
 21
3.974624175683459
 31
0.0
  0
LINE
  5
3EDB
330
1E
100
AcDbEntity
  8
7
100
AcDbLine
 10
6.260829496555118
 20
3.974624175683459
 30
0.0
 11
6.260829496555118
 21
3.971999487691334
 31
0.0
  0
LINE
  5
3EDC
330
1E
100
AcDbEntity
  8
7
100
AcDbLine
 10
6.260829496555118
 20
3.971999487691334
 30
0.0
 11
6.260829496555118
 21
3.965437767711018
 31
0.0
  0
LINE
  5
3EDD
330
1E
100
AcDbEntity
  8
7
100
AcDbLine
 10
6.260829496555118
 20
3.965437767711018
 30
0.0
 11
6.267391216535433
 21
3.965437767711018
 31
0.0
  0
LINE
  5
3EDE
330
1E
100
AcDbEntity
  8
7
100
AcDbLine
 10
6.267391216535433
 20
3.965437767711018
 30
0.0
 11
6.270015904527558
 21
3.965437767711018
 31
0.0
  0
LINE
  5
3EDF
330
1E
100
AcDbEntity
  8
7
100
AcDbLine
 10
6.260829496555118
 20
3.91819338385275
 30
0.0
 11
6.267391216535433
 21
3.91819338385275
 31
0.0
  0
LINE
  5
3EE0
330
1E
100
AcDbEntity
  8
7
100
AcDbLine
 10
6.267391216535433
 20
3.91819338385275
 30
0.0
 11
6.270015904527558
 21
3.91819338385275
 31
0.0
  0
LINE
  5
3EE1
330
1E
100
AcDbEntity
  8
7
100
AcDbLine
 10
6.260829496555118
 20
3.91819338385275
 30
0.0
 11
6.260829496555118
 21
3.910319319876373
 31
0.0
  0
LINE
  5
3EE2
330
1E
100
AcDbEntity
  8
7
100
AcDbLine
 10
6.260829496555118
 20
3.910319319876373
 30
0.0
 11
6.260829496555118
 21
3.907694631884247
 31
0.0
  0
LINE
  5
3EE3
330
1E
100
AcDbEntity
  8
7
100
AcDbLine
 10
6.26214184055118
 20
3.909006975880309
 30
0.0
 11
6.267391216535433
 21
3.911631663872435
 31
0.0
  0
LINE
  5
3EE4
330
1E
100
AcDbEntity
  8
7
100
AcDbLine
 10
6.267391216535433
 20
3.911631663872435
 30
0.0
 11
6.270015904527558
 21
3.91819338385275
 31
0.0
  0
LINE
  5
3EE5
330
1E
100
AcDbEntity
  8
7
100
AcDbLine
 10
6.270015904527558
 20
3.965437767711018
 30
0.0
 11
6.270015904527558
 21
3.97068714369527
 31
0.0
  0
LINE
  5
3EE6
330
1E
100
AcDbEntity
  8
7
100
AcDbLine
 10
6.270015904527558
 20
3.97068714369527
 30
0.0
 11
6.270015904527558
 21
3.985122927651963
 31
0.0
  0
LINE
  5
3EE7
330
1E
100
AcDbEntity
  8
7
100
AcDbLine
 10
6.270015904527558
 20
3.878823063970861
 30
0.0
 11
6.268703560531495
 21
3.878823063970861
 31
0.0
  0
LINE
  5
3EE8
330
1E
100
AcDbEntity
  8
7
100
AcDbLine
 10
6.268703560531495
 20
3.878823063970861
 30
0.0
 11
6.263454184547243
 21
3.878823063970861
 31
0.0
  0
LINE
  5
3EE9
330
1E
100
AcDbEntity
  8
7
100
AcDbLine
 10
6.263454184547243
 20
3.878823063970861
 30
0.0
 11
6.260829496555118
 21
3.877510719974798
 31
0.0
  0
LINE
  5
3EEA
330
1E
100
AcDbEntity
  8
7
100
AcDbLine
 10
6.26214184055118
 20
3.86963665599842
 30
0.0
 11
6.26214184055118
 21
3.872261343990545
 31
0.0
  0
LINE
  5
3EEB
330
1E
100
AcDbEntity
  8
7
100
AcDbLine
 10
6.26214184055118
 20
3.872261343990545
 30
0.0
 11
6.260829496555118
 21
3.877510719974798
 31
0.0
  0
LINE
  5
3EEC
330
1E
100
AcDbEntity
  8
7
100
AcDbLine
 10
6.326446696358266
 20
5.493006179128342
 30
0.0
 11
6.335633104330708
 21
5.49694321111653
 31
0.0
  0
LINE
  5
3EED
330
1E
100
AcDbEntity
  8
7
100
AcDbLine
 10
6.335633104330708
 20
5.49694321111653
 30
0.0
 11
6.340882480314959
 21
5.507441963085033
 31
0.0
  0
LINE
  5
3EEE
330
1E
100
AcDbEntity
  8
7
100
AcDbLine
 10
6.326446696358266
 20
4.342080494581098
 30
0.0
 11
6.335633104330708
 21
4.347329870565349
 31
0.0
  0
LINE
  5
3EEF
330
1E
100
AcDbEntity
  8
7
100
AcDbLine
 10
6.335633104330708
 20
4.347329870565349
 30
0.0
 11
6.340882480314959
 21
4.357828622533854
 31
0.0
  0
LINE
  5
3EF0
330
1E
100
AcDbEntity
  8
7
100
AcDbLine
 10
6.573167367618109
 20
5.468071643203145
 30
0.0
 11
6.567917991633858
 21
5.478570395171649
 31
0.0
  0
LINE
  5
3EF1
330
1E
100
AcDbEntity
  8
7
100
AcDbLine
 10
6.567917991633858
 20
5.478570395171649
 30
0.0
 11
6.557419239665354
 21
5.482507427159838
 31
0.0
  0
LINE
  5
3EF2
330
1E
100
AcDbEntity
  8
7
100
AcDbLine
 10
6.483927975885826
 20
5.483819771155901
 30
0.0
 11
6.456368751968502
 21
5.490381491136215
 31
0.0
  0
LINE
  5
3EF3
330
1E
100
AcDbEntity
  8
7
100
AcDbLine
 10
6.456368751968502
 20
5.490381491136215
 30
0.0
 11
6.435371248031495
 21
5.508754307081098
 31
0.0
  0
LINE
  5
3EF4
330
1E
100
AcDbEntity
  8
7
100
AcDbLine
 10
6.410436712106298
 20
5.546812282966924
 30
0.0
 11
6.38943920816929
 21
5.567809786903932
 31
0.0
  0
LINE
  5
3EF5
330
1E
100
AcDbEntity
  8
7
100
AcDbLine
 10
6.38943920816929
 20
5.567809786903932
 30
0.0
 11
6.364504672244094
 21
5.582245570860625
 31
0.0
  0
LINE
  5
3EF6
330
1E
100
AcDbEntity
  8
7
100
AcDbLine
 10
6.364504672244094
 20
5.582245570860625
 30
0.0
 11
6.336945448326771
 21
5.588807290840939
 31
0.0
  0
LINE
  5
3EF7
330
1E
100
AcDbEntity
  8
7
100
AcDbLine
 10
6.340882480314959
 20
5.519253059049602
 30
0.0
 11
6.338257792322834
 21
5.537625874994483
 31
0.0
  0
LINE
  5
3EF8
330
1E
100
AcDbEntity
  8
7
100
AcDbLine
 10
6.338257792322834
 20
5.537625874994483
 30
0.0
 11
6.330383728346456
 21
5.554686346943301
 31
0.0
  0
LINE
  5
3EF9
330
1E
100
AcDbEntity
  8
7
100
AcDbLine
 10
6.330383728346456
 20
5.554686346943301
 30
0.0
 11
6.32775904035433
 21
5.559935722927553
 31
0.0
  0
LINE
  5
3EFA
330
1E
100
AcDbEntity
  8
7
100
AcDbLine
 10
6.558731583661416
 20
5.431326011313381
 30
0.0
 11
6.569230335629921
 21
5.436575387297633
 31
0.0
  0
LINE
  5
3EFB
330
1E
100
AcDbEntity
  8
7
100
AcDbLine
 10
6.569230335629921
 20
5.436575387297633
 30
0.0
 11
6.573167367618109
 21
5.447074139266137
 31
0.0
  0
LINE
  5
3EFC
330
1E
100
AcDbEntity
  8
7
100
AcDbLine
 10
6.573167367618109
 20
4.317145958655901
 30
0.0
 11
6.567917991633858
 21
4.327644710624404
 31
0.0
  0
LINE
  5
3EFD
330
1E
100
AcDbEntity
  8
7
100
AcDbLine
 10
6.567917991633858
 20
4.327644710624404
 30
0.0
 11
6.557419239665354
 21
4.332894086608656
 31
0.0
  0
LINE
  5
3EFE
330
1E
100
AcDbEntity
  8
7
100
AcDbLine
 10
6.483927975885826
 20
4.334206430604719
 30
0.0
 11
6.456368751968502
 21
4.340768150585033
 31
0.0
  0
LINE
  5
3EFF
330
1E
100
AcDbEntity
  8
7
100
AcDbLine
 10
6.456368751968502
 20
4.340768150585033
 30
0.0
 11
6.435371248031495
 21
4.359140966529916
 31
0.0
  0
LINE
  5
3F00
330
1E
100
AcDbEntity
  8
7
100
AcDbLine
 10
6.410436712106298
 20
4.395886598419679
 30
0.0
 11
6.38943920816929
 21
4.416884102356688
 31
0.0
  0
LINE
  5
3F01
330
1E
100
AcDbEntity
  8
7
100
AcDbLine
 10
6.38943920816929
 20
4.416884102356688
 30
0.0
 11
6.364504672244094
 21
4.431319886313381
 31
0.0
  0
LINE
  5
3F02
330
1E
100
AcDbEntity
  8
7
100
AcDbLine
 10
6.364504672244094
 20
4.431319886313381
 30
0.0
 11
6.336945448326771
 21
4.437881606293696
 31
0.0
  0
LINE
  5
3F03
330
1E
100
AcDbEntity
  8
7
100
AcDbLine
 10
6.340882480314959
 20
4.368327374502357
 30
0.0
 11
6.338257792322834
 21
4.388012534443301
 31
0.0
  0
LINE
  5
3F04
330
1E
100
AcDbEntity
  8
7
100
AcDbLine
 10
6.338257792322834
 20
4.388012534443301
 30
0.0
 11
6.330383728346456
 21
4.405073006392121
 31
0.0
  0
LINE
  5
3F05
330
1E
100
AcDbEntity
  8
7
100
AcDbLine
 10
6.330383728346456
 20
4.405073006392121
 30
0.0
 11
6.32775904035433
 21
4.410322382376373
 31
0.0
  0
LINE
  5
3F06
330
1E
100
AcDbEntity
  8
7
100
AcDbLine
 10
6.558731583661416
 20
4.2817126707622
 30
0.0
 11
6.569230335629921
 21
4.286962046746451
 31
0.0
  0
LINE
  5
3F07
330
1E
100
AcDbEntity
  8
7
100
AcDbLine
 10
6.569230335629921
 20
4.286962046746451
 30
0.0
 11
6.573167367618109
 21
4.296148454718893
 31
0.0
  0
LINE
  5
3F08
330
1E
100
AcDbEntity
  8
7
100
AcDbLine
 10
6.260829496555118
 20
6.532382624010232
 30
0.0
 11
6.267391216535433
 21
6.535007312002358
 31
0.0
  0
LINE
  5
3F09
330
1E
100
AcDbEntity
  8
7
100
AcDbLine
 10
6.267391216535433
 20
6.535007312002358
 30
0.0
 11
6.270015904527558
 21
6.541569031982673
 31
0.0
  0
LINE
  5
3F0A
330
1E
100
AcDbEntity
  8
7
100
AcDbLine
 10
6.260829496555118
 20
6.531070280014168
 30
0.0
 11
6.260829496555118
 21
6.533694968006294
 31
0.0
  0
LINE
  5
3F0B
330
1E
100
AcDbEntity
  8
7
100
AcDbLine
 10
6.260829496555118
 20
6.533694968006294
 30
0.0
 11
6.260829496555118
 21
6.541569031982673
 31
0.0
  0
LINE
  5
3F0C
330
1E
100
AcDbEntity
  8
7
100
AcDbLine
 10
6.260829496555118
 20
6.541569031982673
 30
0.0
 11
6.267391216535433
 21
6.541569031982673
 31
0.0
  0
LINE
  5
3F0D
330
1E
100
AcDbEntity
  8
7
100
AcDbLine
 10
6.267391216535433
 20
6.541569031982673
 30
0.0
 11
6.270015904527558
 21
6.541569031982673
 31
0.0
  0
LINE
  5
3F0E
330
1E
100
AcDbEntity
  8
7
100
AcDbLine
 10
6.260829496555118
 20
6.550755439955113
 30
0.0
 11
6.260829496555118
 21
6.558629503931491
 31
0.0
  0
LINE
  5
3F0F
330
1E
100
AcDbEntity
  8
7
100
AcDbLine
 10
6.260829496555118
 20
6.558629503931491
 30
0.0
 11
6.260829496555118
 21
6.561254191923618
 31
0.0
  0
LINE
  5
3F10
330
1E
100
AcDbEntity
  8
7
100
AcDbLine
 10
6.260829496555118
 20
6.550755439955113
 30
0.0
 11
6.267391216535433
 21
6.550755439955113
 31
0.0
  0
LINE
  5
3F11
330
1E
100
AcDbEntity
  8
7
100
AcDbLine
 10
6.267391216535433
 20
6.550755439955113
 30
0.0
 11
6.270015904527558
 21
6.550755439955113
 31
0.0
  0
LINE
  5
3F12
330
1E
100
AcDbEntity
  8
7
100
AcDbLine
 10
6.260829496555118
 20
6.561254191923618
 30
0.0
 11
6.267391216535433
 21
6.563878879915742
 31
0.0
  0
LINE
  5
3F13
330
1E
100
AcDbEntity
  8
7
100
AcDbLine
 10
6.267391216535433
 20
6.563878879915742
 30
0.0
 11
6.270015904527558
 21
6.570440599896057
 31
0.0
  0
LINE
  5
3F14
330
1E
100
AcDbEntity
  8
7
100
AcDbLine
 10
6.260829496555118
 20
6.561254191923618
 30
0.0
 11
6.260829496555118
 21
6.563878879915742
 31
0.0
  0
LINE
  5
3F15
330
1E
100
AcDbEntity
  8
7
100
AcDbLine
 10
6.260829496555118
 20
6.563878879915742
 30
0.0
 11
6.260829496555118
 21
6.570440599896057
 31
0.0
  0
LINE
  5
3F16
330
1E
100
AcDbEntity
  8
7
100
AcDbLine
 10
6.260829496555118
 20
6.570440599896057
 30
0.0
 11
6.267391216535433
 21
6.570440599896057
 31
0.0
  0
LINE
  5
3F17
330
1E
100
AcDbEntity
  8
7
100
AcDbLine
 10
6.267391216535433
 20
6.570440599896057
 30
0.0
 11
6.270015904527558
 21
6.570440599896057
 31
0.0
  0
LINE
  5
3F18
330
1E
100
AcDbEntity
  8
7
100
AcDbLine
 10
6.260829496555118
 20
6.618997327750389
 30
0.0
 11
6.267391216535433
 21
6.618997327750389
 31
0.0
  0
LINE
  5
3F19
330
1E
100
AcDbEntity
  8
7
100
AcDbLine
 10
6.267391216535433
 20
6.618997327750389
 30
0.0
 11
6.270015904527558
 21
6.618997327750389
 31
0.0
  0
LINE
  5
3F1A
330
1E
100
AcDbEntity
  8
7
100
AcDbLine
 10
6.260829496555118
 20
6.618997327750389
 30
0.0
 11
6.260829496555118
 21
6.625559047730703
 31
0.0
  0
LINE
  5
3F1B
330
1E
100
AcDbEntity
  8
7
100
AcDbLine
 10
6.260829496555118
 20
6.625559047730703
 30
0.0
 11
6.260829496555118
 21
6.628183735722831
 31
0.0
  0
LINE
  5
3F1C
330
1E
100
AcDbEntity
  8
7
100
AcDbLine
 10
6.270015904527558
 20
6.618997327750389
 30
0.0
 11
6.267391216535433
 21
6.625559047730703
 31
0.0
  0
LINE
  5
3F1D
330
1E
100
AcDbEntity
  8
7
100
AcDbLine
 10
6.267391216535433
 20
6.625559047730703
 30
0.0
 11
6.26214184055118
 21
6.628183735722831
 31
0.0
  0
LINE
  5
3F1E
330
1E
100
AcDbEntity
  8
7
100
AcDbLine
 10
6.270015904527558
 20
6.618997327750389
 30
0.0
 11
6.270015904527558
 21
6.570440599896057
 31
0.0
  0
LINE
  5
3F1F
330
1E
100
AcDbEntity
  8
7
100
AcDbLine
 10
6.270015904527558
 20
6.570440599896057
 30
0.0
 11
6.270015904527558
 21
6.565191223911805
 31
0.0
  0
LINE
  5
3F20
330
1E
100
AcDbEntity
  8
7
100
AcDbLine
 10
6.270015904527558
 20
6.565191223911805
 30
0.0
 11
6.270015904527558
 21
6.550755439955113
 31
0.0
  0
LINE
  5
3F21
330
1E
100
AcDbEntity
  8
7
100
AcDbLine
 10
6.270015904527558
 20
6.550755439955113
 30
0.0
 11
6.270015904527558
 21
6.541569031982673
 31
0.0
  0
LINE
  5
3F22
330
1E
100
AcDbEntity
  8
7
100
AcDbLine
 10
6.270015904527558
 20
6.657055303636216
 30
0.0
 11
6.268703560531495
 21
6.657055303636216
 31
0.0
  0
LINE
  5
3F23
330
1E
100
AcDbEntity
  8
7
100
AcDbLine
 10
6.268703560531495
 20
6.657055303636216
 30
0.0
 11
6.263454184547243
 21
6.657055303636216
 31
0.0
  0
LINE
  5
3F24
330
1E
100
AcDbEntity
  8
7
100
AcDbLine
 10
6.26214184055118
 20
6.666241711608657
 30
0.0
 11
6.26214184055118
 21
6.664929367612594
 31
0.0
  0
LINE
  5
3F25
330
1E
100
AcDbEntity
  8
7
100
AcDbLine
 10
6.26214184055118
 20
6.664929367612594
 30
0.0
 11
6.260829496555118
 21
6.658367647632278
 31
0.0
  0
LINE
  5
3F26
330
1E
100
AcDbEntity
  8
7
100
AcDbLine
 10
5.976050849409448
 20
7.503517181096846
 30
0.0
 11
5.976050849409448
 21
7.514015933065349
 31
0.0
  0
LINE
  5
3F27
330
1E
100
AcDbEntity
  8
7
100
AcDbLine
 10
5.976050849409448
 20
7.514015933065349
 30
0.0
 11
5.976050849409448
 21
7.517952965053538
 31
0.0
  0
LINE
  5
3F28
330
1E
100
AcDbEntity
  8
7
100
AcDbLine
 10
5.976050849409448
 20
3.017925402553538
 30
0.0
 11
5.976050849409448
 21
3.021862434541727
 31
0.0
  0
LINE
  5
3F29
330
1E
100
AcDbEntity
  8
7
100
AcDbLine
 10
5.976050849409448
 20
3.021862434541727
 30
0.0
 11
5.976050849409448
 21
3.033673530506294
 31
0.0
  0
LINE
  5
3F2A
330
1E
100
AcDbEntity
  8
7
100
AcDbLine
 10
5.976050849409448
 20
3.033673530506294
 30
0.0
 11
5.976050849409448
 21
3.048109314462986
 31
0.0
  0
LINE
  5
3F2B
330
1E
100
AcDbEntity
  8
7
100
AcDbLine
 10
5.976050849409448
 20
3.048109314462986
 30
0.0
 11
5.976050849409448
 21
7.48776905314409
 31
0.0
  0
LINE
  5
3F2C
330
1E
100
AcDbEntity
  8
7
100
AcDbLine
 10
5.976050849409448
 20
7.48776905314409
 30
0.0
 11
5.976050849409448
 21
7.503517181096846
 31
0.0
  0
LINE
  5
3F2D
330
1E
100
AcDbEntity
  8
7
100
AcDbLine
 10
6.146655568897637
 20
7.520577653045664
 30
0.0
 11
6.146655568897637
 21
7.516640621057476
 31
0.0
  0
LINE
  5
3F2E
330
1E
100
AcDbEntity
  8
7
100
AcDbLine
 10
6.146655568897637
 20
7.516640621057476
 30
0.0
 11
6.146655568897637
 21
7.506141869088971
 31
0.0
  0
LINE
  5
3F2F
330
1E
100
AcDbEntity
  8
7
100
AcDbLine
 10
6.146655568897637
 20
7.506141869088971
 30
0.0
 11
6.146655568897637
 21
7.491706085132278
 31
0.0
  0
LINE
  5
3F30
330
1E
100
AcDbEntity
  8
7
100
AcDbLine
 10
6.146655568897637
 20
7.491706085132278
 30
0.0
 11
6.146655568897637
 21
3.045484626470861
 31
0.0
  0
LINE
  5
3F31
330
1E
100
AcDbEntity
  8
7
100
AcDbLine
 10
6.146655568897637
 20
3.045484626470861
 30
0.0
 11
6.146655568897637
 21
3.029736498518105
 31
0.0
  0
LINE
  5
3F32
330
1E
100
AcDbEntity
  8
7
100
AcDbLine
 10
6.146655568897637
 20
3.029736498518105
 30
0.0
 11
6.146655568897637
 21
3.019237746549601
 31
0.0
  0
LINE
  5
3F33
330
1E
100
AcDbEntity
  8
7
100
AcDbLine
 10
6.146655568897637
 20
3.019237746549601
 30
0.0
 11
6.146655568897637
 21
3.015300714561412
 31
0.0
  0
LINE
  5
3F34
330
1E
100
AcDbEntity
  8
7
100
AcDbLine
 10
-0.1998399960629928
 20
3.048109314462986
 30
0.0
 11
-0.1985276520669297
 21
3.038922906490546
 31
0.0
  0
LINE
  5
3F35
330
1E
100
AcDbEntity
  8
7
100
AcDbLine
 10
-0.1985276520669297
 20
3.038922906490546
 30
0.0
 11
-0.1932782760826779
 21
3.029736498518105
 31
0.0
  0
LINE
  5
3F36
330
1E
100
AcDbEntity
  8
7
100
AcDbLine
 10
-0.1932782760826779
 20
3.029736498518105
 30
0.0
 11
-0.1867165561023629
 21
3.02317477853779
 31
0.0
  0
LINE
  5
3F37
330
1E
100
AcDbEntity
  8
7
100
AcDbLine
 10
-0.1867165561023629
 20
3.02317477853779
 30
0.0
 11
-0.1775301481299216
 21
3.019237746549601
 31
0.0
  0
LINE
  5
3F38
330
1E
100
AcDbEntity
  8
7
100
AcDbLine
 10
-0.1775301481299216
 20
3.019237746549601
 30
0.0
 11
-0.1696560841535435
 21
3.017925402553538
 31
0.0
  0
LINE
  5
3F39
330
1E
100
AcDbEntity
  8
7
100
AcDbLine
 10
-0.0791043484251972
 20
3.20296590599842
 30
0.0
 11
-0.0502327805118119
 21
3.167532618104719
 31
0.0
  0
LINE
  5
3F3A
330
1E
100
AcDbEntity
  8
7
100
AcDbLine
 10
-0.0502327805118119
 20
3.167532618104719
 30
0.0
 11
-0.0147994926181099
 21
3.138661050191333
 31
0.0
  0
LINE
  5
3F3B
330
1E
100
AcDbEntity
  8
7
100
AcDbLine
 10
0.7148637691929132
 20
3.947064951766137
 30
0.0
 11
0.7148637691929132
 21
3.919505727848813
 31
0.0
  0
LINE
  5
3F3C
330
1E
100
AcDbEntity
  8
7
100
AcDbLine
 10
0.7148637691929132
 20
3.919505727848813
 30
0.0
 11
0.7148637691929132
 21
3.899820567907869
 31
0.0
  0
LINE
  5
3F3D
330
1E
100
AcDbEntity
  8
7
100
AcDbLine
 10
0.7148637691929132
 20
3.899820567907869
 30
0.0
 11
0.7148637691929132
 21
3.891946503931491
 31
0.0
  0
LINE
  5
3F3E
330
1E
100
AcDbEntity
  8
7
100
AcDbLine
 10
0.9602720964566922
 20
3.947064951766137
 30
0.0
 11
0.9602720964566922
 21
3.919505727848813
 31
0.0
  0
LINE
  5
3F3F
330
1E
100
AcDbEntity
  8
7
100
AcDbLine
 10
0.9602720964566922
 20
3.919505727848813
 30
0.0
 11
0.9602720964566922
 21
3.899820567907869
 31
0.0
  0
LINE
  5
3F40
330
1E
100
AcDbEntity
  8
7
100
AcDbLine
 10
0.9602720964566922
 20
3.899820567907869
 30
0.0
 11
0.9602720964566922
 21
3.891946503931491
 31
0.0
  0
LINE
  5
3F41
330
1E
100
AcDbEntity
  8
7
100
AcDbLine
 10
1.26211121555118
 20
3.873573687986609
 30
0.0
 11
1.263423559547243
 21
3.882760095959049
 31
0.0
  0
LINE
  5
3F42
330
1E
100
AcDbEntity
  8
7
100
AcDbLine
 10
1.263423559547243
 20
3.882760095959049
 30
0.0
 11
1.266048247539369
 21
3.888009471943301
 31
0.0
  0
LINE
  5
3F43
330
1E
100
AcDbEntity
  8
7
100
AcDbLine
 10
1.117753375984252
 20
3.888009471943301
 30
0.0
 11
1.120378063976377
 21
3.880135407966924
 31
0.0
  0
LINE
  5
3F44
330
1E
100
AcDbEntity
  8
7
100
AcDbLine
 10
1.120378063976377
 20
3.880135407966924
 30
0.0
 11
1.12169040797244
 21
3.873573687986609
 31
0.0
  0
LINE
  5
3F45
330
1E
100
AcDbEntity
  8
7
100
AcDbLine
 10
1.26211121555118
 20
3.873573687986609
 30
0.0
 11
1.26211121555118
 21
3.846014464069286
 31
0.0
  0
LINE
  5
3F46
330
1E
100
AcDbEntity
  8
7
100
AcDbLine
 10
1.26211121555118
 20
3.846014464069286
 30
0.0
 11
1.26211121555118
 21
3.834203368104719
 31
0.0
  0
LINE
  5
3F47
330
1E
100
AcDbEntity
  8
7
100
AcDbLine
 10
1.12169040797244
 20
3.873573687986609
 30
0.0
 11
1.12169040797244
 21
3.846014464069286
 31
0.0
  0
LINE
  5
3F48
330
1E
100
AcDbEntity
  8
7
100
AcDbLine
 10
1.12169040797244
 20
3.846014464069286
 30
0.0
 11
1.12169040797244
 21
3.834203368104719
 31
0.0
  0
LINE
  5
3F49
330
1E
100
AcDbEntity
  8
7
100
AcDbLine
 10
1.12169040797244
 20
3.834203368104719
 30
0.0
 11
1.26211121555118
 21
3.834203368104719
 31
0.0
  0
LINE
  5
3F4A
330
1E
100
AcDbEntity
  8
7
100
AcDbLine
 10
1.26211121555118
 20
3.834203368104719
 30
0.0
 11
1.26211121555118
 21
3.828953992120467
 31
0.0
  0
LINE
  5
3F4B
330
1E
100
AcDbEntity
  8
7
100
AcDbLine
 10
1.26211121555118
 20
3.828953992120467
 30
0.0
 11
1.26211121555118
 21
3.817142896155901
 31
0.0
  0
LINE
  5
3F4C
330
1E
100
AcDbEntity
  8
7
100
AcDbLine
 10
1.12169040797244
 20
3.721341784443302
 30
0.0
 11
1.125627439960629
 21
3.710843032474798
 31
0.0
  0
LINE
  5
3F4D
330
1E
100
AcDbEntity
  8
7
100
AcDbLine
 10
1.125627439960629
 20
3.710843032474798
 30
0.0
 11
1.136126191929133
 21
3.706906000486609
 31
0.0
  0
LINE
  5
3F4E
330
1E
100
AcDbEntity
  8
7
100
AcDbLine
 10
1.246363087598425
 20
3.706906000486609
 30
0.0
 11
1.256861839566928
 21
3.710843032474798
 31
0.0
  0
LINE
  5
3F4F
330
1E
100
AcDbEntity
  8
7
100
AcDbLine
 10
1.256861839566928
 20
3.710843032474798
 30
0.0
 11
1.260798871555118
 21
3.721341784443302
 31
0.0
  0
LINE
  5
3F50
330
1E
100
AcDbEntity
  8
7
100
AcDbLine
 10
1.12169040797244
 20
3.834203368104719
 30
0.0
 11
1.12169040797244
 21
3.828953992120467
 31
0.0
  0
LINE
  5
3F51
330
1E
100
AcDbEntity
  8
7
100
AcDbLine
 10
1.12169040797244
 20
3.828953992120467
 30
0.0
 11
1.12169040797244
 21
3.817142896155901
 31
0.0
  0
LINE
  5
3F52
330
1E
100
AcDbEntity
  8
7
100
AcDbLine
 10
-0.0147994926181099
 20
3.20296590599842
 30
0.0
 11
-0.0147994926181099
 21
3.168844962100782
 31
0.0
  0
LINE
  5
3F53
330
1E
100
AcDbEntity
  8
7
100
AcDbLine
 10
-0.0147994926181099
 20
3.168844962100782
 30
0.0
 11
-0.0147994926181099
 21
3.138661050191333
 31
0.0
  0
LINE
  5
3F54
330
1E
100
AcDbEntity
  8
7
100
AcDbLine
 10
-0.0147994926181099
 20
3.138661050191333
 30
0.0
 11
-0.1355351402559064
 21
3.017925402553538
 31
0.0
  0
LINE
  5
3F55
330
1E
100
AcDbEntity
  8
7
100
AcDbLine
 10
-0.1355351402559064
 20
3.017925402553538
 30
0.0
 11
4.331683822342518
 21
3.017925402553538
 31
0.0
  0
LINE
  5
3F56
330
1E
100
AcDbEntity
  8
7
100
AcDbLine
 10
4.331683822342518
 20
3.017925402553538
 30
0.0
 11
4.365804766240156
 21
3.017925402553538
 31
0.0
  0
LINE
  5
3F57
330
1E
100
AcDbEntity
  8
7
100
AcDbLine
 10
4.365804766240156
 20
3.017925402553538
 30
0.0
 11
4.374991174212597
 21
3.019237746549601
 31
0.0
  0
LINE
  5
3F58
330
1E
100
AcDbEntity
  8
7
100
AcDbLine
 10
4.374991174212597
 20
3.019237746549601
 30
0.0
 11
4.384177582185038
 21
3.024487122533852
 31
0.0
  0
LINE
  5
3F59
330
1E
100
AcDbEntity
  8
7
100
AcDbLine
 10
4.384177582185038
 20
3.024487122533852
 30
0.0
 11
4.390739302165354
 21
3.031048842514168
 31
0.0
  0
LINE
  5
3F5A
330
1E
100
AcDbEntity
  8
7
100
AcDbLine
 10
4.390739302165354
 20
3.031048842514168
 30
0.0
 11
4.394676334153542
 21
3.040235250486609
 31
0.0
  0
LINE
  5
3F5B
330
1E
100
AcDbEntity
  8
7
100
AcDbLine
 10
4.394676334153542
 20
3.040235250486609
 30
0.0
 11
4.395988678149605
 21
3.048109314462986
 31
0.0
  0
LINE
  5
3F5C
330
1E
100
AcDbEntity
  8
7
100
AcDbLine
 10
4.210948174704723
 20
3.20296590599842
 30
0.0
 11
4.210948174704723
 21
3.168844962100782
 31
0.0
  0
LINE
  5
3F5D
330
1E
100
AcDbEntity
  8
7
100
AcDbLine
 10
4.210948174704723
 20
3.168844962100782
 30
0.0
 11
4.210948174704723
 21
3.138661050191333
 31
0.0
  0
LINE
  5
3F5E
330
1E
100
AcDbEntity
  8
7
100
AcDbLine
 10
3.479972568897637
 20
3.947064951766137
 30
0.0
 11
3.479972568897637
 21
3.919505727848813
 31
0.0
  0
LINE
  5
3F5F
330
1E
100
AcDbEntity
  8
7
100
AcDbLine
 10
3.479972568897637
 20
3.919505727848813
 30
0.0
 11
3.479972568897637
 21
3.899820567907869
 31
0.0
  0
LINE
  5
3F60
330
1E
100
AcDbEntity
  8
7
100
AcDbLine
 10
3.479972568897637
 20
3.899820567907869
 30
0.0
 11
3.479972568897637
 21
3.891946503931491
 31
0.0
  0
LINE
  5
3F61
330
1E
100
AcDbEntity
  8
7
100
AcDbLine
 10
3.235876585629921
 20
3.947064951766137
 30
0.0
 11
3.235876585629921
 21
3.919505727848813
 31
0.0
  0
LINE
  5
3F62
330
1E
100
AcDbEntity
  8
7
100
AcDbLine
 10
3.235876585629921
 20
3.919505727848813
 30
0.0
 11
3.235876585629921
 21
3.899820567907869
 31
0.0
  0
LINE
  5
3F63
330
1E
100
AcDbEntity
  8
7
100
AcDbLine
 10
3.235876585629921
 20
3.899820567907869
 30
0.0
 11
3.235876585629921
 21
3.891946503931491
 31
0.0
  0
LINE
  5
3F64
330
1E
100
AcDbEntity
  8
7
100
AcDbLine
 10
3.074458274114173
 20
3.873573687986609
 30
0.0
 11
3.075770618110235
 21
3.882760095959049
 31
0.0
  0
LINE
  5
3F65
330
1E
100
AcDbEntity
  8
7
100
AcDbLine
 10
3.075770618110235
 20
3.882760095959049
 30
0.0
 11
3.078395306102361
 21
3.888009471943301
 31
0.0
  0
LINE
  5
3F66
330
1E
100
AcDbEntity
  8
7
100
AcDbLine
 10
2.930100434547244
 20
3.888009471943301
 30
0.0
 11
2.934037466535432
 21
3.880135407966924
 31
0.0
  0
LINE
  5
3F67
330
1E
100
AcDbEntity
  8
7
100
AcDbLine
 10
2.934037466535432
 20
3.880135407966924
 30
0.0
 11
2.934037466535432
 21
3.873573687986609
 31
0.0
  0
LINE
  5
3F68
330
1E
100
AcDbEntity
  8
7
100
AcDbLine
 10
2.934037466535432
 20
3.873573687986609
 30
0.0
 11
2.934037466535432
 21
3.846014464069286
 31
0.0
  0
LINE
  5
3F69
330
1E
100
AcDbEntity
  8
7
100
AcDbLine
 10
2.934037466535432
 20
3.846014464069286
 30
0.0
 11
2.934037466535432
 21
3.834203368104719
 31
0.0
  0
LINE
  5
3F6A
330
1E
100
AcDbEntity
  8
7
100
AcDbLine
 10
3.074458274114173
 20
3.873573687986609
 30
0.0
 11
3.074458274114173
 21
3.846014464069286
 31
0.0
  0
LINE
  5
3F6B
330
1E
100
AcDbEntity
  8
7
100
AcDbLine
 10
3.074458274114173
 20
3.846014464069286
 30
0.0
 11
3.074458274114173
 21
3.834203368104719
 31
0.0
  0
LINE
  5
3F6C
330
1E
100
AcDbEntity
  8
7
100
AcDbLine
 10
3.074458274114173
 20
3.834203368104719
 30
0.0
 11
2.934037466535432
 21
3.834203368104719
 31
0.0
  0
LINE
  5
3F6D
330
1E
100
AcDbEntity
  8
7
100
AcDbLine
 10
2.934037466535432
 20
3.834203368104719
 30
0.0
 11
2.934037466535432
 21
3.828953992120467
 31
0.0
  0
LINE
  5
3F6E
330
1E
100
AcDbEntity
  8
7
100
AcDbLine
 10
2.934037466535432
 20
3.828953992120467
 30
0.0
 11
2.934037466535432
 21
3.817142896155901
 31
0.0
  0
LINE
  5
3F6F
330
1E
100
AcDbEntity
  8
7
100
AcDbLine
 10
2.935349810531496
 20
3.721341784443302
 30
0.0
 11
2.939286842519684
 21
3.710843032474798
 31
0.0
  0
LINE
  5
3F70
330
1E
100
AcDbEntity
  8
7
100
AcDbLine
 10
2.939286842519684
 20
3.710843032474798
 30
0.0
 11
2.949785594488188
 21
3.706906000486609
 31
0.0
  0
LINE
  5
3F71
330
1E
100
AcDbEntity
  8
7
100
AcDbLine
 10
3.074458274114173
 20
3.834203368104719
 30
0.0
 11
3.074458274114173
 21
3.828953992120467
 31
0.0
  0
LINE
  5
3F72
330
1E
100
AcDbEntity
  8
7
100
AcDbLine
 10
3.074458274114173
 20
3.828953992120467
 30
0.0
 11
3.074458274114173
 21
3.817142896155901
 31
0.0
  0
LINE
  5
3F73
330
1E
100
AcDbEntity
  8
7
100
AcDbLine
 10
0.7857303449803146
 20
6.590125759837002
 30
0.0
 11
0.7857303449803146
 21
6.616372639758262
 31
0.0
  0
LINE
  5
3F74
330
1E
100
AcDbEntity
  8
7
100
AcDbLine
 10
0.7857303449803146
 20
6.616372639758262
 30
0.0
 11
0.7857303449803146
 21
6.636057799699208
 31
0.0
  0
LINE
  5
3F75
330
1E
100
AcDbEntity
  8
7
100
AcDbLine
 10
0.7857303449803146
 20
6.636057799699208
 30
0.0
 11
0.7857303449803146
 21
6.643931863675586
 31
0.0
  0
LINE
  5
3F76
330
1E
100
AcDbEntity
  8
7
100
AcDbLine
 10
1.029826328248031
 20
6.590125759837002
 30
0.0
 11
1.029826328248031
 21
6.616372639758262
 31
0.0
  0
LINE
  5
3F77
330
1E
100
AcDbEntity
  8
7
100
AcDbLine
 10
1.029826328248031
 20
6.616372639758262
 30
0.0
 11
1.029826328248031
 21
6.636057799699208
 31
0.0
  0
LINE
  5
3F78
330
1E
100
AcDbEntity
  8
7
100
AcDbLine
 10
1.029826328248031
 20
6.636057799699208
 30
0.0
 11
1.029826328248031
 21
6.643931863675586
 31
0.0
  0
LINE
  5
3F79
330
1E
100
AcDbEntity
  8
7
100
AcDbLine
 10
1.266048247539369
 20
6.647868895663775
 30
0.0
 11
1.26211121555118
 21
6.655742959640153
 31
0.0
  0
LINE
  5
3F7A
330
1E
100
AcDbEntity
  8
7
100
AcDbLine
 10
1.26211121555118
 20
6.655742959640153
 30
0.0
 11
1.26211121555118
 21
6.662304679620468
 31
0.0
  0
LINE
  5
3F7B
330
1E
100
AcDbEntity
  8
7
100
AcDbLine
 10
1.12169040797244
 20
6.662304679620468
 30
0.0
 11
1.120378063976377
 21
6.654430615644089
 31
0.0
  0
LINE
  5
3F7C
330
1E
100
AcDbEntity
  8
7
100
AcDbLine
 10
1.120378063976377
 20
6.654430615644089
 30
0.0
 11
1.117753375984252
 21
6.647868895663775
 31
0.0
  0
LINE
  5
3F7D
330
1E
100
AcDbEntity
  8
7
100
AcDbLine
 10
1.12169040797244
 20
6.662304679620468
 30
0.0
 11
1.12169040797244
 21
6.691176247533854
 31
0.0
  0
LINE
  5
3F7E
330
1E
100
AcDbEntity
  8
7
100
AcDbLine
 10
1.12169040797244
 20
6.691176247533854
 30
0.0
 11
1.12169040797244
 21
6.701674999502357
 31
0.0
  0
LINE
  5
3F7F
330
1E
100
AcDbEntity
  8
7
100
AcDbLine
 10
1.12169040797244
 20
6.701674999502357
 30
0.0
 11
1.12169040797244
 21
6.706924375486609
 31
0.0
  0
LINE
  5
3F80
330
1E
100
AcDbEntity
  8
7
100
AcDbLine
 10
1.12169040797244
 20
6.706924375486609
 30
0.0
 11
1.12169040797244
 21
6.720047815447239
 31
0.0
  0
LINE
  5
3F81
330
1E
100
AcDbEntity
  8
7
100
AcDbLine
 10
1.136126191929133
 20
6.828972367120467
 30
0.0
 11
1.125627439960629
 21
6.825035335132279
 31
0.0
  0
LINE
  5
3F82
330
1E
100
AcDbEntity
  8
7
100
AcDbLine
 10
1.125627439960629
 20
6.825035335132279
 30
0.0
 11
1.12169040797244
 21
6.814536583163774
 31
0.0
  0
LINE
  5
3F83
330
1E
100
AcDbEntity
  8
7
100
AcDbLine
 10
1.260798871555118
 20
6.814536583163774
 30
0.0
 11
1.256861839566928
 21
6.825035335132279
 31
0.0
  0
LINE
  5
3F84
330
1E
100
AcDbEntity
  8
7
100
AcDbLine
 10
1.256861839566928
 20
6.825035335132279
 30
0.0
 11
1.246363087598425
 21
6.828972367120467
 31
0.0
  0
LINE
  5
3F85
330
1E
100
AcDbEntity
  8
7
100
AcDbLine
 10
1.26211121555118
 20
6.662304679620468
 30
0.0
 11
1.26211121555118
 21
6.691176247533854
 31
0.0
  0
LINE
  5
3F86
330
1E
100
AcDbEntity
  8
7
100
AcDbLine
 10
1.26211121555118
 20
6.691176247533854
 30
0.0
 11
1.26211121555118
 21
6.701674999502357
 31
0.0
  0
LINE
  5
3F87
330
1E
100
AcDbEntity
  8
7
100
AcDbLine
 10
1.26211121555118
 20
6.701674999502357
 30
0.0
 11
1.26211121555118
 21
6.706924375486609
 31
0.0
  0
LINE
  5
3F88
330
1E
100
AcDbEntity
  8
7
100
AcDbLine
 10
1.26211121555118
 20
6.706924375486609
 30
0.0
 11
1.26211121555118
 21
6.720047815447239
 31
0.0
  0
LINE
  5
3F89
330
1E
100
AcDbEntity
  8
7
100
AcDbLine
 10
3.078395306102361
 20
6.647868895663775
 30
0.0
 11
3.074458274114173
 21
6.655742959640153
 31
0.0
  0
LINE
  5
3F8A
330
1E
100
AcDbEntity
  8
7
100
AcDbLine
 10
3.074458274114173
 20
6.655742959640153
 30
0.0
 11
3.074458274114173
 21
6.662304679620468
 31
0.0
  0
LINE
  5
3F8B
330
1E
100
AcDbEntity
  8
7
100
AcDbLine
 10
2.934037466535432
 20
6.662304679620468
 30
0.0
 11
2.93272512253937
 21
6.654430615644089
 31
0.0
  0
LINE
  5
3F8C
330
1E
100
AcDbEntity
  8
7
100
AcDbLine
 10
2.93272512253937
 20
6.654430615644089
 30
0.0
 11
2.930100434547244
 21
6.647868895663775
 31
0.0
  0
LINE
  5
3F8D
330
1E
100
AcDbEntity
  8
7
100
AcDbLine
 10
2.934037466535432
 20
6.662304679620468
 30
0.0
 11
2.934037466535432
 21
6.691176247533854
 31
0.0
  0
LINE
  5
3F8E
330
1E
100
AcDbEntity
  8
7
100
AcDbLine
 10
2.934037466535432
 20
6.691176247533854
 30
0.0
 11
2.934037466535432
 21
6.701674999502357
 31
0.0
  0
LINE
  5
3F8F
330
1E
100
AcDbEntity
  8
7
100
AcDbLine
 10
2.934037466535432
 20
6.701674999502357
 30
0.0
 11
2.934037466535432
 21
6.706924375486609
 31
0.0
  0
LINE
  5
3F90
330
1E
100
AcDbEntity
  8
7
100
AcDbLine
 10
2.934037466535432
 20
6.706924375486609
 30
0.0
 11
2.934037466535432
 21
6.720047815447239
 31
0.0
  0
LINE
  5
3F91
330
1E
100
AcDbEntity
  8
7
100
AcDbLine
 10
2.949785594488188
 20
6.828972367120467
 30
0.0
 11
2.939286842519684
 21
6.825035335132279
 31
0.0
  0
LINE
  5
3F92
330
1E
100
AcDbEntity
  8
7
100
AcDbLine
 10
2.939286842519684
 20
6.825035335132279
 30
0.0
 11
2.935349810531496
 21
6.814536583163774
 31
0.0
  0
LINE
  5
3F93
330
1E
100
AcDbEntity
  8
7
100
AcDbLine
 10
3.073145930118109
 20
6.814536583163774
 30
0.0
 11
3.069208898129921
 21
6.825035335132279
 31
0.0
  0
LINE
  5
3F94
330
1E
100
AcDbEntity
  8
7
100
AcDbLine
 10
3.069208898129921
 20
6.825035335132279
 30
0.0
 11
3.058710146161417
 21
6.828972367120467
 31
0.0
  0
LINE
  5
3F95
330
1E
100
AcDbEntity
  8
7
100
AcDbLine
 10
3.074458274114173
 20
6.662304679620468
 30
0.0
 11
3.074458274114173
 21
6.691176247533854
 31
0.0
  0
LINE
  5
3F96
330
1E
100
AcDbEntity
  8
7
100
AcDbLine
 10
3.074458274114173
 20
6.691176247533854
 30
0.0
 11
3.074458274114173
 21
6.701674999502357
 31
0.0
  0
LINE
  5
3F97
330
1E
100
AcDbEntity
  8
7
100
AcDbLine
 10
3.074458274114173
 20
6.701674999502357
 30
0.0
 11
3.074458274114173
 21
6.706924375486609
 31
0.0
  0
LINE
  5
3F98
330
1E
100
AcDbEntity
  8
7
100
AcDbLine
 10
3.074458274114173
 20
6.706924375486609
 30
0.0
 11
3.074458274114173
 21
6.720047815447239
 31
0.0
  0
LINE
  5
3F99
330
1E
100
AcDbEntity
  8
7
100
AcDbLine
 10
3.410418337106297
 20
6.590125759837002
 30
0.0
 11
3.410418337106297
 21
6.616372639758262
 31
0.0
  0
LINE
  5
3F9A
330
1E
100
AcDbEntity
  8
7
100
AcDbLine
 10
3.410418337106297
 20
6.616372639758262
 30
0.0
 11
3.410418337106297
 21
6.636057799699208
 31
0.0
  0
LINE
  5
3F9B
330
1E
100
AcDbEntity
  8
7
100
AcDbLine
 10
3.410418337106297
 20
6.636057799699208
 30
0.0
 11
3.410418337106297
 21
6.643931863675586
 31
0.0
  0
LINE
  5
3F9C
330
1E
100
AcDbEntity
  8
7
100
AcDbLine
 10
3.165010009842519
 20
6.590125759837002
 30
0.0
 11
3.165010009842519
 21
6.616372639758262
 31
0.0
  0
LINE
  5
3F9D
330
1E
100
AcDbEntity
  8
7
100
AcDbLine
 10
3.165010009842519
 20
6.616372639758262
 30
0.0
 11
3.165010009842519
 21
6.636057799699208
 31
0.0
  0
LINE
  5
3F9E
330
1E
100
AcDbEntity
  8
7
100
AcDbLine
 10
3.165010009842519
 20
6.636057799699208
 30
0.0
 11
3.165010009842519
 21
6.643931863675586
 31
0.0
  0
LINE
  5
3F9F
330
1E
100
AcDbEntity
  8
7
100
AcDbLine
 10
3.165010009842519
 20
6.643931863675586
 30
0.0
 11
3.410418337106297
 21
6.643931863675586
 31
0.0
  0
LINE
  5
3FA0
330
1E
100
AcDbEntity
  8
7
100
AcDbLine
 10
-0.1696560841535435
 20
7.517952965053538
 30
0.0
 11
-0.1788424921259848
 21
7.516640621057476
 31
0.0
  0
LINE
  5
3FA1
330
1E
100
AcDbEntity
  8
7
100
AcDbLine
 10
-0.1788424921259848
 20
7.516640621057476
 30
0.0
 11
-0.1880289000984261
 21
7.511391245073223
 31
0.0
  0
LINE
  5
3FA2
330
1E
100
AcDbEntity
  8
7
100
AcDbLine
 10
-0.1880289000984261
 20
7.511391245073223
 30
0.0
 11
-0.1945906200787402
 21
7.504829525092908
 31
0.0
  0
LINE
  5
3FA3
330
1E
100
AcDbEntity
  8
7
100
AcDbLine
 10
-0.1945906200787402
 20
7.504829525092908
 30
0.0
 11
-0.1985276520669297
 21
7.495643117120467
 31
0.0
  0
LINE
  5
3FA4
330
1E
100
AcDbEntity
  8
7
100
AcDbLine
 10
-0.1985276520669297
 20
7.495643117120467
 30
0.0
 11
-0.1998399960629928
 21
7.48776905314409
 31
0.0
  0
LINE
  5
3FA5
330
1E
100
AcDbEntity
  8
7
100
AcDbLine
 10
-0.0791043484251972
 20
7.332912461608657
 30
0.0
 11
-0.0502327805118119
 21
7.368345749502358
 31
0.0
  0
LINE
  5
3FA6
330
1E
100
AcDbEntity
  8
7
100
AcDbLine
 10
-0.0502327805118119
 20
7.368345749502358
 30
0.0
 11
-0.0147994926181099
 21
7.397217317415742
 31
0.0
  0
LINE
  5
3FA7
330
1E
100
AcDbEntity
  8
7
100
AcDbLine
 10
-0.1696560841535435
 20
7.517952965053538
 30
0.0
 11
-0.1355351402559064
 21
7.517952965053538
 31
0.0
  0
LINE
  5
3FA8
330
1E
100
AcDbEntity
  8
7
100
AcDbLine
 10
-0.1355351402559064
 20
7.517952965053538
 30
0.0
 11
4.331683822342518
 21
7.517952965053538
 31
0.0
  0
LINE
  5
3FA9
330
1E
100
AcDbEntity
  8
7
100
AcDbLine
 10
4.395988678149605
 20
7.48776905314409
 30
0.0
 11
4.394676334153542
 21
7.498267805112594
 31
0.0
  0
LINE
  5
3FAA
330
1E
100
AcDbEntity
  8
7
100
AcDbLine
 10
4.394676334153542
 20
7.498267805112594
 30
0.0
 11
4.389426958169289
 21
7.506141869088971
 31
0.0
  0
LINE
  5
3FAB
330
1E
100
AcDbEntity
  8
7
100
AcDbLine
 10
4.389426958169289
 20
7.506141869088971
 30
0.0
 11
4.382865238188975
 21
7.512703589069285
 31
0.0
  0
LINE
  5
3FAC
330
1E
100
AcDbEntity
  8
7
100
AcDbLine
 10
4.382865238188975
 20
7.512703589069285
 30
0.0
 11
4.373678830216534
 21
7.516640621057476
 31
0.0
  0
LINE
  5
3FAD
330
1E
100
AcDbEntity
  8
7
100
AcDbLine
 10
4.373678830216534
 20
7.516640621057476
 30
0.0
 11
4.365804766240156
 21
7.517952965053538
 31
0.0
  0
LINE
  5
3FAE
330
1E
100
AcDbEntity
  8
7
100
AcDbLine
 10
4.210948174704723
 20
7.332912461608657
 30
0.0
 11
4.210948174704723
 21
7.367033405506294
 31
0.0
  0
LINE
  5
3FAF
330
1E
100
AcDbEntity
  8
7
100
AcDbLine
 10
4.210948174704723
 20
7.367033405506294
 30
0.0
 11
4.210948174704723
 21
7.397217317415742
 31
0.0
  0
LINE
  5
3FB0
330
1E
100
AcDbEntity
  8
7
100
AcDbLine
 10
4.275253030511811
 20
7.332912461608657
 30
0.0
 11
4.246381462598424
 21
7.368345749502358
 31
0.0
  0
LINE
  5
3FB1
330
1E
100
AcDbEntity
  8
7
100
AcDbLine
 10
4.246381462598424
 20
7.368345749502358
 30
0.0
 11
4.210948174704723
 21
7.397217317415742
 31
0.0
  0
LINE
  5
3FB2
330
1E
100
AcDbEntity
  8
7
100
AcDbLine
 10
4.210948174704723
 20
7.332912461608657
 30
0.0
 11
4.245069118602361
 21
7.332912461608657
 31
0.0
  0
LINE
  5
3FB3
330
1E
100
AcDbEntity
  8
7
100
AcDbLine
 10
4.245069118602361
 20
7.332912461608657
 30
0.0
 11
4.275253030511811
 21
7.332912461608657
 31
0.0
  0
LINE
  5
3FB4
330
1E
100
AcDbEntity
  8
7
100
AcDbLine
 10
4.210948174704723
 20
3.20296590599842
 30
0.0
 11
4.245069118602361
 21
3.20296590599842
 31
0.0
  0
LINE
  5
3FB5
330
1E
100
AcDbEntity
  8
7
100
AcDbLine
 10
4.245069118602361
 20
3.20296590599842
 30
0.0
 11
4.275253030511811
 21
3.20296590599842
 31
0.0
  0
LINE
  5
3FB6
330
1E
100
AcDbEntity
  8
7
100
AcDbLine
 10
-0.1998399960629928
 20
7.453648109246452
 30
0.0
 11
-0.1998399960629928
 21
3.082230258360624
 31
0.0
  0
LINE
  5
3FB7
330
1E
100
AcDbEntity
  8
7
100
AcDbLine
 10
-0.1998399960629928
 20
3.082230258360624
 30
0.0
 11
-0.0791043484251972
 21
3.20296590599842
 31
0.0
  0
LINE
  5
3FB8
330
1E
100
AcDbEntity
  8
7
100
AcDbLine
 10
-0.0791043484251972
 20
7.332912461608657
 30
0.0
 11
-0.0489204365157487
 21
7.332912461608657
 31
0.0
  0
LINE
  5
3FB9
330
1E
100
AcDbEntity
  8
7
100
AcDbLine
 10
-0.0489204365157487
 20
7.332912461608657
 30
0.0
 11
-0.0147994926181099
 21
7.332912461608657
 31
0.0
  0
LINE
  5
3FBA
330
1E
100
AcDbEntity
  8
7
100
AcDbLine
 10
-0.0147994926181099
 20
3.20296590599842
 30
0.0
 11
-0.0489204365157487
 21
3.20296590599842
 31
0.0
  0
LINE
  5
3FBB
330
1E
100
AcDbEntity
  8
7
100
AcDbLine
 10
-0.0489204365157487
 20
3.20296590599842
 30
0.0
 11
-0.0791043484251972
 21
3.20296590599842
 31
0.0
  0
LINE
  5
3FBC
330
1E
100
AcDbEntity
  8
7
100
AcDbLine
 10
1.217491519685038
 20
4.384075502455114
 30
0.0
 11
1.213554487696849
 21
4.391949566431491
 31
0.0
  0
LINE
  5
3FBD
330
1E
100
AcDbEntity
  8
7
100
AcDbLine
 10
1.213554487696849
 20
4.391949566431491
 30
0.0
 11
1.205680423720472
 21
4.395886598419679
 31
0.0
  0
LINE
  5
3FBE
330
1E
100
AcDbEntity
  8
7
100
AcDbLine
 10
1.217491519685038
 20
4.342080494581098
 30
0.0
 11
1.221428551673227
 21
4.334206430604719
 31
0.0
  0
LINE
  5
3FBF
330
1E
100
AcDbEntity
  8
7
100
AcDbLine
 10
1.221428551673227
 20
4.334206430604719
 30
0.0
 11
1.229302615649605
 21
4.33026939861653
 31
0.0
  0
LINE
  5
3FC0
330
1E
100
AcDbEntity
  8
7
100
AcDbLine
 10
1.696497078248031
 20
4.33026939861653
 30
0.0
 11
1.704371142224409
 21
4.334206430604719
 31
0.0
  0
LINE
  5
3FC1
330
1E
100
AcDbEntity
  8
7
100
AcDbLine
 10
1.704371142224409
 20
4.334206430604719
 30
0.0
 11
1.708308174212597
 21
4.342080494581098
 31
0.0
  0
LINE
  5
3FC2
330
1E
100
AcDbEntity
  8
7
100
AcDbLine
 10
1.720119270177165
 20
4.395886598419679
 30
0.0
 11
1.712245206200787
 21
4.391949566431491
 31
0.0
  0
LINE
  5
3FC3
330
1E
100
AcDbEntity
  8
7
100
AcDbLine
 10
1.712245206200787
 20
4.391949566431491
 30
0.0
 11
1.708308174212597
 21
4.384075502455114
 31
0.0
  0
LINE
  5
3FC4
330
1E
100
AcDbEntity
  8
7
100
AcDbLine
 10
1.77523771801181
 20
5.044184532474798
 30
0.0
 11
1.771300686023622
 21
5.052058596451176
 31
0.0
  0
LINE
  5
3FC5
330
1E
100
AcDbEntity
  8
7
100
AcDbLine
 10
1.771300686023622
 20
5.052058596451176
 30
0.0
 11
1.763426622047243
 21
5.055995628439365
 31
0.0
  0
LINE
  5
3FC6
330
1E
100
AcDbEntity
  8
7
100
AcDbLine
 10
1.162373071850393
 20
5.055995628439365
 30
0.0
 11
1.154499007874015
 21
5.052058596451176
 31
0.0
  0
LINE
  5
3FC7
330
1E
100
AcDbEntity
  8
7
100
AcDbLine
 10
1.154499007874015
 20
5.052058596451176
 30
0.0
 11
1.150561975885826
 21
5.044184532474798
 31
0.0
  0
LINE
  5
3FC8
330
1E
100
AcDbEntity
  8
7
100
AcDbLine
 10
1.150561975885826
 20
4.407697694384246
 30
0.0
 11
1.154499007874015
 21
4.399823630407869
 31
0.0
  0
LINE
  5
3FC9
330
1E
100
AcDbEntity
  8
7
100
AcDbLine
 10
1.154499007874015
 20
4.399823630407869
 30
0.0
 11
1.162373071850393
 21
4.395886598419679
 31
0.0
  0
LINE
  5
3FCA
330
1E
100
AcDbEntity
  8
7
100
AcDbLine
 10
3.045586706200787
 20
6.193797873025979
 30
0.0
 11
3.041649674212598
 21
6.201671937002357
 31
0.0
  0
LINE
  5
3FCB
330
1E
100
AcDbEntity
  8
7
100
AcDbLine
 10
3.041649674212598
 20
6.201671937002357
 30
0.0
 11
3.03377561023622
 21
6.205608968990546
 31
0.0
  0
LINE
  5
3FCC
330
1E
100
AcDbEntity
  8
7
100
AcDbLine
 10
2.432722060039369
 20
6.205608968990546
 30
0.0
 11
2.424847996062992
 21
6.201671937002357
 31
0.0
  0
LINE
  5
3FCD
330
1E
100
AcDbEntity
  8
7
100
AcDbLine
 10
2.424847996062992
 20
6.201671937002357
 30
0.0
 11
2.420910964074802
 21
6.193797873025979
 31
0.0
  0
LINE
  5
3FCE
330
1E
100
AcDbEntity
  8
7
100
AcDbLine
 10
2.420910964074802
 20
5.557311034935428
 30
0.0
 11
2.424847996062992
 21
5.54943697095905
 31
0.0
  0
LINE
  5
3FCF
330
1E
100
AcDbEntity
  8
7
100
AcDbLine
 10
2.424847996062992
 20
5.54943697095905
 30
0.0
 11
2.432722060039369
 21
5.545499938970861
 31
0.0
  0
LINE
  5
3FD0
330
1E
100
AcDbEntity
  8
7
100
AcDbLine
 10
2.487840507874015
 20
5.533688843006293
 30
0.0
 11
2.483903475885826
 21
5.541562906982672
 31
0.0
  0
LINE
  5
3FD1
330
1E
100
AcDbEntity
  8
7
100
AcDbLine
 10
2.483903475885826
 20
5.541562906982672
 30
0.0
 11
2.476029411909448
 21
5.545499938970861
 31
0.0
  0
LINE
  5
3FD2
330
1E
100
AcDbEntity
  8
7
100
AcDbLine
 10
2.487840507874015
 20
5.493006179128342
 30
0.0
 11
2.491777539862204
 21
5.485132115151963
 31
0.0
  0
LINE
  5
3FD3
330
1E
100
AcDbEntity
  8
7
100
AcDbLine
 10
2.491777539862204
 20
5.485132115151963
 30
0.0
 11
2.499651603838582
 21
5.481195083163774
 31
0.0
  0
LINE
  5
3FD4
330
1E
100
AcDbEntity
  8
7
100
AcDbLine
 10
2.965533722440944
 20
5.481195083163774
 30
0.0
 11
2.973407786417322
 21
5.485132115151963
 31
0.0
  0
LINE
  5
3FD5
330
1E
100
AcDbEntity
  8
7
100
AcDbLine
 10
2.973407786417322
 20
5.485132115151963
 30
0.0
 11
2.977344818405511
 21
5.493006179128342
 31
0.0
  0
LINE
  5
3FD6
330
1E
100
AcDbEntity
  8
7
100
AcDbLine
 10
2.990468258366141
 20
5.545499938970861
 30
0.0
 11
2.982594194389763
 21
5.541562906982672
 31
0.0
  0
LINE
  5
3FD7
330
1E
100
AcDbEntity
  8
7
100
AcDbLine
 10
2.982594194389763
 20
5.541562906982672
 30
0.0
 11
2.978657162401574
 21
5.533688843006293
 31
0.0
  0
LINE
  5
3FD8
330
1E
100
AcDbEntity
  8
7
100
AcDbLine
 10
3.03377561023622
 20
5.545499938970861
 30
0.0
 11
3.041649674212598
 21
5.54943697095905
 31
0.0
  0
LINE
  5
3FD9
330
1E
100
AcDbEntity
  8
7
100
AcDbLine
 10
3.041649674212598
 20
5.54943697095905
 30
0.0
 11
3.045586706200787
 21
5.557311034935428
 31
0.0
  0
LINE
  5
3FDA
330
1E
100
AcDbEntity
  8
7
100
AcDbLine
 10
4.210948174704723
 20
3.20296590599842
 30
0.0
 11
4.210948174704723
 21
7.332912461608657
 31
0.0
  0
LINE
  5
3FDB
330
1E
100
AcDbEntity
  8
7
100
AcDbLine
 10
4.210948174704723
 20
7.332912461608657
 30
0.0
 11
-0.0147994926181099
 21
7.332912461608657
 31
0.0
  0
LINE
  5
3FDC
330
1E
100
AcDbEntity
  8
7
100
AcDbLine
 10
1.267360591535432
 20
6.647868895663775
 30
0.0
 11
1.277859343503936
 21
6.63737014369527
 31
0.0
  0
LINE
  5
3FDD
330
1E
100
AcDbEntity
  8
7
100
AcDbLine
 10
1.277859343503936
 20
6.63737014369527
 30
0.0
 11
1.292295127460629
 21
6.633433111707082
 31
0.0
  0
LINE
  5
3FDE
330
1E
100
AcDbEntity
  8
7
100
AcDbLine
 10
1.293607471456692
 20
6.633433111707082
 30
0.0
 11
1.305418567421259
 21
6.636057799699208
 31
0.0
  0
LINE
  5
3FDF
330
1E
100
AcDbEntity
  8
7
100
AcDbLine
 10
1.305418567421259
 20
6.636057799699208
 30
0.0
 11
1.3146049753937
 21
6.642619519679522
 31
0.0
  0
LINE
  5
3FE0
330
1E
100
AcDbEntity
  8
7
100
AcDbLine
 10
1.338227167322834
 20
6.651805927651963
 30
0.0
 11
1.326416071358267
 21
6.649181239659839
 31
0.0
  0
LINE
  5
3FE1
330
1E
100
AcDbEntity
  8
7
100
AcDbLine
 10
1.326416071358267
 20
6.649181239659839
 30
0.0
 11
1.317229663385826
 21
6.642619519679522
 31
0.0
  0
LINE
  5
3FE2
330
1E
100
AcDbEntity
  8
7
100
AcDbLine
 10
2.878919018700787
 20
6.642619519679522
 30
0.0
 11
2.869732610728346
 21
6.649181239659839
 31
0.0
  0
LINE
  5
3FE3
330
1E
100
AcDbEntity
  8
7
100
AcDbLine
 10
2.869732610728346
 20
6.649181239659839
 30
0.0
 11
2.857921514763779
 21
6.651805927651963
 31
0.0
  0
LINE
  5
3FE4
330
1E
100
AcDbEntity
  8
7
100
AcDbLine
 10
2.881543706692913
 20
6.642619519679522
 30
0.0
 11
2.890730114665354
 21
6.636057799699208
 31
0.0
  0
LINE
  5
3FE5
330
1E
100
AcDbEntity
  8
7
100
AcDbLine
 10
2.890730114665354
 20
6.636057799699208
 30
0.0
 11
2.902541210629921
 21
6.633433111707082
 31
0.0
  0
LINE
  5
3FE6
330
1E
100
AcDbEntity
  8
7
100
AcDbLine
 10
2.903853554625983
 20
6.633433111707082
 30
0.0
 11
2.918289338582677
 21
6.63737014369527
 31
0.0
  0
LINE
  5
3FE7
330
1E
100
AcDbEntity
  8
7
100
AcDbLine
 10
2.918289338582677
 20
6.63737014369527
 30
0.0
 11
2.92878809055118
 21
6.647868895663775
 31
0.0
  0
LINE
  5
3FE8
330
1E
100
AcDbEntity
  8
7
100
AcDbLine
 10
3.079707650098424
 20
6.647868895663775
 30
0.0
 11
3.084957026082677
 21
6.64130717568346
 31
0.0
  0
LINE
  5
3FE9
330
1E
100
AcDbEntity
  8
7
100
AcDbLine
 10
3.084957026082677
 20
6.64130717568346
 30
0.0
 11
3.090206402066928
 21
6.63737014369527
 31
0.0
  0
LINE
  5
3FEA
330
1E
100
AcDbEntity
  8
7
100
AcDbLine
 10
3.104642186023621
 20
6.609810919777948
 30
0.0
 11
3.100705154035432
 21
6.624246703734641
 31
0.0
  0
LINE
  5
3FEB
330
1E
100
AcDbEntity
  8
7
100
AcDbLine
 10
3.100705154035432
 20
6.624246703734641
 30
0.0
 11
3.090206402066928
 21
6.634745455703145
 31
0.0
  0
LINE
  5
3FEC
330
1E
100
AcDbEntity
  8
7
100
AcDbLine
 10
3.111203906003936
 20
6.573065287888184
 30
0.0
 11
3.12563968996063
 21
6.56256653591968
 31
0.0
  0
LINE
  5
3FED
330
1E
100
AcDbEntity
  8
7
100
AcDbLine
 10
3.12563968996063
 20
6.56256653591968
 30
0.0
 11
3.144012505905511
 21
6.56256653591968
 31
0.0
  0
LINE
  5
3FEE
330
1E
100
AcDbEntity
  8
7
100
AcDbLine
 10
3.144012505905511
 20
6.56256653591968
 30
0.0
 11
3.158448289862204
 21
6.573065287888184
 31
0.0
  0
LINE
  5
3FEF
330
1E
100
AcDbEntity
  8
7
100
AcDbLine
 10
3.158448289862204
 20
6.573065287888184
 30
0.0
 11
3.163697665846456
 21
6.590125759837002
 31
0.0
  0
LINE
  5
3FF0
330
1E
100
AcDbEntity
  8
7
100
AcDbLine
 10
3.411730681102361
 20
6.590125759837002
 30
0.0
 11
3.416980057086613
 21
6.573065287888184
 31
0.0
  0
LINE
  5
3FF1
330
1E
100
AcDbEntity
  8
7
100
AcDbLine
 10
3.416980057086613
 20
6.573065287888184
 30
0.0
 11
3.431415841043306
 21
6.56256653591968
 31
0.0
  0
LINE
  5
3FF2
330
1E
100
AcDbEntity
  8
7
100
AcDbLine
 10
3.431415841043306
 20
6.56256653591968
 30
0.0
 11
3.449788656988188
 21
6.56256653591968
 31
0.0
  0
LINE
  5
3FF3
330
1E
100
AcDbEntity
  8
7
100
AcDbLine
 10
3.449788656988188
 20
6.56256653591968
 30
0.0
 11
3.464224440944881
 21
6.573065287888184
 31
0.0
  0
LINE
  5
3FF4
330
1E
100
AcDbEntity
  8
7
100
AcDbLine
 10
3.464224440944881
 20
6.573065287888184
 30
0.0
 11
3.469473816929133
 21
6.590125759837002
 31
0.0
  0
LINE
  5
3FF5
330
1E
100
AcDbEntity
  8
7
100
AcDbLine
 10
3.500970072834645
 20
6.651805927651963
 30
0.0
 11
3.479972568897637
 21
6.643931863675586
 31
0.0
  0
LINE
  5
3FF6
330
1E
100
AcDbEntity
  8
7
100
AcDbLine
 10
3.479972568897637
 20
6.643931863675586
 30
0.0
 11
3.472098504921258
 21
6.622934359738579
 31
0.0
  0
LINE
  5
3FF7
330
1E
100
AcDbEntity
  8
7
100
AcDbLine
 10
3.563962584645668
 20
6.653118271648026
 30
0.0
 11
3.584960088582676
 21
6.660992335624404
 31
0.0
  0
LINE
  5
3FF8
330
1E
100
AcDbEntity
  8
7
100
AcDbLine
 10
3.584960088582676
 20
6.660992335624404
 30
0.0
 11
3.592834152559053
 21
6.681989839561413
 31
0.0
  0
LINE
  5
3FF9
330
1E
100
AcDbEntity
  8
7
100
AcDbLine
 10
3.592834152559053
 20
7.134748518203145
 30
0.0
 11
3.584960088582676
 21
7.155746022140153
 31
0.0
  0
LINE
  5
3FFA
330
1E
100
AcDbEntity
  8
7
100
AcDbLine
 10
3.584960088582676
 20
7.155746022140153
 30
0.0
 11
3.563962584645668
 21
7.16362008611653
 31
0.0
  0
LINE
  5
3FFB
330
1E
100
AcDbEntity
  8
7
100
AcDbLine
 10
0.6321860974409442
 20
7.16362008611653
 30
0.0
 11
0.6111885935039361
 21
7.155746022140153
 31
0.0
  0
LINE
  5
3FFC
330
1E
100
AcDbEntity
  8
7
100
AcDbLine
 10
0.6111885935039361
 20
7.155746022140153
 30
0.0
 11
0.6033145295275589
 21
7.134748518203145
 31
0.0
  0
LINE
  5
3FFD
330
1E
100
AcDbEntity
  8
7
100
AcDbLine
 10
0.6033145295275589
 20
6.681989839561413
 30
0.0
 11
0.6111885935039361
 21
6.660992335624404
 31
0.0
  0
LINE
  5
3FFE
330
1E
100
AcDbEntity
  8
7
100
AcDbLine
 10
0.6111885935039361
 20
6.660992335624404
 30
0.0
 11
0.6321860974409442
 21
6.653118271648026
 31
0.0
  0
LINE
  5
3FFF
330
1E
100
AcDbEntity
  8
7
100
AcDbLine
 10
0.7240501771653536
 20
6.622934359738579
 30
0.0
 11
0.7161761131889764
 21
6.643931863675586
 31
0.0
  0
LINE
  5
4000
330
1E
100
AcDbEntity
  8
7
100
AcDbLine
 10
0.7161761131889764
 20
6.643931863675586
 30
0.0
 11
0.6951786092519683
 21
6.651805927651963
 31
0.0
  0
LINE
  5
4001
330
1E
100
AcDbEntity
  8
7
100
AcDbLine
 10
0.72667486515748
 20
6.590125759837002
 30
0.0
 11
0.7319242411417318
 21
6.573065287888184
 31
0.0
  0
LINE
  5
4002
330
1E
100
AcDbEntity
  8
7
100
AcDbLine
 10
0.7319242411417318
 20
6.573065287888184
 30
0.0
 11
0.7463600250984248
 21
6.56256653591968
 31
0.0
  0
LINE
  5
4003
330
1E
100
AcDbEntity
  8
7
100
AcDbLine
 10
0.7463600250984248
 20
6.56256653591968
 30
0.0
 11
0.7647328410433066
 21
6.56256653591968
 31
0.0
  0
LINE
  5
4004
330
1E
100
AcDbEntity
  8
7
100
AcDbLine
 10
0.7647328410433066
 20
6.56256653591968
 30
0.0
 11
0.7791686249999997
 21
6.573065287888184
 31
0.0
  0
LINE
  5
4005
330
1E
100
AcDbEntity
  8
7
100
AcDbLine
 10
0.7791686249999997
 20
6.573065287888184
 30
0.0
 11
0.7844180009842514
 21
6.590125759837002
 31
0.0
  0
LINE
  5
4006
330
1E
100
AcDbEntity
  8
7
100
AcDbLine
 10
1.031138672244093
 20
6.590125759837002
 30
0.0
 11
1.036388048228345
 21
6.573065287888184
 31
0.0
  0
LINE
  5
4007
330
1E
100
AcDbEntity
  8
7
100
AcDbLine
 10
1.036388048228345
 20
6.573065287888184
 30
0.0
 11
1.050823832185039
 21
6.56256653591968
 31
0.0
  0
LINE
  5
4008
330
1E
100
AcDbEntity
  8
7
100
AcDbLine
 10
1.050823832185039
 20
6.56256653591968
 30
0.0
 11
1.069196648129921
 21
6.56256653591968
 31
0.0
  0
LINE
  5
4009
330
1E
100
AcDbEntity
  8
7
100
AcDbLine
 10
1.069196648129921
 20
6.56256653591968
 30
0.0
 11
1.083632432086614
 21
6.573065287888184
 31
0.0
  0
LINE
  5
400A
330
1E
100
AcDbEntity
  8
7
100
AcDbLine
 10
1.083632432086614
 20
6.573065287888184
 30
0.0
 11
1.088881808070865
 21
6.590125759837002
 31
0.0
  0
LINE
  5
400B
330
1E
100
AcDbEntity
  8
7
100
AcDbLine
 10
1.105942280019684
 20
6.634745455703145
 30
0.0
 11
1.09544352805118
 21
6.624246703734641
 31
0.0
  0
LINE
  5
400C
330
1E
100
AcDbEntity
  8
7
100
AcDbLine
 10
1.09544352805118
 20
6.624246703734641
 30
0.0
 11
1.091506496062992
 21
6.609810919777948
 31
0.0
  0
LINE
  5
400D
330
1E
100
AcDbEntity
  8
7
100
AcDbLine
 10
1.105942280019684
 20
6.63737014369527
 30
0.0
 11
1.111191656003936
 21
6.64130717568346
 31
0.0
  0
LINE
  5
400E
330
1E
100
AcDbEntity
  8
7
100
AcDbLine
 10
1.111191656003936
 20
6.64130717568346
 30
0.0
 11
1.116441031988188
 21
6.647868895663775
 31
0.0
  0
LINE
  5
400F
330
1E
100
AcDbEntity
  8
7
100
AcDbLine
 10
3.126952033956692
 20
3.893258847927553
 30
0.0
 11
3.117765625984251
 21
3.899820567907869
 31
0.0
  0
LINE
  5
4010
330
1E
100
AcDbEntity
  8
7
100
AcDbLine
 10
3.117765625984251
 20
3.899820567907869
 30
0.0
 11
3.105954530019684
 21
3.902445255899994
 31
0.0
  0
LINE
  5
4011
330
1E
100
AcDbEntity
  8
7
100
AcDbLine
 10
3.104642186023621
 20
3.902445255899994
 30
0.0
 11
3.090206402066928
 21
3.898508223911805
 31
0.0
  0
LINE
  5
4012
330
1E
100
AcDbEntity
  8
7
100
AcDbLine
 10
3.090206402066928
 20
3.898508223911805
 30
0.0
 11
3.079707650098424
 21
3.888009471943301
 31
0.0
  0
LINE
  5
4013
330
1E
100
AcDbEntity
  8
7
100
AcDbLine
 10
2.92878809055118
 20
3.888009471943301
 30
0.0
 11
2.918289338582677
 21
3.898508223911805
 31
0.0
  0
LINE
  5
4014
330
1E
100
AcDbEntity
  8
7
100
AcDbLine
 10
2.918289338582677
 20
3.898508223911805
 30
0.0
 11
2.903853554625983
 21
3.902445255899994
 31
0.0
  0
LINE
  5
4015
330
1E
100
AcDbEntity
  8
7
100
AcDbLine
 10
2.902541210629921
 20
3.902445255899994
 30
0.0
 11
2.890730114665354
 21
3.899820567907869
 31
0.0
  0
LINE
  5
4016
330
1E
100
AcDbEntity
  8
7
100
AcDbLine
 10
2.890730114665354
 20
3.899820567907869
 30
0.0
 11
2.881543706692913
 21
3.893258847927553
 31
0.0
  0
LINE
  5
4017
330
1E
100
AcDbEntity
  8
7
100
AcDbLine
 10
2.857921514763779
 20
3.884072439955113
 30
0.0
 11
2.869732610728346
 21
3.886697127947239
 31
0.0
  0
LINE
  5
4018
330
1E
100
AcDbEntity
  8
7
100
AcDbLine
 10
2.869732610728346
 20
3.886697127947239
 30
0.0
 11
2.878919018700787
 21
3.893258847927553
 31
0.0
  0
LINE
  5
4019
330
1E
100
AcDbEntity
  8
7
100
AcDbLine
 10
1.3146049753937
 20
3.893258847927553
 30
0.0
 11
1.305418567421259
 21
3.899820567907869
 31
0.0
  0
LINE
  5
401A
330
1E
100
AcDbEntity
  8
7
100
AcDbLine
 10
1.305418567421259
 20
3.899820567907869
 30
0.0
 11
1.293607471456692
 21
3.902445255899994
 31
0.0
  0
LINE
  5
401B
330
1E
100
AcDbEntity
  8
7
100
AcDbLine
 10
1.292295127460629
 20
3.902445255899994
 30
0.0
 11
1.277859343503936
 21
3.898508223911805
 31
0.0
  0
LINE
  5
401C
330
1E
100
AcDbEntity
  8
7
100
AcDbLine
 10
1.277859343503936
 20
3.898508223911805
 30
0.0
 11
1.267360591535432
 21
3.888009471943301
 31
0.0
  0
LINE
  5
401D
330
1E
100
AcDbEntity
  8
7
100
AcDbLine
 10
1.116441031988188
 20
3.888009471943301
 30
0.0
 11
1.105942280019684
 21
3.898508223911805
 31
0.0
  0
LINE
  5
401E
330
1E
100
AcDbEntity
  8
7
100
AcDbLine
 10
1.105942280019684
 20
3.898508223911805
 30
0.0
 11
1.091506496062992
 21
3.902445255899994
 31
0.0
  0
LINE
  5
401F
330
1E
100
AcDbEntity
  8
7
100
AcDbLine
 10
1.090194152066928
 20
3.902445255899994
 30
0.0
 11
1.078383056102362
 21
3.899820567907869
 31
0.0
  0
LINE
  5
4020
330
1E
100
AcDbEntity
  8
7
100
AcDbLine
 10
1.078383056102362
 20
3.899820567907869
 30
0.0
 11
1.069196648129921
 21
3.893258847927553
 31
0.0
  0
LINE
  5
4021
330
1E
100
AcDbEntity
  8
7
100
AcDbLine
 10
1.045574456200786
 20
3.884072439955113
 30
0.0
 11
1.057385552165353
 21
3.886697127947239
 31
0.0
  0
LINE
  5
4022
330
1E
100
AcDbEntity
  8
7
100
AcDbLine
 10
1.057385552165353
 20
3.886697127947239
 30
0.0
 11
1.066571960137794
 21
3.893258847927553
 31
0.0
  0
LINE
  5
4023
330
1E
100
AcDbEntity
  8
7
100
AcDbLine
 10
1.021952264271653
 20
3.912944007868498
 30
0.0
 11
1.028513984251968
 21
3.894571191923617
 31
0.0
  0
LINE
  5
4024
330
1E
100
AcDbEntity
  8
7
100
AcDbLine
 10
1.028513984251968
 20
3.894571191923617
 30
0.0
 11
1.045574456200786
 21
3.884072439955113
 31
0.0
  0
LINE
  5
4025
330
1E
100
AcDbEntity
  8
7
100
AcDbLine
 10
1.019327576279526
 20
3.947064951766137
 30
0.0
 11
1.014078200295275
 21
3.964125423714955
 31
0.0
  0
LINE
  5
4026
330
1E
100
AcDbEntity
  8
7
100
AcDbLine
 10
1.014078200295275
 20
3.964125423714955
 30
0.0
 11
0.9996424163385819
 21
3.974624175683459
 31
0.0
  0
LINE
  5
4027
330
1E
100
AcDbEntity
  8
7
100
AcDbLine
 10
0.9996424163385819
 20
3.974624175683459
 30
0.0
 11
0.9812696003937002
 21
3.974624175683459
 31
0.0
  0
LINE
  5
4028
330
1E
100
AcDbEntity
  8
7
100
AcDbLine
 10
0.9812696003937002
 20
3.974624175683459
 30
0.0
 11
0.966833816437008
 21
3.964125423714955
 31
0.0
  0
LINE
  5
4029
330
1E
100
AcDbEntity
  8
7
100
AcDbLine
 10
0.966833816437008
 20
3.964125423714955
 30
0.0
 11
0.9615844404527553
 21
3.947064951766137
 31
0.0
  0
LINE
  5
402A
330
1E
100
AcDbEntity
  8
7
100
AcDbLine
 10
0.7096143932086614
 20
3.964125423714955
 30
0.0
 11
0.6951786092519683
 21
3.974624175683459
 31
0.0
  0
LINE
  5
402B
330
1E
100
AcDbEntity
  8
7
100
AcDbLine
 10
0.6951786092519683
 20
3.974624175683459
 30
0.0
 11
0.6768057933070857
 21
3.974624175683459
 31
0.0
  0
LINE
  5
402C
330
1E
100
AcDbEntity
  8
7
100
AcDbLine
 10
0.6768057933070857
 20
3.974624175683459
 30
0.0
 11
0.6623700093503935
 21
3.964125423714955
 31
0.0
  0
LINE
  5
402D
330
1E
100
AcDbEntity
  8
7
100
AcDbLine
 10
0.6623700093503935
 20
3.964125423714955
 30
0.0
 11
0.6571206333661417
 21
3.947064951766137
 31
0.0
  0
LINE
  5
402E
330
1E
100
AcDbEntity
  8
7
100
AcDbLine
 10
0.6295614094488187
 20
3.884072439955113
 30
0.0
 11
0.6466218813976372
 21
3.893258847927553
 31
0.0
  0
LINE
  5
402F
330
1E
100
AcDbEntity
  8
7
100
AcDbLine
 10
0.6466218813976372
 20
3.893258847927553
 30
0.0
 11
0.6544959453740154
 21
3.912944007868498
 31
0.0
  0
LINE
  5
4030
330
1E
100
AcDbEntity
  8
7
100
AcDbLine
 10
0.6282490654527555
 20
3.882760095959049
 30
0.0
 11
0.6111885935039361
 21
3.873573687986609
 31
0.0
  0
LINE
  5
4031
330
1E
100
AcDbEntity
  8
7
100
AcDbLine
 10
0.6111885935039361
 20
3.873573687986609
 30
0.0
 11
0.6033145295275589
 21
3.853888528045664
 31
0.0
  0
LINE
  5
4032
330
1E
100
AcDbEntity
  8
7
100
AcDbLine
 10
0.6033145295275589
 20
3.401129849403932
 30
0.0
 11
0.6111885935039361
 21
3.380132345466924
 31
0.0
  0
LINE
  5
4033
330
1E
100
AcDbEntity
  8
7
100
AcDbLine
 10
0.6111885935039361
 20
3.380132345466924
 30
0.0
 11
0.6321860974409442
 21
3.372258281490546
 31
0.0
  0
LINE
  5
4034
330
1E
100
AcDbEntity
  8
7
100
AcDbLine
 10
3.592834152559053
 20
3.853888528045664
 30
0.0
 11
3.584960088582676
 21
3.873573687986609
 31
0.0
  0
LINE
  5
4035
330
1E
100
AcDbEntity
  8
7
100
AcDbLine
 10
3.584960088582676
 20
3.873573687986609
 30
0.0
 11
3.567899616633857
 21
3.882760095959049
 31
0.0
  0
LINE
  5
4036
330
1E
100
AcDbEntity
  8
7
100
AcDbLine
 10
3.541652736712598
 20
3.912944007868498
 30
0.0
 11
3.549526800688975
 21
3.893258847927553
 31
0.0
  0
LINE
  5
4037
330
1E
100
AcDbEntity
  8
7
100
AcDbLine
 10
3.549526800688975
 20
3.893258847927553
 30
0.0
 11
3.566587272637793
 21
3.884072439955113
 31
0.0
  0
LINE
  5
4038
330
1E
100
AcDbEntity
  8
7
100
AcDbLine
 10
3.539028048720471
 20
3.947064951766137
 30
0.0
 11
3.533778672736219
 21
3.964125423714955
 31
0.0
  0
LINE
  5
4039
330
1E
100
AcDbEntity
  8
7
100
AcDbLine
 10
3.533778672736219
 20
3.964125423714955
 30
0.0
 11
3.519342888779526
 21
3.974624175683459
 31
0.0
  0
LINE
  5
403A
330
1E
100
AcDbEntity
  8
7
100
AcDbLine
 10
3.519342888779526
 20
3.974624175683459
 30
0.0
 11
3.500970072834645
 21
3.974624175683459
 31
0.0
  0
LINE
  5
403B
330
1E
100
AcDbEntity
  8
7
100
AcDbLine
 10
3.500970072834645
 20
3.974624175683459
 30
0.0
 11
3.486534288877952
 21
3.964125423714955
 31
0.0
  0
LINE
  5
403C
330
1E
100
AcDbEntity
  8
7
100
AcDbLine
 10
3.486534288877952
 20
3.964125423714955
 30
0.0
 11
3.481284912893699
 21
3.947064951766137
 31
0.0
  0
LINE
  5
403D
330
1E
100
AcDbEntity
  8
7
100
AcDbLine
 10
3.234564241633858
 20
3.947064951766137
 30
0.0
 11
3.229314865649605
 21
3.964125423714955
 31
0.0
  0
LINE
  5
403E
330
1E
100
AcDbEntity
  8
7
100
AcDbLine
 10
3.229314865649605
 20
3.964125423714955
 30
0.0
 11
3.214879081692913
 21
3.974624175683459
 31
0.0
  0
LINE
  5
403F
330
1E
100
AcDbEntity
  8
7
100
AcDbLine
 10
3.214879081692913
 20
3.974624175683459
 30
0.0
 11
3.196506265748031
 21
3.974624175683459
 31
0.0
  0
LINE
  5
4040
330
1E
100
AcDbEntity
  8
7
100
AcDbLine
 10
3.196506265748031
 20
3.974624175683459
 30
0.0
 11
3.182070481791338
 21
3.964125423714955
 31
0.0
  0
LINE
  5
4041
330
1E
100
AcDbEntity
  8
7
100
AcDbLine
 10
3.182070481791338
 20
3.964125423714955
 30
0.0
 11
3.176821105807086
 21
3.947064951766137
 31
0.0
  0
LINE
  5
4042
330
1E
100
AcDbEntity
  8
7
100
AcDbLine
 10
3.150574225885826
 20
3.884072439955113
 30
0.0
 11
3.167634697834645
 21
3.894571191923617
 31
0.0
  0
LINE
  5
4043
330
1E
100
AcDbEntity
  8
7
100
AcDbLine
 10
3.167634697834645
 20
3.894571191923617
 30
0.0
 11
3.17419641781496
 21
3.912944007868498
 31
0.0
  0
LINE
  5
4044
330
1E
100
AcDbEntity
  8
7
100
AcDbLine
 10
3.129576721948818
 20
3.893258847927553
 30
0.0
 11
3.138763129921259
 21
3.886697127947239
 31
0.0
  0
LINE
  5
4045
330
1E
100
AcDbEntity
  8
7
100
AcDbLine
 10
3.138763129921259
 20
3.886697127947239
 30
0.0
 11
3.150574225885826
 21
3.884072439955113
 31
0.0
  0
LINE
  5
4046
330
1E
100
AcDbEntity
  8
7
100
AcDbLine
 10
3.045586706200787
 20
5.044184532474798
 30
0.0
 11
3.041649674212598
 21
5.052058596451176
 31
0.0
  0
LINE
  5
4047
330
1E
100
AcDbEntity
  8
7
100
AcDbLine
 10
3.041649674212598
 20
5.052058596451176
 30
0.0
 11
3.03377561023622
 21
5.055995628439365
 31
0.0
  0
LINE
  5
4048
330
1E
100
AcDbEntity
  8
7
100
AcDbLine
 10
2.432722060039369
 20
5.055995628439365
 30
0.0
 11
2.424847996062992
 21
5.052058596451176
 31
0.0
  0
LINE
  5
4049
330
1E
100
AcDbEntity
  8
7
100
AcDbLine
 10
2.424847996062992
 20
5.052058596451176
 30
0.0
 11
2.420910964074802
 21
5.044184532474798
 31
0.0
  0
LINE
  5
404A
330
1E
100
AcDbEntity
  8
7
100
AcDbLine
 10
2.420910964074802
 20
4.407697694384246
 30
0.0
 11
2.424847996062992
 21
4.399823630407869
 31
0.0
  0
LINE
  5
404B
330
1E
100
AcDbEntity
  8
7
100
AcDbLine
 10
2.424847996062992
 20
4.399823630407869
 30
0.0
 11
2.432722060039369
 21
4.395886598419679
 31
0.0
  0
LINE
  5
404C
330
1E
100
AcDbEntity
  8
7
100
AcDbLine
 10
2.487840507874015
 20
4.384075502455114
 30
0.0
 11
2.483903475885826
 21
4.391949566431491
 31
0.0
  0
LINE
  5
404D
330
1E
100
AcDbEntity
  8
7
100
AcDbLine
 10
2.483903475885826
 20
4.391949566431491
 30
0.0
 11
2.476029411909448
 21
4.395886598419679
 31
0.0
  0
LINE
  5
404E
330
1E
100
AcDbEntity
  8
7
100
AcDbLine
 10
2.487840507874015
 20
4.342080494581098
 30
0.0
 11
2.491777539862204
 21
4.334206430604719
 31
0.0
  0
LINE
  5
404F
330
1E
100
AcDbEntity
  8
7
100
AcDbLine
 10
2.491777539862204
 20
4.334206430604719
 30
0.0
 11
2.499651603838582
 21
4.33026939861653
 31
0.0
  0
LINE
  5
4050
330
1E
100
AcDbEntity
  8
7
100
AcDbLine
 10
2.965533722440944
 20
4.33026939861653
 30
0.0
 11
2.973407786417322
 21
4.334206430604719
 31
0.0
  0
LINE
  5
4051
330
1E
100
AcDbEntity
  8
7
100
AcDbLine
 10
2.973407786417322
 20
4.334206430604719
 30
0.0
 11
2.977344818405511
 21
4.342080494581098
 31
0.0
  0
LINE
  5
4052
330
1E
100
AcDbEntity
  8
7
100
AcDbLine
 10
2.990468258366141
 20
4.395886598419679
 30
0.0
 11
2.982594194389763
 21
4.391949566431491
 31
0.0
  0
LINE
  5
4053
330
1E
100
AcDbEntity
  8
7
100
AcDbLine
 10
2.982594194389763
 20
4.391949566431491
 30
0.0
 11
2.978657162401574
 21
4.384075502455114
 31
0.0
  0
LINE
  5
4054
330
1E
100
AcDbEntity
  8
7
100
AcDbLine
 10
3.03377561023622
 20
4.395886598419679
 30
0.0
 11
3.041649674212598
 21
4.399823630407869
 31
0.0
  0
LINE
  5
4055
330
1E
100
AcDbEntity
  8
7
100
AcDbLine
 10
3.041649674212598
 20
4.399823630407869
 30
0.0
 11
3.045586706200787
 21
4.407697694384246
 31
0.0
  0
LINE
  5
4056
330
1E
100
AcDbEntity
  8
7
100
AcDbLine
 10
1.217491519685038
 20
5.533688843006293
 30
0.0
 11
1.213554487696849
 21
5.541562906982672
 31
0.0
  0
LINE
  5
4057
330
1E
100
AcDbEntity
  8
7
100
AcDbLine
 10
1.213554487696849
 20
5.541562906982672
 30
0.0
 11
1.205680423720472
 21
5.545499938970861
 31
0.0
  0
LINE
  5
4058
330
1E
100
AcDbEntity
  8
7
100
AcDbLine
 10
1.217491519685038
 20
5.493006179128342
 30
0.0
 11
1.221428551673227
 21
5.485132115151963
 31
0.0
  0
LINE
  5
4059
330
1E
100
AcDbEntity
  8
7
100
AcDbLine
 10
1.221428551673227
 20
5.485132115151963
 30
0.0
 11
1.229302615649605
 21
5.481195083163774
 31
0.0
  0
LINE
  5
405A
330
1E
100
AcDbEntity
  8
7
100
AcDbLine
 10
1.696497078248031
 20
5.481195083163774
 30
0.0
 11
1.704371142224409
 21
5.485132115151963
 31
0.0
  0
LINE
  5
405B
330
1E
100
AcDbEntity
  8
7
100
AcDbLine
 10
1.704371142224409
 20
5.485132115151963
 30
0.0
 11
1.708308174212597
 21
5.493006179128342
 31
0.0
  0
LINE
  5
405C
330
1E
100
AcDbEntity
  8
7
100
AcDbLine
 10
1.720119270177165
 20
5.545499938970861
 30
0.0
 11
1.712245206200787
 21
5.541562906982672
 31
0.0
  0
LINE
  5
405D
330
1E
100
AcDbEntity
  8
7
100
AcDbLine
 10
1.712245206200787
 20
5.541562906982672
 30
0.0
 11
1.708308174212597
 21
5.533688843006293
 31
0.0
  0
LINE
  5
405E
330
1E
100
AcDbEntity
  8
7
100
AcDbLine
 10
1.763426622047243
 20
5.545499938970861
 30
0.0
 11
1.771300686023622
 21
5.54943697095905
 31
0.0
  0
LINE
  5
405F
330
1E
100
AcDbEntity
  8
7
100
AcDbLine
 10
1.771300686023622
 20
5.54943697095905
 30
0.0
 11
1.77523771801181
 21
5.557311034935428
 31
0.0
  0
LINE
  5
4060
330
1E
100
AcDbEntity
  8
7
100
AcDbLine
 10
1.77523771801181
 20
6.193797873025979
 30
0.0
 11
1.771300686023622
 21
6.201671937002357
 31
0.0
  0
LINE
  5
4061
330
1E
100
AcDbEntity
  8
7
100
AcDbLine
 10
1.771300686023622
 20
6.201671937002357
 30
0.0
 11
1.763426622047243
 21
6.205608968990546
 31
0.0
  0
LINE
  5
4062
330
1E
100
AcDbEntity
  8
7
100
AcDbLine
 10
1.162373071850393
 20
6.205608968990546
 30
0.0
 11
1.154499007874015
 21
6.201671937002357
 31
0.0
  0
LINE
  5
4063
330
1E
100
AcDbEntity
  8
7
100
AcDbLine
 10
1.154499007874015
 20
6.201671937002357
 30
0.0
 11
1.150561975885826
 21
6.193797873025979
 31
0.0
  0
LINE
  5
4064
330
1E
100
AcDbEntity
  8
7
100
AcDbLine
 10
1.150561975885826
 20
5.557311034935428
 30
0.0
 11
1.154499007874015
 21
5.54943697095905
 31
0.0
  0
LINE
  5
4065
330
1E
100
AcDbEntity
  8
7
100
AcDbLine
 10
1.154499007874015
 20
5.54943697095905
 30
0.0
 11
1.162373071850393
 21
5.545499938970861
 31
0.0
  0
LINE
  5
4066
330
1E
100
AcDbEntity
  8
7
100
AcDbLine
 10
0.6964909532480315
 20
3.431313761313381
 30
0.0
 11
0.6991156412401569
 21
3.424752041333066
 31
0.0
  0
LINE
  5
4067
330
1E
100
AcDbEntity
  8
7
100
AcDbLine
 10
0.6991156412401569
 20
3.424752041333066
 30
0.0
 11
0.7056773612204728
 21
3.42212735334094
 31
0.0
  0
LINE
  5
4068
330
1E
100
AcDbEntity
  8
7
100
AcDbLine
 10
0.6951786092519683
 20
3.431313761313381
 30
0.0
 11
0.6964909532480315
 21
3.431313761313381
 31
0.0
  0
LINE
  5
4069
330
1E
100
AcDbEntity
  8
7
100
AcDbLine
 10
0.6964909532480315
 20
3.431313761313381
 30
0.0
 11
0.6964909532480315
 21
3.823704616136215
 31
0.0
  0
LINE
  5
406A
330
1E
100
AcDbEntity
  8
7
100
AcDbLine
 10
0.7056773612204728
 20
3.832891024108656
 30
0.0
 11
0.6991156412401569
 21
3.83026633611653
 31
0.0
  0
LINE
  5
406B
330
1E
100
AcDbEntity
  8
7
100
AcDbLine
 10
0.6991156412401569
 20
3.83026633611653
 30
0.0
 11
0.6964909532480315
 21
3.823704616136215
 31
0.0
  0
LINE
  5
406C
330
1E
100
AcDbEntity
  8
7
100
AcDbLine
 10
1.272609967519684
 20
3.89588353591968
 30
0.0
 11
1.271297623523621
 21
3.880135407966924
 31
0.0
  0
LINE
  5
406D
330
1E
100
AcDbEntity
  8
7
100
AcDbLine
 10
1.271297623523621
 20
3.880135407966924
 30
0.0
 11
1.271297623523621
 21
3.872261343990545
 31
0.0
  0
LINE
  5
406E
330
1E
100
AcDbEntity
  8
7
100
AcDbLine
 10
1.112503999999999
 20
3.872261343990545
 30
0.0
 11
1.111191656003936
 21
3.880135407966924
 31
0.0
  0
LINE
  5
406F
330
1E
100
AcDbEntity
  8
7
100
AcDbLine
 10
1.111191656003936
 20
3.880135407966924
 30
0.0
 11
1.111191656003936
 21
3.89588353591968
 31
0.0
  0
LINE
  5
4070
330
1E
100
AcDbEntity
  8
7
100
AcDbLine
 10
1.12169040797244
 20
3.872261343990545
 30
0.0
 11
1.112503999999999
 21
3.872261343990545
 31
0.0
  0
LINE
  5
4071
330
1E
100
AcDbEntity
  8
7
100
AcDbLine
 10
1.112503999999999
 20
3.872261343990545
 30
0.0
 11
1.115128687992125
 21
3.870948999994483
 31
0.0
  0
LINE
  5
4072
330
1E
100
AcDbEntity
  8
7
100
AcDbLine
 10
1.266048247539369
 20
3.70296896849842
 30
0.0
 11
1.259486527559054
 21
3.704281312494483
 31
0.0
  0
LINE
  5
4073
330
1E
100
AcDbEntity
  8
7
100
AcDbLine
 10
1.259486527559054
 20
3.704281312494483
 30
0.0
 11
1.251612463582676
 21
3.704281312494483
 31
0.0
  0
LINE
  5
4074
330
1E
100
AcDbEntity
  8
7
100
AcDbLine
 10
1.132189159940944
 20
3.704281312494483
 30
0.0
 11
1.124315095964566
 21
3.704281312494483
 31
0.0
  0
LINE
  5
4075
330
1E
100
AcDbEntity
  8
7
100
AcDbLine
 10
1.124315095964566
 20
3.704281312494483
 30
0.0
 11
1.117753375984252
 21
3.70296896849842
 31
0.0
  0
LINE
  5
4076
330
1E
100
AcDbEntity
  8
7
100
AcDbLine
 10
1.297544503444881
 20
3.569109880899994
 30
0.0
 11
1.318542007381889
 21
3.595356760821254
 31
0.0
  0
LINE
  5
4077
330
1E
100
AcDbEntity
  8
7
100
AcDbLine
 10
1.318542007381889
 20
3.595356760821254
 30
0.0
 11
1.326416071358267
 21
3.628165360722829
 31
0.0
  0
LINE
  5
4078
330
1E
100
AcDbEntity
  8
7
100
AcDbLine
 10
1.326416071358267
 20
3.628165360722829
 30
0.0
 11
1.318542007381889
 21
3.660973960624404
 31
0.0
  0
LINE
  5
4079
330
1E
100
AcDbEntity
  8
7
100
AcDbLine
 10
1.318542007381889
 20
3.660973960624404
 30
0.0
 11
1.297544503444881
 21
3.687220840545664
 31
0.0
  0
LINE
  5
407A
330
1E
100
AcDbEntity
  8
7
100
AcDbLine
 10
1.086257120078739
 20
3.687220840545664
 30
0.0
 11
1.065259616141731
 21
3.660973960624404
 31
0.0
  0
LINE
  5
407B
330
1E
100
AcDbEntity
  8
7
100
AcDbLine
 10
1.065259616141731
 20
3.660973960624404
 30
0.0
 11
1.057385552165353
 21
3.628165360722829
 31
0.0
  0
LINE
  5
407C
330
1E
100
AcDbEntity
  8
7
100
AcDbLine
 10
1.057385552165353
 20
3.628165360722829
 30
0.0
 11
1.065259616141731
 21
3.595356760821254
 31
0.0
  0
LINE
  5
407D
330
1E
100
AcDbEntity
  8
7
100
AcDbLine
 10
1.065259616141731
 20
3.595356760821254
 30
0.0
 11
1.086257120078739
 21
3.569109880899994
 31
0.0
  0
LINE
  5
407E
330
1E
100
AcDbEntity
  8
7
100
AcDbLine
 10
1.132189159940944
 20
3.704281312494483
 30
0.0
 11
1.113816343996062
 21
3.701656624502357
 31
0.0
  0
LINE
  5
407F
330
1E
100
AcDbEntity
  8
7
100
AcDbLine
 10
1.113816343996062
 20
3.701656624502357
 30
0.0
 11
1.096755872047244
 21
3.695094904522042
 31
0.0
  0
LINE
  5
4080
330
1E
100
AcDbEntity
  8
7
100
AcDbLine
 10
1.287045751476378
 20
3.695094904522042
 30
0.0
 11
1.269985279527558
 21
3.701656624502357
 31
0.0
  0
LINE
  5
4081
330
1E
100
AcDbEntity
  8
7
100
AcDbLine
 10
1.269985279527558
 20
3.701656624502357
 30
0.0
 11
1.251612463582676
 21
3.704281312494483
 31
0.0
  0
LINE
  5
4082
330
1E
100
AcDbEntity
  8
7
100
AcDbLine
 10
1.251612463582676
 20
3.552049408951176
 30
0.0
 11
1.269985279527558
 21
3.554674096943302
 31
0.0
  0
LINE
  5
4083
330
1E
100
AcDbEntity
  8
7
100
AcDbLine
 10
1.269985279527558
 20
3.554674096943302
 30
0.0
 11
1.287045751476378
 21
3.561235816923616
 31
0.0
  0
LINE
  5
4084
330
1E
100
AcDbEntity
  8
7
100
AcDbLine
 10
1.096755872047244
 20
3.561235816923616
 30
0.0
 11
1.113816343996062
 21
3.554674096943302
 31
0.0
  0
LINE
  5
4085
330
1E
100
AcDbEntity
  8
7
100
AcDbLine
 10
1.113816343996062
 20
3.554674096943302
 30
0.0
 11
1.132189159940944
 21
3.552049408951176
 31
0.0
  0
LINE
  5
4086
330
1E
100
AcDbEntity
  8
7
100
AcDbLine
 10
1.115128687992125
 20
3.860450248025979
 30
0.0
 11
1.115128687992125
 21
3.856513216037789
 31
0.0
  0
LINE
  5
4087
330
1E
100
AcDbEntity
  8
7
100
AcDbLine
 10
1.115128687992125
 20
3.856513216037789
 30
0.0
 11
1.115128687992125
 21
3.853888528045664
 31
0.0
  0
LINE
  5
4088
330
1E
100
AcDbEntity
  8
7
100
AcDbLine
 10
1.115128687992125
 20
3.853888528045664
 30
0.0
 11
1.115128687992125
 21
3.851263840053538
 31
0.0
  0
LINE
  5
4089
330
1E
100
AcDbEntity
  8
7
100
AcDbLine
 10
1.115128687992125
 20
3.851263840053538
 30
0.0
 11
1.115128687992125
 21
3.849951496057475
 31
0.0
  0
LINE
  5
408A
330
1E
100
AcDbEntity
  8
7
100
AcDbLine
 10
1.268672935531496
 20
3.849951496057475
 30
0.0
 11
1.268672935531496
 21
3.852576184049601
 31
0.0
  0
LINE
  5
408B
330
1E
100
AcDbEntity
  8
7
100
AcDbLine
 10
1.268672935531496
 20
3.852576184049601
 30
0.0
 11
1.268672935531496
 21
3.855200872041727
 31
0.0
  0
LINE
  5
408C
330
1E
100
AcDbEntity
  8
7
100
AcDbLine
 10
1.268672935531496
 20
3.855200872041727
 30
0.0
 11
1.268672935531496
 21
3.857825560033854
 31
0.0
  0
LINE
  5
408D
330
1E
100
AcDbEntity
  8
7
100
AcDbLine
 10
1.268672935531496
 20
3.857825560033854
 30
0.0
 11
1.268672935531496
 21
3.860450248025979
 31
0.0
  0
LINE
  5
408E
330
1E
100
AcDbEntity
  8
7
100
AcDbLine
 10
1.12169040797244
 20
3.849951496057475
 30
0.0
 11
1.119065719980314
 21
3.849951496057475
 31
0.0
  0
LINE
  5
408F
330
1E
100
AcDbEntity
  8
7
100
AcDbLine
 10
1.119065719980314
 20
3.849951496057475
 30
0.0
 11
1.117753375984252
 21
3.849951496057475
 31
0.0
  0
LINE
  5
4090
330
1E
100
AcDbEntity
  8
7
100
AcDbLine
 10
1.266048247539369
 20
3.849951496057475
 30
0.0
 11
1.264735903543306
 21
3.849951496057475
 31
0.0
  0
LINE
  5
4091
330
1E
100
AcDbEntity
  8
7
100
AcDbLine
 10
1.264735903543306
 20
3.849951496057475
 30
0.0
 11
1.26211121555118
 21
3.849951496057475
 31
0.0
  0
LINE
  5
4092
330
1E
100
AcDbEntity
  8
7
100
AcDbLine
 10
1.116441031988188
 20
3.776460232277948
 30
0.0
 11
1.075758368110235
 21
3.767273824305506
 31
0.0
  0
LINE
  5
4093
330
1E
100
AcDbEntity
  8
7
100
AcDbLine
 10
1.075758368110235
 20
3.767273824305506
 30
0.0
 11
1.040325080216534
 21
3.746276320368498
 31
0.0
  0
LINE
  5
4094
330
1E
100
AcDbEntity
  8
7
100
AcDbLine
 10
1.040325080216534
 20
3.746276320368498
 30
0.0
 11
1.011453512303149
 21
3.717404752455113
 31
0.0
  0
LINE
  5
4095
330
1E
100
AcDbEntity
  8
7
100
AcDbLine
 10
1.011453512303149
 20
3.717404752455113
 30
0.0
 11
0.9917683523622038
 21
3.680659120565349
 31
0.0
  0
LINE
  5
4096
330
1E
100
AcDbEntity
  8
7
100
AcDbLine
 10
0.9917683523622038
 20
3.680659120565349
 30
0.0
 11
0.9825819443897634
 21
3.641288800683459
 31
0.0
  0
LINE
  5
4097
330
1E
100
AcDbEntity
  8
7
100
AcDbLine
 10
0.9825819443897634
 20
3.641288800683459
 30
0.0
 11
0.9852066323818897
 21
3.599293792809444
 31
0.0
  0
LINE
  5
4098
330
1E
100
AcDbEntity
  8
7
100
AcDbLine
 10
0.9852066323818897
 20
3.599293792809444
 30
0.0
 11
0.9983300723425196
 21
3.561235816923616
 31
0.0
  0
LINE
  5
4099
330
1E
100
AcDbEntity
  8
7
100
AcDbLine
 10
0.9983300723425196
 20
3.561235816923616
 30
0.0
 11
1.021952264271653
 21
3.527114873025979
 31
0.0
  0
LINE
  5
409A
330
1E
100
AcDbEntity
  8
7
100
AcDbLine
 10
1.021952264271653
 20
3.527114873025979
 30
0.0
 11
1.053448520177164
 21
3.500867993104719
 31
0.0
  0
LINE
  5
409B
330
1E
100
AcDbEntity
  8
7
100
AcDbLine
 10
1.053448520177164
 20
3.500867993104719
 30
0.0
 11
1.091506496062992
 21
3.4838075211559
 31
0.0
  0
LINE
  5
409C
330
1E
100
AcDbEntity
  8
7
100
AcDbLine
 10
1.091506496062992
 20
3.4838075211559
 30
0.0
 11
1.132189159940944
 21
3.478558145171648
 31
0.0
  0
LINE
  5
409D
330
1E
100
AcDbEntity
  8
7
100
AcDbLine
 10
1.116441031988188
 20
3.704281312494483
 30
0.0
 11
1.086257120078739
 21
3.691157872533853
 31
0.0
  0
LINE
  5
409E
330
1E
100
AcDbEntity
  8
7
100
AcDbLine
 10
1.086257120078739
 20
3.691157872533853
 30
0.0
 11
1.065259616141731
 21
3.666223336608656
 31
0.0
  0
LINE
  5
409F
330
1E
100
AcDbEntity
  8
7
100
AcDbLine
 10
1.065259616141731
 20
3.666223336608656
 30
0.0
 11
1.054760864173228
 21
3.636039424699207
 31
0.0
  0
LINE
  5
40A0
330
1E
100
AcDbEntity
  8
7
100
AcDbLine
 10
1.054760864173228
 20
3.636039424699207
 30
0.0
 11
1.058697896161416
 21
3.604543168793695
 31
0.0
  0
LINE
  5
40A1
330
1E
100
AcDbEntity
  8
7
100
AcDbLine
 10
1.058697896161416
 20
3.604543168793695
 30
0.0
 11
1.074446024114172
 21
3.576983944876372
 31
0.0
  0
LINE
  5
40A2
330
1E
100
AcDbEntity
  8
7
100
AcDbLine
 10
1.074446024114172
 20
3.576983944876372
 30
0.0
 11
1.100692904035432
 21
3.557298784935428
 31
0.0
  0
LINE
  5
40A3
330
1E
100
AcDbEntity
  8
7
100
AcDbLine
 10
1.100692904035432
 20
3.557298784935428
 30
0.0
 11
1.132189159940944
 21
3.550737064955113
 31
0.0
  0
LINE
  5
40A4
330
1E
100
AcDbEntity
  8
7
100
AcDbLine
 10
1.251612463582676
 20
3.550737064955113
 30
0.0
 11
1.283108719488188
 21
3.557298784935428
 31
0.0
  0
LINE
  5
40A5
330
1E
100
AcDbEntity
  8
7
100
AcDbLine
 10
1.283108719488188
 20
3.557298784935428
 30
0.0
 11
1.309355599409448
 21
3.576983944876372
 31
0.0
  0
LINE
  5
40A6
330
1E
100
AcDbEntity
  8
7
100
AcDbLine
 10
1.309355599409448
 20
3.576983944876372
 30
0.0
 11
1.325103727362204
 21
3.604543168793695
 31
0.0
  0
LINE
  5
40A7
330
1E
100
AcDbEntity
  8
7
100
AcDbLine
 10
1.325103727362204
 20
3.604543168793695
 30
0.0
 11
1.329040759350393
 21
3.636039424699207
 31
0.0
  0
LINE
  5
40A8
330
1E
100
AcDbEntity
  8
7
100
AcDbLine
 10
1.329040759350393
 20
3.636039424699207
 30
0.0
 11
1.318542007381889
 21
3.666223336608656
 31
0.0
  0
LINE
  5
40A9
330
1E
100
AcDbEntity
  8
7
100
AcDbLine
 10
1.318542007381889
 20
3.666223336608656
 30
0.0
 11
1.297544503444881
 21
3.691157872533853
 31
0.0
  0
LINE
  5
40AA
330
1E
100
AcDbEntity
  8
7
100
AcDbLine
 10
1.297544503444881
 20
3.691157872533853
 30
0.0
 11
1.267360591535432
 21
3.704281312494483
 31
0.0
  0
LINE
  5
40AB
330
1E
100
AcDbEntity
  8
7
100
AcDbLine
 10
1.251612463582676
 20
3.478558145171648
 30
0.0
 11
1.292295127460629
 21
3.4838075211559
 31
0.0
  0
LINE
  5
40AC
330
1E
100
AcDbEntity
  8
7
100
AcDbLine
 10
1.292295127460629
 20
3.4838075211559
 30
0.0
 11
1.330353103346456
 21
3.500867993104719
 31
0.0
  0
LINE
  5
40AD
330
1E
100
AcDbEntity
  8
7
100
AcDbLine
 10
1.330353103346456
 20
3.500867993104719
 30
0.0
 11
1.361849359251968
 21
3.527114873025979
 31
0.0
  0
LINE
  5
40AE
330
1E
100
AcDbEntity
  8
7
100
AcDbLine
 10
1.361849359251968
 20
3.527114873025979
 30
0.0
 11
1.385471551181101
 21
3.561235816923616
 31
0.0
  0
LINE
  5
40AF
330
1E
100
AcDbEntity
  8
7
100
AcDbLine
 10
1.385471551181101
 20
3.561235816923616
 30
0.0
 11
1.398594991141731
 21
3.599293792809444
 31
0.0
  0
LINE
  5
40B0
330
1E
100
AcDbEntity
  8
7
100
AcDbLine
 10
1.398594991141731
 20
3.599293792809444
 30
0.0
 11
1.401219679133857
 21
3.641288800683459
 31
0.0
  0
LINE
  5
40B1
330
1E
100
AcDbEntity
  8
7
100
AcDbLine
 10
1.401219679133857
 20
3.641288800683459
 30
0.0
 11
1.392033271161417
 21
3.680659120565349
 31
0.0
  0
LINE
  5
40B2
330
1E
100
AcDbEntity
  8
7
100
AcDbLine
 10
1.392033271161417
 20
3.680659120565349
 30
0.0
 11
1.372348111220471
 21
3.717404752455113
 31
0.0
  0
LINE
  5
40B3
330
1E
100
AcDbEntity
  8
7
100
AcDbLine
 10
1.372348111220471
 20
3.717404752455113
 30
0.0
 11
1.343476543307086
 21
3.746276320368498
 31
0.0
  0
LINE
  5
40B4
330
1E
100
AcDbEntity
  8
7
100
AcDbLine
 10
1.343476543307086
 20
3.746276320368498
 30
0.0
 11
1.308043255413386
 21
3.767273824305506
 31
0.0
  0
LINE
  5
40B5
330
1E
100
AcDbEntity
  8
7
100
AcDbLine
 10
1.308043255413386
 20
3.767273824305506
 30
0.0
 11
1.267360591535432
 21
3.776460232277948
 31
0.0
  0
LINE
  5
40B6
330
1E
100
AcDbEntity
  8
7
100
AcDbLine
 10
0.9615844404527553
 20
3.932629167809444
 30
0.0
 11
0.9615844404527553
 21
3.933941511805506
 31
0.0
  0
LINE
  5
40B7
330
1E
100
AcDbEntity
  8
7
100
AcDbLine
 10
0.9615844404527553
 20
3.933941511805506
 30
0.0
 11
0.9615844404527553
 21
3.940503231785822
 31
0.0
  0
LINE
  5
40B8
330
1E
100
AcDbEntity
  8
7
100
AcDbLine
 10
0.9694585044291335
 20
3.923442759837002
 30
0.0
 11
0.9720831924212598
 21
3.923442759837002
 31
0.0
  0
LINE
  5
40B9
330
1E
100
AcDbEntity
  8
7
100
AcDbLine
 10
0.9720831924212598
 20
3.923442759837002
 30
0.0
 11
0.9773325684055116
 21
3.923442759837002
 31
0.0
  0
LINE
  5
40BA
330
1E
100
AcDbEntity
  8
7
100
AcDbLine
 10
0.9773325684055116
 20
3.894571191923617
 30
0.0
 11
0.9720831924212598
 21
3.894571191923617
 31
0.0
  0
LINE
  5
40BB
330
1E
100
AcDbEntity
  8
7
100
AcDbLine
 10
0.9720831924212598
 20
3.894571191923617
 30
0.0
 11
0.9694585044291335
 21
3.894571191923617
 31
0.0
  0
LINE
  5
40BC
330
1E
100
AcDbEntity
  8
7
100
AcDbLine
 10
0.9615844404527553
 20
3.877510719974798
 30
0.0
 11
0.9615844404527553
 21
3.884072439955113
 31
0.0
  0
LINE
  5
40BD
330
1E
100
AcDbEntity
  8
7
100
AcDbLine
 10
0.9615844404527553
 20
3.884072439955113
 30
0.0
 11
0.9615844404527553
 21
3.885384783951176
 31
0.0
  0
LINE
  5
40BE
330
1E
100
AcDbEntity
  8
7
100
AcDbLine
 10
0.6991156412401569
 20
3.894571191923617
 30
0.0
 11
0.7043650172244087
 21
3.894571191923617
 31
0.0
  0
LINE
  5
40BF
330
1E
100
AcDbEntity
  8
7
100
AcDbLine
 10
0.7043650172244087
 20
3.894571191923617
 30
0.0
 11
0.7069897052165351
 21
3.894571191923617
 31
0.0
  0
LINE
  5
40C0
330
1E
100
AcDbEntity
  8
7
100
AcDbLine
 10
0.7148637691929132
 20
3.940503231785822
 30
0.0
 11
0.7148637691929132
 21
3.933941511805506
 31
0.0
  0
LINE
  5
40C1
330
1E
100
AcDbEntity
  8
7
100
AcDbLine
 10
0.7148637691929132
 20
3.933941511805506
 30
0.0
 11
0.7148637691929132
 21
3.932629167809444
 31
0.0
  0
LINE
  5
40C2
330
1E
100
AcDbEntity
  8
7
100
AcDbLine
 10
0.6991156412401569
 20
3.923442759837002
 30
0.0
 11
0.7043650172244087
 21
3.923442759837002
 31
0.0
  0
LINE
  5
40C3
330
1E
100
AcDbEntity
  8
7
100
AcDbLine
 10
0.7043650172244087
 20
3.923442759837002
 30
0.0
 11
0.7069897052165351
 21
3.923442759837002
 31
0.0
  0
LINE
  5
40C4
330
1E
100
AcDbEntity
  8
7
100
AcDbLine
 10
0.9602720964566922
 20
3.931316823813381
 30
0.0
 11
0.9615844404527553
 21
3.932629167809444
 31
0.0
  0
LINE
  5
40C5
330
1E
100
AcDbEntity
  8
7
100
AcDbLine
 10
0.9615844404527553
 20
3.932629167809444
 30
0.0
 11
0.9602720964566922
 21
3.932629167809444
 31
0.0
  0
LINE
  5
40C6
330
1E
100
AcDbEntity
  8
7
100
AcDbLine
 10
0.9681461604330703
 20
3.898508223911805
 30
0.0
 11
0.9694585044291335
 21
3.894571191923617
 31
0.0
  0
LINE
  5
40C7
330
1E
100
AcDbEntity
  8
7
100
AcDbLine
 10
0.9694585044291335
 20
3.894571191923617
 30
0.0
 11
0.9694585044291335
 21
3.923442759837002
 31
0.0
  0
LINE
  5
40C8
330
1E
100
AcDbEntity
  8
7
100
AcDbLine
 10
0.9694585044291335
 20
3.923442759837002
 30
0.0
 11
0.9681461604330703
 21
3.922130415840939
 31
0.0
  0
LINE
  5
40C9
330
1E
100
AcDbEntity
  8
7
100
AcDbLine
 10
0.7083020492125974
 20
3.922130415840939
 30
0.0
 11
0.7069897052165351
 21
3.923442759837002
 31
0.0
  0
LINE
  5
40CA
330
1E
100
AcDbEntity
  8
7
100
AcDbLine
 10
0.7069897052165351
 20
3.923442759837002
 30
0.0
 11
0.7069897052165351
 21
3.894571191923617
 31
0.0
  0
LINE
  5
40CB
330
1E
100
AcDbEntity
  8
7
100
AcDbLine
 10
0.7069897052165351
 20
3.894571191923617
 30
0.0
 11
0.7083020492125974
 21
3.898508223911805
 31
0.0
  0
LINE
  5
40CC
330
1E
100
AcDbEntity
  8
7
100
AcDbLine
 10
0.7056773612204728
 20
3.834203368104719
 30
0.0
 11
0.7056773612204728
 21
3.832891024108656
 31
0.0
  0
LINE
  5
40CD
330
1E
100
AcDbEntity
  8
7
100
AcDbLine
 10
0.7056773612204728
 20
3.832891024108656
 30
0.0
 11
0.7450476811023617
 21
3.832891024108656
 31
0.0
  0
LINE
  5
40CE
330
1E
100
AcDbEntity
  8
7
100
AcDbLine
 10
0.7450476811023617
 20
3.832891024108656
 30
0.0
 11
0.7463600250984248
 21
3.832891024108656
 31
0.0
  0
LINE
  5
40CF
330
1E
100
AcDbEntity
  8
7
100
AcDbLine
 10
3.500970072834645
 20
3.431313761313381
 30
0.0
 11
3.499657728838582
 21
3.431313761313381
 31
0.0
  0
LINE
  5
40D0
330
1E
100
AcDbEntity
  8
7
100
AcDbLine
 10
3.499657728838582
 20
3.431313761313381
 30
0.0
 11
3.499657728838582
 21
3.823704616136215
 31
0.0
  0
LINE
  5
40D1
330
1E
100
AcDbEntity
  8
7
100
AcDbLine
 10
3.499657728838582
 20
3.823704616136215
 30
0.0
 11
3.497033040846456
 21
3.83026633611653
 31
0.0
  0
LINE
  5
40D2
330
1E
100
AcDbEntity
  8
7
100
AcDbLine
 10
3.497033040846456
 20
3.83026633611653
 30
0.0
 11
3.490471320866141
 21
3.832891024108656
 31
0.0
  0
LINE
  5
40D3
330
1E
100
AcDbEntity
  8
7
100
AcDbLine
 10
2.923538714566928
 20
3.89588353591968
 30
0.0
 11
2.923538714566928
 21
3.880135407966924
 31
0.0
  0
LINE
  5
40D4
330
1E
100
AcDbEntity
  8
7
100
AcDbLine
 10
2.923538714566928
 20
3.880135407966924
 30
0.0
 11
2.924851058562991
 21
3.872261343990545
 31
0.0
  0
LINE
  5
40D5
330
1E
100
AcDbEntity
  8
7
100
AcDbLine
 10
3.074458274114173
 20
3.872261343990545
 30
0.0
 11
3.083644682086613
 21
3.872261343990545
 31
0.0
  0
LINE
  5
40D6
330
1E
100
AcDbEntity
  8
7
100
AcDbLine
 10
3.083644682086613
 20
3.872261343990545
 30
0.0
 11
3.083644682086613
 21
3.880135407966924
 31
0.0
  0
LINE
  5
40D7
330
1E
100
AcDbEntity
  8
7
100
AcDbLine
 10
3.083644682086613
 20
3.880135407966924
 30
0.0
 11
3.084957026082677
 21
3.89588353591968
 31
0.0
  0
LINE
  5
40D8
330
1E
100
AcDbEntity
  8
7
100
AcDbLine
 10
2.944536218503936
 20
3.704281312494483
 30
0.0
 11
2.936662154527558
 21
3.704281312494483
 31
0.0
  0
LINE
  5
40D9
330
1E
100
AcDbEntity
  8
7
100
AcDbLine
 10
2.936662154527558
 20
3.704281312494483
 30
0.0
 11
2.930100434547244
 21
3.70296896849842
 31
0.0
  0
LINE
  5
40DA
330
1E
100
AcDbEntity
  8
7
100
AcDbLine
 10
2.898604178641731
 20
3.687220840545664
 30
0.0
 11
2.877606674704724
 21
3.660973960624404
 31
0.0
  0
LINE
  5
40DB
330
1E
100
AcDbEntity
  8
7
100
AcDbLine
 10
2.877606674704724
 20
3.660973960624404
 30
0.0
 11
2.869732610728346
 21
3.628165360722829
 31
0.0
  0
LINE
  5
40DC
330
1E
100
AcDbEntity
  8
7
100
AcDbLine
 10
2.869732610728346
 20
3.628165360722829
 30
0.0
 11
2.877606674704724
 21
3.595356760821254
 31
0.0
  0
LINE
  5
40DD
330
1E
100
AcDbEntity
  8
7
100
AcDbLine
 10
2.877606674704724
 20
3.595356760821254
 30
0.0
 11
2.898604178641731
 21
3.569109880899994
 31
0.0
  0
LINE
  5
40DE
330
1E
100
AcDbEntity
  8
7
100
AcDbLine
 10
3.138763129921259
 20
3.628165360722829
 30
0.0
 11
3.130889065944881
 21
3.660973960624404
 31
0.0
  0
LINE
  5
40DF
330
1E
100
AcDbEntity
  8
7
100
AcDbLine
 10
3.130889065944881
 20
3.660973960624404
 30
0.0
 11
3.109891562007874
 21
3.687220840545664
 31
0.0
  0
LINE
  5
40E0
330
1E
100
AcDbEntity
  8
7
100
AcDbLine
 10
3.109891562007874
 20
3.569109880899994
 30
0.0
 11
3.130889065944881
 21
3.595356760821254
 31
0.0
  0
LINE
  5
40E1
330
1E
100
AcDbEntity
  8
7
100
AcDbLine
 10
3.130889065944881
 20
3.595356760821254
 30
0.0
 11
3.138763129921259
 21
3.628165360722829
 31
0.0
  0
LINE
  5
40E2
330
1E
100
AcDbEntity
  8
7
100
AcDbLine
 10
3.09939281003937
 20
3.695094904522042
 30
0.0
 11
3.082332338090551
 21
3.701656624502357
 31
0.0
  0
LINE
  5
40E3
330
1E
100
AcDbEntity
  8
7
100
AcDbLine
 10
3.082332338090551
 20
3.701656624502357
 30
0.0
 11
3.063959522145669
 21
3.704281312494483
 31
0.0
  0
LINE
  5
40E4
330
1E
100
AcDbEntity
  8
7
100
AcDbLine
 10
3.063959522145669
 20
3.552049408951176
 30
0.0
 11
3.082332338090551
 21
3.554674096943302
 31
0.0
  0
LINE
  5
40E5
330
1E
100
AcDbEntity
  8
7
100
AcDbLine
 10
3.082332338090551
 20
3.554674096943302
 30
0.0
 11
3.09939281003937
 21
3.561235816923616
 31
0.0
  0
LINE
  5
40E6
330
1E
100
AcDbEntity
  8
7
100
AcDbLine
 10
2.909102930610235
 20
3.561235816923616
 30
0.0
 11
2.926163402559054
 21
3.554674096943302
 31
0.0
  0
LINE
  5
40E7
330
1E
100
AcDbEntity
  8
7
100
AcDbLine
 10
2.926163402559054
 20
3.554674096943302
 30
0.0
 11
2.944536218503936
 21
3.552049408951176
 31
0.0
  0
LINE
  5
40E8
330
1E
100
AcDbEntity
  8
7
100
AcDbLine
 10
3.100705154035432
 20
3.695094904522042
 30
0.0
 11
2.907790586614173
 21
3.695094904522042
 31
0.0
  0
LINE
  5
40E9
330
1E
100
AcDbEntity
  8
7
100
AcDbLine
 10
2.907790586614173
 20
3.695094904522042
 30
0.0
 11
2.898604178641731
 21
3.687220840545664
 31
0.0
  0
LINE
  5
40EA
330
1E
100
AcDbEntity
  8
7
100
AcDbLine
 10
3.081019994094487
 20
3.860450248025979
 30
0.0
 11
3.081019994094487
 21
3.856513216037789
 31
0.0
  0
LINE
  5
40EB
330
1E
100
AcDbEntity
  8
7
100
AcDbLine
 10
3.081019994094487
 20
3.856513216037789
 30
0.0
 11
3.081019994094487
 21
3.853888528045664
 31
0.0
  0
LINE
  5
40EC
330
1E
100
AcDbEntity
  8
7
100
AcDbLine
 10
3.081019994094487
 20
3.853888528045664
 30
0.0
 11
3.081019994094487
 21
3.851263840053538
 31
0.0
  0
LINE
  5
40ED
330
1E
100
AcDbEntity
  8
7
100
AcDbLine
 10
3.081019994094487
 20
3.851263840053538
 30
0.0
 11
3.081019994094487
 21
3.849951496057475
 31
0.0
  0
LINE
  5
40EE
330
1E
100
AcDbEntity
  8
7
100
AcDbLine
 10
2.927475746555118
 20
3.849951496057475
 30
0.0
 11
2.927475746555118
 21
3.852576184049601
 31
0.0
  0
LINE
  5
40EF
330
1E
100
AcDbEntity
  8
7
100
AcDbLine
 10
2.927475746555118
 20
3.852576184049601
 30
0.0
 11
2.927475746555118
 21
3.855200872041727
 31
0.0
  0
LINE
  5
40F0
330
1E
100
AcDbEntity
  8
7
100
AcDbLine
 10
2.927475746555118
 20
3.855200872041727
 30
0.0
 11
2.927475746555118
 21
3.857825560033854
 31
0.0
  0
LINE
  5
40F1
330
1E
100
AcDbEntity
  8
7
100
AcDbLine
 10
2.927475746555118
 20
3.857825560033854
 30
0.0
 11
2.927475746555118
 21
3.860450248025979
 31
0.0
  0
LINE
  5
40F2
330
1E
100
AcDbEntity
  8
7
100
AcDbLine
 10
3.078395306102361
 20
3.849951496057475
 30
0.0
 11
3.077082962106298
 21
3.849951496057475
 31
0.0
  0
LINE
  5
40F3
330
1E
100
AcDbEntity
  8
7
100
AcDbLine
 10
3.077082962106298
 20
3.849951496057475
 30
0.0
 11
3.074458274114173
 21
3.849951496057475
 31
0.0
  0
LINE
  5
40F4
330
1E
100
AcDbEntity
  8
7
100
AcDbLine
 10
2.934037466535432
 20
3.849951496057475
 30
0.0
 11
2.931412778543307
 21
3.849951496057475
 31
0.0
  0
LINE
  5
40F5
330
1E
100
AcDbEntity
  8
7
100
AcDbLine
 10
2.931412778543307
 20
3.849951496057475
 30
0.0
 11
2.930100434547244
 21
3.849951496057475
 31
0.0
  0
LINE
  5
40F6
330
1E
100
AcDbEntity
  8
7
100
AcDbLine
 10
2.92878809055118
 20
3.704281312494483
 30
0.0
 11
2.898604178641731
 21
3.691157872533853
 31
0.0
  0
LINE
  5
40F7
330
1E
100
AcDbEntity
  8
7
100
AcDbLine
 10
2.898604178641731
 20
3.691157872533853
 30
0.0
 11
2.877606674704724
 21
3.666223336608656
 31
0.0
  0
LINE
  5
40F8
330
1E
100
AcDbEntity
  8
7
100
AcDbLine
 10
2.877606674704724
 20
3.666223336608656
 30
0.0
 11
2.86710792273622
 21
3.636039424699207
 31
0.0
  0
LINE
  5
40F9
330
1E
100
AcDbEntity
  8
7
100
AcDbLine
 10
2.86710792273622
 20
3.636039424699207
 30
0.0
 11
2.871044954724409
 21
3.604543168793695
 31
0.0
  0
LINE
  5
40FA
330
1E
100
AcDbEntity
  8
7
100
AcDbLine
 10
2.871044954724409
 20
3.604543168793695
 30
0.0
 11
2.886793082677165
 21
3.576983944876372
 31
0.0
  0
LINE
  5
40FB
330
1E
100
AcDbEntity
  8
7
100
AcDbLine
 10
2.886793082677165
 20
3.576983944876372
 30
0.0
 11
2.913039962598424
 21
3.557298784935428
 31
0.0
  0
LINE
  5
40FC
330
1E
100
AcDbEntity
  8
7
100
AcDbLine
 10
2.913039962598424
 20
3.557298784935428
 30
0.0
 11
2.944536218503936
 21
3.550737064955113
 31
0.0
  0
LINE
  5
40FD
330
1E
100
AcDbEntity
  8
7
100
AcDbLine
 10
3.063959522145669
 20
3.550737064955113
 30
0.0
 11
3.095455778051181
 21
3.557298784935428
 31
0.0
  0
LINE
  5
40FE
330
1E
100
AcDbEntity
  8
7
100
AcDbLine
 10
3.095455778051181
 20
3.557298784935428
 30
0.0
 11
3.12170265797244
 21
3.576983944876372
 31
0.0
  0
LINE
  5
40FF
330
1E
100
AcDbEntity
  8
7
100
AcDbLine
 10
3.12170265797244
 20
3.576983944876372
 30
0.0
 11
3.137450785925196
 21
3.604543168793695
 31
0.0
  0
LINE
  5
4100
330
1E
100
AcDbEntity
  8
7
100
AcDbLine
 10
3.137450785925196
 20
3.604543168793695
 30
0.0
 11
3.141387817913385
 21
3.636039424699207
 31
0.0
  0
LINE
  5
4101
330
1E
100
AcDbEntity
  8
7
100
AcDbLine
 10
3.141387817913385
 20
3.636039424699207
 30
0.0
 11
3.130889065944881
 21
3.666223336608656
 31
0.0
  0
LINE
  5
4102
330
1E
100
AcDbEntity
  8
7
100
AcDbLine
 10
3.130889065944881
 20
3.666223336608656
 30
0.0
 11
3.109891562007874
 21
3.691157872533853
 31
0.0
  0
LINE
  5
4103
330
1E
100
AcDbEntity
  8
7
100
AcDbLine
 10
3.109891562007874
 20
3.691157872533853
 30
0.0
 11
3.079707650098424
 21
3.704281312494483
 31
0.0
  0
LINE
  5
4104
330
1E
100
AcDbEntity
  8
7
100
AcDbLine
 10
3.063959522145669
 20
3.478558145171648
 30
0.0
 11
3.104642186023621
 21
3.4838075211559
 31
0.0
  0
LINE
  5
4105
330
1E
100
AcDbEntity
  8
7
100
AcDbLine
 10
3.104642186023621
 20
3.4838075211559
 30
0.0
 11
3.142700161909448
 21
3.500867993104719
 31
0.0
  0
LINE
  5
4106
330
1E
100
AcDbEntity
  8
7
100
AcDbLine
 10
3.142700161909448
 20
3.500867993104719
 30
0.0
 11
3.17419641781496
 21
3.527114873025979
 31
0.0
  0
LINE
  5
4107
330
1E
100
AcDbEntity
  8
7
100
AcDbLine
 10
3.17419641781496
 20
3.527114873025979
 30
0.0
 11
3.197818609744094
 21
3.561235816923616
 31
0.0
  0
LINE
  5
4108
330
1E
100
AcDbEntity
  8
7
100
AcDbLine
 10
3.197818609744094
 20
3.561235816923616
 30
0.0
 11
3.210942049704724
 21
3.599293792809444
 31
0.0
  0
LINE
  5
4109
330
1E
100
AcDbEntity
  8
7
100
AcDbLine
 10
3.210942049704724
 20
3.599293792809444
 30
0.0
 11
3.213566737696849
 21
3.641288800683459
 31
0.0
  0
LINE
  5
410A
330
1E
100
AcDbEntity
  8
7
100
AcDbLine
 10
3.213566737696849
 20
3.641288800683459
 30
0.0
 11
3.204380329724409
 21
3.680659120565349
 31
0.0
  0
LINE
  5
410B
330
1E
100
AcDbEntity
  8
7
100
AcDbLine
 10
3.204380329724409
 20
3.680659120565349
 30
0.0
 11
3.184695169783464
 21
3.717404752455113
 31
0.0
  0
LINE
  5
410C
330
1E
100
AcDbEntity
  8
7
100
AcDbLine
 10
3.184695169783464
 20
3.717404752455113
 30
0.0
 11
3.155823601870078
 21
3.746276320368498
 31
0.0
  0
LINE
  5
410D
330
1E
100
AcDbEntity
  8
7
100
AcDbLine
 10
3.155823601870078
 20
3.746276320368498
 30
0.0
 11
3.120390313976378
 21
3.767273824305506
 31
0.0
  0
LINE
  5
410E
330
1E
100
AcDbEntity
  8
7
100
AcDbLine
 10
3.120390313976378
 20
3.767273824305506
 30
0.0
 11
3.079707650098424
 21
3.776460232277948
 31
0.0
  0
LINE
  5
410F
330
1E
100
AcDbEntity
  8
7
100
AcDbLine
 10
2.92878809055118
 20
3.776460232277948
 30
0.0
 11
2.888105426673227
 21
3.767273824305506
 31
0.0
  0
LINE
  5
4110
330
1E
100
AcDbEntity
  8
7
100
AcDbLine
 10
2.888105426673227
 20
3.767273824305506
 30
0.0
 11
2.852672138779527
 21
3.746276320368498
 31
0.0
  0
LINE
  5
4111
330
1E
100
AcDbEntity
  8
7
100
AcDbLine
 10
2.852672138779527
 20
3.746276320368498
 30
0.0
 11
2.823800570866141
 21
3.717404752455113
 31
0.0
  0
LINE
  5
4112
330
1E
100
AcDbEntity
  8
7
100
AcDbLine
 10
2.823800570866141
 20
3.717404752455113
 30
0.0
 11
2.804115410925196
 21
3.680659120565349
 31
0.0
  0
LINE
  5
4113
330
1E
100
AcDbEntity
  8
7
100
AcDbLine
 10
2.804115410925196
 20
3.680659120565349
 30
0.0
 11
2.794929002952756
 21
3.641288800683459
 31
0.0
  0
LINE
  5
4114
330
1E
100
AcDbEntity
  8
7
100
AcDbLine
 10
2.794929002952756
 20
3.641288800683459
 30
0.0
 11
2.797553690944881
 21
3.599293792809444
 31
0.0
  0
LINE
  5
4115
330
1E
100
AcDbEntity
  8
7
100
AcDbLine
 10
2.797553690944881
 20
3.599293792809444
 30
0.0
 11
2.810677130905511
 21
3.561235816923616
 31
0.0
  0
LINE
  5
4116
330
1E
100
AcDbEntity
  8
7
100
AcDbLine
 10
2.810677130905511
 20
3.561235816923616
 30
0.0
 11
2.834299322834645
 21
3.527114873025979
 31
0.0
  0
LINE
  5
4117
330
1E
100
AcDbEntity
  8
7
100
AcDbLine
 10
2.834299322834645
 20
3.527114873025979
 30
0.0
 11
2.865795578740157
 21
3.500867993104719
 31
0.0
  0
LINE
  5
4118
330
1E
100
AcDbEntity
  8
7
100
AcDbLine
 10
2.865795578740157
 20
3.500867993104719
 30
0.0
 11
2.903853554625983
 21
3.4838075211559
 31
0.0
  0
LINE
  5
4119
330
1E
100
AcDbEntity
  8
7
100
AcDbLine
 10
2.903853554625983
 20
3.4838075211559
 30
0.0
 11
2.944536218503936
 21
3.478558145171648
 31
0.0
  0
LINE
  5
411A
330
1E
100
AcDbEntity
  8
7
100
AcDbLine
 10
0.7463600250984248
 20
3.42212735334094
 30
0.0
 11
0.7450476811023617
 21
3.42212735334094
 31
0.0
  0
LINE
  5
411B
330
1E
100
AcDbEntity
  8
7
100
AcDbLine
 10
0.7450476811023617
 20
3.42212735334094
 30
0.0
 11
0.7056773612204728
 21
3.42212735334094
 31
0.0
  0
LINE
  5
411C
330
1E
100
AcDbEntity
  8
7
100
AcDbLine
 10
3.234564241633858
 20
3.932629167809444
 30
0.0
 11
3.234564241633858
 21
3.933941511805506
 31
0.0
  0
LINE
  5
411D
330
1E
100
AcDbEntity
  8
7
100
AcDbLine
 10
3.234564241633858
 20
3.933941511805506
 30
0.0
 11
3.234564241633858
 21
3.940503231785822
 31
0.0
  0
LINE
  5
411E
330
1E
100
AcDbEntity
  8
7
100
AcDbLine
 10
3.226690177657479
 20
3.923442759837002
 30
0.0
 11
3.224065489665354
 21
3.923442759837002
 31
0.0
  0
LINE
  5
411F
330
1E
100
AcDbEntity
  8
7
100
AcDbLine
 10
3.224065489665354
 20
3.923442759837002
 30
0.0
 11
3.218816113681102
 21
3.923442759837002
 31
0.0
  0
LINE
  5
4120
330
1E
100
AcDbEntity
  8
7
100
AcDbLine
 10
3.218816113681102
 20
3.894571191923617
 30
0.0
 11
3.224065489665354
 21
3.894571191923617
 31
0.0
  0
LINE
  5
4121
330
1E
100
AcDbEntity
  8
7
100
AcDbLine
 10
3.224065489665354
 20
3.894571191923617
 30
0.0
 11
3.226690177657479
 21
3.894571191923617
 31
0.0
  0
LINE
  5
4122
330
1E
100
AcDbEntity
  8
7
100
AcDbLine
 10
3.234564241633858
 20
3.877510719974798
 30
0.0
 11
3.234564241633858
 21
3.884072439955113
 31
0.0
  0
LINE
  5
4123
330
1E
100
AcDbEntity
  8
7
100
AcDbLine
 10
3.234564241633858
 20
3.884072439955113
 30
0.0
 11
3.234564241633858
 21
3.885384783951176
 31
0.0
  0
LINE
  5
4124
330
1E
100
AcDbEntity
  8
7
100
AcDbLine
 10
3.481284912893699
 20
3.877510719974798
 30
0.0
 11
3.481284912893699
 21
3.884072439955113
 31
0.0
  0
LINE
  5
4125
330
1E
100
AcDbEntity
  8
7
100
AcDbLine
 10
3.481284912893699
 20
3.884072439955113
 30
0.0
 11
3.481284912893699
 21
3.885384783951176
 31
0.0
  0
LINE
  5
4126
330
1E
100
AcDbEntity
  8
7
100
AcDbLine
 10
3.497033040846456
 20
3.894571191923617
 30
0.0
 11
3.491783664862203
 21
3.894571191923617
 31
0.0
  0
LINE
  5
4127
330
1E
100
AcDbEntity
  8
7
100
AcDbLine
 10
3.491783664862203
 20
3.894571191923617
 30
0.0
 11
3.489158976870078
 21
3.894571191923617
 31
0.0
  0
LINE
  5
4128
330
1E
100
AcDbEntity
  8
7
100
AcDbLine
 10
3.481284912893699
 20
3.940503231785822
 30
0.0
 11
3.481284912893699
 21
3.933941511805506
 31
0.0
  0
LINE
  5
4129
330
1E
100
AcDbEntity
  8
7
100
AcDbLine
 10
3.481284912893699
 20
3.933941511805506
 30
0.0
 11
3.481284912893699
 21
3.932629167809444
 31
0.0
  0
LINE
  5
412A
330
1E
100
AcDbEntity
  8
7
100
AcDbLine
 10
3.497033040846456
 20
3.923442759837002
 30
0.0
 11
3.491783664862203
 21
3.923442759837002
 31
0.0
  0
LINE
  5
412B
330
1E
100
AcDbEntity
  8
7
100
AcDbLine
 10
3.491783664862203
 20
3.923442759837002
 30
0.0
 11
3.489158976870078
 21
3.923442759837002
 31
0.0
  0
LINE
  5
412C
330
1E
100
AcDbEntity
  8
7
100
AcDbLine
 10
0.6426848494094486
 20
3.872261343990545
 30
0.0
 11
0.6282490654527555
 21
3.868324312002357
 31
0.0
  0
LINE
  5
412D
330
1E
100
AcDbEntity
  8
7
100
AcDbLine
 10
0.6282490654527555
 20
3.868324312002357
 30
0.0
 11
0.617750313484252
 21
3.857825560033854
 31
0.0
  0
LINE
  5
412E
330
1E
100
AcDbEntity
  8
7
100
AcDbLine
 10
0.617750313484252
 20
3.857825560033854
 30
0.0
 11
0.6125009375000002
 21
3.84338977607716
 31
0.0
  0
LINE
  5
412F
330
1E
100
AcDbEntity
  8
7
100
AcDbLine
 10
0.7056773612204728
 20
3.832891024108656
 30
0.0
 11
0.6991156412401569
 21
3.83026633611653
 31
0.0
  0
LINE
  5
4130
330
1E
100
AcDbEntity
  8
7
100
AcDbLine
 10
0.6991156412401569
 20
3.83026633611653
 30
0.0
 11
0.6964909532480315
 21
3.823704616136215
 31
0.0
  0
LINE
  5
4131
330
1E
100
AcDbEntity
  8
7
100
AcDbLine
 10
0.6964909532480315
 20
3.431313761313381
 30
0.0
 11
0.6991156412401569
 21
3.424752041333066
 31
0.0
  0
LINE
  5
4132
330
1E
100
AcDbEntity
  8
7
100
AcDbLine
 10
0.6991156412401569
 20
3.424752041333066
 30
0.0
 11
0.7056773612204728
 21
3.42212735334094
 31
0.0
  0
LINE
  5
4133
330
1E
100
AcDbEntity
  8
7
100
AcDbLine
 10
3.490471320866141
 20
3.42212735334094
 30
0.0
 11
3.497033040846456
 21
3.424752041333066
 31
0.0
  0
LINE
  5
4134
330
1E
100
AcDbEntity
  8
7
100
AcDbLine
 10
3.497033040846456
 20
3.424752041333066
 30
0.0
 11
3.499657728838582
 21
3.431313761313381
 31
0.0
  0
LINE
  5
4135
330
1E
100
AcDbEntity
  8
7
100
AcDbLine
 10
3.499657728838582
 20
3.823704616136215
 30
0.0
 11
3.497033040846456
 21
3.83026633611653
 31
0.0
  0
LINE
  5
4136
330
1E
100
AcDbEntity
  8
7
100
AcDbLine
 10
3.497033040846456
 20
3.83026633611653
 30
0.0
 11
3.490471320866141
 21
3.832891024108656
 31
0.0
  0
LINE
  5
4137
330
1E
100
AcDbEntity
  8
7
100
AcDbLine
 10
0.617750313484252
 20
3.397192817415742
 30
0.0
 11
0.6282490654527555
 21
3.386694065447239
 31
0.0
  0
LINE
  5
4138
330
1E
100
AcDbEntity
  8
7
100
AcDbLine
 10
0.6282490654527555
 20
3.386694065447239
 30
0.0
 11
0.6426848494094486
 21
3.38275703345905
 31
0.0
  0
LINE
  5
4139
330
1E
100
AcDbEntity
  8
7
100
AcDbLine
 10
0.6426848494094486
 20
3.38275703345905
 30
0.0
 11
3.552151488681102
 21
3.38275703345905
 31
0.0
  0
LINE
  5
413A
330
1E
100
AcDbEntity
  8
7
100
AcDbLine
 10
3.552151488681102
 20
3.38275703345905
 30
0.0
 11
3.567899616633857
 21
3.386694065447239
 31
0.0
  0
LINE
  5
413B
330
1E
100
AcDbEntity
  8
7
100
AcDbLine
 10
3.567899616633857
 20
3.386694065447239
 30
0.0
 11
3.578398368602361
 21
3.397192817415742
 31
0.0
  0
LINE
  5
413C
330
1E
100
AcDbEntity
  8
7
100
AcDbLine
 10
3.578398368602361
 20
3.397192817415742
 30
0.0
 11
3.58233540059055
 21
3.412940945368498
 31
0.0
  0
LINE
  5
413D
330
1E
100
AcDbEntity
  8
7
100
AcDbLine
 10
3.58233540059055
 20
3.412940945368498
 30
0.0
 11
3.58233540059055
 21
3.84338977607716
 31
0.0
  0
LINE
  5
413E
330
1E
100
AcDbEntity
  8
7
100
AcDbLine
 10
3.58233540059055
 20
3.84338977607716
 30
0.0
 11
3.578398368602361
 21
3.857825560033854
 31
0.0
  0
LINE
  5
413F
330
1E
100
AcDbEntity
  8
7
100
AcDbLine
 10
3.578398368602361
 20
3.857825560033854
 30
0.0
 11
3.567899616633857
 21
3.868324312002357
 31
0.0
  0
LINE
  5
4140
330
1E
100
AcDbEntity
  8
7
100
AcDbLine
 10
3.567899616633857
 20
3.868324312002357
 30
0.0
 11
3.552151488681102
 21
3.872261343990545
 31
0.0
  0
LINE
  5
4141
330
1E
100
AcDbEntity
  8
7
100
AcDbLine
 10
3.552151488681102
 20
3.872261343990545
 30
0.0
 11
3.086269370078739
 21
3.872261343990545
 31
0.0
  0
LINE
  5
4142
330
1E
100
AcDbEntity
  8
7
100
AcDbLine
 10
1.112503999999999
 20
3.77777257627401
 30
0.0
 11
1.112503999999999
 21
3.832891024108656
 31
0.0
  0
LINE
  5
4143
330
1E
100
AcDbEntity
  8
7
100
AcDbLine
 10
1.112503999999999
 20
3.832891024108656
 30
0.0
 11
0.7463600250984248
 21
3.832891024108656
 31
0.0
  0
LINE
  5
4144
330
1E
100
AcDbEntity
  8
7
100
AcDbLine
 10
1.037700392224409
 20
3.746276320368498
 30
0.0
 11
1.008828824311023
 21
3.71609240845905
 31
0.0
  0
LINE
  5
4145
330
1E
100
AcDbEntity
  8
7
100
AcDbLine
 10
1.008828824311023
 20
3.71609240845905
 30
0.0
 11
0.9904560083661415
 21
3.679346776569286
 31
0.0
  0
LINE
  5
4146
330
1E
100
AcDbEntity
  8
7
100
AcDbLine
 10
0.9904560083661415
 20
3.679346776569286
 30
0.0
 11
0.9812696003937002
 21
3.638664112691333
 31
0.0
  0
LINE
  5
4147
330
1E
100
AcDbEntity
  8
7
100
AcDbLine
 10
0.9812696003937002
 20
3.638664112691333
 30
0.0
 11
0.9838942883858265
 21
3.597981448813381
 31
0.0
  0
LINE
  5
4148
330
1E
100
AcDbEntity
  8
7
100
AcDbLine
 10
0.9838942883858265
 20
3.597981448813381
 30
0.0
 11
0.9983300723425196
 21
3.558611128931491
 31
0.0
  0
LINE
  5
4149
330
1E
100
AcDbEntity
  8
7
100
AcDbLine
 10
0.9983300723425196
 20
3.558611128931491
 30
0.0
 11
1.021952264271653
 21
3.525802529029916
 31
0.0
  0
LINE
  5
414A
330
1E
100
AcDbEntity
  8
7
100
AcDbLine
 10
1.021952264271653
 20
3.525802529029916
 30
0.0
 11
1.053448520177164
 21
3.499555649108656
 31
0.0
  0
LINE
  5
414B
330
1E
100
AcDbEntity
  8
7
100
AcDbLine
 10
1.053448520177164
 20
3.499555649108656
 30
0.0
 11
1.091506496062992
 21
3.482495177159837
 31
0.0
  0
LINE
  5
414C
330
1E
100
AcDbEntity
  8
7
100
AcDbLine
 10
1.091506496062992
 20
3.482495177159837
 30
0.0
 11
1.132189159940944
 21
3.477245801175585
 31
0.0
  0
LINE
  5
414D
330
1E
100
AcDbEntity
  8
7
100
AcDbLine
 10
1.112503999999999
 20
3.77777257627401
 30
0.0
 11
1.073133680118109
 21
3.767273824305506
 31
0.0
  0
LINE
  5
414E
330
1E
100
AcDbEntity
  8
7
100
AcDbLine
 10
1.073133680118109
 20
3.767273824305506
 30
0.0
 11
1.037700392224409
 21
3.746276320368498
 31
0.0
  0
LINE
  5
414F
330
1E
100
AcDbEntity
  8
7
100
AcDbLine
 10
1.393345615157479
 20
3.679346776569286
 30
0.0
 11
1.374972799212597
 21
3.71609240845905
 31
0.0
  0
LINE
  5
4150
330
1E
100
AcDbEntity
  8
7
100
AcDbLine
 10
1.374972799212597
 20
3.71609240845905
 30
0.0
 11
1.346101231299211
 21
3.746276320368498
 31
0.0
  0
LINE
  5
4151
330
1E
100
AcDbEntity
  8
7
100
AcDbLine
 10
1.346101231299211
 20
3.746276320368498
 30
0.0
 11
1.310667943405511
 21
3.767273824305506
 31
0.0
  0
LINE
  5
4152
330
1E
100
AcDbEntity
  8
7
100
AcDbLine
 10
1.310667943405511
 20
3.767273824305506
 30
0.0
 11
1.271297623523621
 21
3.77777257627401
 31
0.0
  0
LINE
  5
4153
330
1E
100
AcDbEntity
  8
7
100
AcDbLine
 10
1.251612463582676
 20
3.477245801175585
 30
0.0
 11
1.292295127460629
 21
3.482495177159837
 31
0.0
  0
LINE
  5
4154
330
1E
100
AcDbEntity
  8
7
100
AcDbLine
 10
1.292295127460629
 20
3.482495177159837
 30
0.0
 11
1.330353103346456
 21
3.499555649108656
 31
0.0
  0
LINE
  5
4155
330
1E
100
AcDbEntity
  8
7
100
AcDbLine
 10
1.330353103346456
 20
3.499555649108656
 30
0.0
 11
1.361849359251968
 21
3.525802529029916
 31
0.0
  0
LINE
  5
4156
330
1E
100
AcDbEntity
  8
7
100
AcDbLine
 10
1.361849359251968
 20
3.525802529029916
 30
0.0
 11
1.385471551181101
 21
3.558611128931491
 31
0.0
  0
LINE
  5
4157
330
1E
100
AcDbEntity
  8
7
100
AcDbLine
 10
1.385471551181101
 20
3.558611128931491
 30
0.0
 11
1.399907335137794
 21
3.597981448813381
 31
0.0
  0
LINE
  5
4158
330
1E
100
AcDbEntity
  8
7
100
AcDbLine
 10
1.399907335137794
 20
3.597981448813381
 30
0.0
 11
1.40253202312992
 21
3.638664112691333
 31
0.0
  0
LINE
  5
4159
330
1E
100
AcDbEntity
  8
7
100
AcDbLine
 10
1.40253202312992
 20
3.638664112691333
 30
0.0
 11
1.393345615157479
 21
3.679346776569286
 31
0.0
  0
LINE
  5
415A
330
1E
100
AcDbEntity
  8
7
100
AcDbLine
 10
2.885480738681101
 20
3.767273824305506
 30
0.0
 11
2.850047450787401
 21
3.746276320368498
 31
0.0
  0
LINE
  5
415B
330
1E
100
AcDbEntity
  8
7
100
AcDbLine
 10
2.850047450787401
 20
3.746276320368498
 30
0.0
 11
2.821175882874015
 21
3.71609240845905
 31
0.0
  0
LINE
  5
415C
330
1E
100
AcDbEntity
  8
7
100
AcDbLine
 10
2.821175882874015
 20
3.71609240845905
 30
0.0
 11
2.802803066929133
 21
3.679346776569286
 31
0.0
  0
LINE
  5
415D
330
1E
100
AcDbEntity
  8
7
100
AcDbLine
 10
2.802803066929133
 20
3.679346776569286
 30
0.0
 11
2.793616658956692
 21
3.638664112691333
 31
0.0
  0
LINE
  5
415E
330
1E
100
AcDbEntity
  8
7
100
AcDbLine
 10
2.793616658956692
 20
3.638664112691333
 30
0.0
 11
2.796241346948818
 21
3.597981448813381
 31
0.0
  0
LINE
  5
415F
330
1E
100
AcDbEntity
  8
7
100
AcDbLine
 10
2.796241346948818
 20
3.597981448813381
 30
0.0
 11
2.810677130905511
 21
3.558611128931491
 31
0.0
  0
LINE
  5
4160
330
1E
100
AcDbEntity
  8
7
100
AcDbLine
 10
2.810677130905511
 20
3.558611128931491
 30
0.0
 11
2.834299322834645
 21
3.525802529029916
 31
0.0
  0
LINE
  5
4161
330
1E
100
AcDbEntity
  8
7
100
AcDbLine
 10
2.834299322834645
 20
3.525802529029916
 30
0.0
 11
2.865795578740157
 21
3.499555649108656
 31
0.0
  0
LINE
  5
4162
330
1E
100
AcDbEntity
  8
7
100
AcDbLine
 10
2.865795578740157
 20
3.499555649108656
 30
0.0
 11
2.903853554625983
 21
3.482495177159837
 31
0.0
  0
LINE
  5
4163
330
1E
100
AcDbEntity
  8
7
100
AcDbLine
 10
2.903853554625983
 20
3.482495177159837
 30
0.0
 11
2.944536218503936
 21
3.477245801175585
 31
0.0
  0
LINE
  5
4164
330
1E
100
AcDbEntity
  8
7
100
AcDbLine
 10
3.212254393700787
 20
3.597981448813381
 30
0.0
 11
3.214879081692913
 21
3.638664112691333
 31
0.0
  0
LINE
  5
4165
330
1E
100
AcDbEntity
  8
7
100
AcDbLine
 10
3.214879081692913
 20
3.638664112691333
 30
0.0
 11
3.205692673720472
 21
3.679346776569286
 31
0.0
  0
LINE
  5
4166
330
1E
100
AcDbEntity
  8
7
100
AcDbLine
 10
3.205692673720472
 20
3.679346776569286
 30
0.0
 11
3.18731985777559
 21
3.71609240845905
 31
0.0
  0
LINE
  5
4167
330
1E
100
AcDbEntity
  8
7
100
AcDbLine
 10
3.18731985777559
 20
3.71609240845905
 30
0.0
 11
3.158448289862204
 21
3.746276320368498
 31
0.0
  0
LINE
  5
4168
330
1E
100
AcDbEntity
  8
7
100
AcDbLine
 10
3.158448289862204
 20
3.746276320368498
 30
0.0
 11
3.123015001968504
 21
3.767273824305506
 31
0.0
  0
LINE
  5
4169
330
1E
100
AcDbEntity
  8
7
100
AcDbLine
 10
3.123015001968504
 20
3.767273824305506
 30
0.0
 11
3.083644682086613
 21
3.77777257627401
 31
0.0
  0
LINE
  5
416A
330
1E
100
AcDbEntity
  8
7
100
AcDbLine
 10
3.063959522145669
 20
3.477245801175585
 30
0.0
 11
3.104642186023621
 21
3.482495177159837
 31
0.0
  0
LINE
  5
416B
330
1E
100
AcDbEntity
  8
7
100
AcDbLine
 10
3.104642186023621
 20
3.482495177159837
 30
0.0
 11
3.142700161909448
 21
3.499555649108656
 31
0.0
  0
LINE
  5
416C
330
1E
100
AcDbEntity
  8
7
100
AcDbLine
 10
3.142700161909448
 20
3.499555649108656
 30
0.0
 11
3.17419641781496
 21
3.525802529029916
 31
0.0
  0
LINE
  5
416D
330
1E
100
AcDbEntity
  8
7
100
AcDbLine
 10
3.17419641781496
 20
3.525802529029916
 30
0.0
 11
3.197818609744094
 21
3.558611128931491
 31
0.0
  0
LINE
  5
416E
330
1E
100
AcDbEntity
  8
7
100
AcDbLine
 10
3.197818609744094
 20
3.558611128931491
 30
0.0
 11
3.212254393700787
 21
3.597981448813381
 31
0.0
  0
LINE
  5
416F
330
1E
100
AcDbEntity
  8
7
100
AcDbLine
 10
2.629573659448818
 20
5.493006179128342
 30
0.0
 11
2.835611666830708
 21
5.493006179128342
 31
0.0
  0
LINE
  5
4170
330
1E
100
AcDbEntity
  8
7
100
AcDbLine
 10
2.835611666830708
 20
5.493006179128342
 30
0.0
 11
2.835611666830708
 21
5.49694321111653
 31
0.0
  0
LINE
  5
4171
330
1E
100
AcDbEntity
  8
7
100
AcDbLine
 10
2.835611666830708
 20
5.49694321111653
 30
0.0
 11
2.835611666830708
 21
5.507441963085033
 31
0.0
  0
LINE
  5
4172
330
1E
100
AcDbEntity
  8
7
100
AcDbLine
 10
2.605951467519684
 20
5.481195083163774
 30
0.0
 11
2.629573659448818
 21
5.493006179128342
 31
0.0
  0
LINE
  5
4173
330
1E
100
AcDbEntity
  8
7
100
AcDbLine
 10
2.629573659448818
 20
5.493006179128342
 30
0.0
 11
2.630886003444881
 21
5.49694321111653
 31
0.0
  0
LINE
  5
4174
330
1E
100
AcDbEntity
  8
7
100
AcDbLine
 10
2.630886003444881
 20
5.49694321111653
 30
0.0
 11
2.630886003444881
 21
5.507441963085033
 31
0.0
  0
LINE
  5
4175
330
1E
100
AcDbEntity
  8
7
100
AcDbLine
 10
1.359224671259841
 20
5.493006179128342
 30
0.0
 11
1.566575022637795
 21
5.493006179128342
 31
0.0
  0
LINE
  5
4176
330
1E
100
AcDbEntity
  8
7
100
AcDbLine
 10
1.566575022637795
 20
5.493006179128342
 30
0.0
 11
1.565262678641731
 21
5.49694321111653
 31
0.0
  0
LINE
  5
4177
330
1E
100
AcDbEntity
  8
7
100
AcDbLine
 10
1.565262678641731
 20
5.49694321111653
 30
0.0
 11
1.565262678641731
 21
5.507441963085033
 31
0.0
  0
LINE
  5
4178
330
1E
100
AcDbEntity
  8
7
100
AcDbLine
 10
1.335602479330708
 20
5.481195083163774
 30
0.0
 11
1.359224671259841
 21
5.493006179128342
 31
0.0
  0
LINE
  5
4179
330
1E
100
AcDbEntity
  8
7
100
AcDbLine
 10
1.359224671259841
 20
5.493006179128342
 30
0.0
 11
1.360537015255904
 21
5.49694321111653
 31
0.0
  0
LINE
  5
417A
330
1E
100
AcDbEntity
  8
7
100
AcDbLine
 10
1.360537015255904
 20
5.49694321111653
 30
0.0
 11
1.360537015255904
 21
5.507441963085033
 31
0.0
  0
LINE
  5
417B
330
1E
100
AcDbEntity
  8
7
100
AcDbLine
 10
2.629573659448818
 20
4.342080494581098
 30
0.0
 11
2.835611666830708
 21
4.342080494581098
 31
0.0
  0
LINE
  5
417C
330
1E
100
AcDbEntity
  8
7
100
AcDbLine
 10
2.835611666830708
 20
4.342080494581098
 30
0.0
 11
2.835611666830708
 21
4.347329870565349
 31
0.0
  0
LINE
  5
417D
330
1E
100
AcDbEntity
  8
7
100
AcDbLine
 10
2.835611666830708
 20
4.347329870565349
 30
0.0
 11
2.835611666830708
 21
4.357828622533854
 31
0.0
  0
LINE
  5
417E
330
1E
100
AcDbEntity
  8
7
100
AcDbLine
 10
2.605951467519684
 20
4.33026939861653
 30
0.0
 11
2.629573659448818
 21
4.342080494581098
 31
0.0
  0
LINE
  5
417F
330
1E
100
AcDbEntity
  8
7
100
AcDbLine
 10
2.629573659448818
 20
4.342080494581098
 30
0.0
 11
2.630886003444881
 21
4.347329870565349
 31
0.0
  0
LINE
  5
4180
330
1E
100
AcDbEntity
  8
7
100
AcDbLine
 10
2.630886003444881
 20
4.347329870565349
 30
0.0
 11
2.630886003444881
 21
4.357828622533854
 31
0.0
  0
LINE
  5
4181
330
1E
100
AcDbEntity
  8
7
100
AcDbLine
 10
1.359224671259841
 20
4.342080494581098
 30
0.0
 11
1.566575022637795
 21
4.342080494581098
 31
0.0
  0
LINE
  5
4182
330
1E
100
AcDbEntity
  8
7
100
AcDbLine
 10
1.566575022637795
 20
4.342080494581098
 30
0.0
 11
1.565262678641731
 21
4.347329870565349
 31
0.0
  0
LINE
  5
4183
330
1E
100
AcDbEntity
  8
7
100
AcDbLine
 10
1.565262678641731
 20
4.347329870565349
 30
0.0
 11
1.565262678641731
 21
4.357828622533854
 31
0.0
  0
LINE
  5
4184
330
1E
100
AcDbEntity
  8
7
100
AcDbLine
 10
1.335602479330708
 20
4.33026939861653
 30
0.0
 11
1.359224671259841
 21
4.342080494581098
 31
0.0
  0
LINE
  5
4185
330
1E
100
AcDbEntity
  8
7
100
AcDbLine
 10
1.359224671259841
 20
4.342080494581098
 30
0.0
 11
1.360537015255904
 21
4.347329870565349
 31
0.0
  0
LINE
  5
4186
330
1E
100
AcDbEntity
  8
7
100
AcDbLine
 10
1.360537015255904
 20
4.347329870565349
 30
0.0
 11
1.360537015255904
 21
4.357828622533854
 31
0.0
  0
LINE
  5
4187
330
1E
100
AcDbEntity
  8
7
100
AcDbLine
 10
2.835611666830708
 20
5.588807290840939
 30
0.0
 11
2.629573659448818
 21
5.588807290840939
 31
0.0
  0
LINE
  5
4188
330
1E
100
AcDbEntity
  8
7
100
AcDbLine
 10
2.629573659448818
 20
5.588807290840939
 30
0.0
 11
2.629573659448818
 21
5.559935722927553
 31
0.0
  0
LINE
  5
4189
330
1E
100
AcDbEntity
  8
7
100
AcDbLine
 10
2.835611666830708
 20
5.554686346943301
 30
0.0
 11
2.835611666830708
 21
5.559935722927553
 31
0.0
  0
LINE
  5
418A
330
1E
100
AcDbEntity
  8
7
100
AcDbLine
 10
2.835611666830708
 20
5.559935722927553
 30
0.0
 11
2.629573659448818
 21
5.559935722927553
 31
0.0
  0
LINE
  5
418B
330
1E
100
AcDbEntity
  8
7
100
AcDbLine
 10
2.630886003444881
 20
5.519253059049602
 30
0.0
 11
2.630886003444881
 21
5.537625874994483
 31
0.0
  0
LINE
  5
418C
330
1E
100
AcDbEntity
  8
7
100
AcDbLine
 10
2.630886003444881
 20
5.537625874994483
 30
0.0
 11
2.629573659448818
 21
5.554686346943301
 31
0.0
  0
LINE
  5
418D
330
1E
100
AcDbEntity
  8
7
100
AcDbLine
 10
2.835611666830708
 20
5.519253059049602
 30
0.0
 11
2.835611666830708
 21
5.537625874994483
 31
0.0
  0
LINE
  5
418E
330
1E
100
AcDbEntity
  8
7
100
AcDbLine
 10
2.835611666830708
 20
5.537625874994483
 30
0.0
 11
2.835611666830708
 21
5.554686346943301
 31
0.0
  0
LINE
  5
418F
330
1E
100
AcDbEntity
  8
7
100
AcDbLine
 10
2.835611666830708
 20
5.519253059049602
 30
0.0
 11
2.630886003444881
 21
5.519253059049602
 31
0.0
  0
LINE
  5
4190
330
1E
100
AcDbEntity
  8
7
100
AcDbLine
 10
2.630886003444881
 20
5.519253059049602
 30
0.0
 11
2.630886003444881
 21
5.507441963085033
 31
0.0
  0
LINE
  5
4191
330
1E
100
AcDbEntity
  8
7
100
AcDbLine
 10
1.566575022637795
 20
5.588807290840939
 30
0.0
 11
1.360537015255904
 21
5.588807290840939
 31
0.0
  0
LINE
  5
4192
330
1E
100
AcDbEntity
  8
7
100
AcDbLine
 10
1.360537015255904
 20
5.588807290840939
 30
0.0
 11
1.360537015255904
 21
5.559935722927553
 31
0.0
  0
LINE
  5
4193
330
1E
100
AcDbEntity
  8
7
100
AcDbLine
 10
1.566575022637795
 20
5.554686346943301
 30
0.0
 11
1.566575022637795
 21
5.559935722927553
 31
0.0
  0
LINE
  5
4194
330
1E
100
AcDbEntity
  8
7
100
AcDbLine
 10
1.566575022637795
 20
5.559935722927553
 30
0.0
 11
1.360537015255904
 21
5.559935722927553
 31
0.0
  0
LINE
  5
4195
330
1E
100
AcDbEntity
  8
7
100
AcDbLine
 10
1.360537015255904
 20
5.519253059049602
 30
0.0
 11
1.360537015255904
 21
5.537625874994483
 31
0.0
  0
LINE
  5
4196
330
1E
100
AcDbEntity
  8
7
100
AcDbLine
 10
1.360537015255904
 20
5.537625874994483
 30
0.0
 11
1.360537015255904
 21
5.554686346943301
 31
0.0
  0
LINE
  5
4197
330
1E
100
AcDbEntity
  8
7
100
AcDbLine
 10
1.565262678641731
 20
5.519253059049602
 30
0.0
 11
1.565262678641731
 21
5.537625874994483
 31
0.0
  0
LINE
  5
4198
330
1E
100
AcDbEntity
  8
7
100
AcDbLine
 10
1.565262678641731
 20
5.537625874994483
 30
0.0
 11
1.566575022637795
 21
5.554686346943301
 31
0.0
  0
LINE
  5
4199
330
1E
100
AcDbEntity
  8
7
100
AcDbLine
 10
1.565262678641731
 20
5.519253059049602
 30
0.0
 11
1.360537015255904
 21
5.519253059049602
 31
0.0
  0
LINE
  5
419A
330
1E
100
AcDbEntity
  8
7
100
AcDbLine
 10
1.360537015255904
 20
5.519253059049602
 30
0.0
 11
1.360537015255904
 21
5.507441963085033
 31
0.0
  0
LINE
  5
419B
330
1E
100
AcDbEntity
  8
7
100
AcDbLine
 10
2.835611666830708
 20
4.439193950289758
 30
0.0
 11
2.629573659448818
 21
4.439193950289758
 31
0.0
  0
LINE
  5
419C
330
1E
100
AcDbEntity
  8
7
100
AcDbLine
 10
2.629573659448818
 20
4.439193950289758
 30
0.0
 11
2.629573659448818
 21
4.410322382376373
 31
0.0
  0
LINE
  5
419D
330
1E
100
AcDbEntity
  8
7
100
AcDbLine
 10
2.835611666830708
 20
4.405073006392121
 30
0.0
 11
2.835611666830708
 21
4.410322382376373
 31
0.0
  0
LINE
  5
419E
330
1E
100
AcDbEntity
  8
7
100
AcDbLine
 10
2.835611666830708
 20
4.410322382376373
 30
0.0
 11
2.629573659448818
 21
4.410322382376373
 31
0.0
  0
LINE
  5
419F
330
1E
100
AcDbEntity
  8
7
100
AcDbLine
 10
2.630886003444881
 20
4.368327374502357
 30
0.0
 11
2.630886003444881
 21
4.388012534443301
 31
0.0
  0
LINE
  5
41A0
330
1E
100
AcDbEntity
  8
7
100
AcDbLine
 10
2.630886003444881
 20
4.388012534443301
 30
0.0
 11
2.629573659448818
 21
4.405073006392121
 31
0.0
  0
LINE
  5
41A1
330
1E
100
AcDbEntity
  8
7
100
AcDbLine
 10
2.835611666830708
 20
4.368327374502357
 30
0.0
 11
2.835611666830708
 21
4.388012534443301
 31
0.0
  0
LINE
  5
41A2
330
1E
100
AcDbEntity
  8
7
100
AcDbLine
 10
2.835611666830708
 20
4.388012534443301
 30
0.0
 11
2.835611666830708
 21
4.405073006392121
 31
0.0
  0
LINE
  5
41A3
330
1E
100
AcDbEntity
  8
7
100
AcDbLine
 10
2.835611666830708
 20
4.368327374502357
 30
0.0
 11
2.630886003444881
 21
4.368327374502357
 31
0.0
  0
LINE
  5
41A4
330
1E
100
AcDbEntity
  8
7
100
AcDbLine
 10
2.630886003444881
 20
4.368327374502357
 30
0.0
 11
2.630886003444881
 21
4.357828622533854
 31
0.0
  0
LINE
  5
41A5
330
1E
100
AcDbEntity
  8
7
100
AcDbLine
 10
1.566575022637795
 20
4.439193950289758
 30
0.0
 11
1.360537015255904
 21
4.439193950289758
 31
0.0
  0
LINE
  5
41A6
330
1E
100
AcDbEntity
  8
7
100
AcDbLine
 10
1.360537015255904
 20
4.439193950289758
 30
0.0
 11
1.360537015255904
 21
4.410322382376373
 31
0.0
  0
LINE
  5
41A7
330
1E
100
AcDbEntity
  8
7
100
AcDbLine
 10
1.566575022637795
 20
4.405073006392121
 30
0.0
 11
1.566575022637795
 21
4.410322382376373
 31
0.0
  0
LINE
  5
41A8
330
1E
100
AcDbEntity
  8
7
100
AcDbLine
 10
1.566575022637795
 20
4.410322382376373
 30
0.0
 11
1.360537015255904
 21
4.410322382376373
 31
0.0
  0
LINE
  5
41A9
330
1E
100
AcDbEntity
  8
7
100
AcDbLine
 10
1.360537015255904
 20
4.368327374502357
 30
0.0
 11
1.360537015255904
 21
4.388012534443301
 31
0.0
  0
LINE
  5
41AA
330
1E
100
AcDbEntity
  8
7
100
AcDbLine
 10
1.360537015255904
 20
4.388012534443301
 30
0.0
 11
1.360537015255904
 21
4.405073006392121
 31
0.0
  0
LINE
  5
41AB
330
1E
100
AcDbEntity
  8
7
100
AcDbLine
 10
1.565262678641731
 20
4.368327374502357
 30
0.0
 11
1.565262678641731
 21
4.388012534443301
 31
0.0
  0
LINE
  5
41AC
330
1E
100
AcDbEntity
  8
7
100
AcDbLine
 10
1.565262678641731
 20
4.388012534443301
 30
0.0
 11
1.566575022637795
 21
4.405073006392121
 31
0.0
  0
LINE
  5
41AD
330
1E
100
AcDbEntity
  8
7
100
AcDbLine
 10
1.565262678641731
 20
4.368327374502357
 30
0.0
 11
1.360537015255904
 21
4.368327374502357
 31
0.0
  0
LINE
  5
41AE
330
1E
100
AcDbEntity
  8
7
100
AcDbLine
 10
1.360537015255904
 20
4.368327374502357
 30
0.0
 11
1.360537015255904
 21
4.357828622533854
 31
0.0
  0
LINE
  5
41AF
330
1E
100
AcDbEntity
  8
7
100
AcDbLine
 10
0.7844180009842514
 20
6.604561543793696
 30
0.0
 11
0.7844180009842514
 21
6.60193685580157
 31
0.0
  0
LINE
  5
41B0
330
1E
100
AcDbEntity
  8
7
100
AcDbLine
 10
0.7844180009842514
 20
6.60193685580157
 30
0.0
 11
0.7844180009842514
 21
6.596687479817317
 31
0.0
  0
LINE
  5
41B1
330
1E
100
AcDbEntity
  8
7
100
AcDbLine
 10
0.7765439370078742
 20
6.612435607770073
 30
0.0
 11
0.7739192490157479
 21
6.612435607770073
 31
0.0
  0
LINE
  5
41B2
330
1E
100
AcDbEntity
  8
7
100
AcDbLine
 10
0.7739192490157479
 20
6.612435607770073
 30
0.0
 11
0.7686698730314961
 21
6.612435607770073
 31
0.0
  0
LINE
  5
41B3
330
1E
100
AcDbEntity
  8
7
100
AcDbLine
 10
0.7686698730314961
 20
6.642619519679522
 30
0.0
 11
0.7739192490157479
 21
6.642619519679522
 31
0.0
  0
LINE
  5
41B4
330
1E
100
AcDbEntity
  8
7
100
AcDbLine
 10
0.7739192490157479
 20
6.642619519679522
 30
0.0
 11
0.7765439370078742
 21
6.642619519679522
 31
0.0
  0
LINE
  5
41B5
330
1E
100
AcDbEntity
  8
7
100
AcDbLine
 10
0.7844180009842514
 20
6.658367647632278
 30
0.0
 11
0.7844180009842514
 21
6.653118271648026
 31
0.0
  0
LINE
  5
41B6
330
1E
100
AcDbEntity
  8
7
100
AcDbLine
 10
0.7844180009842514
 20
6.653118271648026
 30
0.0
 11
0.7844180009842514
 21
6.650493583655901
 31
0.0
  0
LINE
  5
41B7
330
1E
100
AcDbEntity
  8
7
100
AcDbLine
 10
1.031138672244093
 20
6.658367647632278
 30
0.0
 11
1.031138672244093
 21
6.653118271648026
 31
0.0
  0
LINE
  5
41B8
330
1E
100
AcDbEntity
  8
7
100
AcDbLine
 10
1.031138672244093
 20
6.653118271648026
 30
0.0
 11
1.031138672244093
 21
6.650493583655901
 31
0.0
  0
LINE
  5
41B9
330
1E
100
AcDbEntity
  8
7
100
AcDbLine
 10
1.046886800196849
 20
6.642619519679522
 30
0.0
 11
1.041637424212598
 21
6.642619519679522
 31
0.0
  0
LINE
  5
41BA
330
1E
100
AcDbEntity
  8
7
100
AcDbLine
 10
1.041637424212598
 20
6.642619519679522
 30
0.0
 11
1.039012736220471
 21
6.642619519679522
 31
0.0
  0
LINE
  5
41BB
330
1E
100
AcDbEntity
  8
7
100
AcDbLine
 10
1.031138672244093
 20
6.596687479817317
 30
0.0
 11
1.031138672244093
 21
6.60193685580157
 31
0.0
  0
LINE
  5
41BC
330
1E
100
AcDbEntity
  8
7
100
AcDbLine
 10
1.031138672244093
 20
6.60193685580157
 30
0.0
 11
1.031138672244093
 21
6.604561543793696
 31
0.0
  0
LINE
  5
41BD
330
1E
100
AcDbEntity
  8
7
100
AcDbLine
 10
1.046886800196849
 20
6.612435607770073
 30
0.0
 11
1.041637424212598
 21
6.612435607770073
 31
0.0
  0
LINE
  5
41BE
330
1E
100
AcDbEntity
  8
7
100
AcDbLine
 10
1.041637424212598
 20
6.612435607770073
 30
0.0
 11
1.039012736220471
 21
6.612435607770073
 31
0.0
  0
LINE
  5
41BF
330
1E
100
AcDbEntity
  8
7
100
AcDbLine
 10
1.029826328248031
 20
6.645244207671649
 30
0.0
 11
1.031138672244093
 21
6.650493583655901
 31
0.0
  0
LINE
  5
41C0
330
1E
100
AcDbEntity
  8
7
100
AcDbLine
 10
1.031138672244093
 20
6.650493583655901
 30
0.0
 11
0.7844180009842514
 21
6.650493583655901
 31
0.0
  0
LINE
  5
41C1
330
1E
100
AcDbEntity
  8
7
100
AcDbLine
 10
0.7857303449803146
 20
6.604561543793696
 30
0.0
 11
0.7844180009842514
 21
6.604561543793696
 31
0.0
  0
LINE
  5
41C2
330
1E
100
AcDbEntity
  8
7
100
AcDbLine
 10
0.7844180009842514
 20
6.604561543793696
 30
0.0
 11
0.7857303449803146
 21
6.604561543793696
 31
0.0
  0
LINE
  5
41C3
330
1E
100
AcDbEntity
  8
7
100
AcDbLine
 10
0.7778562810039365
 20
6.63737014369527
 30
0.0
 11
0.7765439370078742
 21
6.642619519679522
 31
0.0
  0
LINE
  5
41C4
330
1E
100
AcDbEntity
  8
7
100
AcDbLine
 10
0.7765439370078742
 20
6.642619519679522
 30
0.0
 11
0.7765439370078742
 21
6.612435607770073
 31
0.0
  0
LINE
  5
41C5
330
1E
100
AcDbEntity
  8
7
100
AcDbLine
 10
0.7765439370078742
 20
6.612435607770073
 30
0.0
 11
0.7778562810039365
 21
6.613747951766137
 31
0.0
  0
LINE
  5
41C6
330
1E
100
AcDbEntity
  8
7
100
AcDbLine
 10
1.037700392224409
 20
6.613747951766137
 30
0.0
 11
1.039012736220471
 21
6.612435607770073
 31
0.0
  0
LINE
  5
41C7
330
1E
100
AcDbEntity
  8
7
100
AcDbLine
 10
1.039012736220471
 20
6.612435607770073
 30
0.0
 11
1.039012736220471
 21
6.642619519679522
 31
0.0
  0
LINE
  5
41C8
330
1E
100
AcDbEntity
  8
7
100
AcDbLine
 10
1.039012736220471
 20
6.642619519679522
 30
0.0
 11
1.037700392224409
 21
6.63737014369527
 31
0.0
  0
LINE
  5
41C9
330
1E
100
AcDbEntity
  8
7
100
AcDbLine
 10
3.165010009842519
 20
6.604561543793696
 30
0.0
 11
3.165010009842519
 21
6.60193685580157
 31
0.0
  0
LINE
  5
41CA
330
1E
100
AcDbEntity
  8
7
100
AcDbLine
 10
3.165010009842519
 20
6.60193685580157
 30
0.0
 11
3.165010009842519
 21
6.596687479817317
 31
0.0
  0
LINE
  5
41CB
330
1E
100
AcDbEntity
  8
7
100
AcDbLine
 10
3.157135945866141
 20
6.612435607770073
 30
0.0
 11
3.154511257874015
 21
6.612435607770073
 31
0.0
  0
LINE
  5
41CC
330
1E
100
AcDbEntity
  8
7
100
AcDbLine
 10
3.154511257874015
 20
6.612435607770073
 30
0.0
 11
3.1479495378937
 21
6.612435607770073
 31
0.0
  0
LINE
  5
41CD
330
1E
100
AcDbEntity
  8
7
100
AcDbLine
 10
3.1479495378937
 20
6.642619519679522
 30
0.0
 11
3.154511257874015
 21
6.642619519679522
 31
0.0
  0
LINE
  5
41CE
330
1E
100
AcDbEntity
  8
7
100
AcDbLine
 10
3.154511257874015
 20
6.642619519679522
 30
0.0
 11
3.157135945866141
 21
6.642619519679522
 31
0.0
  0
LINE
  5
41CF
330
1E
100
AcDbEntity
  8
7
100
AcDbLine
 10
3.165010009842519
 20
6.658367647632278
 30
0.0
 11
3.165010009842519
 21
6.653118271648026
 31
0.0
  0
LINE
  5
41D0
330
1E
100
AcDbEntity
  8
7
100
AcDbLine
 10
3.165010009842519
 20
6.653118271648026
 30
0.0
 11
3.165010009842519
 21
6.650493583655901
 31
0.0
  0
LINE
  5
41D1
330
1E
100
AcDbEntity
  8
7
100
AcDbLine
 10
3.411730681102361
 20
6.658367647632278
 30
0.0
 11
3.411730681102361
 21
6.653118271648026
 31
0.0
  0
LINE
  5
41D2
330
1E
100
AcDbEntity
  8
7
100
AcDbLine
 10
3.411730681102361
 20
6.653118271648026
 30
0.0
 11
3.411730681102361
 21
6.650493583655901
 31
0.0
  0
LINE
  5
41D3
330
1E
100
AcDbEntity
  8
7
100
AcDbLine
 10
3.427478809055117
 20
6.642619519679522
 30
0.0
 11
3.422229433070865
 21
6.642619519679522
 31
0.0
  0
LINE
  5
41D4
330
1E
100
AcDbEntity
  8
7
100
AcDbLine
 10
3.422229433070865
 20
6.642619519679522
 30
0.0
 11
3.419604745078739
 21
6.642619519679522
 31
0.0
  0
LINE
  5
41D5
330
1E
100
AcDbEntity
  8
7
100
AcDbLine
 10
3.411730681102361
 20
6.596687479817317
 30
0.0
 11
3.411730681102361
 21
6.60193685580157
 31
0.0
  0
LINE
  5
41D6
330
1E
100
AcDbEntity
  8
7
100
AcDbLine
 10
3.411730681102361
 20
6.60193685580157
 30
0.0
 11
3.411730681102361
 21
6.604561543793696
 31
0.0
  0
LINE
  5
41D7
330
1E
100
AcDbEntity
  8
7
100
AcDbLine
 10
3.427478809055117
 20
6.612435607770073
 30
0.0
 11
3.422229433070865
 21
6.612435607770073
 31
0.0
  0
LINE
  5
41D8
330
1E
100
AcDbEntity
  8
7
100
AcDbLine
 10
3.422229433070865
 20
6.612435607770073
 30
0.0
 11
3.419604745078739
 21
6.612435607770073
 31
0.0
  0
LINE
  5
41D9
330
1E
100
AcDbEntity
  8
7
100
AcDbLine
 10
3.410418337106297
 20
6.645244207671649
 30
0.0
 11
3.411730681102361
 21
6.650493583655901
 31
0.0
  0
LINE
  5
41DA
330
1E
100
AcDbEntity
  8
7
100
AcDbLine
 10
3.411730681102361
 20
6.650493583655901
 30
0.0
 11
3.165010009842519
 21
6.650493583655901
 31
0.0
  0
LINE
  5
41DB
330
1E
100
AcDbEntity
  8
7
100
AcDbLine
 10
3.158448289862204
 20
6.63737014369527
 30
0.0
 11
3.157135945866141
 21
6.642619519679522
 31
0.0
  0
LINE
  5
41DC
330
1E
100
AcDbEntity
  8
7
100
AcDbLine
 10
3.157135945866141
 20
6.642619519679522
 30
0.0
 11
3.157135945866141
 21
6.612435607770073
 31
0.0
  0
LINE
  5
41DD
330
1E
100
AcDbEntity
  8
7
100
AcDbLine
 10
3.157135945866141
 20
6.612435607770073
 30
0.0
 11
3.158448289862204
 21
6.613747951766137
 31
0.0
  0
LINE
  5
41DE
330
1E
100
AcDbEntity
  8
7
100
AcDbLine
 10
3.418292401082676
 20
6.613747951766137
 30
0.0
 11
3.419604745078739
 21
6.612435607770073
 31
0.0
  0
LINE
  5
41DF
330
1E
100
AcDbEntity
  8
7
100
AcDbLine
 10
3.419604745078739
 20
6.612435607770073
 30
0.0
 11
3.419604745078739
 21
6.642619519679522
 31
0.0
  0
LINE
  5
41E0
330
1E
100
AcDbEntity
  8
7
100
AcDbLine
 10
3.419604745078739
 20
6.642619519679522
 30
0.0
 11
3.418292401082676
 21
6.63737014369527
 31
0.0
  0
LINE
  5
41E1
330
1E
100
AcDbEntity
  8
7
100
AcDbLine
 10
3.499657728838582
 20
7.104564606293696
 30
0.0
 11
3.497033040846456
 21
7.11112632627401
 31
0.0
  0
LINE
  5
41E2
330
1E
100
AcDbEntity
  8
7
100
AcDbLine
 10
3.497033040846456
 20
7.11112632627401
 30
0.0
 11
3.490471320866141
 21
7.113751014266137
 31
0.0
  0
LINE
  5
41E3
330
1E
100
AcDbEntity
  8
7
100
AcDbLine
 10
3.500970072834645
 20
7.104564606293696
 30
0.0
 11
3.499657728838582
 21
7.104564606293696
 31
0.0
  0
LINE
  5
41E4
330
1E
100
AcDbEntity
  8
7
100
AcDbLine
 10
3.499657728838582
 20
7.104564606293696
 30
0.0
 11
3.499657728838582
 21
6.712173751470862
 31
0.0
  0
LINE
  5
41E5
330
1E
100
AcDbEntity
  8
7
100
AcDbLine
 10
3.490471320866141
 20
6.702987343498421
 30
0.0
 11
3.497033040846456
 21
6.705612031490546
 31
0.0
  0
LINE
  5
41E6
330
1E
100
AcDbEntity
  8
7
100
AcDbLine
 10
3.497033040846456
 20
6.705612031490546
 30
0.0
 11
3.499657728838582
 21
6.712173751470862
 31
0.0
  0
LINE
  5
41E7
330
1E
100
AcDbEntity
  8
7
100
AcDbLine
 10
2.923538714566928
 20
6.639994831687397
 30
0.0
 11
2.923538714566928
 21
6.657055303636216
 31
0.0
  0
LINE
  5
41E8
330
1E
100
AcDbEntity
  8
7
100
AcDbLine
 10
2.923538714566928
 20
6.657055303636216
 30
0.0
 11
2.924851058562991
 21
6.66361702361653
 31
0.0
  0
LINE
  5
41E9
330
1E
100
AcDbEntity
  8
7
100
AcDbLine
 10
3.083644682086613
 20
6.66361702361653
 30
0.0
 11
3.083644682086613
 21
6.657055303636216
 31
0.0
  0
LINE
  5
41EA
330
1E
100
AcDbEntity
  8
7
100
AcDbLine
 10
3.083644682086613
 20
6.657055303636216
 30
0.0
 11
3.084957026082677
 21
6.639994831687397
 31
0.0
  0
LINE
  5
41EB
330
1E
100
AcDbEntity
  8
7
100
AcDbLine
 10
3.074458274114173
 20
6.66361702361653
 30
0.0
 11
3.083644682086613
 21
6.66361702361653
 31
0.0
  0
LINE
  5
41EC
330
1E
100
AcDbEntity
  8
7
100
AcDbLine
 10
3.083644682086613
 20
6.66361702361653
 30
0.0
 11
3.081019994094487
 21
6.666241711608657
 31
0.0
  0
LINE
  5
41ED
330
1E
100
AcDbEntity
  8
7
100
AcDbLine
 10
2.930100434547244
 20
6.83422174310472
 30
0.0
 11
2.936662154527558
 21
6.832909399108657
 31
0.0
  0
LINE
  5
41EE
330
1E
100
AcDbEntity
  8
7
100
AcDbLine
 10
2.936662154527558
 20
6.832909399108657
 30
0.0
 11
2.944536218503936
 21
6.832909399108657
 31
0.0
  0
LINE
  5
41EF
330
1E
100
AcDbEntity
  8
7
100
AcDbLine
 10
3.063959522145669
 20
6.832909399108657
 30
0.0
 11
3.071833586122047
 21
6.832909399108657
 31
0.0
  0
LINE
  5
41F0
330
1E
100
AcDbEntity
  8
7
100
AcDbLine
 10
3.071833586122047
 20
6.832909399108657
 30
0.0
 11
3.078395306102361
 21
6.83422174310472
 31
0.0
  0
LINE
  5
41F1
330
1E
100
AcDbEntity
  8
7
100
AcDbLine
 10
2.898604178641731
 20
6.968080830703145
 30
0.0
 11
2.877606674704724
 21
6.941833950781886
 31
0.0
  0
LINE
  5
41F2
330
1E
100
AcDbEntity
  8
7
100
AcDbLine
 10
2.877606674704724
 20
6.941833950781886
 30
0.0
 11
2.869732610728346
 21
6.909025350880309
 31
0.0
  0
LINE
  5
41F3
330
1E
100
AcDbEntity
  8
7
100
AcDbLine
 10
2.869732610728346
 20
6.909025350880309
 30
0.0
 11
2.877606674704724
 21
6.876216750978735
 31
0.0
  0
LINE
  5
41F4
330
1E
100
AcDbEntity
  8
7
100
AcDbLine
 10
2.877606674704724
 20
6.876216750978735
 30
0.0
 11
2.898604178641731
 21
6.849969871057475
 31
0.0
  0
LINE
  5
41F5
330
1E
100
AcDbEntity
  8
7
100
AcDbLine
 10
3.109891562007874
 20
6.849969871057475
 30
0.0
 11
3.130889065944881
 21
6.876216750978735
 31
0.0
  0
LINE
  5
41F6
330
1E
100
AcDbEntity
  8
7
100
AcDbLine
 10
3.130889065944881
 20
6.876216750978735
 30
0.0
 11
3.138763129921259
 21
6.909025350880309
 31
0.0
  0
LINE
  5
41F7
330
1E
100
AcDbEntity
  8
7
100
AcDbLine
 10
3.138763129921259
 20
6.909025350880309
 30
0.0
 11
3.130889065944881
 21
6.941833950781886
 31
0.0
  0
LINE
  5
41F8
330
1E
100
AcDbEntity
  8
7
100
AcDbLine
 10
3.063959522145669
 20
6.832909399108657
 30
0.0
 11
3.082332338090551
 21
6.835534087100782
 31
0.0
  0
LINE
  5
41F9
330
1E
100
AcDbEntity
  8
7
100
AcDbLine
 10
3.082332338090551
 20
6.835534087100782
 30
0.0
 11
3.09939281003937
 21
6.842095807081098
 31
0.0
  0
LINE
  5
41FA
330
1E
100
AcDbEntity
  8
7
100
AcDbLine
 10
2.909102930610235
 20
6.842095807081098
 30
0.0
 11
2.926163402559054
 21
6.835534087100782
 31
0.0
  0
LINE
  5
41FB
330
1E
100
AcDbEntity
  8
7
100
AcDbLine
 10
2.926163402559054
 20
6.835534087100782
 30
0.0
 11
2.944536218503936
 21
6.832909399108657
 31
0.0
  0
LINE
  5
41FC
330
1E
100
AcDbEntity
  8
7
100
AcDbLine
 10
2.944536218503936
 20
6.985141302651964
 30
0.0
 11
2.926163402559054
 21
6.982516614659838
 31
0.0
  0
LINE
  5
41FD
330
1E
100
AcDbEntity
  8
7
100
AcDbLine
 10
2.926163402559054
 20
6.982516614659838
 30
0.0
 11
2.909102930610235
 21
6.975954894679523
 31
0.0
  0
LINE
  5
41FE
330
1E
100
AcDbEntity
  8
7
100
AcDbLine
 10
3.09939281003937
 20
6.975954894679523
 30
0.0
 11
3.082332338090551
 21
6.982516614659838
 31
0.0
  0
LINE
  5
41FF
330
1E
100
AcDbEntity
  8
7
100
AcDbLine
 10
3.082332338090551
 20
6.982516614659838
 30
0.0
 11
3.063959522145669
 21
6.985141302651964
 31
0.0
  0
LINE
  5
4200
330
1E
100
AcDbEntity
  8
7
100
AcDbLine
 10
3.081019994094487
 20
6.676740463577161
 30
0.0
 11
3.081019994094487
 21
6.679365151569286
 31
0.0
  0
LINE
  5
4201
330
1E
100
AcDbEntity
  8
7
100
AcDbLine
 10
3.081019994094487
 20
6.679365151569286
 30
0.0
 11
3.081019994094487
 21
6.681989839561413
 31
0.0
  0
LINE
  5
4202
330
1E
100
AcDbEntity
  8
7
100
AcDbLine
 10
3.081019994094487
 20
6.681989839561413
 30
0.0
 11
3.081019994094487
 21
6.684614527553538
 31
0.0
  0
LINE
  5
4203
330
1E
100
AcDbEntity
  8
7
100
AcDbLine
 10
3.081019994094487
 20
6.684614527553538
 30
0.0
 11
3.081019994094487
 21
6.685926871549602
 31
0.0
  0
LINE
  5
4204
330
1E
100
AcDbEntity
  8
7
100
AcDbLine
 10
2.927475746555118
 20
6.681989839561413
 30
0.0
 11
2.927475746555118
 21
6.678052807573223
 31
0.0
  0
LINE
  5
4205
330
1E
100
AcDbEntity
  8
7
100
AcDbLine
 10
2.927475746555118
 20
6.678052807573223
 30
0.0
 11
2.927475746555118
 21
6.676740463577161
 31
0.0
  0
LINE
  5
4206
330
1E
100
AcDbEntity
  8
7
100
AcDbLine
 10
2.927475746555118
 20
6.685926871549602
 30
0.0
 11
2.927475746555118
 21
6.684614527553538
 31
0.0
  0
LINE
  5
4207
330
1E
100
AcDbEntity
  8
7
100
AcDbLine
 10
2.927475746555118
 20
6.684614527553538
 30
0.0
 11
2.927475746555118
 21
6.681989839561413
 31
0.0
  0
LINE
  5
4208
330
1E
100
AcDbEntity
  8
7
100
AcDbLine
 10
3.074458274114173
 20
6.687239215545664
 30
0.0
 11
3.077082962106298
 21
6.687239215545664
 31
0.0
  0
LINE
  5
4209
330
1E
100
AcDbEntity
  8
7
100
AcDbLine
 10
3.077082962106298
 20
6.687239215545664
 30
0.0
 11
3.078395306102361
 21
6.687239215545664
 31
0.0
  0
LINE
  5
420A
330
1E
100
AcDbEntity
  8
7
100
AcDbLine
 10
2.930100434547244
 20
6.687239215545664
 30
0.0
 11
2.931412778543307
 21
6.687239215545664
 31
0.0
  0
LINE
  5
420B
330
1E
100
AcDbEntity
  8
7
100
AcDbLine
 10
2.931412778543307
 20
6.687239215545664
 30
0.0
 11
2.934037466535432
 21
6.687239215545664
 31
0.0
  0
LINE
  5
420C
330
1E
100
AcDbEntity
  8
7
100
AcDbLine
 10
3.079707650098424
 20
6.760730479325192
 30
0.0
 11
3.120390313976378
 21
6.769916887297633
 31
0.0
  0
LINE
  5
420D
330
1E
100
AcDbEntity
  8
7
100
AcDbLine
 10
3.120390313976378
 20
6.769916887297633
 30
0.0
 11
3.155823601870078
 21
6.790914391234641
 31
0.0
  0
LINE
  5
420E
330
1E
100
AcDbEntity
  8
7
100
AcDbLine
 10
3.155823601870078
 20
6.790914391234641
 30
0.0
 11
3.184695169783464
 21
6.819785959148026
 31
0.0
  0
LINE
  5
420F
330
1E
100
AcDbEntity
  8
7
100
AcDbLine
 10
3.184695169783464
 20
6.819785959148026
 30
0.0
 11
3.204380329724409
 21
6.856531591037789
 31
0.0
  0
LINE
  5
4210
330
1E
100
AcDbEntity
  8
7
100
AcDbLine
 10
3.204380329724409
 20
6.856531591037789
 30
0.0
 11
3.213566737696849
 21
6.895901910919681
 31
0.0
  0
LINE
  5
4211
330
1E
100
AcDbEntity
  8
7
100
AcDbLine
 10
3.213566737696849
 20
6.895901910919681
 30
0.0
 11
3.210942049704724
 21
6.937896918793696
 31
0.0
  0
LINE
  5
4212
330
1E
100
AcDbEntity
  8
7
100
AcDbLine
 10
3.210942049704724
 20
6.937896918793696
 30
0.0
 11
3.197818609744094
 21
6.975954894679523
 31
0.0
  0
LINE
  5
4213
330
1E
100
AcDbEntity
  8
7
100
AcDbLine
 10
3.197818609744094
 20
6.975954894679523
 30
0.0
 11
3.17419641781496
 21
7.010075838577161
 31
0.0
  0
LINE
  5
4214
330
1E
100
AcDbEntity
  8
7
100
AcDbLine
 10
3.17419641781496
 20
7.010075838577161
 30
0.0
 11
3.142700161909448
 21
7.03632271849842
 31
0.0
  0
LINE
  5
4215
330
1E
100
AcDbEntity
  8
7
100
AcDbLine
 10
3.142700161909448
 20
7.03632271849842
 30
0.0
 11
3.104642186023621
 21
7.053383190447239
 31
0.0
  0
LINE
  5
4216
330
1E
100
AcDbEntity
  8
7
100
AcDbLine
 10
3.104642186023621
 20
7.053383190447239
 30
0.0
 11
3.063959522145669
 21
7.058632566431491
 31
0.0
  0
LINE
  5
4217
330
1E
100
AcDbEntity
  8
7
100
AcDbLine
 10
3.079707650098424
 20
6.832909399108657
 30
0.0
 11
3.109891562007874
 21
6.846032839069286
 31
0.0
  0
LINE
  5
4218
330
1E
100
AcDbEntity
  8
7
100
AcDbLine
 10
3.109891562007874
 20
6.846032839069286
 30
0.0
 11
3.130889065944881
 21
6.870967374994483
 31
0.0
  0
LINE
  5
4219
330
1E
100
AcDbEntity
  8
7
100
AcDbLine
 10
3.130889065944881
 20
6.870967374994483
 30
0.0
 11
3.141387817913385
 21
6.901151286903932
 31
0.0
  0
LINE
  5
421A
330
1E
100
AcDbEntity
  8
7
100
AcDbLine
 10
3.141387817913385
 20
6.901151286903932
 30
0.0
 11
3.137450785925196
 21
6.932647542809444
 31
0.0
  0
LINE
  5
421B
330
1E
100
AcDbEntity
  8
7
100
AcDbLine
 10
3.137450785925196
 20
6.932647542809444
 30
0.0
 11
3.12170265797244
 21
6.960206766726766
 31
0.0
  0
LINE
  5
421C
330
1E
100
AcDbEntity
  8
7
100
AcDbLine
 10
3.12170265797244
 20
6.960206766726766
 30
0.0
 11
3.095455778051181
 21
6.979891926667711
 31
0.0
  0
LINE
  5
421D
330
1E
100
AcDbEntity
  8
7
100
AcDbLine
 10
3.095455778051181
 20
6.979891926667711
 30
0.0
 11
3.063959522145669
 21
6.986453646648026
 31
0.0
  0
LINE
  5
421E
330
1E
100
AcDbEntity
  8
7
100
AcDbLine
 10
2.944536218503936
 20
6.986453646648026
 30
0.0
 11
2.913039962598424
 21
6.979891926667711
 31
0.0
  0
LINE
  5
421F
330
1E
100
AcDbEntity
  8
7
100
AcDbLine
 10
2.913039962598424
 20
6.979891926667711
 30
0.0
 11
2.886793082677165
 21
6.960206766726766
 31
0.0
  0
LINE
  5
4220
330
1E
100
AcDbEntity
  8
7
100
AcDbLine
 10
2.886793082677165
 20
6.960206766726766
 30
0.0
 11
2.871044954724409
 21
6.932647542809444
 31
0.0
  0
LINE
  5
4221
330
1E
100
AcDbEntity
  8
7
100
AcDbLine
 10
2.871044954724409
 20
6.932647542809444
 30
0.0
 11
2.86710792273622
 21
6.901151286903932
 31
0.0
  0
LINE
  5
4222
330
1E
100
AcDbEntity
  8
7
100
AcDbLine
 10
2.86710792273622
 20
6.901151286903932
 30
0.0
 11
2.877606674704724
 21
6.870967374994483
 31
0.0
  0
LINE
  5
4223
330
1E
100
AcDbEntity
  8
7
100
AcDbLine
 10
2.877606674704724
 20
6.870967374994483
 30
0.0
 11
2.898604178641731
 21
6.846032839069286
 31
0.0
  0
LINE
  5
4224
330
1E
100
AcDbEntity
  8
7
100
AcDbLine
 10
2.898604178641731
 20
6.846032839069286
 30
0.0
 11
2.92878809055118
 21
6.832909399108657
 31
0.0
  0
LINE
  5
4225
330
1E
100
AcDbEntity
  8
7
100
AcDbLine
 10
2.865795578740157
 20
7.03632271849842
 30
0.0
 11
2.834299322834645
 21
7.010075838577161
 31
0.0
  0
LINE
  5
4226
330
1E
100
AcDbEntity
  8
7
100
AcDbLine
 10
2.834299322834645
 20
7.010075838577161
 30
0.0
 11
2.810677130905511
 21
6.975954894679523
 31
0.0
  0
LINE
  5
4227
330
1E
100
AcDbEntity
  8
7
100
AcDbLine
 10
2.810677130905511
 20
6.975954894679523
 30
0.0
 11
2.797553690944881
 21
6.937896918793696
 31
0.0
  0
LINE
  5
4228
330
1E
100
AcDbEntity
  8
7
100
AcDbLine
 10
2.797553690944881
 20
6.937896918793696
 30
0.0
 11
2.794929002952756
 21
6.895901910919681
 31
0.0
  0
LINE
  5
4229
330
1E
100
AcDbEntity
  8
7
100
AcDbLine
 10
2.794929002952756
 20
6.895901910919681
 30
0.0
 11
2.804115410925196
 21
6.856531591037789
 31
0.0
  0
LINE
  5
422A
330
1E
100
AcDbEntity
  8
7
100
AcDbLine
 10
2.804115410925196
 20
6.856531591037789
 30
0.0
 11
2.823800570866141
 21
6.819785959148026
 31
0.0
  0
LINE
  5
422B
330
1E
100
AcDbEntity
  8
7
100
AcDbLine
 10
2.823800570866141
 20
6.819785959148026
 30
0.0
 11
2.852672138779527
 21
6.790914391234641
 31
0.0
  0
LINE
  5
422C
330
1E
100
AcDbEntity
  8
7
100
AcDbLine
 10
2.852672138779527
 20
6.790914391234641
 30
0.0
 11
2.888105426673227
 21
6.769916887297633
 31
0.0
  0
LINE
  5
422D
330
1E
100
AcDbEntity
  8
7
100
AcDbLine
 10
2.888105426673227
 20
6.769916887297633
 30
0.0
 11
2.92878809055118
 21
6.760730479325192
 31
0.0
  0
LINE
  5
422E
330
1E
100
AcDbEntity
  8
7
100
AcDbLine
 10
2.944536218503936
 20
7.058632566431491
 30
0.0
 11
2.903853554625983
 21
7.053383190447239
 31
0.0
  0
LINE
  5
422F
330
1E
100
AcDbEntity
  8
7
100
AcDbLine
 10
2.903853554625983
 20
7.053383190447239
 30
0.0
 11
2.865795578740157
 21
7.03632271849842
 31
0.0
  0
LINE
  5
4230
330
1E
100
AcDbEntity
  8
7
100
AcDbLine
 10
3.45110100098425
 20
6.702987343498421
 30
0.0
 11
3.449788656988188
 21
6.702987343498421
 31
0.0
  0
LINE
  5
4231
330
1E
100
AcDbEntity
  8
7
100
AcDbLine
 10
3.449788656988188
 20
6.702987343498421
 30
0.0
 11
3.449788656988188
 21
6.704299687494483
 31
0.0
  0
LINE
  5
4232
330
1E
100
AcDbEntity
  8
7
100
AcDbLine
 10
1.111191656003936
 20
6.639994831687397
 30
0.0
 11
1.111191656003936
 21
6.657055303636216
 31
0.0
  0
LINE
  5
4233
330
1E
100
AcDbEntity
  8
7
100
AcDbLine
 10
1.111191656003936
 20
6.657055303636216
 30
0.0
 11
1.112503999999999
 21
6.66361702361653
 31
0.0
  0
LINE
  5
4234
330
1E
100
AcDbEntity
  8
7
100
AcDbLine
 10
1.271297623523621
 20
6.66361702361653
 30
0.0
 11
1.271297623523621
 21
6.657055303636216
 31
0.0
  0
LINE
  5
4235
330
1E
100
AcDbEntity
  8
7
100
AcDbLine
 10
1.271297623523621
 20
6.657055303636216
 30
0.0
 11
1.272609967519684
 21
6.639994831687397
 31
0.0
  0
LINE
  5
4236
330
1E
100
AcDbEntity
  8
7
100
AcDbLine
 10
1.26211121555118
 20
6.66361702361653
 30
0.0
 11
1.271297623523621
 21
6.66361702361653
 31
0.0
  0
LINE
  5
4237
330
1E
100
AcDbEntity
  8
7
100
AcDbLine
 10
1.271297623523621
 20
6.66361702361653
 30
0.0
 11
1.268672935531496
 21
6.666241711608657
 31
0.0
  0
LINE
  5
4238
330
1E
100
AcDbEntity
  8
7
100
AcDbLine
 10
1.117753375984252
 20
6.83422174310472
 30
0.0
 11
1.124315095964566
 21
6.832909399108657
 31
0.0
  0
LINE
  5
4239
330
1E
100
AcDbEntity
  8
7
100
AcDbLine
 10
1.124315095964566
 20
6.832909399108657
 30
0.0
 11
1.132189159940944
 21
6.832909399108657
 31
0.0
  0
LINE
  5
423A
330
1E
100
AcDbEntity
  8
7
100
AcDbLine
 10
1.251612463582676
 20
6.832909399108657
 30
0.0
 11
1.259486527559054
 21
6.832909399108657
 31
0.0
  0
LINE
  5
423B
330
1E
100
AcDbEntity
  8
7
100
AcDbLine
 10
1.259486527559054
 20
6.832909399108657
 30
0.0
 11
1.266048247539369
 21
6.83422174310472
 31
0.0
  0
LINE
  5
423C
330
1E
100
AcDbEntity
  8
7
100
AcDbLine
 10
1.086257120078739
 20
6.968080830703145
 30
0.0
 11
1.065259616141731
 21
6.941833950781886
 31
0.0
  0
LINE
  5
423D
330
1E
100
AcDbEntity
  8
7
100
AcDbLine
 10
1.065259616141731
 20
6.941833950781886
 30
0.0
 11
1.057385552165353
 21
6.909025350880309
 31
0.0
  0
LINE
  5
423E
330
1E
100
AcDbEntity
  8
7
100
AcDbLine
 10
1.057385552165353
 20
6.909025350880309
 30
0.0
 11
1.065259616141731
 21
6.876216750978735
 31
0.0
  0
LINE
  5
423F
330
1E
100
AcDbEntity
  8
7
100
AcDbLine
 10
1.065259616141731
 20
6.876216750978735
 30
0.0
 11
1.086257120078739
 21
6.849969871057475
 31
0.0
  0
LINE
  5
4240
330
1E
100
AcDbEntity
  8
7
100
AcDbLine
 10
1.297544503444881
 20
6.849969871057475
 30
0.0
 11
1.318542007381889
 21
6.876216750978735
 31
0.0
  0
LINE
  5
4241
330
1E
100
AcDbEntity
  8
7
100
AcDbLine
 10
1.318542007381889
 20
6.876216750978735
 30
0.0
 11
1.326416071358267
 21
6.909025350880309
 31
0.0
  0
LINE
  5
4242
330
1E
100
AcDbEntity
  8
7
100
AcDbLine
 10
1.326416071358267
 20
6.909025350880309
 30
0.0
 11
1.318542007381889
 21
6.941833950781886
 31
0.0
  0
LINE
  5
4243
330
1E
100
AcDbEntity
  8
7
100
AcDbLine
 10
1.251612463582676
 20
6.832909399108657
 30
0.0
 11
1.269985279527558
 21
6.835534087100782
 31
0.0
  0
LINE
  5
4244
330
1E
100
AcDbEntity
  8
7
100
AcDbLine
 10
1.269985279527558
 20
6.835534087100782
 30
0.0
 11
1.287045751476378
 21
6.842095807081098
 31
0.0
  0
LINE
  5
4245
330
1E
100
AcDbEntity
  8
7
100
AcDbLine
 10
1.096755872047244
 20
6.842095807081098
 30
0.0
 11
1.113816343996062
 21
6.835534087100782
 31
0.0
  0
LINE
  5
4246
330
1E
100
AcDbEntity
  8
7
100
AcDbLine
 10
1.113816343996062
 20
6.835534087100782
 30
0.0
 11
1.132189159940944
 21
6.832909399108657
 31
0.0
  0
LINE
  5
4247
330
1E
100
AcDbEntity
  8
7
100
AcDbLine
 10
1.132189159940944
 20
6.985141302651964
 30
0.0
 11
1.113816343996062
 21
6.982516614659838
 31
0.0
  0
LINE
  5
4248
330
1E
100
AcDbEntity
  8
7
100
AcDbLine
 10
1.113816343996062
 20
6.982516614659838
 30
0.0
 11
1.096755872047244
 21
6.975954894679523
 31
0.0
  0
LINE
  5
4249
330
1E
100
AcDbEntity
  8
7
100
AcDbLine
 10
1.287045751476378
 20
6.975954894679523
 30
0.0
 11
1.269985279527558
 21
6.982516614659838
 31
0.0
  0
LINE
  5
424A
330
1E
100
AcDbEntity
  8
7
100
AcDbLine
 10
1.269985279527558
 20
6.982516614659838
 30
0.0
 11
1.251612463582676
 21
6.985141302651964
 31
0.0
  0
LINE
  5
424B
330
1E
100
AcDbEntity
  8
7
100
AcDbLine
 10
1.268672935531496
 20
6.676740463577161
 30
0.0
 11
1.268672935531496
 21
6.679365151569286
 31
0.0
  0
LINE
  5
424C
330
1E
100
AcDbEntity
  8
7
100
AcDbLine
 10
1.268672935531496
 20
6.679365151569286
 30
0.0
 11
1.268672935531496
 21
6.681989839561413
 31
0.0
  0
LINE
  5
424D
330
1E
100
AcDbEntity
  8
7
100
AcDbLine
 10
1.268672935531496
 20
6.681989839561413
 30
0.0
 11
1.268672935531496
 21
6.684614527553538
 31
0.0
  0
LINE
  5
424E
330
1E
100
AcDbEntity
  8
7
100
AcDbLine
 10
1.268672935531496
 20
6.684614527553538
 30
0.0
 11
1.268672935531496
 21
6.685926871549602
 31
0.0
  0
LINE
  5
424F
330
1E
100
AcDbEntity
  8
7
100
AcDbLine
 10
1.115128687992125
 20
6.681989839561413
 30
0.0
 11
1.115128687992125
 21
6.678052807573223
 31
0.0
  0
LINE
  5
4250
330
1E
100
AcDbEntity
  8
7
100
AcDbLine
 10
1.115128687992125
 20
6.678052807573223
 30
0.0
 11
1.115128687992125
 21
6.676740463577161
 31
0.0
  0
LINE
  5
4251
330
1E
100
AcDbEntity
  8
7
100
AcDbLine
 10
1.115128687992125
 20
6.685926871549602
 30
0.0
 11
1.115128687992125
 21
6.684614527553538
 31
0.0
  0
LINE
  5
4252
330
1E
100
AcDbEntity
  8
7
100
AcDbLine
 10
1.115128687992125
 20
6.684614527553538
 30
0.0
 11
1.115128687992125
 21
6.681989839561413
 31
0.0
  0
LINE
  5
4253
330
1E
100
AcDbEntity
  8
7
100
AcDbLine
 10
1.26211121555118
 20
6.687239215545664
 30
0.0
 11
1.264735903543306
 21
6.687239215545664
 31
0.0
  0
LINE
  5
4254
330
1E
100
AcDbEntity
  8
7
100
AcDbLine
 10
1.264735903543306
 20
6.687239215545664
 30
0.0
 11
1.266048247539369
 21
6.687239215545664
 31
0.0
  0
LINE
  5
4255
330
1E
100
AcDbEntity
  8
7
100
AcDbLine
 10
1.117753375984252
 20
6.687239215545664
 30
0.0
 11
1.119065719980314
 21
6.687239215545664
 31
0.0
  0
LINE
  5
4256
330
1E
100
AcDbEntity
  8
7
100
AcDbLine
 10
1.119065719980314
 20
6.687239215545664
 30
0.0
 11
1.12169040797244
 21
6.687239215545664
 31
0.0
  0
LINE
  5
4257
330
1E
100
AcDbEntity
  8
7
100
AcDbLine
 10
1.267360591535432
 20
6.760730479325192
 30
0.0
 11
1.308043255413386
 21
6.769916887297633
 31
0.0
  0
LINE
  5
4258
330
1E
100
AcDbEntity
  8
7
100
AcDbLine
 10
1.308043255413386
 20
6.769916887297633
 30
0.0
 11
1.343476543307086
 21
6.790914391234641
 31
0.0
  0
LINE
  5
4259
330
1E
100
AcDbEntity
  8
7
100
AcDbLine
 10
1.343476543307086
 20
6.790914391234641
 30
0.0
 11
1.372348111220471
 21
6.819785959148026
 31
0.0
  0
LINE
  5
425A
330
1E
100
AcDbEntity
  8
7
100
AcDbLine
 10
1.372348111220471
 20
6.819785959148026
 30
0.0
 11
1.392033271161417
 21
6.856531591037789
 31
0.0
  0
LINE
  5
425B
330
1E
100
AcDbEntity
  8
7
100
AcDbLine
 10
1.392033271161417
 20
6.856531591037789
 30
0.0
 11
1.401219679133857
 21
6.895901910919681
 31
0.0
  0
LINE
  5
425C
330
1E
100
AcDbEntity
  8
7
100
AcDbLine
 10
1.401219679133857
 20
6.895901910919681
 30
0.0
 11
1.398594991141731
 21
6.937896918793696
 31
0.0
  0
LINE
  5
425D
330
1E
100
AcDbEntity
  8
7
100
AcDbLine
 10
1.398594991141731
 20
6.937896918793696
 30
0.0
 11
1.385471551181101
 21
6.975954894679523
 31
0.0
  0
LINE
  5
425E
330
1E
100
AcDbEntity
  8
7
100
AcDbLine
 10
1.385471551181101
 20
6.975954894679523
 30
0.0
 11
1.361849359251968
 21
7.010075838577161
 31
0.0
  0
LINE
  5
425F
330
1E
100
AcDbEntity
  8
7
100
AcDbLine
 10
1.361849359251968
 20
7.010075838577161
 30
0.0
 11
1.330353103346456
 21
7.03632271849842
 31
0.0
  0
LINE
  5
4260
330
1E
100
AcDbEntity
  8
7
100
AcDbLine
 10
1.330353103346456
 20
7.03632271849842
 30
0.0
 11
1.292295127460629
 21
7.053383190447239
 31
0.0
  0
LINE
  5
4261
330
1E
100
AcDbEntity
  8
7
100
AcDbLine
 10
1.292295127460629
 20
7.053383190447239
 30
0.0
 11
1.251612463582676
 21
7.058632566431491
 31
0.0
  0
LINE
  5
4262
330
1E
100
AcDbEntity
  8
7
100
AcDbLine
 10
1.267360591535432
 20
6.832909399108657
 30
0.0
 11
1.297544503444881
 21
6.846032839069286
 31
0.0
  0
LINE
  5
4263
330
1E
100
AcDbEntity
  8
7
100
AcDbLine
 10
1.297544503444881
 20
6.846032839069286
 30
0.0
 11
1.318542007381889
 21
6.870967374994483
 31
0.0
  0
LINE
  5
4264
330
1E
100
AcDbEntity
  8
7
100
AcDbLine
 10
1.318542007381889
 20
6.870967374994483
 30
0.0
 11
1.329040759350393
 21
6.901151286903932
 31
0.0
  0
LINE
  5
4265
330
1E
100
AcDbEntity
  8
7
100
AcDbLine
 10
1.329040759350393
 20
6.901151286903932
 30
0.0
 11
1.325103727362204
 21
6.932647542809444
 31
0.0
  0
LINE
  5
4266
330
1E
100
AcDbEntity
  8
7
100
AcDbLine
 10
1.325103727362204
 20
6.932647542809444
 30
0.0
 11
1.309355599409448
 21
6.960206766726766
 31
0.0
  0
LINE
  5
4267
330
1E
100
AcDbEntity
  8
7
100
AcDbLine
 10
1.309355599409448
 20
6.960206766726766
 30
0.0
 11
1.283108719488188
 21
6.979891926667711
 31
0.0
  0
LINE
  5
4268
330
1E
100
AcDbEntity
  8
7
100
AcDbLine
 10
1.283108719488188
 20
6.979891926667711
 30
0.0
 11
1.251612463582676
 21
6.986453646648026
 31
0.0
  0
LINE
  5
4269
330
1E
100
AcDbEntity
  8
7
100
AcDbLine
 10
1.132189159940944
 20
6.986453646648026
 30
0.0
 11
1.100692904035432
 21
6.979891926667711
 31
0.0
  0
LINE
  5
426A
330
1E
100
AcDbEntity
  8
7
100
AcDbLine
 10
1.100692904035432
 20
6.979891926667711
 30
0.0
 11
1.074446024114172
 21
6.960206766726766
 31
0.0
  0
LINE
  5
426B
330
1E
100
AcDbEntity
  8
7
100
AcDbLine
 10
1.074446024114172
 20
6.960206766726766
 30
0.0
 11
1.058697896161416
 21
6.932647542809444
 31
0.0
  0
LINE
  5
426C
330
1E
100
AcDbEntity
  8
7
100
AcDbLine
 10
1.058697896161416
 20
6.932647542809444
 30
0.0
 11
1.054760864173228
 21
6.901151286903932
 31
0.0
  0
LINE
  5
426D
330
1E
100
AcDbEntity
  8
7
100
AcDbLine
 10
1.054760864173228
 20
6.901151286903932
 30
0.0
 11
1.065259616141731
 21
6.870967374994483
 31
0.0
  0
LINE
  5
426E
330
1E
100
AcDbEntity
  8
7
100
AcDbLine
 10
1.065259616141731
 20
6.870967374994483
 30
0.0
 11
1.086257120078739
 21
6.846032839069286
 31
0.0
  0
LINE
  5
426F
330
1E
100
AcDbEntity
  8
7
100
AcDbLine
 10
1.086257120078739
 20
6.846032839069286
 30
0.0
 11
1.116441031988188
 21
6.832909399108657
 31
0.0
  0
LINE
  5
4270
330
1E
100
AcDbEntity
  8
7
100
AcDbLine
 10
1.053448520177164
 20
7.03632271849842
 30
0.0
 11
1.021952264271653
 21
7.010075838577161
 31
0.0
  0
LINE
  5
4271
330
1E
100
AcDbEntity
  8
7
100
AcDbLine
 10
1.021952264271653
 20
7.010075838577161
 30
0.0
 11
0.9983300723425196
 21
6.975954894679523
 31
0.0
  0
LINE
  5
4272
330
1E
100
AcDbEntity
  8
7
100
AcDbLine
 10
0.9983300723425196
 20
6.975954894679523
 30
0.0
 11
0.9852066323818897
 21
6.937896918793696
 31
0.0
  0
LINE
  5
4273
330
1E
100
AcDbEntity
  8
7
100
AcDbLine
 10
0.9852066323818897
 20
6.937896918793696
 30
0.0
 11
0.9825819443897634
 21
6.895901910919681
 31
0.0
  0
LINE
  5
4274
330
1E
100
AcDbEntity
  8
7
100
AcDbLine
 10
0.9825819443897634
 20
6.895901910919681
 30
0.0
 11
0.9917683523622038
 21
6.856531591037789
 31
0.0
  0
LINE
  5
4275
330
1E
100
AcDbEntity
  8
7
100
AcDbLine
 10
0.9917683523622038
 20
6.856531591037789
 30
0.0
 11
1.011453512303149
 21
6.819785959148026
 31
0.0
  0
LINE
  5
4276
330
1E
100
AcDbEntity
  8
7
100
AcDbLine
 10
1.011453512303149
 20
6.819785959148026
 30
0.0
 11
1.040325080216534
 21
6.790914391234641
 31
0.0
  0
LINE
  5
4277
330
1E
100
AcDbEntity
  8
7
100
AcDbLine
 10
1.040325080216534
 20
6.790914391234641
 30
0.0
 11
1.075758368110235
 21
6.769916887297633
 31
0.0
  0
LINE
  5
4278
330
1E
100
AcDbEntity
  8
7
100
AcDbLine
 10
1.075758368110235
 20
6.769916887297633
 30
0.0
 11
1.116441031988188
 21
6.760730479325192
 31
0.0
  0
LINE
  5
4279
330
1E
100
AcDbEntity
  8
7
100
AcDbLine
 10
1.132189159940944
 20
7.058632566431491
 30
0.0
 11
1.091506496062992
 21
7.053383190447239
 31
0.0
  0
LINE
  5
427A
330
1E
100
AcDbEntity
  8
7
100
AcDbLine
 10
1.091506496062992
 20
7.053383190447239
 30
0.0
 11
1.053448520177164
 21
7.03632271849842
 31
0.0
  0
LINE
  5
427B
330
1E
100
AcDbEntity
  8
7
100
AcDbLine
 10
1.273922311515748
 20
6.702987343498421
 30
0.0
 11
2.922226370570865
 21
6.702987343498421
 31
0.0
  0
LINE
  5
427C
330
1E
100
AcDbEntity
  8
7
100
AcDbLine
 10
2.922226370570865
 20
6.702987343498421
 30
0.0
 11
2.924851058562991
 21
6.704299687494483
 31
0.0
  0
LINE
  5
427D
330
1E
100
AcDbEntity
  8
7
100
AcDbLine
 10
3.449788656988188
 20
7.113751014266137
 30
0.0
 11
3.45110100098425
 21
7.113751014266137
 31
0.0
  0
LINE
  5
427E
330
1E
100
AcDbEntity
  8
7
100
AcDbLine
 10
3.45110100098425
 20
7.113751014266137
 30
0.0
 11
3.490471320866141
 21
7.113751014266137
 31
0.0
  0
LINE
  5
427F
330
1E
100
AcDbEntity
  8
7
100
AcDbLine
 10
0.6426848494094486
 20
7.154433678144091
 30
0.0
 11
0.6282490654527555
 21
7.1504966461559
 31
0.0
  0
LINE
  5
4280
330
1E
100
AcDbEntity
  8
7
100
AcDbLine
 10
0.6282490654527555
 20
7.1504966461559
 30
0.0
 11
0.617750313484252
 21
7.138685550191334
 31
0.0
  0
LINE
  5
4281
330
1E
100
AcDbEntity
  8
7
100
AcDbLine
 10
0.617750313484252
 20
7.138685550191334
 30
0.0
 11
0.6125009375000002
 21
7.12424976623464
 31
0.0
  0
LINE
  5
4282
330
1E
100
AcDbEntity
  8
7
100
AcDbLine
 10
3.58233540059055
 20
7.12424976623464
 30
0.0
 11
3.578398368602361
 21
7.138685550191334
 31
0.0
  0
LINE
  5
4283
330
1E
100
AcDbEntity
  8
7
100
AcDbLine
 10
3.578398368602361
 20
7.138685550191334
 30
0.0
 11
3.567899616633857
 21
7.1504966461559
 31
0.0
  0
LINE
  5
4284
330
1E
100
AcDbEntity
  8
7
100
AcDbLine
 10
3.567899616633857
 20
7.1504966461559
 30
0.0
 11
3.552151488681102
 21
7.154433678144091
 31
0.0
  0
LINE
  5
4285
330
1E
100
AcDbEntity
  8
7
100
AcDbLine
 10
3.552151488681102
 20
6.66361702361653
 30
0.0
 11
3.567899616633857
 21
6.667554055604719
 31
0.0
  0
LINE
  5
4286
330
1E
100
AcDbEntity
  8
7
100
AcDbLine
 10
3.567899616633857
 20
6.667554055604719
 30
0.0
 11
3.578398368602361
 21
6.678052807573223
 31
0.0
  0
LINE
  5
4287
330
1E
100
AcDbEntity
  8
7
100
AcDbLine
 10
3.490471320866141
 20
6.702987343498421
 30
0.0
 11
3.497033040846456
 21
6.705612031490546
 31
0.0
  0
LINE
  5
4288
330
1E
100
AcDbEntity
  8
7
100
AcDbLine
 10
3.497033040846456
 20
6.705612031490546
 30
0.0
 11
3.499657728838582
 21
6.712173751470862
 31
0.0
  0
LINE
  5
4289
330
1E
100
AcDbEntity
  8
7
100
AcDbLine
 10
3.499657728838582
 20
7.104564606293696
 30
0.0
 11
3.497033040846456
 21
7.11112632627401
 31
0.0
  0
LINE
  5
428A
330
1E
100
AcDbEntity
  8
7
100
AcDbLine
 10
3.497033040846456
 20
7.11112632627401
 30
0.0
 11
3.490471320866141
 21
7.113751014266137
 31
0.0
  0
LINE
  5
428B
330
1E
100
AcDbEntity
  8
7
100
AcDbLine
 10
0.617750313484252
 20
6.678052807573223
 30
0.0
 11
0.6282490654527555
 21
6.667554055604719
 31
0.0
  0
LINE
  5
428C
330
1E
100
AcDbEntity
  8
7
100
AcDbLine
 10
0.6282490654527555
 20
6.667554055604719
 30
0.0
 11
0.6426848494094486
 21
6.66361702361653
 31
0.0
  0
LINE
  5
428D
330
1E
100
AcDbEntity
  8
7
100
AcDbLine
 10
0.6426848494094486
 20
7.154433678144091
 30
0.0
 11
3.552151488681102
 21
7.154433678144091
 31
0.0
  0
LINE
  5
428E
330
1E
100
AcDbEntity
  8
7
100
AcDbLine
 10
3.552151488681102
 20
7.154433678144091
 30
0.0
 11
3.553463832677164
 21
7.154433678144091
 31
0.0
  0
LINE
  5
428F
330
1E
100
AcDbEntity
  8
7
100
AcDbLine
 10
1.109879312007874
 20
6.66361702361653
 30
0.0
 11
0.6426848494094486
 21
6.66361702361653
 31
0.0
  0
LINE
  5
4290
330
1E
100
AcDbEntity
  8
7
100
AcDbLine
 10
0.6426848494094486
 20
6.66361702361653
 30
0.0
 11
0.6426848494094486
 21
6.662304679620468
 31
0.0
  0
LINE
  5
4291
330
1E
100
AcDbEntity
  8
7
100
AcDbLine
 10
3.083644682086613
 20
6.758105791333065
 30
0.0
 11
3.083644682086613
 21
6.704299687494483
 31
0.0
  0
LINE
  5
4292
330
1E
100
AcDbEntity
  8
7
100
AcDbLine
 10
3.083644682086613
 20
6.704299687494483
 30
0.0
 11
3.449788656988188
 21
6.704299687494483
 31
0.0
  0
LINE
  5
4293
330
1E
100
AcDbEntity
  8
7
100
AcDbLine
 10
3.083644682086613
 20
6.759418135329129
 30
0.0
 11
3.123015001968504
 21
6.769916887297633
 31
0.0
  0
LINE
  5
4294
330
1E
100
AcDbEntity
  8
7
100
AcDbLine
 10
3.123015001968504
 20
6.769916887297633
 30
0.0
 11
3.158448289862204
 21
6.790914391234641
 31
0.0
  0
LINE
  5
4295
330
1E
100
AcDbEntity
  8
7
100
AcDbLine
 10
3.158448289862204
 20
6.790914391234641
 30
0.0
 11
3.18731985777559
 21
6.82109830314409
 31
0.0
  0
LINE
  5
4296
330
1E
100
AcDbEntity
  8
7
100
AcDbLine
 10
3.18731985777559
 20
6.82109830314409
 30
0.0
 11
3.205692673720472
 21
6.857843935033853
 31
0.0
  0
LINE
  5
4297
330
1E
100
AcDbEntity
  8
7
100
AcDbLine
 10
3.205692673720472
 20
6.857843935033853
 30
0.0
 11
3.214879081692913
 21
6.898526598911805
 31
0.0
  0
LINE
  5
4298
330
1E
100
AcDbEntity
  8
7
100
AcDbLine
 10
3.214879081692913
 20
6.898526598911805
 30
0.0
 11
3.212254393700787
 21
6.939209262789759
 31
0.0
  0
LINE
  5
4299
330
1E
100
AcDbEntity
  8
7
100
AcDbLine
 10
3.212254393700787
 20
6.939209262789759
 30
0.0
 11
3.197818609744094
 21
6.978579582671649
 31
0.0
  0
LINE
  5
429A
330
1E
100
AcDbEntity
  8
7
100
AcDbLine
 10
3.197818609744094
 20
6.978579582671649
 30
0.0
 11
3.17419641781496
 21
7.011388182573224
 31
0.0
  0
LINE
  5
429B
330
1E
100
AcDbEntity
  8
7
100
AcDbLine
 10
3.17419641781496
 20
7.011388182573224
 30
0.0
 11
3.142700161909448
 21
7.037635062494484
 31
0.0
  0
LINE
  5
429C
330
1E
100
AcDbEntity
  8
7
100
AcDbLine
 10
3.142700161909448
 20
7.037635062494484
 30
0.0
 11
3.104642186023621
 21
7.054695534443302
 31
0.0
  0
LINE
  5
429D
330
1E
100
AcDbEntity
  8
7
100
AcDbLine
 10
3.104642186023621
 20
7.054695534443302
 30
0.0
 11
3.063959522145669
 21
7.059944910427553
 31
0.0
  0
LINE
  5
429E
330
1E
100
AcDbEntity
  8
7
100
AcDbLine
 10
2.865795578740157
 20
7.037635062494484
 30
0.0
 11
2.834299322834645
 21
7.011388182573224
 31
0.0
  0
LINE
  5
429F
330
1E
100
AcDbEntity
  8
7
100
AcDbLine
 10
2.834299322834645
 20
7.011388182573224
 30
0.0
 11
2.810677130905511
 21
6.978579582671649
 31
0.0
  0
LINE
  5
42A0
330
1E
100
AcDbEntity
  8
7
100
AcDbLine
 10
2.810677130905511
 20
6.978579582671649
 30
0.0
 11
2.796241346948818
 21
6.939209262789759
 31
0.0
  0
LINE
  5
42A1
330
1E
100
AcDbEntity
  8
7
100
AcDbLine
 10
2.796241346948818
 20
6.939209262789759
 30
0.0
 11
2.793616658956692
 21
6.898526598911805
 31
0.0
  0
LINE
  5
42A2
330
1E
100
AcDbEntity
  8
7
100
AcDbLine
 10
2.793616658956692
 20
6.898526598911805
 30
0.0
 11
2.802803066929133
 21
6.857843935033853
 31
0.0
  0
LINE
  5
42A3
330
1E
100
AcDbEntity
  8
7
100
AcDbLine
 10
2.802803066929133
 20
6.857843935033853
 30
0.0
 11
2.821175882874015
 21
6.82109830314409
 31
0.0
  0
LINE
  5
42A4
330
1E
100
AcDbEntity
  8
7
100
AcDbLine
 10
2.821175882874015
 20
6.82109830314409
 30
0.0
 11
2.850047450787401
 21
6.790914391234641
 31
0.0
  0
LINE
  5
42A5
330
1E
100
AcDbEntity
  8
7
100
AcDbLine
 10
2.850047450787401
 20
6.790914391234641
 30
0.0
 11
2.885480738681101
 21
6.769916887297633
 31
0.0
  0
LINE
  5
42A6
330
1E
100
AcDbEntity
  8
7
100
AcDbLine
 10
2.885480738681101
 20
6.769916887297633
 30
0.0
 11
2.924851058562991
 21
6.759418135329129
 31
0.0
  0
LINE
  5
42A7
330
1E
100
AcDbEntity
  8
7
100
AcDbLine
 10
2.944536218503936
 20
7.059944910427553
 30
0.0
 11
2.903853554625983
 21
7.054695534443302
 31
0.0
  0
LINE
  5
42A8
330
1E
100
AcDbEntity
  8
7
100
AcDbLine
 10
2.903853554625983
 20
7.054695534443302
 30
0.0
 11
2.865795578740157
 21
7.037635062494484
 31
0.0
  0
LINE
  5
42A9
330
1E
100
AcDbEntity
  8
7
100
AcDbLine
 10
1.271297623523621
 20
6.758105791333065
 30
0.0
 11
1.271297623523621
 21
6.704299687494483
 31
0.0
  0
LINE
  5
42AA
330
1E
100
AcDbEntity
  8
7
100
AcDbLine
 10
1.271297623523621
 20
6.704299687494483
 30
0.0
 11
2.924851058562991
 21
6.704299687494483
 31
0.0
  0
LINE
  5
42AB
330
1E
100
AcDbEntity
  8
7
100
AcDbLine
 10
2.924851058562991
 20
6.704299687494483
 30
0.0
 11
2.924851058562991
 21
6.758105791333065
 31
0.0
  0
LINE
  5
42AC
330
1E
100
AcDbEntity
  8
7
100
AcDbLine
 10
1.385471551181101
 20
6.978579582671649
 30
0.0
 11
1.361849359251968
 21
7.011388182573224
 31
0.0
  0
LINE
  5
42AD
330
1E
100
AcDbEntity
  8
7
100
AcDbLine
 10
1.361849359251968
 20
7.011388182573224
 30
0.0
 11
1.330353103346456
 21
7.037635062494484
 31
0.0
  0
LINE
  5
42AE
330
1E
100
AcDbEntity
  8
7
100
AcDbLine
 10
1.330353103346456
 20
7.037635062494484
 30
0.0
 11
1.292295127460629
 21
7.054695534443302
 31
0.0
  0
LINE
  5
42AF
330
1E
100
AcDbEntity
  8
7
100
AcDbLine
 10
1.292295127460629
 20
7.054695534443302
 30
0.0
 11
1.251612463582676
 21
7.059944910427553
 31
0.0
  0
LINE
  5
42B0
330
1E
100
AcDbEntity
  8
7
100
AcDbLine
 10
1.271297623523621
 20
6.759418135329129
 30
0.0
 11
1.310667943405511
 21
6.769916887297633
 31
0.0
  0
LINE
  5
42B1
330
1E
100
AcDbEntity
  8
7
100
AcDbLine
 10
1.310667943405511
 20
6.769916887297633
 30
0.0
 11
1.346101231299211
 21
6.790914391234641
 31
0.0
  0
LINE
  5
42B2
330
1E
100
AcDbEntity
  8
7
100
AcDbLine
 10
1.346101231299211
 20
6.790914391234641
 30
0.0
 11
1.374972799212597
 21
6.82109830314409
 31
0.0
  0
LINE
  5
42B3
330
1E
100
AcDbEntity
  8
7
100
AcDbLine
 10
1.374972799212597
 20
6.82109830314409
 30
0.0
 11
1.393345615157479
 21
6.857843935033853
 31
0.0
  0
LINE
  5
42B4
330
1E
100
AcDbEntity
  8
7
100
AcDbLine
 10
1.393345615157479
 20
6.857843935033853
 30
0.0
 11
1.40253202312992
 21
6.898526598911805
 31
0.0
  0
LINE
  5
42B5
330
1E
100
AcDbEntity
  8
7
100
AcDbLine
 10
1.40253202312992
 20
6.898526598911805
 30
0.0
 11
1.399907335137794
 21
6.939209262789759
 31
0.0
  0
LINE
  5
42B6
330
1E
100
AcDbEntity
  8
7
100
AcDbLine
 10
1.399907335137794
 20
6.939209262789759
 30
0.0
 11
1.385471551181101
 21
6.978579582671649
 31
0.0
  0
LINE
  5
42B7
330
1E
100
AcDbEntity
  8
7
100
AcDbLine
 10
1.132189159940944
 20
7.059944910427553
 30
0.0
 11
1.091506496062992
 21
7.054695534443302
 31
0.0
  0
LINE
  5
42B8
330
1E
100
AcDbEntity
  8
7
100
AcDbLine
 10
1.091506496062992
 20
7.054695534443302
 30
0.0
 11
1.053448520177164
 21
7.037635062494484
 31
0.0
  0
LINE
  5
42B9
330
1E
100
AcDbEntity
  8
7
100
AcDbLine
 10
1.053448520177164
 20
7.037635062494484
 30
0.0
 11
1.021952264271653
 21
7.011388182573224
 31
0.0
  0
LINE
  5
42BA
330
1E
100
AcDbEntity
  8
7
100
AcDbLine
 10
1.021952264271653
 20
7.011388182573224
 30
0.0
 11
0.9983300723425196
 21
6.978579582671649
 31
0.0
  0
LINE
  5
42BB
330
1E
100
AcDbEntity
  8
7
100
AcDbLine
 10
0.9983300723425196
 20
6.978579582671649
 30
0.0
 11
0.9838942883858265
 21
6.939209262789759
 31
0.0
  0
LINE
  5
42BC
330
1E
100
AcDbEntity
  8
7
100
AcDbLine
 10
0.9838942883858265
 20
6.939209262789759
 30
0.0
 11
0.9812696003937002
 21
6.898526598911805
 31
0.0
  0
LINE
  5
42BD
330
1E
100
AcDbEntity
  8
7
100
AcDbLine
 10
0.9812696003937002
 20
6.898526598911805
 30
0.0
 11
0.9904560083661415
 21
6.857843935033853
 31
0.0
  0
LINE
  5
42BE
330
1E
100
AcDbEntity
  8
7
100
AcDbLine
 10
0.9904560083661415
 20
6.857843935033853
 30
0.0
 11
1.008828824311023
 21
6.82109830314409
 31
0.0
  0
LINE
  5
42BF
330
1E
100
AcDbEntity
  8
7
100
AcDbLine
 10
1.008828824311023
 20
6.82109830314409
 30
0.0
 11
1.037700392224409
 21
6.790914391234641
 31
0.0
  0
LINE
  5
42C0
330
1E
100
AcDbEntity
  8
7
100
AcDbLine
 10
1.037700392224409
 20
6.790914391234641
 30
0.0
 11
1.073133680118109
 21
6.769916887297633
 31
0.0
  0
LINE
  5
42C1
330
1E
100
AcDbEntity
  8
7
100
AcDbLine
 10
0.7056773612204728
 20
7.113751014266137
 30
0.0
 11
0.7450476811023617
 21
7.113751014266137
 31
0.0
  0
LINE
  5
42C2
330
1E
100
AcDbEntity
  8
7
100
AcDbLine
 10
0.7450476811023617
 20
7.113751014266137
 30
0.0
 11
0.7463600250984248
 21
7.113751014266137
 31
0.0
  0
LINE
  5
42C3
330
1E
100
AcDbEntity
  8
7
100
AcDbLine
 10
0.6964909532480315
 20
6.712173751470862
 30
0.0
 11
0.6991156412401569
 21
6.705612031490546
 31
0.0
  0
LINE
  5
42C4
330
1E
100
AcDbEntity
  8
7
100
AcDbLine
 10
0.6991156412401569
 20
6.705612031490546
 30
0.0
 11
0.7056773612204728
 21
6.702987343498421
 31
0.0
  0
LINE
  5
42C5
330
1E
100
AcDbEntity
  8
7
100
AcDbLine
 10
0.6964909532480315
 20
6.712173751470862
 30
0.0
 11
0.6991156412401569
 21
6.705612031490546
 31
0.0
  0
LINE
  5
42C6
330
1E
100
AcDbEntity
  8
7
100
AcDbLine
 10
0.6991156412401569
 20
6.705612031490546
 30
0.0
 11
0.7056773612204728
 21
6.702987343498421
 31
0.0
  0
LINE
  5
42C7
330
1E
100
AcDbEntity
  8
7
100
AcDbLine
 10
0.6125009375000002
 20
6.692488591529917
 30
0.0
 11
0.6125009375000002
 21
6.693800935525979
 31
0.0
  0
LINE
  5
42C8
330
1E
100
AcDbEntity
  8
7
100
AcDbLine
 10
0.6125009375000002
 20
6.693800935525979
 30
0.0
 11
0.6125009375000002
 21
7.12424976623464
 31
0.0
  0
LINE
  5
42C9
330
1E
100
AcDbEntity
  8
7
100
AcDbLine
 10
0.6951786092519683
 20
6.712173751470862
 30
0.0
 11
0.6964909532480315
 21
6.712173751470862
 31
0.0
  0
LINE
  5
42CA
330
1E
100
AcDbEntity
  8
7
100
AcDbLine
 10
0.6964909532480315
 20
6.712173751470862
 30
0.0
 11
0.6964909532480315
 21
7.104564606293696
 31
0.0
  0
LINE
  5
42CB
330
1E
100
AcDbEntity
  8
7
100
AcDbLine
 10
0.7056773612204728
 20
7.113751014266137
 30
0.0
 11
0.6991156412401569
 21
7.11112632627401
 31
0.0
  0
LINE
  5
42CC
330
1E
100
AcDbEntity
  8
7
100
AcDbLine
 10
0.6991156412401569
 20
7.11112632627401
 30
0.0
 11
0.6964909532480315
 21
7.104564606293696
 31
0.0
  0
LINE
  5
42CD
330
1E
100
AcDbEntity
  8
7
100
AcDbLine
 10
0.7056773612204728
 20
7.113751014266137
 30
0.0
 11
0.6991156412401569
 21
7.11112632627401
 31
0.0
  0
LINE
  5
42CE
330
1E
100
AcDbEntity
  8
7
100
AcDbLine
 10
0.6991156412401569
 20
7.11112632627401
 30
0.0
 11
0.6964909532480315
 21
7.104564606293696
 31
0.0
  0
LINE
  5
42CF
330
1E
100
AcDbEntity
  8
7
100
AcDbLine
 10
-0.2024646840551192
 20
7.491706085132278
 30
0.0
 11
-0.1985276520669297
 21
7.506141869088971
 31
0.0
  0
LINE
  5
42D0
330
1E
100
AcDbEntity
  8
7
100
AcDbLine
 10
-0.1985276520669297
 20
7.506141869088971
 30
0.0
 11
-0.1880289000984261
 21
7.516640621057476
 31
0.0
  0
LINE
  5
42D1
330
1E
100
AcDbEntity
  8
7
100
AcDbLine
 10
-0.1880289000984261
 20
7.516640621057476
 30
0.0
 11
-0.1722807721456698
 21
7.520577653045664
 31
0.0
  0
LINE
  5
42D2
330
1E
100
AcDbEntity
  8
7
100
AcDbLine
 10
-0.1722807721456698
 20
7.520577653045664
 30
0.0
 11
4.368429454232282
 21
7.520577653045664
 31
0.0
  0
LINE
  5
42D3
330
1E
100
AcDbEntity
  8
7
100
AcDbLine
 10
4.368429454232282
 20
7.520577653045664
 30
0.0
 11
4.384177582185038
 21
7.516640621057476
 31
0.0
  0
LINE
  5
42D4
330
1E
100
AcDbEntity
  8
7
100
AcDbLine
 10
4.384177582185038
 20
7.516640621057476
 30
0.0
 11
4.394676334153542
 21
7.506141869088971
 31
0.0
  0
LINE
  5
42D5
330
1E
100
AcDbEntity
  8
7
100
AcDbLine
 10
4.394676334153542
 20
7.506141869088971
 30
0.0
 11
4.398613366141731
 21
7.491706085132278
 31
0.0
  0
LINE
  5
42D6
330
1E
100
AcDbEntity
  8
7
100
AcDbLine
 10
4.398613366141731
 20
7.491706085132278
 30
0.0
 11
4.398613366141731
 21
3.045484626470861
 31
0.0
  0
LINE
  5
42D7
330
1E
100
AcDbEntity
  8
7
100
AcDbLine
 10
4.398613366141731
 20
3.045484626470861
 30
0.0
 11
4.394676334153542
 21
3.029736498518105
 31
0.0
  0
LINE
  5
42D8
330
1E
100
AcDbEntity
  8
7
100
AcDbLine
 10
4.394676334153542
 20
3.029736498518105
 30
0.0
 11
4.384177582185038
 21
3.019237746549601
 31
0.0
  0
LINE
  5
42D9
330
1E
100
AcDbEntity
  8
7
100
AcDbLine
 10
4.384177582185038
 20
3.019237746549601
 30
0.0
 11
4.368429454232282
 21
3.015300714561412
 31
0.0
  0
LINE
  5
42DA
330
1E
100
AcDbEntity
  8
7
100
AcDbLine
 10
-0.1722807721456698
 20
3.015300714561412
 30
0.0
 11
-0.1880289000984261
 21
3.019237746549601
 31
0.0
  0
LINE
  5
42DB
330
1E
100
AcDbEntity
  8
7
100
AcDbLine
 10
-0.1880289000984261
 20
3.019237746549601
 30
0.0
 11
-0.1985276520669297
 21
3.029736498518105
 31
0.0
  0
LINE
  5
42DC
330
1E
100
AcDbEntity
  8
7
100
AcDbLine
 10
-0.1985276520669297
 20
3.029736498518105
 30
0.0
 11
-0.2024646840551192
 21
3.045484626470861
 31
0.0
  0
LINE
  5
42DD
330
1E
100
AcDbEntity
  8
7
100
AcDbLine
 10
0.9615844404527553
 20
3.877510719974798
 30
0.0
 11
0.7148637691929132
 21
3.877510719974798
 31
0.0
  0
LINE
  5
42DE
330
1E
100
AcDbEntity
  8
7
100
AcDbLine
 10
0.7148637691929132
 20
3.877510719974798
 30
0.0
 11
0.7030526732283456
 21
3.882760095959049
 31
0.0
  0
LINE
  5
42DF
330
1E
100
AcDbEntity
  8
7
100
AcDbLine
 10
0.7030526732283456
 20
3.882760095959049
 30
0.0
 11
0.6991156412401569
 21
3.894571191923617
 31
0.0
  0
LINE
  5
42E0
330
1E
100
AcDbEntity
  8
7
100
AcDbLine
 10
0.6991156412401569
 20
3.894571191923617
 30
0.0
 11
0.6991156412401569
 21
3.923442759837002
 31
0.0
  0
LINE
  5
42E1
330
1E
100
AcDbEntity
  8
7
100
AcDbLine
 10
0.6991156412401569
 20
3.923442759837002
 30
0.0
 11
0.7030526732283456
 21
3.93525385580157
 31
0.0
  0
LINE
  5
42E2
330
1E
100
AcDbEntity
  8
7
100
AcDbLine
 10
0.7030526732283456
 20
3.93525385580157
 30
0.0
 11
0.7148637691929132
 21
3.940503231785822
 31
0.0
  0
LINE
  5
42E3
330
1E
100
AcDbEntity
  8
7
100
AcDbLine
 10
0.9602720964566922
 20
3.940503231785822
 30
0.0
 11
0.9615844404527553
 21
3.940503231785822
 31
0.0
  0
LINE
  5
42E4
330
1E
100
AcDbEntity
  8
7
100
AcDbLine
 10
0.9615844404527553
 20
3.940503231785822
 30
0.0
 11
0.9733955364173221
 21
3.93525385580157
 31
0.0
  0
LINE
  5
42E5
330
1E
100
AcDbEntity
  8
7
100
AcDbLine
 10
0.9733955364173221
 20
3.93525385580157
 30
0.0
 11
0.9773325684055116
 21
3.923442759837002
 31
0.0
  0
LINE
  5
42E6
330
1E
100
AcDbEntity
  8
7
100
AcDbLine
 10
0.9773325684055116
 20
3.923442759837002
 30
0.0
 11
0.9773325684055116
 21
3.894571191923617
 31
0.0
  0
LINE
  5
42E7
330
1E
100
AcDbEntity
  8
7
100
AcDbLine
 10
0.9773325684055116
 20
3.894571191923617
 30
0.0
 11
0.9733955364173221
 21
3.882760095959049
 31
0.0
  0
LINE
  5
42E8
330
1E
100
AcDbEntity
  8
7
100
AcDbLine
 10
0.9733955364173221
 20
3.882760095959049
 30
0.0
 11
0.9615844404527553
 21
3.877510719974798
 31
0.0
  0
LINE
  5
42E9
330
1E
100
AcDbEntity
  8
7
100
AcDbLine
 10
3.234564241633858
 20
3.940503231785822
 30
0.0
 11
3.222753145669291
 21
3.93525385580157
 31
0.0
  0
LINE
  5
42EA
330
1E
100
AcDbEntity
  8
7
100
AcDbLine
 10
3.222753145669291
 20
3.93525385580157
 30
0.0
 11
3.218816113681102
 21
3.923442759837002
 31
0.0
  0
LINE
  5
42EB
330
1E
100
AcDbEntity
  8
7
100
AcDbLine
 10
3.218816113681102
 20
3.894571191923617
 30
0.0
 11
3.222753145669291
 21
3.882760095959049
 31
0.0
  0
LINE
  5
42EC
330
1E
100
AcDbEntity
  8
7
100
AcDbLine
 10
3.222753145669291
 20
3.882760095959049
 30
0.0
 11
3.234564241633858
 21
3.877510719974798
 31
0.0
  0
LINE
  5
42ED
330
1E
100
AcDbEntity
  8
7
100
AcDbLine
 10
3.481284912893699
 20
3.877510719974798
 30
0.0
 11
3.493096008858266
 21
3.882760095959049
 31
0.0
  0
LINE
  5
42EE
330
1E
100
AcDbEntity
  8
7
100
AcDbLine
 10
3.493096008858266
 20
3.882760095959049
 30
0.0
 11
3.497033040846456
 21
3.894571191923617
 31
0.0
  0
LINE
  5
42EF
330
1E
100
AcDbEntity
  8
7
100
AcDbLine
 10
3.497033040846456
 20
3.923442759837002
 30
0.0
 11
3.493096008858266
 21
3.93525385580157
 31
0.0
  0
LINE
  5
42F0
330
1E
100
AcDbEntity
  8
7
100
AcDbLine
 10
3.493096008858266
 20
3.93525385580157
 30
0.0
 11
3.481284912893699
 21
3.940503231785822
 31
0.0
  0
LINE
  5
42F1
330
1E
100
AcDbEntity
  8
7
100
AcDbLine
 10
1.046886800196849
 20
6.642619519679522
 30
0.0
 11
1.046886800196849
 21
6.612435607770073
 31
0.0
  0
LINE
  5
42F2
330
1E
100
AcDbEntity
  8
7
100
AcDbLine
 10
1.046886800196849
 20
6.612435607770073
 30
0.0
 11
1.042949768208661
 21
6.600624511805507
 31
0.0
  0
LINE
  5
42F3
330
1E
100
AcDbEntity
  8
7
100
AcDbLine
 10
1.042949768208661
 20
6.600624511805507
 30
0.0
 11
1.031138672244093
 21
6.596687479817317
 31
0.0
  0
LINE
  5
42F4
330
1E
100
AcDbEntity
  8
7
100
AcDbLine
 10
0.7857303449803146
 20
6.596687479817317
 30
0.0
 11
0.7844180009842514
 21
6.596687479817317
 31
0.0
  0
LINE
  5
42F5
330
1E
100
AcDbEntity
  8
7
100
AcDbLine
 10
0.7844180009842514
 20
6.596687479817317
 30
0.0
 11
0.7726069050196847
 21
6.600624511805507
 31
0.0
  0
LINE
  5
42F6
330
1E
100
AcDbEntity
  8
7
100
AcDbLine
 10
0.7726069050196847
 20
6.600624511805507
 30
0.0
 11
0.7686698730314961
 21
6.612435607770073
 31
0.0
  0
LINE
  5
42F7
330
1E
100
AcDbEntity
  8
7
100
AcDbLine
 10
0.7686698730314961
 20
6.612435607770073
 30
0.0
 11
0.7686698730314961
 21
6.642619519679522
 31
0.0
  0
LINE
  5
42F8
330
1E
100
AcDbEntity
  8
7
100
AcDbLine
 10
0.7686698730314961
 20
6.642619519679522
 30
0.0
 11
0.7726069050196847
 21
6.653118271648026
 31
0.0
  0
LINE
  5
42F9
330
1E
100
AcDbEntity
  8
7
100
AcDbLine
 10
0.7726069050196847
 20
6.653118271648026
 30
0.0
 11
0.7844180009842514
 21
6.658367647632278
 31
0.0
  0
LINE
  5
42FA
330
1E
100
AcDbEntity
  8
7
100
AcDbLine
 10
0.7844180009842514
 20
6.658367647632278
 30
0.0
 11
1.031138672244093
 21
6.658367647632278
 31
0.0
  0
LINE
  5
42FB
330
1E
100
AcDbEntity
  8
7
100
AcDbLine
 10
1.031138672244093
 20
6.658367647632278
 30
0.0
 11
1.042949768208661
 21
6.653118271648026
 31
0.0
  0
LINE
  5
42FC
330
1E
100
AcDbEntity
  8
7
100
AcDbLine
 10
1.042949768208661
 20
6.653118271648026
 30
0.0
 11
1.046886800196849
 21
6.642619519679522
 31
0.0
  0
LINE
  5
42FD
330
1E
100
AcDbEntity
  8
7
100
AcDbLine
 10
3.422229433070865
 20
6.653118271648026
 30
0.0
 11
3.427478809055117
 21
6.642619519679522
 31
0.0
  0
LINE
  5
42FE
330
1E
100
AcDbEntity
  8
7
100
AcDbLine
 10
3.427478809055117
 20
6.642619519679522
 30
0.0
 11
3.427478809055117
 21
6.612435607770073
 31
0.0
  0
LINE
  5
42FF
330
1E
100
AcDbEntity
  8
7
100
AcDbLine
 10
3.427478809055117
 20
6.612435607770073
 30
0.0
 11
3.422229433070865
 21
6.600624511805507
 31
0.0
  0
LINE
  5
4300
330
1E
100
AcDbEntity
  8
7
100
AcDbLine
 10
3.422229433070865
 20
6.600624511805507
 30
0.0
 11
3.411730681102361
 21
6.596687479817317
 31
0.0
  0
LINE
  5
4301
330
1E
100
AcDbEntity
  8
7
100
AcDbLine
 10
3.165010009842519
 20
6.596687479817317
 30
0.0
 11
3.153198913877952
 21
6.600624511805507
 31
0.0
  0
LINE
  5
4302
330
1E
100
AcDbEntity
  8
7
100
AcDbLine
 10
3.153198913877952
 20
6.600624511805507
 30
0.0
 11
3.1479495378937
 21
6.612435607770073
 31
0.0
  0
LINE
  5
4303
330
1E
100
AcDbEntity
  8
7
100
AcDbLine
 10
3.1479495378937
 20
6.612435607770073
 30
0.0
 11
3.1479495378937
 21
6.642619519679522
 31
0.0
  0
LINE
  5
4304
330
1E
100
AcDbEntity
  8
7
100
AcDbLine
 10
3.1479495378937
 20
6.642619519679522
 30
0.0
 11
3.153198913877952
 21
6.653118271648026
 31
0.0
  0
LINE
  5
4305
330
1E
100
AcDbEntity
  8
7
100
AcDbLine
 10
3.153198913877952
 20
6.653118271648026
 30
0.0
 11
3.165010009842519
 21
6.658367647632278
 31
0.0
  0
LINE
  5
4306
330
1E
100
AcDbEntity
  8
7
100
AcDbLine
 10
3.165010009842519
 20
6.658367647632278
 30
0.0
 11
3.411730681102361
 21
6.658367647632278
 31
0.0
  0
LINE
  5
4307
330
1E
100
AcDbEntity
  8
7
100
AcDbLine
 10
3.411730681102361
 20
6.658367647632278
 30
0.0
 11
3.422229433070865
 21
6.653118271648026
 31
0.0
  0
LINE
  5
4308
330
1E
100
AcDbEntity
  8
7
100
AcDbLine
 10
3.567899616633857
 20
7.1504966461559
 30
0.0
 11
3.579710712598424
 21
7.139997894187397
 31
0.0
  0
LINE
  5
4309
330
1E
100
AcDbEntity
  8
7
100
AcDbLine
 10
3.579710712598424
 20
7.139997894187397
 30
0.0
 11
3.583647744586613
 21
7.12424976623464
 31
0.0
  0
LINE
  5
430A
330
1E
100
AcDbEntity
  8
7
100
AcDbLine
 10
3.583647744586613
 20
7.12424976623464
 30
0.0
 11
3.583647744586613
 21
6.692488591529917
 31
0.0
  0
LINE
  5
430B
330
1E
100
AcDbEntity
  8
7
100
AcDbLine
 10
3.583647744586613
 20
6.692488591529917
 30
0.0
 11
3.579710712598424
 21
6.678052807573223
 31
0.0
  0
LINE
  5
430C
330
1E
100
AcDbEntity
  8
7
100
AcDbLine
 10
3.579710712598424
 20
6.678052807573223
 30
0.0
 11
3.567899616633857
 21
6.666241711608657
 31
0.0
  0
LINE
  5
430D
330
1E
100
AcDbEntity
  8
7
100
AcDbLine
 10
3.567899616633857
 20
6.666241711608657
 30
0.0
 11
3.553463832677164
 21
6.662304679620468
 31
0.0
  0
LINE
  5
430E
330
1E
100
AcDbEntity
  8
7
100
AcDbLine
 10
0.6426848494094486
 20
6.662304679620468
 30
0.0
 11
0.6269367214566924
 21
6.666241711608657
 31
0.0
  0
LINE
  5
430F
330
1E
100
AcDbEntity
  8
7
100
AcDbLine
 10
0.6269367214566924
 20
6.666241711608657
 30
0.0
 11
0.6164379694881888
 21
6.678052807573223
 31
0.0
  0
LINE
  5
4310
330
1E
100
AcDbEntity
  8
7
100
AcDbLine
 10
0.6164379694881888
 20
6.678052807573223
 30
0.0
 11
0.6125009375000002
 21
6.692488591529917
 31
0.0
  0
LINE
  5
4311
330
1E
100
AcDbEntity
  8
7
100
AcDbLine
 10
0.6125009375000002
 20
6.692488591529917
 30
0.0
 11
0.6125009375000002
 21
7.12424976623464
 31
0.0
  0
LINE
  5
4312
330
1E
100
AcDbEntity
  8
7
100
AcDbLine
 10
0.6125009375000002
 20
7.12424976623464
 30
0.0
 11
0.6164379694881888
 21
7.139997894187397
 31
0.0
  0
LINE
  5
4313
330
1E
100
AcDbEntity
  8
7
100
AcDbLine
 10
0.6164379694881888
 20
7.139997894187397
 30
0.0
 11
0.6269367214566924
 21
7.1504966461559
 31
0.0
  0
LINE
  5
4314
330
1E
100
AcDbEntity
  8
7
100
AcDbLine
 10
0.6269367214566924
 20
7.1504966461559
 30
0.0
 11
0.6426848494094486
 21
7.154433678144091
 31
0.0
  0
LINE
  5
4315
330
1E
100
AcDbEntity
  8
7
100
AcDbLine
 10
0.6426848494094486
 20
7.154433678144091
 30
0.0
 11
3.553463832677164
 21
7.154433678144091
 31
0.0
  0
LINE
  5
4316
330
1E
100
AcDbEntity
  8
7
100
AcDbLine
 10
3.553463832677164
 20
7.154433678144091
 30
0.0
 11
3.567899616633857
 21
7.1504966461559
 31
0.0
  0
LINE
  5
4317
330
1E
100
AcDbEntity
  8
7
100
AcDbLine
 10
0.6426848494094486
 20
3.381444689462987
 30
0.0
 11
0.6269367214566924
 21
3.385381721451176
 31
0.0
  0
LINE
  5
4318
330
1E
100
AcDbEntity
  8
7
100
AcDbLine
 10
0.6269367214566924
 20
3.385381721451176
 30
0.0
 11
0.6164379694881888
 21
3.397192817415742
 31
0.0
  0
LINE
  5
4319
330
1E
100
AcDbEntity
  8
7
100
AcDbLine
 10
0.6164379694881888
 20
3.397192817415742
 30
0.0
 11
0.6125009375000002
 21
3.411628601372436
 31
0.0
  0
LINE
  5
431A
330
1E
100
AcDbEntity
  8
7
100
AcDbLine
 10
0.6125009375000002
 20
3.411628601372436
 30
0.0
 11
0.6125009375000002
 21
3.84338977607716
 31
0.0
  0
LINE
  5
431B
330
1E
100
AcDbEntity
  8
7
100
AcDbLine
 10
0.6125009375000002
 20
3.84338977607716
 30
0.0
 11
0.6164379694881888
 21
3.859137904029916
 31
0.0
  0
LINE
  5
431C
330
1E
100
AcDbEntity
  8
7
100
AcDbLine
 10
0.6164379694881888
 20
3.859137904029916
 30
0.0
 11
0.6269367214566924
 21
3.86963665599842
 31
0.0
  0
LINE
  5
431D
330
1E
100
AcDbEntity
  8
7
100
AcDbLine
 10
0.6269367214566924
 20
3.86963665599842
 30
0.0
 11
0.6426848494094486
 21
3.873573687986609
 31
0.0
  0
LINE
  5
431E
330
1E
100
AcDbEntity
  8
7
100
AcDbLine
 10
3.583647744586613
 20
3.411628601372436
 30
0.0
 11
3.579710712598424
 21
3.397192817415742
 31
0.0
  0
LINE
  5
431F
330
1E
100
AcDbEntity
  8
7
100
AcDbLine
 10
3.579710712598424
 20
3.397192817415742
 30
0.0
 11
3.567899616633857
 21
3.385381721451176
 31
0.0
  0
LINE
  5
4320
330
1E
100
AcDbEntity
  8
7
100
AcDbLine
 10
3.567899616633857
 20
3.385381721451176
 30
0.0
 11
3.553463832677164
 21
3.381444689462987
 31
0.0
  0
LINE
  5
4321
330
1E
100
AcDbEntity
  8
7
100
AcDbLine
 10
3.084957026082677
 20
3.873573687986609
 30
0.0
 11
3.553463832677164
 21
3.873573687986609
 31
0.0
  0
LINE
  5
4322
330
1E
100
AcDbEntity
  8
7
100
AcDbLine
 10
3.553463832677164
 20
3.873573687986609
 30
0.0
 11
3.567899616633857
 21
3.86963665599842
 31
0.0
  0
LINE
  5
4323
330
1E
100
AcDbEntity
  8
7
100
AcDbLine
 10
3.567899616633857
 20
3.86963665599842
 30
0.0
 11
3.579710712598424
 21
3.859137904029916
 31
0.0
  0
LINE
  5
4324
330
1E
100
AcDbEntity
  8
7
100
AcDbLine
 10
3.579710712598424
 20
3.859137904029916
 30
0.0
 11
3.583647744586613
 21
3.84338977607716
 31
0.0
  0
LINE
  5
4325
330
1E
100
AcDbEntity
  8
7
100
AcDbLine
 10
1.272609967519684
 20
3.89588353591968
 30
0.0
 11
1.272609967519684
 21
3.873573687986609
 31
0.0
  0
LINE
  5
4326
330
1E
100
AcDbEntity
  8
7
100
AcDbLine
 10
1.272609967519684
 20
3.873573687986609
 30
0.0
 11
2.923538714566928
 21
3.873573687986609
 31
0.0
  0
LINE
  5
4327
330
1E
100
AcDbEntity
  8
7
100
AcDbLine
 10
0.8382241048228342
 20
6.645244207671649
 30
0.0
 11
0.7857303449803146
 21
6.645244207671649
 31
0.0
  0
LINE
  5
4328
330
1E
100
AcDbEntity
  8
7
100
AcDbLine
 10
0.7857303449803146
 20
6.645244207671649
 30
0.0
 11
0.7778562810039365
 21
6.63737014369527
 31
0.0
  0
LINE
  5
4329
330
1E
100
AcDbEntity
  8
7
100
AcDbLine
 10
1.037700392224409
 20
6.63737014369527
 30
0.0
 11
1.029826328248031
 21
6.645244207671649
 31
0.0
  0
LINE
  5
432A
330
1E
100
AcDbEntity
  8
7
100
AcDbLine
 10
1.029826328248031
 20
6.645244207671649
 30
0.0
 11
0.9786449124015739
 21
6.645244207671649
 31
0.0
  0
LINE
  5
432B
330
1E
100
AcDbEntity
  8
7
100
AcDbLine
 10
3.418292401082676
 20
6.63737014369527
 30
0.0
 11
3.410418337106297
 21
6.645244207671649
 31
0.0
  0
LINE
  5
432C
330
1E
100
AcDbEntity
  8
7
100
AcDbLine
 10
3.410418337106297
 20
6.645244207671649
 30
0.0
 11
3.357924577263779
 21
6.645244207671649
 31
0.0
  0
LINE
  5
432D
330
1E
100
AcDbEntity
  8
7
100
AcDbLine
 10
1.26211121555118
 20
6.666241711608657
 30
0.0
 11
1.268672935531496
 21
6.666241711608657
 31
0.0
  0
LINE
  5
432E
330
1E
100
AcDbEntity
  8
7
100
AcDbLine
 10
1.268672935531496
 20
6.666241711608657
 30
0.0
 11
1.268672935531496
 21
6.676740463577161
 31
0.0
  0
LINE
  5
432F
330
1E
100
AcDbEntity
  8
7
100
AcDbLine
 10
1.115128687992125
 20
6.676740463577161
 30
0.0
 11
1.115128687992125
 21
6.666241711608657
 31
0.0
  0
LINE
  5
4330
330
1E
100
AcDbEntity
  8
7
100
AcDbLine
 10
1.115128687992125
 20
6.666241711608657
 30
0.0
 11
1.12169040797244
 21
6.666241711608657
 31
0.0
  0
LINE
  5
4331
330
1E
100
AcDbEntity
  8
7
100
AcDbLine
 10
3.074458274114173
 20
6.666241711608657
 30
0.0
 11
3.081019994094487
 21
6.666241711608657
 31
0.0
  0
LINE
  5
4332
330
1E
100
AcDbEntity
  8
7
100
AcDbLine
 10
3.081019994094487
 20
6.666241711608657
 30
0.0
 11
3.081019994094487
 21
6.676740463577161
 31
0.0
  0
LINE
  5
4333
330
1E
100
AcDbEntity
  8
7
100
AcDbLine
 10
2.927475746555118
 20
6.676740463577161
 30
0.0
 11
2.927475746555118
 21
6.666241711608657
 31
0.0
  0
LINE
  5
4334
330
1E
100
AcDbEntity
  8
7
100
AcDbLine
 10
2.927475746555118
 20
6.666241711608657
 30
0.0
 11
2.934037466535432
 21
6.666241711608657
 31
0.0
  0
LINE
  5
4335
330
1E
100
AcDbEntity
  8
7
100
AcDbLine
 10
0.7083020492125974
 20
3.898508223911805
 30
0.0
 11
0.7161761131889764
 21
3.890634159935428
 31
0.0
  0
LINE
  5
4336
330
1E
100
AcDbEntity
  8
7
100
AcDbLine
 10
0.7161761131889764
 20
3.890634159935428
 30
0.0
 11
0.7673575290354329
 21
3.890634159935428
 31
0.0
  0
LINE
  5
4337
330
1E
100
AcDbEntity
  8
7
100
AcDbLine
 10
0.9077783366141725
 20
3.890634159935428
 30
0.0
 11
0.9602720964566922
 21
3.890634159935428
 31
0.0
  0
LINE
  5
4338
330
1E
100
AcDbEntity
  8
7
100
AcDbLine
 10
0.9602720964566922
 20
3.890634159935428
 30
0.0
 11
0.9681461604330703
 21
3.898508223911805
 31
0.0
  0
LINE
  5
4339
330
1E
100
AcDbEntity
  8
7
100
AcDbLine
 10
1.12169040797244
 20
3.870948999994483
 30
0.0
 11
1.115128687992125
 21
3.870948999994483
 31
0.0
  0
LINE
  5
433A
330
1E
100
AcDbEntity
  8
7
100
AcDbLine
 10
1.115128687992125
 20
3.870948999994483
 30
0.0
 11
1.115128687992125
 21
3.860450248025979
 31
0.0
  0
LINE
  5
433B
330
1E
100
AcDbEntity
  8
7
100
AcDbLine
 10
1.268672935531496
 20
3.860450248025979
 30
0.0
 11
1.268672935531496
 21
3.870948999994483
 31
0.0
  0
LINE
  5
433C
330
1E
100
AcDbEntity
  8
7
100
AcDbLine
 10
1.268672935531496
 20
3.870948999994483
 30
0.0
 11
1.26211121555118
 21
3.870948999994483
 31
0.0
  0
ENDSEC
  0
SECTION
  2
OBJECTS
  0
DICTIONARY
  5
C
330
0
100
AcDbDictionary
  3
ACAD_GROUP
350
D
  3
ACAD_LAYOUT
350
19
  3
ACAD_MLINESTYLE
350
16
  3
ACAD_PLOTSETTINGS
350
18
1001
ACAD
1000
TREAT_AS_HARD
1070
     0
  0
DICTIONARY
  5
553A
330
1E
100
AcDbDictionary
  3
ACAD_LAYOUTSELFREF
350
5575
1001
ACAD
1000
TREAT_AS_HARD
1070
     1
  0
DICTIONARY
  5
553C
330
1A
100
AcDbDictionary
  3
ACAD_LAYOUTSELFREF
350
5574
1001
ACAD
1000
TREAT_AS_HARD
1070
     1
  0
DICTIONARY
  5
D
102
{ACAD_REACTORS
330
C
102
}
330
C
100
AcDbDictionary
1001
ACAD
1000
TREAT_AS_HARD
1070
     0
  0
DICTIONARY
  5
19
102
{ACAD_REACTORS
330
C
102
}
330
C
100
AcDbDictionary
1001
ACAD
1000
TREAT_AS_HARD
1070
     0
  0
DICTIONARY
  5
16
102
{ACAD_REACTORS
330
C
102
}
330
C
100
AcDbDictionary
  3
STANDARD
350
17
1001
ACAD
1000
TREAT_AS_HARD
1070
     0
  0
DICTIONARY
  5
18
102
{ACAD_REACTORS
330
C
102
}
330
C
100
AcDbDictionary
1001
ACAD
1000
TREAT_AS_HARD
1070
     0
  0
XRECORD
  5
5575
102
{ACAD_REACTORS
330
553A
102
}
330
553A
100
AcDbXrecord
340
1E
  0
XRECORD
  5
5574
102
{ACAD_REACTORS
330
553C
102
}
330
553C
100
AcDbXrecord
340
1A
  0
MLINESTYLE
  5
17
102
{ACAD_REACTORS
330
16
102
}
330
16
100
AcDbMlineStyle
  2
STANDARD
 70
     0
  3

 62
   256
 51
90.0
 52
90.0
 71
     2
 49
0.5
 62
   256
  6
BYLAYER
 49
-0.5
 62
   256
  6
BYLAYER
  0
ENDSEC
  0
EOF
