999
DXF file: C:\Users\sesa63760\Dev\_Creo\CAD\MCADID0000939_3D-CAD\drw0001_1.dxf
999
Pro/ENGINEER 2019471 by Parametric Technology Corporation
  0
SECTION
  2
HEADER
  9
$ACADVER
  1
AC1024
  9
$DWGCODEPAGE
  3
ANSI_1252
  9
$EXTMAX
 10
525.2304310473
 20
742.8258953384
 30
0.0
  9
$EXTMIN
 10
0.0
 20
0.0
 30
0.0
  9
$LIMMIN
 10
0.0
 20
0.0
  9
$LIMMAX
 10
525.2304310473
 20
742.8258953384
  9
$VIEWCTR
 10
262.6152155237
 20
371.4129476692
  9
$VIEWSIZE
 40
742.8258953384
  9
$CLAYER
  8
0
  9
$LTSCALE
 40
48.421243548
  9
$CELTYPE
  6
BYLAYER
  9
$DIMSCALE
 40
1.0
  9
$DIMASZ
 40
6.2527432268
  9
$DIMEXO
 40
1.0
  9
$DIMDLI
 40
33.4546773604
  9
$DIMEXE
 40
1.0
  9
$DIMCEN
 40
7.9234762169
  9
$DIMLFAC
 40
1.0
  9
$DIMBLK
  1
_FILLED
  9
$DIMALT
 70
0
  9
$DIMALTF
 40
0.0393700787
  9
$DIMTXT
 40
8.7538405175
  9
$DIMTOL
 70
1
  9
$DIMLIM
 70
0
  9
$DIMTFAC
 40
1.0
  9
$DIMTP
 40
0.01
  9
$DIMTM
 40
0.01
  9
$DIMGAP
 40
0.625
  9
$DIMDSEP
 70
46
  9
$AUNITS
 70
0
  9
$PDMODE
 70
3
  9
$PDSIZE
 40
0.3125
  9
$HANDSEED
  5
56E
  9
$TILEMODE
 70
1
  9
$MEASUREMENT
 70
1
  9
$INSUNITS
 70
4
  0
ENDSEC
  0
SECTION
  2
CLASSES
  0
CLASS
  1
ACDBDICTIONARYWDFLT
  2
AcDbDictionaryWithDefault
  3
AutoCAD 2000
 90
0
 91
1
280
0
281
0
  0
CLASS
  1
ACDBPLACEHOLDER
  2
AcDbPlaceHolder
  3
AutoCAD 2000
 90
0
 91
1
280
0
281
0
  0
CLASS
  1
LAYOUT
  2
AcDbLayout
  3
AutoCAD 2000
 90
0
 91
0
280
0
281
0
  0
ENDSEC
  0
SECTION
  2
TABLES
  0
TABLE
  2
VPORT
  5
8
100
AcDbSymbolTable
 70
2
  0
VPORT
  5
1F4
100
AcDbSymbolTableRecord
100
AcDbViewportTableRecord
  2
*ACTIVE
 70
0
 10
0.0
 20
0.0
 11
1.0
 21
1.0
 12
262.6152155237
 22
371.4129476692
 13
0.0
 23
0.0
 14
1.0
 24
1.0
 15
0.0
 25
0.0
 16
0.0
 26
0.0
 36
1.0
 17
0.0
 27
0.0
 37
0.0
 40
742.8258953384
 41
0.7070707071
 42
50.0
 43
0.0
 44
0.0
 50
0.0
 51
0.0
 71
0
 72
100
 73
1
 74
1
 75
0
 76
0
 77
0
 78
0
  0
ENDTAB
  0
TABLE
  2
LTYPE
  5
5
100
AcDbSymbolTable
 70
6
  0
LTYPE
  5
14
100
AcDbSymbolTableRecord
100
AcDbLinetypeTableRecord
  2
BYBLOCK
 70
0
  3

 72
65
 73
0
 40
0.0
  0
LTYPE
  5
15
100
AcDbSymbolTableRecord
100
AcDbLinetypeTableRecord
  2
BYLAYER
 70
0
  3

 72
65
 73
0
 40
0.0
  0
LTYPE
  5
16
100
AcDbSymbolTableRecord
100
AcDbLinetypeTableRecord
  2
CONTINUOUS
 70
64
  3
Solid line
 72
65
 73
0
 40
0.0
  0
LTYPE
  5
1F5
100
AcDbSymbolTableRecord
100
AcDbLinetypeTableRecord
  2
CENTER
 70
64
  3
____ _ ____ _ ____ _ ____ _ ____ _ ____ _ ____
 72
65
 73
4
 40
0.6
 49
0.375
 74
0
 49
-0.075
 74
0
 49
0.075
 74
0
 49
-0.075
 74
0
  0
LTYPE
  5
1F6
100
AcDbSymbolTableRecord
100
AcDbLinetypeTableRecord
  2
HIDDEN
 70
64
  3
- - - - - - - - - - - - - - - - - - - -
 72
65
 73
2
 40
0.2
 49
0.1
 74
0
 49
-0.1
 74
0
  0
LTYPE
  5
1F7
100
AcDbSymbolTableRecord
100
AcDbLinetypeTableRecord
  2
PHANTOM
 70
64
  3
_____ _ _ _____ _ _ _____ _ _ _____
 72
65
 73
6
 40
0.8
 49
0.45
 74
0
 49
-0.05
 74
0
 49
0.1
 74
0
 49
-0.05
 74
0
 49
0.1
 74
0
 49
-0.05
 74
0
  0
LTYPE
  5
1F8
100
AcDbSymbolTableRecord
100
AcDbLinetypeTableRecord
  2
DOT
 70
64
  3
. . . . . . . . . . . . . . . . . . . .
 72
65
 73
2
 40
0.2
 49
0.1
 74
0
 49
-0.1
 74
0
  0
LTYPE
  5
1F9
100
AcDbSymbolTableRecord
100
AcDbLinetypeTableRecord
  2
DASHED
 70
64
  3
- - - - - - - - - - - - - - - - - - - -
 72
65
 73
2
 40
0.2
 49
0.1
 74
0
 49
-0.1
 74
0
  0
ENDTAB
  0
TABLE
  2
LAYER
  5
2
100
AcDbSymbolTable
 70
36
  0
LAYER
  5
10
100
AcDbSymbolTableRecord
100
AcDbLayerTableRecord
  2
0
 70
0
 62
7
  6
CONTINUOUS
370
-3
390
F
  0
LAYER
  5
1FA
100
AcDbSymbolTableRecord
100
AcDbLayerTableRecord
  2
DEFAULT_1
 70
0
 62
7
  6
CENTER
370
-3
390
F
  0
LAYER
  5
1FB
100
AcDbSymbolTableRecord
100
AcDbLayerTableRecord
  2
DEFAULT_2
 70
0
 62
8
  6
HIDDEN
370
-3
390
F
  0
LAYER
  5
1FC
100
AcDbSymbolTableRecord
100
AcDbLayerTableRecord
  2
DEFAULT_3
 70
0
 62
7
  6
PHANTOM
370
-3
390
F
  0
LAYER
  5
1FD
100
AcDbSymbolTableRecord
100
AcDbLayerTableRecord
  2
00_COMPONENTS
 70
0
 62
7
  6
CONTINUOUS
370
-3
390
F
  0
LAYER
  5
1FE
100
AcDbSymbolTableRecord
100
AcDbLayerTableRecord
  2
01_1_DEFAULT_DATUMS
 70
0
 62
7
  6
CONTINUOUS
370
-3
390
F
  0
LAYER
  5
1FF
100
AcDbSymbolTableRecord
100
AcDbLayerTableRecord
  2
01_PLANES
 70
0
 62
7
  6
CONTINUOUS
370
-3
390
F
  0
LAYER
  5
200
100
AcDbSymbolTableRecord
100
AcDbLayerTableRecord
  2
02_COORD_SYS
 70
0
 62
7
  6
CONTINUOUS
370
-3
390
F
  0
LAYER
  5
201
100
AcDbSymbolTableRecord
100
AcDbLayerTableRecord
  2
03_AXES
 70
0
 62
7
  6
CONTINUOUS
370
-3
390
F
  0
LAYER
  5
202
100
AcDbSymbolTableRecord
100
AcDbLayerTableRecord
  2
04_POINTS
 70
0
 62
7
  6
CONTINUOUS
370
-3
390
F
  0
LAYER
  5
203
100
AcDbSymbolTableRecord
100
AcDbLayerTableRecord
  2
05_CURVES
 70
0
 62
7
  6
CONTINUOUS
370
-3
390
F
  0
LAYER
  5
204
100
AcDbSymbolTableRecord
100
AcDbLayerTableRecord
  2
06_SURFS
 70
0
 62
7
  6
CONTINUOUS
370
-3
390
F
  0
LAYER
  5
205
100
AcDbSymbolTableRecord
100
AcDbLayerTableRecord
  2
07_COSMETICS
 70
0
 62
7
  6
CONTINUOUS
370
-3
390
F
  0
LAYER
  5
206
100
AcDbSymbolTableRecord
100
AcDbLayerTableRecord
  2
10_NOTES
 70
0
 62
7
  6
CONTINUOUS
370
-3
390
F
  0
LAYER
  5
207
100
AcDbSymbolTableRecord
100
AcDbLayerTableRecord
  2
11_NOTES_PUB
 70
0
 62
7
  6
CONTINUOUS
370
-3
390
F
  0
LAYER
  5
208
100
AcDbSymbolTableRecord
100
AcDbLayerTableRecord
  2
13_REF_GTOL
 70
0
 62
7
  6
CONTINUOUS
370
-3
390
F
  0
LAYER
  5
209
100
AcDbSymbolTableRecord
100
AcDbLayerTableRecord
  2
16_MISC
 70
0
 62
7
  6
CONTINUOUS
370
-3
390
F
  0
LAYER
  5
20A
100
AcDbSymbolTableRecord
100
AcDbLayerTableRecord
  2
17_NO_PRINT
 70
0
 62
7
  6
CONTINUOUS
370
-3
390
F
  0
LAYER
  5
20B
100
AcDbSymbolTableRecord
100
AcDbLayerTableRecord
  2
18_DATUM_CAMS_JOINTS
 70
0
 62
7
  6
CONTINUOUS
370
-3
390
F
  0
LAYER
  5
20C
100
AcDbSymbolTableRecord
100
AcDbLayerTableRecord
  2
19_DATUM_FUNCTIONAL
 70
0
 62
7
  6
CONTINUOUS
370
-3
390
F
  0
LAYER
  5
20D
100
AcDbSymbolTableRecord
100
AcDbLayerTableRecord
  2
20_DATUM_KINEMATIC_SCHEME
 70
0
 62
7
  6
CONTINUOUS
370
-3
390
F
  0
LAYER
  5
20E
100
AcDbSymbolTableRecord
100
AcDbLayerTableRecord
  2
INTFCLR_110971
 70
0
 62
7
  6
CONTINUOUS
370
-3
390
F
  0
LAYER
  5
20F
100
AcDbSymbolTableRecord
100
AcDbLayerTableRecord
  2
INTFCLR_117198
 70
0
 62
7
  6
CONTINUOUS
370
-3
390
F
  0
ENDTAB
  0
TABLE
  2
STYLE
  5
3
100
AcDbSymbolTable
 70
1
  0
STYLE
  5
11
100
AcDbSymbolTableRecord
100
AcDbTextStyleTableRecord
  2
STANDARD
 70
0
 40
0.0
 41
0.8
 50
0.0
 71
0
 42
0.2
  3
txt
  4

  0
STYLE
  5
210
100
AcDbSymbolTableRecord
100
AcDbTextStyleTableRecord
  2
TEXTSTYLE_1
 70
0
 40
0.0
 41
0.8
 50
0.0
 71
0
 42
0.2
  3
gdt
  4

  0
ENDTAB
  0
TABLE
  2
VIEW
  5
6
100
AcDbSymbolTable
 70
0
  0
ENDTAB
  0
TABLE
  2
UCS
  5
7
100
AcDbSymbolTable
 70
0
  0
ENDTAB
  0
TABLE
  2
APPID
  5
9
100
AcDbSymbolTable
 70
1
  0
APPID
  5
211
100
AcDbSymbolTableRecord
100
AcDbRegAppTableRecord
  2
ACAD
 70
0
  0
ENDTAB
  0
TABLE
  2
BLOCK_RECORD
  5
1
100
AcDbSymbolTable
 70
0
  0
BLOCK_RECORD
  5
212
100
AcDbSymbolTableRecord
100
AcDbBlockTableRecord
  2
*Model_Space
  0
BLOCK_RECORD
  5
213
100
AcDbSymbolTableRecord
100
AcDbBlockTableRecord
  2
*Paper_Space
  0
BLOCK_RECORD
  5
214
100
AcDbSymbolTableRecord
100
AcDbBlockTableRecord
  2
_FILLED
  0
ENDTAB
  0
TABLE
  2
DIMSTYLE
  5
A
100
AcDbSymbolTable
 70
1
100
AcDbDimStyleTable
 71
0
  0
DIMSTYLE
105
215
100
AcDbSymbolTableRecord
100
AcDbDimStyleTableRecord
  2
STANDARD
 70
0
  3

  4

 40
1.0
 41
6.2527432268
 42
1.0
 43
0.38
 44
1.0
 45
0.0
 46
0.0
 47
0.01
 48
0.01
140
8.7538405175
141
0.09
142
0.0
143
25.4
144
1.0
145
0.0
146
1.0
147
0.625
 71
1
 72
0
 73
0
 74
0
 75
0
 76
0
 77
1
 78
8
 79
2
170
0
171
1
172
0
173
0
174
0
175
0
176
0
177
0
178
0
270
2
179
2
271
2
272
2
273
2
274
2
275
0
280
0
281
0
282
0
283
1
284
8
285
0
286
0
287
3
288
0
340
11
278
46
341
214
342
214
343
214
344
214
  0
ENDTAB
  0
ENDSEC
  0
SECTION
  2
BLOCKS
  0
BLOCK
  5
20
100
AcDbEntity
  8
0
100
AcDbBlockBegin
  2
*Model_Space
 70
0
 10
0.0
 20
0.0
 30
0.0
  3
*Model_Space
  1

  0
ENDBLK
  5
21
100
AcDbEntity
  8
0
100
AcDbBlockEnd
  0
BLOCK
  5
1C
100
AcDbEntity
  8
0
100
AcDbBlockBegin
  2
*Paper_Space
 70
0
 10
0.0
 20
0.0
 30
0.0
  3
*Paper_Space
  1

  0
ENDBLK
  5
1D
100
AcDbEntity
  8
0
100
AcDbBlockEnd
  0
BLOCK
  5
216
100
AcDbEntity
  8
0
100
AcDbBlockBegin
  2
_FILLED
 70
64
 10
0.0
 20
0.0
  3
_FILLED
  1

  0
SOLID
  5
217
100
AcDbEntity
  8
0
  6
BYBLOCK
 62
0
100
AcDbTrace
 10
0.0
 20
0.0
 11
-1.0
 21
0.25
 12
-1.0
 22
-0.25
 13
-1.0
 23
-0.25
  0
ENDBLK
  5
218
100
AcDbEntity
  8
0
  6
BYBLOCK
 62
0
100
AcDbBlockEnd
  0
ENDSEC
  0
SECTION
  2
ENTITIES
  0
LINE
  5
219
100
AcDbEntity
  8
0
100
AcDbLine
 62
7
  6
CONTINUOUS
 10
60.8960874322
 20
279.0554952434
 11
60.8960874322
 21
283.138007329
  0
LINE
  5
21A
100
AcDbEntity
  8
0
100
AcDbLine
 62
7
  6
CONTINUOUS
 10
61.7747759205
 20
277.8307627817
 11
61.7747759205
 21
281.9132748674
  0
LINE
  5
21B
100
AcDbEntity
  8
0
100
AcDbLine
 62
7
  6
CONTINUOUS
 10
64.4264373898
 20
276.2998599523
 11
64.4264373898
 21
280.3823720379
  0
LINE
  5
21C
100
AcDbEntity
  8
0
100
AcDbLine
 62
7
  6
CONTINUOUS
 10
68.3155408781
 20
274.0545358024
 11
68.3155408781
 21
278.1370478881
  0
LINE
  5
21D
100
AcDbEntity
  8
0
100
AcDbLine
 62
7
  6
CONTINUOUS
 10
68.6690604131
 20
282.8318369612
 11
68.6690604131
 21
278.7493248755
  0
LINE
  5
21E
100
AcDbEntity
  8
0
100
AcDbLine
 62
7
  6
CONTINUOUS
 10
69.1185894238
 20
348.3764533589
 11
69.1185894238
 21
337.3536707276
  0
LINE
  5
21F
100
AcDbEntity
  8
0
100
AcDbLine
 62
7
  6
CONTINUOUS
 10
69.1186777428
 20
325.1063971018
 11
69.1186777428
 21
336.129179733
  0
LINE
  5
220
100
AcDbEntity
  8
0
100
AcDbLine
 62
7
  6
CONTINUOUS
 10
69.4114855866
 20
336.9454265738
 11
69.4114855866
 21
347.968209205
  0
LINE
  5
221
100
AcDbEntity
  8
0
100
AcDbLine
 62
7
  6
CONTINUOUS
 10
69.4115739056
 20
324.6981529479
 11
69.4115739056
 21
335.7209355791
  0
LINE
  5
222
100
AcDbEntity
  8
0
100
AcDbLine
 62
7
  6
CONTINUOUS
 10
72.7349766603
 20
322.7794288801
 11
72.7349766603
 21
276.4020455895
  0
LINE
  5
223
100
AcDbEntity
  8
0
100
AcDbLine
 62
7
  6
CONTINUOUS
 10
78.6039120135
 20
342.6610793962
 11
78.6039120135
 21
341.8445944879
  0
LINE
  5
224
100
AcDbEntity
  8
0
100
AcDbLine
 62
7
  6
CONTINUOUS
 10
69.4115739056
 20
324.6981529479
 11
69.1186994357
 21
325.1063971018
  0
LINE
  5
225
100
AcDbEntity
  8
0
100
AcDbLine
 62
7
  6
CONTINUOUS
 10
94.3746999075
 20
309.4983584491
 11
94.3746999075
 21
259.0096136836
  0
LINE
  5
226
100
AcDbEntity
  8
0
100
AcDbLine
 62
7
  6
CONTINUOUS
 10
98.4916617394
 20
307.1214831993
 11
98.4916617394
 21
256.6327384338
  0
LINE
  5
227
100
AcDbEntity
  8
0
100
AcDbLine
 62
7
  6
CONTINUOUS
 10
94.8674592436
 20
330.0056024087
 11
96.1202273976
 21
413.6038794609
  0
LINE
  5
228
100
AcDbEntity
  8
0
100
AcDbLine
 62
7
  6
CONTINUOUS
 10
96.1338041954
 20
413.856668707
 11
96.438665017
 21
434.2002888371
  0
LINE
  5
229
100
AcDbEntity
  8
0
100
AcDbLine
 62
7
  6
CONTINUOUS
 10
87.8544135853
 20
425.3290701297
 11
86.0828594437
 21
342.4666993971
  0
LINE
  5
22A
100
AcDbEntity
  8
0
100
AcDbLine
 62
7
  6
CONTINUOUS
 10
88.3047199583
 20
445.7384215448
 11
87.8736126943
 21
425.5738840365
  0
LINE
  5
22B
100
AcDbEntity
  8
0
100
AcDbLine
 62
7
  6
CONTINUOUS
 10
61.7747759205
 20
277.8307627817
 11
64.4264373898
 21
276.2998599523
  0
LINE
  5
22C
100
AcDbEntity
  8
0
100
AcDbLine
 62
7
  6
CONTINUOUS
 10
68.3155408781
 20
274.0545358024
 11
94.3746999075
 21
259.0096136836
  0
LINE
  5
22D
100
AcDbEntity
  8
0
100
AcDbLine
 62
7
  6
CONTINUOUS
 10
98.4916617394
 20
256.6327384338
 11
115.5649446307
 21
246.7756969566
  0
LINE
  5
22E
100
AcDbEntity
  8
0
100
AcDbLine
 62
7
  6
CONTINUOUS
 10
119.6819064627
 20
244.3988217068
 11
133.4252937546
 21
236.4642528582
  0
LINE
  5
22F
100
AcDbEntity
  8
0
100
AcDbLine
 62
7
  6
CONTINUOUS
 10
137.5422555866
 20
234.0873776083
 11
154.0101029143
 21
224.5798766091
  0
LINE
  5
230
100
AcDbEntity
  8
0
100
AcDbLine
 62
7
  6
CONTINUOUS
 10
158.1270647463
 20
222.2030013593
 11
172.17316982
 21
214.0936622717
  0
LINE
  5
231
100
AcDbEntity
  8
0
100
AcDbLine
 62
7
  6
CONTINUOUS
 10
176.2901316519
 20
211.7167870218
 11
190.1521843143
 21
203.7137082395
  0
LINE
  5
232
100
AcDbEntity
  8
0
100
AcDbLine
 62
7
  6
CONTINUOUS
 10
194.2691461463
 20
201.3368329897
 11
207.8405897382
 21
193.5015336368
  0
LINE
  5
233
100
AcDbEntity
  8
0
100
AcDbLine
 62
7
  6
CONTINUOUS
 10
211.9575515701
 20
191.124658387
 11
227.7687838988
 21
181.9962456581
  0
LINE
  5
234
100
AcDbEntity
  8
0
100
AcDbLine
 62
7
  6
CONTINUOUS
 10
231.6578873871
 20
179.7509215082
 11
234.3095488564
 21
178.2200186788
  0
LINE
  5
235
100
AcDbEntity
  8
0
100
AcDbLine
 62
7
  6
CONTINUOUS
 10
234.3095488564
 20
182.3025307644
 11
231.6578873871
 21
183.8334335939
  0
LINE
  5
236
100
AcDbEntity
  8
0
100
AcDbLine
 62
7
  6
CONTINUOUS
 10
227.7687838988
 20
186.0787577437
 11
224.0564578417
 21
188.222021705
  0
LINE
  5
237
100
AcDbEntity
  8
0
100
AcDbLine
 62
7
  6
CONTINUOUS
 10
72.0278669351
 20
275.9937839268
 11
68.3155408781
 21
278.1370478881
  0
LINE
  5
238
100
AcDbEntity
  8
0
100
AcDbLine
 62
7
  6
CONTINUOUS
 10
64.4264373898
 20
280.3823720379
 11
61.7747759205
 21
281.9132748674
  0
LINE
  5
239
100
AcDbEntity
  8
0
100
AcDbLine
 62
7
  6
CONTINUOUS
 10
69.1186994357
 20
336.129179733
 11
69.4115739056
 21
335.7209355791
  0
LINE
  5
23A
100
AcDbEntity
  8
0
100
AcDbLine
 62
7
  6
CONTINUOUS
 10
69.4114855866
 20
336.9454265738
 11
69.1186111167
 21
337.3536707276
  0
LINE
  5
23B
100
AcDbEntity
  8
0
100
AcDbLine
 62
7
  6
CONTINUOUS
 10
69.1186111167
 20
348.3764533589
 11
69.4114855866
 21
347.968209205
  0
LINE
  5
23C
100
AcDbEntity
  8
0
100
AcDbLine
 62
7
  6
CONTINUOUS
 10
78.6039120135
 20
342.6610793962
 11
78.8967864833
 21
342.2528352424
  0
LINE
  5
23D
100
AcDbEntity
  8
0
100
AcDbLine
 62
7
  6
CONTINUOUS
 10
102.4547540721
 20
338.0605331617
 11
102.4547540721
 21
394.5941523428
  0
LINE
  5
23E
100
AcDbEntity
  8
0
100
AcDbLine
 62
7
  6
CONTINUOUS
 10
102.4547540721
 20
397.2764412826
 11
102.4547540721
 21
397.526285859
  0
LINE
  5
23F
100
AcDbEntity
  8
0
100
AcDbLine
 62
7
  6
CONTINUOUS
 10
102.4547540721
 20
398.4688011068
 11
102.4547540721
 21
402.1559729064
  0
LINE
  5
240
100
AcDbEntity
  8
0
100
AcDbLine
 62
7
  6
CONTINUOUS
 10
104.1534509418
 20
392.3255268402
 11
104.1534509418
 21
395.5609656177
  0
LINE
  5
241
100
AcDbEntity
  8
0
100
AcDbLine
 62
7
  6
CONTINUOUS
 10
104.1534509418
 20
396.5455649508
 11
104.1534509418
 21
398.7574068827
  0
LINE
  5
242
100
AcDbEntity
  8
0
100
AcDbLine
 62
7
  6
CONTINUOUS
 10
104.2407026774
 20
333.4030682106
 11
104.2407026774
 21
330.7635054376
  0
LINE
  5
243
100
AcDbEntity
  8
0
100
AcDbLine
 62
7
  6
CONTINUOUS
 10
104.2407026774
 20
329.67581843
 11
104.2407026774
 21
326.9387314247
  0
LINE
  5
244
100
AcDbEntity
  8
0
100
AcDbLine
 62
7
  6
CONTINUOUS
 10
104.8605547791
 20
392.733770994
 11
104.8605547791
 21
395.9692097716
  0
LINE
  5
245
100
AcDbEntity
  8
0
100
AcDbLine
 62
7
  6
CONTINUOUS
 10
104.8605547791
 20
396.9538091047
 11
104.8605547791
 21
399.1656510366
  0
LINE
  5
246
100
AcDbEntity
  8
0
100
AcDbLine
 62
7
  6
CONTINUOUS
 10
104.9478065146
 20
327.3469755786
 11
104.9478065146
 21
330.0840625839
  0
LINE
  5
247
100
AcDbEntity
  8
0
100
AcDbLine
 62
7
  6
CONTINUOUS
 10
104.9478065146
 20
331.1717495914
 11
104.9478065146
 21
333.8113123644
  0
LINE
  5
248
100
AcDbEntity
  8
0
100
AcDbLine
 62
7
  6
CONTINUOUS
 10
105.0266008838
 20
332.9536053495
 11
105.0266008838
 21
330.3097771613
  0
LINE
  5
249
100
AcDbEntity
  8
0
100
AcDbLine
 62
7
  6
CONTINUOUS
 10
105.0266008838
 20
329.2220901537
 11
105.0266008838
 21
326.4807377332
  0
LINE
  5
24A
100
AcDbEntity
  8
0
100
AcDbLine
 62
7
  6
CONTINUOUS
 10
105.0266008838
 20
391.8009311036
 11
105.0266008838
 21
395.056863668
  0
LINE
  5
24B
100
AcDbEntity
  8
0
100
AcDbLine
 62
7
  6
CONTINUOUS
 10
105.0266008838
 20
396.0414630011
 11
105.0266008838
 21
398.2737987199
  0
LINE
  5
24C
100
AcDbEntity
  8
0
100
AcDbLine
 62
7
  6
CONTINUOUS
 10
105.7351905366
 20
455.370285622
 11
105.7351905366
 21
455.7390254802
  0
LINE
  5
24D
100
AcDbEntity
  8
0
100
AcDbLine
 62
7
  6
CONTINUOUS
 10
106.3438222328
 20
405.2091552976
 11
106.3438222328
 21
403.993139422
  0
LINE
  5
24E
100
AcDbEntity
  8
0
100
AcDbLine
 62
7
  6
CONTINUOUS
 10
109.8117081475
 20
441.4579586535
 11
109.8117081475
 21
440.2332050278
  0
LINE
  5
24F
100
AcDbEntity
  8
0
100
AcDbLine
 62
7
  6
CONTINUOUS
 10
110.0824409274
 20
455.7116224321
 11
110.0824409274
 21
455.4393917053
  0
LINE
  5
250
100
AcDbEntity
  8
0
100
AcDbLine
 62
7
  6
CONTINUOUS
 10
111.289219898
 20
443.7265807272
 11
111.289219898
 21
444.2258308771
  0
LINE
  5
251
100
AcDbEntity
  8
0
100
AcDbLine
 62
7
  6
CONTINUOUS
 10
111.656953973
 20
438.4777796814
 11
111.656953973
 21
438.8860204842
  0
LINE
  5
252
100
AcDbEntity
  8
0
100
AcDbLine
 62
7
  6
CONTINUOUS
 10
115.5649446307
 20
297.2644417221
 11
115.5649446307
 21
246.7756969566
  0
LINE
  5
253
100
AcDbEntity
  8
0
100
AcDbLine
 62
7
  6
CONTINUOUS
 10
104.2149616066
 20
406.4382257479
 11
104.1809290737
 21
404.1672060817
  0
LINE
  5
254
100
AcDbEntity
  8
0
100
AcDbLine
 62
7
  6
CONTINUOUS
 10
278.871291464
 20
562.2075740185
 11
96.4385014619
 21
456.8805823192
  0
LINE
  5
255
100
AcDbEntity
  8
0
100
AcDbLine
 62
7
  6
CONTINUOUS
 10
109.1250993097
 20
455.1589042907
 11
110.0824409275
 21
455.7116224321
  0
LINE
  5
256
100
AcDbEntity
  8
0
100
AcDbLine
 62
7
  6
CONTINUOUS
 10
193.9775597754
 20
504.1482027553
 11
194.9114922671
 21
504.6874057122
  0
LINE
  5
257
100
AcDbEntity
  8
0
100
AcDbLine
 62
7
  6
CONTINUOUS
 10
278.830020241
 20
553.1375012199
 11
279.8672818633
 21
553.736360922
  0
LINE
  5
258
100
AcDbEntity
  8
0
100
AcDbLine
 62
7
  6
CONTINUOUS
 10
119.6819064627
 20
294.8875664723
 11
119.6819064627
 21
244.3988217068
  0
LINE
  5
259
100
AcDbEntity
  8
0
100
AcDbLine
 62
7
  6
CONTINUOUS
 10
128.415274877
 20
454.113504308
 11
128.415274877
 21
453.7052601541
  0
LINE
  5
25A
100
AcDbEntity
  8
0
100
AcDbLine
 62
7
  6
CONTINUOUS
 10
129.8294884394
 20
453.7052669528
 11
129.8294884394
 21
454.1135077073
  0
LINE
  5
25B
100
AcDbEntity
  8
0
100
AcDbLine
 62
7
  6
CONTINUOUS
 10
133.4252937546
 20
286.9529976237
 11
133.4252937546
 21
236.4642528582
  0
LINE
  5
25C
100
AcDbEntity
  8
0
100
AcDbLine
 62
7
  6
CONTINUOUS
 10
72.7349766603
 20
276.4020455895
 11
72.5278538503
 21
275.9442784345
  0
LINE
  5
25D
100
AcDbEntity
  8
0
100
AcDbLine
 62
7
  6
CONTINUOUS
 10
69.4114796986
 20
348.7846941134
 11
69.1186111167
 21
348.3764533589
  0
LINE
  5
25E
100
AcDbEntity
  8
0
100
AcDbLine
 62
7
  6
CONTINUOUS
 10
69.4115680176
 20
336.5374204875
 11
69.1186994357
 21
336.129179733
  0
LINE
  5
25F
100
AcDbEntity
  8
0
100
AcDbLine
 62
7
  6
CONTINUOUS
 10
78.8967864833
 20
342.2528352424
 11
78.6039179014
 21
341.8445944879
  0
LINE
  5
260
100
AcDbEntity
  8
0
100
AcDbLine
 62
7
  6
CONTINUOUS
 10
102.6469311015
 20
398.7205533548
 11
101.9553656419
 21
397.814601381
  0
LINE
  5
261
100
AcDbEntity
  8
0
100
AcDbLine
 62
7
  6
CONTINUOUS
 10
107.0465614462
 20
450.7577874261
 11
169.073710232
 21
486.5689647107
  0
LINE
  5
262
100
AcDbEntity
  8
0
100
AcDbLine
 62
7
  6
CONTINUOUS
 10
110.5821101106
 20
444.6340715907
 11
172.6092587972
 21
480.445248818
  0
LINE
  5
263
100
AcDbEntity
  8
0
100
AcDbLine
 62
7
  6
CONTINUOUS
 10
173.3163685401
 20
480.0370080788
 11
130.1830344701
 21
455.1341146926
  0
LINE
  5
264
100
AcDbEntity
  8
0
100
AcDbLine
 62
7
  6
CONTINUOUS
 10
128.415274877
 20
454.113504308
 11
111.289219898
 21
444.2258308771
  0
LINE
  5
265
100
AcDbEntity
  8
0
100
AcDbLine
 62
7
  6
CONTINUOUS
 10
129.1223816582
 20
454.1135060076
 11
111.656916879
 21
444.029875407
  0
LINE
  5
266
100
AcDbEntity
  8
0
100
AcDbLine
 62
7
  6
CONTINUOUS
 10
159.0634897348
 20
470.6682596067
 11
162.5990089208
 21
472.7094803761
  0
LINE
  5
267
100
AcDbEntity
  8
0
100
AcDbLine
 62
7
  6
CONTINUOUS
 10
163.0634718273
 20
470.2720653746
 11
166.5989910133
 21
472.313286144
  0
LINE
  5
268
100
AcDbEntity
  8
0
100
AcDbLine
 62
7
  6
CONTINUOUS
 10
211.9575515701
 20
241.6134031525
 11
207.8405897382
 21
243.9902784023
  0
LINE
  5
269
100
AcDbEntity
  8
0
100
AcDbLine
 62
7
  6
CONTINUOUS
 10
194.2691461463
 20
251.8255777552
 11
190.1521843143
 21
254.202453005
  0
LINE
  5
26A
100
AcDbEntity
  8
0
100
AcDbLine
 62
7
  6
CONTINUOUS
 10
176.2901316519
 20
262.2055317874
 11
172.17316982
 21
264.5824070372
  0
LINE
  5
26B
100
AcDbEntity
  8
0
100
AcDbLine
 62
7
  6
CONTINUOUS
 10
158.1270647463
 20
272.6917461248
 11
154.0101029143
 21
275.0686213746
  0
LINE
  5
26C
100
AcDbEntity
  8
0
100
AcDbLine
 62
7
  6
CONTINUOUS
 10
137.5422555866
 20
284.5761223739
 11
133.4252937546
 21
286.9529976237
  0
LINE
  5
26D
100
AcDbEntity
  8
0
100
AcDbLine
 62
7
  6
CONTINUOUS
 10
119.6819064627
 20
294.8875664723
 11
115.5649446307
 21
297.2644417221
  0
LINE
  5
26E
100
AcDbEntity
  8
0
100
AcDbLine
 62
7
  6
CONTINUOUS
 10
98.4916617394
 20
307.1214831993
 11
94.3746999075
 21
309.4983584491
  0
LINE
  5
26F
100
AcDbEntity
  8
0
100
AcDbLine
 62
7
  6
CONTINUOUS
 10
69.4115739056
 20
324.6981529479
 11
223.5614939876
 21
235.7016684625
  0
LINE
  5
270
100
AcDbEntity
  8
0
100
AcDbLine
 62
7
  6
CONTINUOUS
 10
69.4115739056
 20
335.7209355791
 11
223.5614939876
 21
246.7244510937
  0
LINE
  5
271
100
AcDbEntity
  8
0
100
AcDbLine
 62
7
  6
CONTINUOUS
 10
146.4792062282
 20
297.3464191154
 11
147.0831686058
 21
296.0855817843
  0
LINE
  5
272
100
AcDbEntity
  8
0
100
AcDbLine
 62
7
  6
CONTINUOUS
 10
137.5422555866
 20
284.5761223739
 11
137.5422555866
 21
234.0873776083
  0
LINE
  5
273
100
AcDbEntity
  8
0
100
AcDbLine
 62
7
  6
CONTINUOUS
 10
145.173954945
 20
419.5354087199
 11
145.173954945
 21
419.2100690397
  0
LINE
  5
274
100
AcDbEntity
  8
0
100
AcDbLine
 62
7
  6
CONTINUOUS
 10
146.4791569699
 20
297.3464191367
 11
146.4791569699
 21
294.0804094682
  0
LINE
  5
275
100
AcDbEntity
  8
0
100
AcDbLine
 62
7
  6
CONTINUOUS
 10
147.0831686058
 20
295.2690793671
 11
147.0831686058
 21
296.0855817843
  0
LINE
  5
276
100
AcDbEntity
  8
0
100
AcDbLine
 62
7
  6
CONTINUOUS
 10
148.1543367362
 20
298.073798864
 11
148.1543367362
 21
299.2985524897
  0
LINE
  5
277
100
AcDbEntity
  8
0
100
AcDbLine
 62
7
  6
CONTINUOUS
 10
148.3501317644
 20
295.3131635815
 11
148.3501317644
 21
294.4966611644
  0
LINE
  5
278
100
AcDbEntity
  8
0
100
AcDbLine
 62
7
  6
CONTINUOUS
 10
149.1616661767
 20
297.2855957532
 11
149.1616661767
 21
296.4690933361
  0
LINE
  5
279
100
AcDbEntity
  8
0
100
AcDbLine
 62
7
  6
CONTINUOUS
 10
149.931064901
 20
448.6021990358
 11
149.931064901
 21
443.7328419387
  0
LINE
  5
27A
100
AcDbEntity
  8
0
100
AcDbLine
 62
7
  6
CONTINUOUS
 10
150.4013022427
 20
298.0012956975
 11
150.4013022427
 21
297.1847932804
  0
LINE
  5
27B
100
AcDbEntity
  8
0
100
AcDbLine
 62
7
  6
CONTINUOUS
 10
151.7037324459
 20
297.2493542803
 11
151.7037324459
 21
296.4328518632
  0
LINE
  5
27C
100
AcDbEntity
  8
0
100
AcDbLine
 62
7
  6
CONTINUOUS
 10
152.7792154784
 20
293.9722963136
 11
152.7792154784
 21
295.1970499393
  0
LINE
  5
27D
100
AcDbEntity
  8
0
100
AcDbLine
 62
7
  6
CONTINUOUS
 10
152.9129921852
 20
299.4514119059
 11
152.9129921852
 21
298.6349094888
  0
LINE
  5
27E
100
AcDbEntity
  8
0
100
AcDbLine
 62
7
  6
CONTINUOUS
 10
154.0101029143
 20
275.0686213746
 11
154.0101029143
 21
224.5798766091
  0
LINE
  5
27F
100
AcDbEntity
  8
0
100
AcDbLine
 62
7
  6
CONTINUOUS
 10
154.0835003879
 20
419.2100848055
 11
154.0835003879
 21
419.5354301358
  0
LINE
  5
280
100
AcDbEntity
  8
0
100
AcDbLine
 62
7
  6
CONTINUOUS
 10
154.110420898
 20
295.8598834886
 11
154.110420898
 21
294.635129863
  0
LINE
  5
281
100
AcDbEntity
  8
0
100
AcDbLine
 62
7
  6
CONTINUOUS
 10
154.4414830269
 20
291.5288942984
 11
154.4414830269
 21
291.937145507
  0
LINE
  5
282
100
AcDbEntity
  8
0
100
AcDbLine
 62
7
  6
CONTINUOUS
 10
154.9791569699
 20
297.3464191367
 11
154.9791569699
 21
294.0804094682
  0
LINE
  5
283
100
AcDbEntity
  8
0
100
AcDbLine
 62
7
  6
CONTINUOUS
 10
183.6118402448
 20
480.4452752763
 11
187.1473594194
 21
486.5690081347
  0
LINE
  5
284
100
AcDbEntity
  8
0
100
AcDbLine
 62
7
  6
CONTINUOUS
 10
143.2647843316
 20
447.5815337509
 11
150.9512576926
 21
452.0192947251
  0
LINE
  5
285
100
AcDbEntity
  8
0
100
AcDbLine
 62
7
  6
CONTINUOUS
 10
183.5696244168
 20
462.5155080355
 11
180.0341052308
 21
460.4742872661
  0
LINE
  5
286
100
AcDbEntity
  8
0
100
AcDbLine
 62
7
  6
CONTINUOUS
 10
72.5278538503
 20
275.9442784345
 11
72.0278669351
 21
275.9937839268
  0
LINE
  5
287
100
AcDbEntity
  8
0
100
AcDbLine
 62
7
  6
CONTINUOUS
 10
244.774697423
 20
235.7017194527
 11
235.5822709961
 21
241.0088492615
  0
LINE
  5
288
100
AcDbEntity
  8
0
100
AcDbLine
 62
7
  6
CONTINUOUS
 10
69.4114855866
 20
336.9454265738
 11
69.7648754894
 21
336.7414014339
  0
LINE
  5
289
100
AcDbEntity
  8
0
100
AcDbLine
 62
7
  6
CONTINUOUS
 10
149.7569744355
 20
296.125399728
 11
149.1616661767
 21
296.4690933361
  0
LINE
  5
28A
100
AcDbEntity
  8
0
100
AcDbLine
 62
7
  6
CONTINUOUS
 10
152.7792154783
 20
295.1970499393
 11
150.4640963799
 21
296.533654336
  0
LINE
  5
28B
100
AcDbEntity
  8
0
100
AcDbLine
 62
7
  6
CONTINUOUS
 10
149.1616661767
 20
297.2855957532
 11
147.0062700238
 21
298.5299861504
  0
LINE
  5
28C
100
AcDbEntity
  8
0
100
AcDbLine
 62
7
  6
CONTINUOUS
 10
148.1543367362
 20
298.073798864
 11
154.110420898
 21
294.635129863
  0
LINE
  5
28D
100
AcDbEntity
  8
0
100
AcDbLine
 62
7
  6
CONTINUOUS
 10
150.4013022427
 20
297.1847932804
 11
151.7037324459
 21
296.4328518632
  0
LINE
  5
28E
100
AcDbEntity
  8
0
100
AcDbLine
 62
7
  6
CONTINUOUS
 10
94.8674592436
 20
330.0056024087
 11
148.1294616678
 21
299.2554666326
  0
LINE
  5
28F
100
AcDbEntity
  8
0
100
AcDbLine
 62
7
  6
CONTINUOUS
 10
158.162292465
 20
293.463140111
 11
213.6618930683
 21
261.4211556493
  0
LINE
  5
290
100
AcDbEntity
  8
0
100
AcDbLine
 62
7
  6
CONTINUOUS
 10
148.1543367362
 20
299.2985524897
 11
150.4013022427
 21
298.0012956975
  0
LINE
  5
291
100
AcDbEntity
  8
0
100
AcDbLine
 62
7
  6
CONTINUOUS
 10
151.7037324459
 20
297.2493542803
 11
154.110420898
 21
295.8598834886
  0
LINE
  5
292
100
AcDbEntity
  8
0
100
AcDbLine
 62
7
  6
CONTINUOUS
 10
154.9791569699
 20
295.7162597481
 11
158.168787162
 21
293.8747675582
  0
LINE
  5
293
100
AcDbEntity
  8
0
100
AcDbLine
 62
7
  6
CONTINUOUS
 10
244.774697423
 20
246.724502084
 11
235.5822709961
 21
252.0316318927
  0
LINE
  5
294
100
AcDbEntity
  8
0
100
AcDbLine
 62
7
  6
CONTINUOUS
 10
69.4114855866
 20
347.968209205
 11
78.6039120135
 21
342.6610793962
  0
LINE
  5
295
100
AcDbEntity
  8
0
100
AcDbLine
 62
7
  6
CONTINUOUS
 10
194.229002978
 20
276.5025691451
 11
109.8794061861
 21
325.2007298594
  0
LINE
  5
296
100
AcDbEntity
  8
0
100
AcDbLine
 62
7
  6
CONTINUOUS
 10
107.4425708428
 20
327.8272608028
 11
105.0266008838
 21
329.2220901537
  0
LINE
  5
297
100
AcDbEntity
  8
0
100
AcDbLine
 62
7
  6
CONTINUOUS
 10
104.2407026774
 20
329.67581843
 11
101.8510635232
 21
331.0554460276
  0
LINE
  5
298
100
AcDbEntity
  8
0
100
AcDbLine
 62
7
  6
CONTINUOUS
 10
193.7753277923
 20
277.98414794
 11
196.1434416664
 21
276.6169476875
  0
LINE
  5
299
100
AcDbEntity
  8
0
100
AcDbLine
 62
7
  6
CONTINUOUS
 10
197.2109017554
 20
276.00066326
 11
199.3668351119
 21
274.7559627151
  0
LINE
  5
29A
100
AcDbEntity
  8
0
100
AcDbLine
 62
7
  6
CONTINUOUS
 10
200.0739389491
 20
275.164206869
 11
197.9180055927
 21
276.4089074138
  0
LINE
  5
29B
100
AcDbEntity
  8
0
100
AcDbLine
 62
7
  6
CONTINUOUS
 10
196.8505455036
 20
277.0251918414
 11
194.4824316295
 21
278.3923920939
  0
LINE
  5
29C
100
AcDbEntity
  8
0
100
AcDbLine
 62
7
  6
CONTINUOUS
 10
108.14967468
 20
328.2355049567
 11
105.733704721
 21
329.6303343076
  0
LINE
  5
29D
100
AcDbEntity
  8
0
100
AcDbLine
 62
7
  6
CONTINUOUS
 10
104.9478065146
 20
330.0840625839
 11
102.5581673604
 21
331.4636901815
  0
LINE
  5
29E
100
AcDbEntity
  8
0
100
AcDbLine
 62
7
  6
CONTINUOUS
 10
193.7745931501
 20
278.9691714093
 11
196.1434416664
 21
277.6015470206
  0
LINE
  5
29F
100
AcDbEntity
  8
0
100
AcDbLine
 62
7
  6
CONTINUOUS
 10
197.2109017554
 20
276.985262593
 11
199.367569754
 21
275.7401379119
  0
LINE
  5
2A0
100
AcDbEntity
  8
0
100
AcDbLine
 62
7
  6
CONTINUOUS
 10
107.4283063742
 20
328.9231832188
 11
105.0266008838
 21
330.3097771613
  0
LINE
  5
2A1
100
AcDbEntity
  8
0
100
AcDbLine
 62
7
  6
CONTINUOUS
 10
104.2407026774
 20
330.7635054376
 11
101.8653279917
 21
332.1348976267
  0
LINE
  5
2A2
100
AcDbEntity
  8
0
100
AcDbLine
 62
7
  6
CONTINUOUS
 10
157.4065940261
 20
467.0059720737
 11
157.4065940261
 21
462.2784230786
  0
LINE
  5
2A3
100
AcDbEntity
  8
0
100
AcDbLine
 62
7
  6
CONTINUOUS
 10
158.1270647463
 20
272.6917461248
 11
158.1270647463
 21
222.2030013593
  0
LINE
  5
2A4
100
AcDbEntity
  8
0
100
AcDbLine
 62
7
  6
CONTINUOUS
 10
159.3949261083
 20
400.7564592535
 11
159.3949261083
 21
401.2287442613
  0
LINE
  5
2A5
100
AcDbEntity
  8
0
100
AcDbLine
 62
7
  6
CONTINUOUS
 10
163.3257641202
 20
401.2804952385
 11
163.3257641202
 21
400.8970703288
  0
LINE
  5
2A6
100
AcDbEntity
  8
0
100
AcDbLine
 62
7
  6
CONTINUOUS
 10
164.1120107109
 20
410.4334108728
 11
164.1120107109
 21
434.9284833867
  0
LINE
  5
2A7
100
AcDbEntity
  8
0
100
AcDbLine
 62
7
  6
CONTINUOUS
 10
167.8552236713
 20
405.2160505863
 11
167.8552236713
 21
429.7111231002
  0
LINE
  5
2A8
100
AcDbEntity
  8
0
100
AcDbLine
 62
7
  6
CONTINUOUS
 10
169.4107898188
 20
438.7577691193
 11
169.4107898188
 21
439.2476705695
  0
LINE
  5
2A9
100
AcDbEntity
  8
0
100
AcDbLine
 62
7
  6
CONTINUOUS
 10
172.17316982
 20
264.5824070372
 11
172.17316982
 21
214.0936622717
  0
LINE
  5
2AA
100
AcDbEntity
  8
0
100
AcDbLine
 62
7
  6
CONTINUOUS
 10
173.3163685401
 20
468.4350941571
 11
173.3163685401
 21
480.0370080788
  0
LINE
  5
2AB
100
AcDbEntity
  8
0
100
AcDbLine
 62
7
  6
CONTINUOUS
 10
158.162292465
 20
293.463140111
 11
158.168787162
 21
293.8747675582
  0
LINE
  5
2AC
100
AcDbEntity
  8
0
100
AcDbLine
 62
7
  6
CONTINUOUS
 10
104.4902976373
 20
404.345819039
 11
103.0760899628
 21
403.5293307312
  0
LINE
  5
2AD
100
AcDbEntity
  8
0
100
AcDbLine
 62
7
  6
CONTINUOUS
 10
185.690983032
 20
450.6763418929
 11
189.226502218
 21
452.7175626623
  0
LINE
  5
2AE
100
AcDbEntity
  8
0
100
AcDbLine
 62
7
  6
CONTINUOUS
 10
350.2851100093
 20
545.4711589517
 11
167.8551484235
 21
440.1458002295
  0
LINE
  5
2AF
100
AcDbEntity
  8
0
100
AcDbLine
 62
7
  6
CONTINUOUS
 10
104.5760832475
 20
403.3807578942
 11
105.990290922
 21
404.1972462019
  0
LINE
  5
2B0
100
AcDbEntity
  8
0
100
AcDbLine
 62
7
  6
CONTINUOUS
 10
351.8407514046
 20
544.5730292918
 11
169.4107898188
 21
439.2476705695
  0
LINE
  5
2B1
100
AcDbEntity
  8
0
100
AcDbLine
 62
7
  6
CONTINUOUS
 10
169.4107898188
 20
438.7577691193
 11
351.8407514046
 21
544.0831278415
  0
LINE
  5
2B2
100
AcDbEntity
  8
0
100
AcDbLine
 62
7
  6
CONTINUOUS
 10
105.4045311019
 20
400.3128871579
 11
102.6468261367
 21
398.7207349578
  0
LINE
  5
2B3
100
AcDbEntity
  8
0
100
AcDbLine
 62
7
  6
CONTINUOUS
 10
104.1534509418
 20
398.7574068827
 11
104.8605547791
 21
399.1656510366
  0
LINE
  5
2B4
100
AcDbEntity
  8
0
100
AcDbLine
 62
7
  6
CONTINUOUS
 10
101.8184286904
 20
396.9090608452
 11
102.5255325276
 21
397.3173049991
  0
LINE
  5
2B5
100
AcDbEntity
  8
0
100
AcDbLine
 62
7
  6
CONTINUOUS
 10
105.733704721
 20
398.6820428737
 11
105.0266008838
 21
398.2737987199
  0
LINE
  5
2B6
100
AcDbEntity
  8
0
100
AcDbLine
 62
7
  6
CONTINUOUS
 10
104.1534509418
 20
396.5455649508
 11
104.8605547791
 21
396.9538091047
  0
LINE
  5
2B7
100
AcDbEntity
  8
0
100
AcDbLine
 62
7
  6
CONTINUOUS
 10
104.1534509418
 20
395.5609656177
 11
104.8605547791
 21
395.9692097716
  0
LINE
  5
2B8
100
AcDbEntity
  8
0
100
AcDbLine
 62
7
  6
CONTINUOUS
 10
105.0266008838
 20
395.056863668
 11
105.733704721
 21
395.4651078219
  0
LINE
  5
2B9
100
AcDbEntity
  8
0
100
AcDbLine
 62
7
  6
CONTINUOUS
 10
336.8587867986
 20
528.7745773104
 11
319.1744302657
 21
518.5645702512
  0
LINE
  5
2BA
100
AcDbEntity
  8
0
100
AcDbLine
 62
7
  6
CONTINUOUS
 10
107.3382687241
 20
394.7068511442
 11
108.0453725613
 21
395.115095298
  0
LINE
  5
2BB
100
AcDbEntity
  8
0
100
AcDbLine
 62
7
  6
CONTINUOUS
 10
104.8605547791
 20
392.733770994
 11
104.1534509418
 21
392.3255268402
  0
LINE
  5
2BC
100
AcDbEntity
  8
0
100
AcDbLine
 62
7
  6
CONTINUOUS
 10
108.1823095128
 20
394.0514371677
 11
107.4752056756
 21
393.6431930139
  0
LINE
  5
2BD
100
AcDbEntity
  8
0
100
AcDbLine
 62
7
  6
CONTINUOUS
 10
154.0835003879
 20
419.5354301358
 11
164.1120107109
 21
425.3253587091
  0
LINE
  5
2BE
100
AcDbEntity
  8
0
100
AcDbLine
 62
7
  6
CONTINUOUS
 10
109.4045131944
 20
393.3846735888
 11
106.6468082292
 21
391.7925213887
  0
LINE
  5
2BF
100
AcDbEntity
  8
0
100
AcDbLine
 62
7
  6
CONTINUOUS
 10
154.9468232402
 20
419.6256226878
 11
164.1120107109
 21
424.9171145553
  0
LINE
  5
2C0
100
AcDbEntity
  8
0
100
AcDbLine
 62
7
  6
CONTINUOUS
 10
164.1120107109
 20
424.1006967998
 11
158.6655713985
 21
420.9562123667
  0
LINE
  5
2C1
100
AcDbEntity
  8
0
100
AcDbLine
 62
7
  6
CONTINUOUS
 10
258.7399393286
 20
262.9521732069
 11
262.2754879544
 21
260.9109694343
  0
LINE
  5
2C2
100
AcDbEntity
  8
0
100
AcDbLine
 62
7
  6
CONTINUOUS
 10
258.7337680055
 20
263.3639873499
 11
262.2754879544
 21
261.3192206428
  0
LINE
  5
2C3
100
AcDbEntity
  8
0
100
AcDbLine
 62
7
  6
CONTINUOUS
 10
265.112066324
 20
265.8083536865
 11
265.3624643484
 21
265.6637895902
  0
LINE
  5
2C4
100
AcDbEntity
  8
0
100
AcDbLine
 62
7
  6
CONTINUOUS
 10
265.112066324
 20
266.2880699186
 11
265.7779167312
 21
265.9036497034
  0
LINE
  5
2C5
100
AcDbEntity
  8
0
100
AcDbLine
 62
7
  6
CONTINUOUS
 10
268.4186938935
 20
264.3790307894
 11
269.2246776175
 21
263.9137063964
  0
LINE
  5
2C6
100
AcDbEntity
  8
0
100
AcDbLine
 62
7
  6
CONTINUOUS
 10
262.5016227702
 20
268.1319622969
 11
265.112066324
 21
266.6248561037
  0
LINE
  5
2C7
100
AcDbEntity
  8
0
100
AcDbLine
 62
7
  6
CONTINUOUS
 10
266.0695862928
 20
266.0720441982
 11
268.4186938935
 21
264.7158169745
  0
LINE
  5
2C8
100
AcDbEntity
  8
0
100
AcDbLine
 62
7
  6
CONTINUOUS
 10
265.8810796789
 20
266.2523411038
 11
266.8385996478
 21
265.6995291983
  0
LINE
  5
2C9
100
AcDbEntity
  8
0
100
AcDbLine
 62
7
  6
CONTINUOUS
 10
110.5821101106
 20
444.6340715907
 11
107.0465614614
 21
450.7577874321
  0
LINE
  5
2CA
100
AcDbEntity
  8
0
100
AcDbLine
 62
7
  6
CONTINUOUS
 10
176.2901316519
 20
262.2055317874
 11
176.2901316519
 21
211.7167870218
  0
LINE
  5
2CB
100
AcDbEntity
  8
0
100
AcDbLine
 62
7
  6
CONTINUOUS
 10
185.690983032
 20
450.6763418929
 11
185.690983032
 21
450.4432626743
  0
LINE
  5
2CC
100
AcDbEntity
  8
0
100
AcDbLine
 62
7
  6
CONTINUOUS
 10
189.226502218
 20
452.7175626623
 11
189.226502218
 21
452.4844834437
  0
LINE
  5
2CD
100
AcDbEntity
  8
0
100
AcDbLine
 62
7
  6
CONTINUOUS
 10
190.1521843143
 20
254.202453005
 11
190.1521843143
 21
203.7137082395
  0
LINE
  5
2CE
100
AcDbEntity
  8
0
100
AcDbLine
 62
7
  6
CONTINUOUS
 10
190.574426798
 20
504.3671575001
 11
190.574426798
 21
504.7193475287
  0
LINE
  5
2CF
100
AcDbEntity
  8
0
100
AcDbLine
 62
7
  6
CONTINUOUS
 10
86.4279758259
 20
358.6091140893
 11
69.4114796986
 21
348.7846941134
  0
LINE
  5
2D0
100
AcDbEntity
  8
0
100
AcDbLine
 62
7
  6
CONTINUOUS
 10
163.3257641202
 20
401.2804952385
 11
162.0048860912
 21
400.5178905051
  0
LINE
  5
2D1
100
AcDbEntity
  8
0
100
AcDbLine
 62
7
  6
CONTINUOUS
 10
344.6015731633
 20
502.76944227
 11
340.7540811403
 21
500.5481049743
  0
LINE
  5
2D2
100
AcDbEntity
  8
0
100
AcDbLine
 62
7
  6
CONTINUOUS
 10
263.233665756
 20
268.5972940838
 11
265.8810796789
 21
267.0688435209
  0
LINE
  5
2D3
100
AcDbEntity
  8
0
100
AcDbLine
 62
7
  6
CONTINUOUS
 10
266.8385996478
 20
266.5160316154
 11
269.2246776175
 21
265.1384600221
  0
LINE
  5
2D4
100
AcDbEntity
  8
0
100
AcDbLine
 62
7
  6
CONTINUOUS
 10
194.2691461463
 20
251.8255777552
 11
194.2691461463
 21
201.3368329897
  0
LINE
  5
2D5
100
AcDbEntity
  8
0
100
AcDbLine
 62
7
  6
CONTINUOUS
 10
194.911492267
 20
504.6874057122
 11
194.911492267
 21
504.4218316304
  0
LINE
  5
2D6
100
AcDbEntity
  8
0
100
AcDbLine
 62
7
  6
CONTINUOUS
 10
196.0103205853
 20
339.3078993036
 11
196.0103205853
 21
342.5285769551
  0
LINE
  5
2D7
100
AcDbEntity
  8
0
100
AcDbLine
 62
7
  6
CONTINUOUS
 10
196.0103205853
 20
343.1638076248
 11
196.0103205853
 21
345.7102570941
  0
LINE
  5
2D8
100
AcDbEntity
  8
0
100
AcDbLine
 62
7
  6
CONTINUOUS
 10
196.1434416664
 20
280.3404936201
 11
196.1434416664
 21
277.6015470206
  0
LINE
  5
2D9
100
AcDbEntity
  8
0
100
AcDbLine
 62
7
  6
CONTINUOUS
 10
196.1434416664
 20
276.6169476875
 11
196.1434416664
 21
273.8835645303
  0
LINE
  5
2DA
100
AcDbEntity
  8
0
100
AcDbLine
 62
7
  6
CONTINUOUS
 10
196.7174244225
 20
339.7161434575
 11
196.7174244225
 21
342.936821109
  0
LINE
  5
2DB
100
AcDbEntity
  8
0
100
AcDbLine
 62
7
  6
CONTINUOUS
 10
196.7174244225
 20
343.5720517787
 11
196.7174244225
 21
346.1185012479
  0
LINE
  5
2DC
100
AcDbEntity
  8
0
100
AcDbLine
 62
7
  6
CONTINUOUS
 10
196.8505455036
 20
274.2918086841
 11
196.8505455036
 21
277.0251918414
  0
LINE
  5
2DD
100
AcDbEntity
  8
0
100
AcDbLine
 62
7
  6
CONTINUOUS
 10
196.8505455036
 20
278.0097911744
 11
196.8505455036
 21
280.7487377739
  0
LINE
  5
2DE
100
AcDbEntity
  8
0
100
AcDbLine
 62
7
  6
CONTINUOUS
 10
197.2109017554
 20
279.6770948645
 11
197.2109017554
 21
276.985262593
  0
LINE
  5
2DF
100
AcDbEntity
  8
0
100
AcDbLine
 62
7
  6
CONTINUOUS
 10
197.2109017554
 20
276.00066326
 11
197.2109017554
 21
273.3143944307
  0
LINE
  5
2E0
100
AcDbEntity
  8
0
100
AcDbLine
 62
7
  6
CONTINUOUS
 10
197.2109017554
 20
338.6345878011
 11
197.2109017554
 21
341.8354367743
  0
LINE
  5
2E1
100
AcDbEntity
  8
0
100
AcDbLine
 62
7
  6
CONTINUOUS
 10
197.2109017554
 20
342.470667444
 11
197.2109017554
 21
344.9972882349
  0
LINE
  5
2E2
100
AcDbEntity
  8
0
100
AcDbLine
 62
7
  6
CONTINUOUS
 10
204.2785544932
 20
343.3693042554
 11
204.2785544932
 21
279.2738645108
  0
LINE
  5
2E3
100
AcDbEntity
  8
0
100
AcDbLine
 62
7
  6
CONTINUOUS
 10
205.6927621677
 20
344.1857925632
 11
205.6927621677
 21
280.0903528185
  0
LINE
  5
2E4
100
AcDbEntity
  8
0
100
AcDbLine
 62
7
  6
CONTINUOUS
 10
207.8405897382
 20
243.9902784023
 11
207.8405897382
 21
193.5015336368
  0
LINE
  5
2E5
100
AcDbEntity
  8
0
100
AcDbLine
 62
7
  6
CONTINUOUS
 10
211.9575515701
 20
241.6134031525
 11
211.9575515701
 21
191.124658387
  0
LINE
  5
2E6
100
AcDbEntity
  8
0
100
AcDbLine
 62
7
  6
CONTINUOUS
 10
205.7214422142
 20
278.8822679552
 11
206.745871753
 21
347.2433163425
  0
LINE
  5
2E7
100
AcDbEntity
  8
0
100
AcDbLine
 62
7
  6
CONTINUOUS
 10
154.110420898
 20
295.8598834886
 11
154.9790483754
 21
297.3464190703
  0
LINE
  5
2E8
100
AcDbEntity
  8
0
100
AcDbLine
 62
7
  6
CONTINUOUS
 10
344.6015734728
 20
501.1364376143
 11
342.1683250291
 21
499.731609356
  0
LINE
  5
2E9
100
AcDbEntity
  8
0
100
AcDbLine
 62
7
  6
CONTINUOUS
 10
347.3039425274
 20
498.4396745726
 11
347.2140457475
 21
498.3877729523
  0
LINE
  5
2EA
100
AcDbEntity
  8
0
100
AcDbLine
 62
7
  6
CONTINUOUS
 10
352.1835664085
 20
499.7963815711
 11
348.4728962138
 21
497.6540379234
  0
LINE
  5
2EB
100
AcDbEntity
  8
0
100
AcDbLine
 62
7
  6
CONTINUOUS
 10
69.4115680176
 20
336.5374204875
 11
78.6039179014
 21
341.8445944879
  0
LINE
  5
2EC
100
AcDbEntity
  8
0
100
AcDbLine
 62
7
  6
CONTINUOUS
 10
107.4752056756
 20
393.6431930139
 11
105.0266008838
 21
395.056863668
  0
LINE
  5
2ED
100
AcDbEntity
  8
0
100
AcDbLine
 62
7
  6
CONTINUOUS
 10
104.1534509418
 20
395.5609656177
 11
101.8184286904
 21
396.9090608452
  0
LINE
  5
2EE
100
AcDbEntity
  8
0
100
AcDbLine
 62
7
  6
CONTINUOUS
 10
193.7426929595
 20
343.8377627576
 11
196.0103205853
 21
342.5285769551
  0
LINE
  5
2EF
100
AcDbEntity
  8
0
100
AcDbLine
 62
7
  6
CONTINUOUS
 10
197.2109017554
 20
341.8354367743
 11
199.3994699447
 21
340.5718949262
  0
LINE
  5
2F0
100
AcDbEntity
  8
0
100
AcDbLine
 62
7
  6
CONTINUOUS
 10
193.8000589752
 20
344.4398738919
 11
196.0103205853
 21
343.1638076248
  0
LINE
  5
2F1
100
AcDbEntity
  8
0
100
AcDbLine
 62
7
  6
CONTINUOUS
 10
197.2109017554
 20
342.470667444
 11
199.342103929
 21
341.2402451313
  0
LINE
  5
2F2
100
AcDbEntity
  8
0
100
AcDbLine
 62
7
  6
CONTINUOUS
 10
200.1065737819
 20
340.9801390801
 11
199.4990740043
 21
341.3308713056
  0
LINE
  5
2F3
100
AcDbEntity
  8
0
100
AcDbLine
 62
7
  6
CONTINUOUS
 10
196.7174244225
 20
342.936821109
 11
196.1672906607
 21
343.2544337991
  0
LINE
  5
2F4
100
AcDbEntity
  8
0
100
AcDbLine
 62
7
  6
CONTINUOUS
 10
108.1823095128
 20
394.0514371677
 11
105.733704721
 21
395.4651078219
  0
LINE
  5
2F5
100
AcDbEntity
  8
0
100
AcDbLine
 62
7
  6
CONTINUOUS
 10
104.8605547791
 20
395.9692097716
 11
102.5255325276
 21
397.3173049991
  0
LINE
  5
2F6
100
AcDbEntity
  8
0
100
AcDbLine
 62
7
  6
CONTINUOUS
 10
107.3382687241
 20
394.7068511442
 11
105.0266008838
 21
396.0414630011
  0
LINE
  5
2F7
100
AcDbEntity
  8
0
100
AcDbLine
 62
7
  6
CONTINUOUS
 10
104.1534509418
 20
396.5455649508
 11
101.9553656419
 21
397.814601381
  0
LINE
  5
2F8
100
AcDbEntity
  8
0
100
AcDbLine
 62
7
  6
CONTINUOUS
 10
104.5760832475
 20
403.3807578942
 11
202.1572253178
 21
347.0435337704
  0
LINE
  5
2F9
100
AcDbEntity
  8
0
100
AcDbLine
 62
7
  6
CONTINUOUS
 10
261.737909247
 20
266.7285120337
 11
262.6547273115
 21
265.206119232
  0
LINE
  5
2FA
100
AcDbEntity
  8
0
100
AcDbLine
 62
7
  6
CONTINUOUS
 10
223.3493481166
 20
189.4467648766
 11
223.3493481166
 21
235.8241481673
  0
LINE
  5
2FB
100
AcDbEntity
  8
0
100
AcDbLine
 62
7
  6
CONTINUOUS
 10
223.5614939876
 20
246.7244510937
 11
223.5614939876
 21
235.7016684625
  0
LINE
  5
2FC
100
AcDbEntity
  8
0
100
AcDbLine
 62
7
  6
CONTINUOUS
 10
224.97570755
 20
235.7016718618
 11
224.97570755
 21
246.7244544931
  0
LINE
  5
2FD
100
AcDbEntity
  8
0
100
AcDbLine
 62
7
  6
CONTINUOUS
 10
225.8382211333
 20
396.2353812296
 11
225.8382211333
 21
371.7403087157
  0
LINE
  5
2FE
100
AcDbEntity
  8
0
100
AcDbLine
 62
7
  6
CONTINUOUS
 10
227.7687838988
 20
181.9962456581
 11
227.7687838988
 21
186.0787577437
  0
LINE
  5
2FF
100
AcDbEntity
  8
0
100
AcDbLine
 62
7
  6
CONTINUOUS
 10
214.9146612223
 20
345.0194327015
 11
213.6618930683
 21
261.4211556493
  0
LINE
  5
300
100
AcDbEntity
  8
0
100
AcDbLine
 62
7
  6
CONTINUOUS
 10
215.2330988419
 20
365.6158420776
 11
214.9282380199
 21
345.2722219477
  0
LINE
  5
301
100
AcDbEntity
  8
0
100
AcDbLine
 62
7
  6
CONTINUOUS
 10
370.2148643997
 20
489.3862423308
 11
366.4183442337
 21
487.1943334749
  0
LINE
  5
302
100
AcDbEntity
  8
0
100
AcDbLine
 62
7
  6
CONTINUOUS
 10
367.4739770647
 20
486.5790461103
 11
371.2755473163
 21
488.7738706171
  0
LINE
  5
303
100
AcDbEntity
  8
0
100
AcDbLine
 62
7
  6
CONTINUOUS
 10
105.4045311019
 20
334.9926937875
 11
102.6468261367
 21
333.4005415874
  0
LINE
  5
304
100
AcDbEntity
  8
0
100
AcDbLine
 62
7
  6
CONTINUOUS
 10
104.2407026774
 20
333.4030682106
 11
104.9478065146
 21
333.8113123644
  0
LINE
  5
305
100
AcDbEntity
  8
0
100
AcDbLine
 62
7
  6
CONTINUOUS
 10
105.733704721
 20
333.3618495034
 11
105.0266008838
 21
332.9536053495
  0
LINE
  5
306
100
AcDbEntity
  8
0
100
AcDbLine
 62
7
  6
CONTINUOUS
 10
101.8510635232
 20
331.0554460276
 11
102.5581673604
 21
331.4636901815
  0
LINE
  5
307
100
AcDbEntity
  8
0
100
AcDbLine
 62
7
  6
CONTINUOUS
 10
104.2407026774
 20
330.7635054376
 11
104.9478065146
 21
331.1717495914
  0
LINE
  5
308
100
AcDbEntity
  8
0
100
AcDbLine
 62
7
  6
CONTINUOUS
 10
104.2407026774
 20
329.67581843
 11
104.9478065146
 21
330.0840625839
  0
LINE
  5
309
100
AcDbEntity
  8
0
100
AcDbLine
 62
7
  6
CONTINUOUS
 10
375.8011277603
 20
486.1610846386
 11
375.1640208843
 21
485.7932530079
  0
LINE
  5
30A
100
AcDbEntity
  8
0
100
AcDbLine
 62
7
  6
CONTINUOUS
 10
105.0266008838
 20
329.2220901537
 11
105.733704721
 21
329.6303343076
  0
LINE
  5
30B
100
AcDbEntity
  8
0
100
AcDbLine
 62
7
  6
CONTINUOUS
 10
107.4283063742
 20
328.9231832188
 11
108.1354102114
 21
329.3314273727
  0
LINE
  5
30C
100
AcDbEntity
  8
0
100
AcDbLine
 62
7
  6
CONTINUOUS
 10
104.9478065146
 20
327.3469755786
 11
104.2407026774
 21
326.9387314247
  0
LINE
  5
30D
100
AcDbEntity
  8
0
100
AcDbLine
 62
7
  6
CONTINUOUS
 10
108.14967468
 20
328.2355049567
 11
107.4425708428
 21
327.8272608028
  0
LINE
  5
30E
100
AcDbEntity
  8
0
100
AcDbLine
 62
7
  6
CONTINUOUS
 10
109.4045131944
 20
328.0644802184
 11
106.6468082292
 21
326.4723280183
  0
LINE
  5
30F
100
AcDbEntity
  8
0
100
AcDbLine
 62
7
  6
CONTINUOUS
 10
380.5863924974
 20
483.1091594338
 11
398.2707490303
 21
493.319166493
  0
LINE
  5
310
100
AcDbEntity
  8
0
100
AcDbLine
 62
7
  6
CONTINUOUS
 10
105.990290922
 20
404.1972462019
 11
203.5714329922
 21
347.8600220781
  0
LINE
  5
311
100
AcDbEntity
  8
0
100
AcDbLine
 62
7
  6
CONTINUOUS
 10
104.2149616066
 20
406.4382257479
 11
206.745871753
 21
347.2433163425
  0
LINE
  5
312
100
AcDbEntity
  8
0
100
AcDbLine
 62
7
  6
CONTINUOUS
 10
96.1202273977
 20
413.6038794609
 11
214.9146612222
 21
345.0194327016
  0
LINE
  5
313
100
AcDbEntity
  8
0
100
AcDbLine
 62
7
  6
CONTINUOUS
 10
96.1338041954
 20
413.856668707
 11
214.9282380199
 21
345.2722219477
  0
LINE
  5
314
100
AcDbEntity
  8
0
100
AcDbLine
 62
7
  6
CONTINUOUS
 10
231.6578873871
 20
179.7509215082
 11
231.6578873871
 21
183.8334335939
  0
LINE
  5
315
100
AcDbEntity
  8
0
100
AcDbLine
 62
7
  6
CONTINUOUS
 10
232.0114069221
 20
188.528222667
 11
232.0114069221
 21
184.4457105813
  0
LINE
  5
316
100
AcDbEntity
  8
0
100
AcDbLine
 62
7
  6
CONTINUOUS
 10
234.1680574337
 20
252.0316284934
 11
234.1680574337
 21
241.0088458621
  0
LINE
  5
317
100
AcDbEntity
  8
0
100
AcDbLine
 62
7
  6
CONTINUOUS
 10
234.3095488564
 20
182.3025307644
 11
234.3095488564
 21
178.2200186788
  0
LINE
  5
318
100
AcDbEntity
  8
0
100
AcDbLine
 62
7
  6
CONTINUOUS
 10
235.5822709961
 20
241.0088492615
 11
235.5822709961
 21
252.0316318927
  0
LINE
  5
319
100
AcDbEntity
  8
0
100
AcDbLine
 62
7
  6
CONTINUOUS
 10
238.5521895435
 20
178.2200288768
 11
238.5521895435
 21
182.3025409625
  0
LINE
  5
31A
100
AcDbEntity
  8
0
100
AcDbLine
 62
7
  6
CONTINUOUS
 10
243.9118704603
 20
371.7403521594
 11
243.9118704603
 21
396.2354246733
  0
LINE
  5
31B
100
AcDbEntity
  8
0
100
AcDbLine
 62
7
  6
CONTINUOUS
 10
244.774697423
 20
246.724502084
 11
244.774697423
 21
235.7017194527
  0
LINE
  5
31C
100
AcDbEntity
  8
0
100
AcDbLine
 62
7
  6
CONTINUOUS
 10
246.1889109854
 20
235.7017228521
 11
246.1889109854
 21
246.7245054833
  0
LINE
  5
31D
100
AcDbEntity
  8
0
100
AcDbLine
 62
7
  6
CONTINUOUS
 10
398.2612244516
 20
493.3136675078
 11
398.6764170284
 21
493.5773291356
  0
LINE
  5
31E
100
AcDbEntity
  8
0
100
AcDbLine
 62
7
  6
CONTINUOUS
 10
242.356229065
 20
397.1335543332
 11
424.7861906508
 21
502.4589130554
  0
LINE
  5
31F
100
AcDbEntity
  8
0
100
AcDbLine
 62
7
  6
CONTINUOUS
 10
243.9118704603
 20
396.2354246733
 11
426.3418320461
 21
501.5607833955
  0
LINE
  5
320
100
AcDbEntity
  8
0
100
AcDbLine
 62
7
  6
CONTINUOUS
 10
61.7747582567
 20
284.3627295926
 11
72.7349766603
 21
290.6905768661
  0
LINE
  5
321
100
AcDbEntity
  8
0
100
AcDbLine
 62
7
  6
CONTINUOUS
 10
64.4264373898
 20
280.3823720379
 11
68.6690604131
 21
282.8318369612
  0
LINE
  5
322
100
AcDbEntity
  8
0
100
AcDbLine
 62
7
  6
CONTINUOUS
 10
64.4264373898
 20
276.2998599523
 11
68.6690604131
 21
278.7493248755
  0
LINE
  5
323
100
AcDbEntity
  8
0
100
AcDbLine
 62
7
  6
CONTINUOUS
 10
68.3155408781
 20
278.1370478881
 11
72.5581639014
 21
280.5865128113
  0
LINE
  5
324
100
AcDbEntity
  8
0
100
AcDbLine
 62
7
  6
CONTINUOUS
 10
96.4386650165
 20
434.2002888374
 11
215.2330988422
 21
365.6158420774
  0
LINE
  5
325
100
AcDbEntity
  8
0
100
AcDbLine
 62
7
  6
CONTINUOUS
 10
159.3949261083
 20
401.2287442613
 11
160.3668456364
 21
400.6676189545
  0
LINE
  5
326
100
AcDbEntity
  8
0
100
AcDbLine
 62
7
  6
CONTINUOUS
 10
140.5919222668
 20
420.9561689077
 11
107.0466367198
 21
440.3231104095
  0
LINE
  5
327
100
AcDbEntity
  8
0
100
AcDbLine
 62
7
  6
CONTINUOUS
 10
167.8552236713
 20
405.2160505863
 11
225.8382211333
 21
371.7403087157
  0
LINE
  5
328
100
AcDbEntity
  8
0
100
AcDbLine
 62
7
  6
CONTINUOUS
 10
111.2892598182
 20
438.6900631982
 11
144.3105991426
 21
419.6256153457
  0
LINE
  5
329
100
AcDbEntity
  8
0
100
AcDbLine
 62
7
  6
CONTINUOUS
 10
111.656953973
 20
438.8860204842
 11
145.173954945
 21
419.5354087199
  0
LINE
  5
32A
100
AcDbEntity
  8
0
100
AcDbLine
 62
7
  6
CONTINUOUS
 10
169.073710186
 20
486.5689646814
 11
172.6092587972
 21
480.445248818
  0
LINE
  5
32B
100
AcDbEntity
  8
0
100
AcDbLine
 62
7
  6
CONTINUOUS
 10
254.8219444428
 20
345.2723178404
 11
254.5170810824
 21
365.6159365047
  0
LINE
  5
32C
100
AcDbEntity
  8
0
100
AcDbLine
 62
7
  6
CONTINUOUS
 10
256.0882999391
 20
261.4212576298
 11
254.8355213535
 21
345.0195286595
  0
LINE
  5
32D
100
AcDbEntity
  8
0
100
AcDbLine
 62
7
  6
CONTINUOUS
 10
258.7399393287
 20
262.9521732069
 11
258.7337680056
 21
263.3639873499
  0
LINE
  5
32E
100
AcDbEntity
  8
0
100
AcDbLine
 62
7
  6
CONTINUOUS
 10
253.5975628217
 20
370.004191404
 11
253.5975628217
 21
370.3725762855
  0
LINE
  5
32F
100
AcDbEntity
  8
0
100
AcDbLine
 62
7
  6
CONTINUOUS
 10
257.742900289
 20
370.4328626943
 11
257.742900289
 21
370.0803121575
  0
LINE
  5
330
100
AcDbEntity
  8
0
100
AcDbLine
 62
7
  6
CONTINUOUS
 10
261.7377830998
 20
266.7285121192
 11
261.7377830998
 21
263.4625024506
  0
LINE
  5
331
100
AcDbEntity
  8
0
100
AcDbLine
 62
7
  6
CONTINUOUS
 10
262.2754879544
 20
261.3192206428
 11
262.2754879544
 21
260.9109694343
  0
LINE
  5
332
100
AcDbEntity
  8
0
100
AcDbLine
 62
7
  6
CONTINUOUS
 10
262.6547273115
 20
264.3896168149
 11
262.6547273115
 21
265.206119232
  0
LINE
  5
333
100
AcDbEntity
  8
0
100
AcDbLine
 62
7
  6
CONTINUOUS
 10
263.233665756
 20
267.7093266432
 11
263.233665756
 21
268.5972940838
  0
LINE
  5
334
100
AcDbEntity
  8
0
100
AcDbLine
 62
7
  6
CONTINUOUS
 10
263.654460894
 20
264.6776792223
 11
263.654460894
 21
263.8611768051
  0
LINE
  5
335
100
AcDbEntity
  8
0
100
AcDbLine
 62
7
  6
CONTINUOUS
 10
265.112066324
 20
266.6248561037
 11
265.112066324
 21
265.8083536865
  0
LINE
  5
336
100
AcDbEntity
  8
0
100
AcDbLine
 62
7
  6
CONTINUOUS
 10
265.8810796789
 20
267.0688435209
 11
265.8810796789
 21
266.2523411038
  0
LINE
  5
337
100
AcDbEntity
  8
0
100
AcDbLine
 62
7
  6
CONTINUOUS
 10
266.8385996478
 20
266.5160316154
 11
266.8385996478
 21
265.6995291983
  0
LINE
  5
338
100
AcDbEntity
  8
0
100
AcDbLine
 62
7
  6
CONTINUOUS
 10
268.4186938935
 20
263.4910633489
 11
268.4186938935
 21
264.7158169745
  0
LINE
  5
339
100
AcDbEntity
  8
0
100
AcDbLine
 62
7
  6
CONTINUOUS
 10
268.6246548724
 20
268.6528379422
 11
268.6246548724
 21
267.8363355251
  0
LINE
  5
33A
100
AcDbEntity
  8
0
100
AcDbLine
 62
7
  6
CONTINUOUS
 10
269.2246776175
 20
265.1384600221
 11
269.2246776175
 21
263.9137063964
  0
LINE
  5
33B
100
AcDbEntity
  8
0
100
AcDbLine
 62
7
  6
CONTINUOUS
 10
381.3712570348
 20
484.5782465889
 11
398.2707089515
 21
498.8769195217
  0
LINE
  5
33C
100
AcDbEntity
  8
0
100
AcDbLine
 62
7
  6
CONTINUOUS
 10
72.7349827698
 20
276.4020350074
 11
72.0278669351
 21
275.9937839268
  0
LINE
  5
33D
100
AcDbEntity
  8
0
100
AcDbLine
 62
7
  6
CONTINUOUS
 10
197.328795371
 20
347.2415890703
 11
194.5710904058
 21
345.6494368702
  0
LINE
  5
33E
100
AcDbEntity
  8
0
100
AcDbLine
 62
7
  6
CONTINUOUS
 10
196.0103205853
 20
345.7102570941
 11
196.7174244225
 21
346.1185012479
  0
LINE
  5
33F
100
AcDbEntity
  8
0
100
AcDbLine
 62
7
  6
CONTINUOUS
 10
193.7426929595
 20
343.8377627576
 11
194.2928267214
 21
344.1553807371
  0
LINE
  5
340
100
AcDbEntity
  8
0
100
AcDbLine
 62
7
  6
CONTINUOUS
 10
197.9180055927
 20
345.4055323888
 11
197.2109017554
 21
344.9972882349
  0
LINE
  5
341
100
AcDbEntity
  8
0
100
AcDbLine
 62
7
  6
CONTINUOUS
 10
243.9118704603
 20
371.7403521594
 11
426.3418320461
 21
477.0657108816
  0
LINE
  5
342
100
AcDbEntity
  8
0
100
AcDbLine
 62
7
  6
CONTINUOUS
 10
203.5714329922
 20
347.8600220781
 11
202.1572253178
 21
347.0435337704
  0
LINE
  5
343
100
AcDbEntity
  8
0
100
AcDbLine
 62
7
  6
CONTINUOUS
 10
196.0103205853
 20
343.1638076248
 11
196.7174244225
 21
343.5720517787
  0
LINE
  5
344
100
AcDbEntity
  8
0
100
AcDbLine
 62
7
  6
CONTINUOUS
 10
196.0103205853
 20
342.5285769551
 11
196.7174244225
 21
342.936821109
  0
LINE
  5
345
100
AcDbEntity
  8
0
100
AcDbLine
 62
7
  6
CONTINUOUS
 10
197.2109017554
 20
341.8354367743
 11
197.7610355173
 21
342.1530547539
  0
LINE
  5
346
100
AcDbEntity
  8
0
100
AcDbLine
 62
7
  6
CONTINUOUS
 10
199.342103929
 20
341.2402451313
 11
200.0492077662
 21
341.6484892851
  0
LINE
  5
347
100
AcDbEntity
  8
0
100
AcDbLine
 62
7
  6
CONTINUOUS
 10
196.7174244225
 20
339.7161434575
 11
196.0103205853
 21
339.3078993036
  0
LINE
  5
348
100
AcDbEntity
  8
0
100
AcDbLine
 62
7
  6
CONTINUOUS
 10
200.1065737819
 20
340.9801390801
 11
199.3994699447
 21
340.5718949262
  0
LINE
  5
349
100
AcDbEntity
  8
0
100
AcDbLine
 62
7
  6
CONTINUOUS
 10
204.2785544932
 20
343.3693042554
 11
205.6927621677
 21
344.1857925632
  0
LINE
  5
34A
100
AcDbEntity
  8
0
100
AcDbLine
 62
7
  6
CONTINUOUS
 10
201.3287774635
 20
340.3133755011
 11
198.5710724983
 21
338.721223301
  0
LINE
  5
34B
100
AcDbEntity
  8
0
100
AcDbLine
 62
7
  6
CONTINUOUS
 10
256.5031015893
 20
369.717068854
 11
257.742900289
 21
370.4328626943
  0
LINE
  5
34C
100
AcDbEntity
  8
0
100
AcDbLine
 62
7
  6
CONTINUOUS
 10
426.2080225206
 20
467.6956657831
 11
427.5277412248
 21
468.4576011841
  0
LINE
  5
34D
100
AcDbEntity
  8
0
100
AcDbLine
 62
7
  6
CONTINUOUS
 10
342.5697676899
 20
419.0621122198
 11
342.9057270102
 21
419.256077266
  0
LINE
  5
34E
100
AcDbEntity
  8
0
100
AcDbLine
 62
7
  6
CONTINUOUS
 10
254.5170810818
 20
365.6159365044
 11
436.949871084
 21
470.9429282038
  0
LINE
  5
34F
100
AcDbEntity
  8
0
100
AcDbLine
 62
7
  6
CONTINUOUS
 10
343.5923997943
 20
311.9414716714
 11
347.12794842
 21
309.9002678988
  0
LINE
  5
350
100
AcDbEntity
  8
0
100
AcDbLine
 62
7
  6
CONTINUOUS
 10
343.5862284712
 20
312.3532858145
 11
347.12794842
 21
310.3085191074
  0
LINE
  5
351
100
AcDbEntity
  8
0
100
AcDbLine
 62
7
  6
CONTINUOUS
 10
349.7964327355
 20
314.700603583
 11
350.2602318159
 21
314.4328351168
  0
LINE
  5
352
100
AcDbEntity
  8
0
100
AcDbLine
 62
7
  6
CONTINUOUS
 10
106.6764633582
 20
455.1955936573
 11
105.7351905366
 21
455.7390254802
  0
LINE
  5
353
100
AcDbEntity
  8
0
100
AcDbLine
 62
7
  6
CONTINUOUS
 10
253.5975628217
 20
370.3725762855
 11
254.4623959139
 21
369.8732759626
  0
LINE
  5
354
100
AcDbEntity
  8
0
100
AcDbLine
 62
7
  6
CONTINUOUS
 10
349.7964327355
 20
315.4043710738
 11
350.8697210545
 21
314.7847217923
  0
LINE
  5
355
100
AcDbEntity
  8
0
100
AcDbLine
 62
7
  6
CONTINUOUS
 10
353.0681000307
 20
313.5155158118
 11
354.1008771339
 21
312.9192551625
  0
LINE
  5
356
100
AcDbEntity
  8
0
100
AcDbLine
 62
7
  6
CONTINUOUS
 10
347.2209494559
 20
317.0040283262
 11
349.7964327355
 21
315.5171060001
  0
LINE
  5
357
100
AcDbEntity
  8
0
100
AcDbLine
 62
7
  6
CONTINUOUS
 10
350.9673537603
 20
314.8410897248
 11
353.0681000307
 21
313.6282507381
  0
LINE
  5
358
100
AcDbEntity
  8
0
100
AcDbLine
 62
7
  6
CONTINUOUS
 10
350.7594829462
 20
315.2566175625
 11
351.930403971
 21
314.5806012871
  0
LINE
  5
359
100
AcDbEntity
  8
0
100
AcDbLine
 62
7
  6
CONTINUOUS
 10
348.1142727742
 20
317.6002982351
 11
350.7594829462
 21
316.0731199796
  0
LINE
  5
35A
100
AcDbEntity
  8
0
100
AcDbLine
 62
7
  6
CONTINUOUS
 10
351.930403971
 20
315.3971037042
 11
354.1008771339
 21
314.1440087882
  0
LINE
  5
35B
100
AcDbEntity
  8
0
100
AcDbLine
 62
7
  6
CONTINUOUS
 10
167.8552236713
 20
429.7111231002
 11
225.8382211333
 21
396.2353812296
  0
LINE
  5
35C
100
AcDbEntity
  8
0
100
AcDbLine
 62
7
  6
CONTINUOUS
 10
169.4108521131
 20
430.6092602387
 11
227.3938495752
 21
397.1335183681
  0
LINE
  5
35D
100
AcDbEntity
  8
0
100
AcDbLine
 62
7
  6
CONTINUOUS
 10
164.1120107109
 20
433.9126912587
 11
129.1223816582
 21
454.1135060076
  0
LINE
  5
35E
100
AcDbEntity
  8
0
100
AcDbLine
 62
7
  6
CONTINUOUS
 10
164.1120107109
 20
434.3209320133
 11
129.8294884394
 21
454.1135077073
  0
LINE
  5
35F
100
AcDbEntity
  8
0
100
AcDbLine
 62
7
  6
CONTINUOUS
 10
270.2377830998
 20
266.7285121192
 11
270.2377830998
 21
263.4625024506
  0
LINE
  5
360
100
AcDbEntity
  8
0
100
AcDbLine
 62
7
  6
CONTINUOUS
 10
275.4510787623
 20
553.3426016548
 11
275.4510787623
 21
553.7321095062
  0
LINE
  5
361
100
AcDbEntity
  8
0
100
AcDbLine
 62
7
  6
CONTINUOUS
 10
279.8672818632
 20
553.736360922
 11
279.8672818632
 21
553.4414040538
  0
LINE
  5
362
100
AcDbEntity
  8
0
100
AcDbLine
 62
7
  6
CONTINUOUS
 10
152.9129921852
 20
299.4514119059
 11
150.4013022427
 21
298.0012956975
  0
LINE
  5
363
100
AcDbEntity
  8
0
100
AcDbLine
 62
7
  6
CONTINUOUS
 10
149.1616661767
 20
297.2855957532
 11
147.0831686058
 21
296.0855817843
  0
LINE
  5
364
100
AcDbEntity
  8
0
100
AcDbLine
 62
7
  6
CONTINUOUS
 10
147.0831686058
 20
295.2690793671
 11
149.1616661767
 21
296.4690933361
  0
LINE
  5
365
100
AcDbEntity
  8
0
100
AcDbLine
 62
7
  6
CONTINUOUS
 10
150.4013022427
 20
297.1847932804
 11
152.9129921852
 21
298.6349094888
  0
LINE
  5
366
100
AcDbEntity
  8
0
100
AcDbLine
 62
7
  6
CONTINUOUS
 10
154.250889433
 20
298.7199472742
 11
151.7037324459
 21
297.2493542803
  0
LINE
  5
367
100
AcDbEntity
  8
0
100
AcDbLine
 62
7
  6
CONTINUOUS
 10
150.4640963799
 20
296.533654336
 11
148.3501317644
 21
295.3131635815
  0
LINE
  5
368
100
AcDbEntity
  8
0
100
AcDbLine
 62
7
  6
CONTINUOUS
 10
94.3746999075
 20
259.0096136836
 11
98.4916617394
 21
261.3865285173
  0
LINE
  5
369
100
AcDbEntity
  8
0
100
AcDbLine
 62
7
  6
CONTINUOUS
 10
254.8219444428
 20
345.2723178404
 11
437.2547344438
 21
450.5993095392
  0
LINE
  5
36A
100
AcDbEntity
  8
0
100
AcDbLine
 62
7
  6
CONTINUOUS
 10
254.8355213537
 20
345.0195286596
 11
437.2683113545
 21
450.3465203582
  0
LINE
  5
36B
100
AcDbEntity
  8
0
100
AcDbLine
 62
7
  6
CONTINUOUS
 10
154.4414830269
 20
291.937145507
 11
158.168787162
 21
293.8747675582
  0
LINE
  5
36C
100
AcDbEntity
  8
0
100
AcDbLine
 62
7
  6
CONTINUOUS
 10
158.162292465
 20
293.463140111
 11
154.441483027
 21
291.5288942985
  0
LINE
  5
36D
100
AcDbEntity
  8
0
100
AcDbLine
 62
7
  6
CONTINUOUS
 10
130.1830344701
 20
455.1341146926
 11
164.1688426914
 21
435.5128430599
  0
LINE
  5
36E
100
AcDbEntity
  8
0
100
AcDbLine
 62
7
  6
CONTINUOUS
 10
151.7497633284
 20
452.4804505106
 11
170.4847961313
 21
441.6640189789
  0
LINE
  5
36F
100
AcDbEntity
  8
0
100
AcDbLine
 62
7
  6
CONTINUOUS
 10
115.5649446307
 20
246.7756969566
 11
119.6819064627
 21
249.1526117903
  0
LINE
  5
370
100
AcDbEntity
  8
0
100
AcDbLine
 62
7
  6
CONTINUOUS
 10
181.7986023841
 20
448.1960090738
 11
157.4065940261
 21
462.2784230786
  0
LINE
  5
371
100
AcDbEntity
  8
0
100
AcDbLine
 62
7
  6
CONTINUOUS
 10
180.0341052308
 20
460.4742872661
 11
163.0634718273
 21
470.2720653746
  0
LINE
  5
372
100
AcDbEntity
  8
0
100
AcDbLine
 62
7
  6
CONTINUOUS
 10
166.5989910133
 20
472.313286144
 11
183.5696244168
 21
462.5155080355
  0
LINE
  5
373
100
AcDbEntity
  8
0
100
AcDbLine
 62
7
  6
CONTINUOUS
 10
346.5905038804
 20
315.7178103869
 11
347.5071877771
 21
314.1954176966
  0
LINE
  5
374
100
AcDbEntity
  8
0
100
AcDbLine
 62
7
  6
CONTINUOUS
 10
197.328795371
 20
281.9213956999
 11
194.5710904058
 21
280.3292434998
  0
LINE
  5
375
100
AcDbEntity
  8
0
100
AcDbLine
 62
7
  6
CONTINUOUS
 10
196.1434416664
 20
280.3404936201
 11
196.8505455036
 21
280.7487377739
  0
LINE
  5
376
100
AcDbEntity
  8
0
100
AcDbLine
 62
7
  6
CONTINUOUS
 10
193.7753277923
 20
277.98414794
 11
194.4824316295
 21
278.3923920939
  0
LINE
  5
377
100
AcDbEntity
  8
0
100
AcDbLine
 62
7
  6
CONTINUOUS
 10
197.9180055927
 20
280.0853390184
 11
197.2109017554
 21
279.6770948645
  0
LINE
  5
378
100
AcDbEntity
  8
0
100
AcDbLine
 62
7
  6
CONTINUOUS
 10
196.1434416664
 20
277.6015470206
 11
196.8505455036
 21
278.0097911744
  0
LINE
  5
379
100
AcDbEntity
  8
0
100
AcDbLine
 62
7
  6
CONTINUOUS
 10
196.1434416664
 20
276.6169476875
 11
196.8505455036
 21
277.0251918414
  0
LINE
  5
37A
100
AcDbEntity
  8
0
100
AcDbLine
 62
7
  6
CONTINUOUS
 10
197.2109017554
 20
276.00066326
 11
197.9180055927
 21
276.4089074138
  0
LINE
  5
37B
100
AcDbEntity
  8
0
100
AcDbLine
 62
7
  6
CONTINUOUS
 10
205.6927621677
 20
280.0903528185
 11
204.2785544932
 21
279.2738645108
  0
LINE
  5
37C
100
AcDbEntity
  8
0
100
AcDbLine
 62
7
  6
CONTINUOUS
 10
196.8505455036
 20
274.2918086841
 11
196.1434416664
 21
273.8835645303
  0
LINE
  5
37D
100
AcDbEntity
  8
0
100
AcDbLine
 62
7
  6
CONTINUOUS
 10
199.367569754
 20
275.7401379119
 11
200.0746735912
 21
276.1483820658
  0
LINE
  5
37E
100
AcDbEntity
  8
0
100
AcDbLine
 62
7
  6
CONTINUOUS
 10
200.0739389491
 20
275.164206869
 11
199.3668351119
 21
274.7559627151
  0
LINE
  5
37F
100
AcDbEntity
  8
0
100
AcDbLine
 62
7
  6
CONTINUOUS
 10
133.4252937546
 20
236.4642528582
 11
137.5422555866
 21
238.8411676918
  0
LINE
  5
380
100
AcDbEntity
  8
0
100
AcDbLine
 62
7
  6
CONTINUOUS
 10
201.3287774635
 20
274.9931821307
 11
198.5710724983
 21
273.4010299306
  0
LINE
  5
381
100
AcDbEntity
  8
0
100
AcDbLine
 62
7
  6
CONTINUOUS
 10
203.51808655
 20
275.2836004315
 11
202.1038788756
 21
274.4671121237
  0
LINE
  5
382
100
AcDbEntity
  8
0
100
AcDbLine
 62
7
  6
CONTINUOUS
 10
173.3163685401
 20
480.0370080788
 11
205.1330290121
 21
461.6680661515
  0
LINE
  5
383
100
AcDbEntity
  8
0
100
AcDbLine
 62
7
  6
CONTINUOUS
 10
183.6118402448
 20
480.4452752763
 11
210.6342968196
 21
464.8442056421
  0
LINE
  5
384
100
AcDbEntity
  8
0
100
AcDbLine
 62
7
  6
CONTINUOUS
 10
471.6135966253
 20
319.3092688037
 11
461.3605056107
 21
325.2287597443
  0
LINE
  5
385
100
AcDbEntity
  8
0
100
AcDbLine
 62
7
  6
CONTINUOUS
 10
187.1473593641
 20
486.5690081694
 11
217.7054257272
 21
468.9266994511
  0
LINE
  5
386
100
AcDbEntity
  8
0
100
AcDbLine
 62
7
  6
CONTINUOUS
 10
343.5923997943
 20
311.9414716714
 11
343.5862284712
 21
312.3532858144
  0
LINE
  5
387
100
AcDbEntity
  8
0
100
AcDbLine
 62
7
  6
CONTINUOUS
 10
338.4367990832
 20
419.0010632822
 11
338.4367990832
 21
419.352898334
  0
LINE
  5
388
100
AcDbEntity
  8
0
100
AcDbLine
 62
7
  6
CONTINUOUS
 10
342.9057270102
 20
419.256077266
 11
342.9057270102
 21
419.1605435001
  0
LINE
  5
389
100
AcDbEntity
  8
0
100
AcDbLine
 62
7
  6
CONTINUOUS
 10
344.6015731633
 20
502.76944227
 11
344.6015731952
 21
501.136437454
  0
LINE
  5
38A
100
AcDbEntity
  8
0
100
AcDbLine
 62
7
  6
CONTINUOUS
 10
269.2246776175
 20
265.1384600221
 11
270.237462598
 21
266.7285118361
  0
LINE
  5
38B
100
AcDbEntity
  8
0
100
AcDbLine
 62
7
  6
CONTINUOUS
 10
154.0101029143
 20
224.5798766091
 11
158.1270647463
 21
226.9567914427
  0
LINE
  5
38C
100
AcDbEntity
  8
0
100
AcDbLine
 62
7
  6
CONTINUOUS
 10
428.44486026
 20
360.930770136
 11
431.9804088857
 21
358.8895663634
  0
LINE
  5
38D
100
AcDbEntity
  8
0
100
AcDbLine
 62
7
  6
CONTINUOUS
 10
428.4386889369
 20
361.342584279
 11
431.9804088857
 21
359.297817572
  0
LINE
  5
38E
100
AcDbEntity
  8
0
100
AcDbLine
 62
7
  6
CONTINUOUS
 10
434.6451281707
 20
363.6877283192
 11
435.039201941
 21
363.4602148689
  0
LINE
  5
38F
100
AcDbEntity
  8
0
100
AcDbLine
 62
7
  6
CONTINUOUS
 10
191.4947394025
 20
504.1880168191
 11
190.574426798
 21
504.7193475287
  0
LINE
  5
390
100
AcDbEntity
  8
0
100
AcDbLine
 62
7
  6
CONTINUOUS
 10
338.4367990831
 20
419.352898334
 11
339.2806719583
 21
418.8656991243
  0
LINE
  5
391
100
AcDbEntity
  8
0
100
AcDbLine
 62
7
  6
CONTINUOUS
 10
432.0705434271
 20
365.9906343041
 11
434.6451281707
 21
364.5042307363
  0
LINE
  5
392
100
AcDbEntity
  8
0
100
AcDbLine
 62
7
  6
CONTINUOUS
 10
435.7463238854
 20
363.8684694769
 11
437.9158969299
 21
362.6158942326
  0
LINE
  5
393
100
AcDbEntity
  8
0
100
AcDbLine
 62
7
  6
CONTINUOUS
 10
433.4442489331
 20
365.5645479996
 11
439.2992376462
 21
362.1842451627
  0
LINE
  5
394
100
AcDbEntity
  8
0
100
AcDbLine
 62
7
  6
CONTINUOUS
 10
436.0236512818
 20
364.4836142577
 11
437.1248469965
 21
363.8478529982
  0
LINE
  5
395
100
AcDbEntity
  8
0
100
AcDbLine
 62
7
  6
CONTINUOUS
 10
346.5902435654
 20
315.7178105837
 11
346.5902435654
 21
312.4518009152
  0
LINE
  5
396
100
AcDbEntity
  8
0
100
AcDbLine
 62
7
  6
CONTINUOUS
 10
347.12794842
 20
310.3085191074
 11
347.12794842
 21
309.9002678988
  0
LINE
  5
397
100
AcDbEntity
  8
0
100
AcDbLine
 62
7
  6
CONTINUOUS
 10
347.5071877771
 20
313.3789152795
 11
347.5071877771
 21
314.1954176966
  0
LINE
  5
398
100
AcDbEntity
  8
0
100
AcDbLine
 62
7
  6
CONTINUOUS
 10
348.1142727742
 20
316.4882795357
 11
348.1142727742
 21
317.6002982351
  0
LINE
  5
399
100
AcDbEntity
  8
0
100
AcDbLine
 62
7
  6
CONTINUOUS
 10
348.7727199252
 20
313.5740248527
 11
348.7727199252
 21
312.7575224356
  0
LINE
  5
39A
100
AcDbEntity
  8
0
100
AcDbLine
 62
7
  6
CONTINUOUS
 10
349.7964327355
 20
315.5171060001
 11
349.7964327355
 21
314.700603583
  0
LINE
  5
39B
100
AcDbEntity
  8
0
100
AcDbLine
 62
7
  6
CONTINUOUS
 10
349.8624470463
 20
501.1364501432
 11
349.8624472179
 21
502.7694548784
  0
LINE
  5
39C
100
AcDbEntity
  8
0
100
AcDbLine
 62
7
  6
CONTINUOUS
 10
350.7594829462
 20
316.0731199796
 11
350.7594829462
 21
315.2566175625
  0
LINE
  5
39D
100
AcDbEntity
  8
0
100
AcDbLine
 62
7
  6
CONTINUOUS
 10
351.8407514046
 20
544.5730292918
 11
351.8407514046
 21
544.0831278415
  0
LINE
  5
39E
100
AcDbEntity
  8
0
100
AcDbLine
 62
7
  6
CONTINUOUS
 10
351.930403971
 20
315.3971037042
 11
351.930403971
 21
314.5806012871
  0
LINE
  5
39F
100
AcDbEntity
  8
0
100
AcDbLine
 62
7
  6
CONTINUOUS
 10
353.0681000307
 20
312.4034971124
 11
353.0681000307
 21
313.6282507381
  0
LINE
  5
3A0
100
AcDbEntity
  8
0
100
AcDbLine
 62
7
  6
CONTINUOUS
 10
353.4771153381
 20
317.6421364068
 11
353.4771153381
 21
316.8256339897
  0
LINE
  5
3A1
100
AcDbEntity
  8
0
100
AcDbLine
 62
7
  6
CONTINUOUS
 10
354.1008771339
 20
314.1440087882
 11
354.1008771339
 21
312.9192551625
  0
LINE
  5
3A2
100
AcDbEntity
  8
0
100
AcDbLine
 62
7
  6
CONTINUOUS
 10
355.0902435654
 20
315.7178105837
 11
355.0902435654
 21
312.4518009152
  0
LINE
  5
3A3
100
AcDbEntity
  8
0
100
AcDbLine
 62
7
  6
CONTINUOUS
 10
463.9768045282
 20
384.7109785016
 11
454.7844546445
 21
379.4038045013
  0
LINE
  5
3A4
100
AcDbEntity
  8
0
100
AcDbLine
 62
7
  6
CONTINUOUS
 10
224.97570755
 20
246.7244544931
 11
234.1680574337
 21
252.0316284934
  0
LINE
  5
3A5
100
AcDbEntity
  8
0
100
AcDbLine
 62
7
  6
CONTINUOUS
 10
172.17316982
 20
214.0936622717
 11
176.2901316519
 21
216.4705771053
  0
LINE
  5
3A6
100
AcDbEntity
  8
0
100
AcDbLine
 62
7
  6
CONTINUOUS
 10
258.7337680056
 20
263.3639873499
 11
261.7377830998
 21
265.0983459204
  0
LINE
  5
3A7
100
AcDbEntity
  8
0
100
AcDbLine
 62
7
  6
CONTINUOUS
 10
343.5862284712
 20
312.3532858144
 11
346.5902435654
 21
314.087644385
  0
LINE
  5
3A8
100
AcDbEntity
  8
0
100
AcDbLine
 62
7
  6
CONTINUOUS
 10
428.4386889369
 20
361.342584279
 11
431.4427040311
 21
363.0769428496
  0
LINE
  5
3A9
100
AcDbEntity
  8
0
100
AcDbLine
 62
7
  6
CONTINUOUS
 10
256.0882999391
 20
261.4212576298
 11
258.7399393287
 21
262.9521732069
  0
LINE
  5
3AA
100
AcDbEntity
  8
0
100
AcDbLine
 62
7
  6
CONTINUOUS
 10
268.621950985
 20
268.6575212405
 11
343.5923997943
 21
311.9414716714
  0
LINE
  5
3AB
100
AcDbEntity
  8
0
100
AcDbLine
 62
7
  6
CONTINUOUS
 10
353.4744114507
 20
317.646819705
 11
428.44486026
 21
360.930770136
  0
LINE
  5
3AC
100
AcDbEntity
  8
0
100
AcDbLine
 62
7
  6
CONTINUOUS
 10
438.3268719164
 20
366.6361181696
 11
438.5210899403
 21
366.7482493287
  0
LINE
  5
3AD
100
AcDbEntity
  8
0
100
AcDbLine
 62
7
  6
CONTINUOUS
 10
262.6547273115
 20
265.206119232
 11
265.112066324
 21
266.6248561037
  0
LINE
  5
3AE
100
AcDbEntity
  8
0
100
AcDbLine
 62
7
  6
CONTINUOUS
 10
265.8810796789
 20
267.0688435209
 11
268.6246548724
 21
268.6528379422
  0
LINE
  5
3AF
100
AcDbEntity
  8
0
100
AcDbLine
 62
7
  6
CONTINUOUS
 10
347.5071877771
 20
314.1954176966
 11
349.7964327355
 21
315.5171060001
  0
LINE
  5
3B0
100
AcDbEntity
  8
0
100
AcDbLine
 62
7
  6
CONTINUOUS
 10
350.7594829462
 20
316.0731199796
 11
353.477115338
 21
317.6421364068
  0
LINE
  5
3B1
100
AcDbEntity
  8
0
100
AcDbLine
 62
7
  6
CONTINUOUS
 10
432.3596482428
 20
363.1847161612
 11
434.6451281707
 21
364.5042307363
  0
LINE
  5
3B2
100
AcDbEntity
  8
0
100
AcDbLine
 62
7
  6
CONTINUOUS
 10
436.0236512818
 20
365.3001166748
 11
438.3295758037
 21
366.6314348714
  0
LINE
  5
3B3
100
AcDbEntity
  8
0
100
AcDbLine
 62
7
  6
CONTINUOUS
 10
262.6547273115
 20
264.3896168149
 11
265.112066324
 21
265.8083536865
  0
LINE
  5
3B4
100
AcDbEntity
  8
0
100
AcDbLine
 62
7
  6
CONTINUOUS
 10
265.8810796789
 20
266.2523411038
 11
268.6246548724
 21
267.8363355251
  0
LINE
  5
3B5
100
AcDbEntity
  8
0
100
AcDbLine
 62
7
  6
CONTINUOUS
 10
347.5071877771
 20
313.3789152795
 11
349.7964327355
 21
314.700603583
  0
LINE
  5
3B6
100
AcDbEntity
  8
0
100
AcDbLine
 62
7
  6
CONTINUOUS
 10
350.7594829462
 20
315.2566175625
 11
353.4771153381
 21
316.8256339897
  0
LINE
  5
3B7
100
AcDbEntity
  8
0
100
AcDbLine
 62
7
  6
CONTINUOUS
 10
432.3596482428
 20
362.368213744
 11
434.6451281707
 21
363.6877283192
  0
LINE
  5
3B8
100
AcDbEntity
  8
0
100
AcDbLine
 62
7
  6
CONTINUOUS
 10
436.0236512818
 20
364.4836142577
 11
438.3295758037
 21
365.8149324542
  0
LINE
  5
3B9
100
AcDbEntity
  8
0
100
AcDbLine
 62
7
  6
CONTINUOUS
 10
269.5399612276
 20
268.075654141
 11
266.8385996478
 21
266.5160316154
  0
LINE
  5
3BA
100
AcDbEntity
  8
0
100
AcDbLine
 62
7
  6
CONTINUOUS
 10
266.0695862928
 20
266.0720441982
 11
263.654460894
 21
264.6776792223
  0
LINE
  5
3BB
100
AcDbEntity
  8
0
100
AcDbLine
 62
7
  6
CONTINUOUS
 10
439.3551064594
 20
365.9519886305
 11
437.1248469965
 21
364.6643554154
  0
LINE
  5
3BC
100
AcDbEntity
  8
0
100
AcDbLine
 62
7
  6
CONTINUOUS
 10
435.7463238854
 20
363.8684694769
 11
433.5365090165
 21
362.5926398831
  0
LINE
  5
3BD
100
AcDbEntity
  8
0
100
AcDbLine
 62
7
  6
CONTINUOUS
 10
354.5534252395
 20
316.9114967
 11
351.930403971
 21
315.3971037042
  0
LINE
  5
3BE
100
AcDbEntity
  8
0
100
AcDbLine
 62
7
  6
CONTINUOUS
 10
350.9673537603
 20
314.8410897248
 11
348.7727199253
 21
313.5740248527
  0
LINE
  5
3BF
100
AcDbEntity
  8
0
100
AcDbLine
 62
7
  6
CONTINUOUS
 10
433.4442489331
 20
366.7893016254
 11
436.0236512818
 21
365.3001166748
  0
LINE
  5
3C0
100
AcDbEntity
  8
0
100
AcDbLine
 62
7
  6
CONTINUOUS
 10
437.1248469965
 20
364.6643554154
 11
439.2992376462
 21
363.4089987884
  0
LINE
  5
3C1
100
AcDbEntity
  8
0
100
AcDbLine
 62
7
  6
CONTINUOUS
 10
366.8031308944
 20
544.0831638066
 11
366.8031308944
 21
544.5730652569
  0
LINE
  5
3C2
100
AcDbEntity
  8
0
100
AcDbLine
 62
7
  6
CONTINUOUS
 10
375.1640208843
 20
486.5289101436
 11
375.1640208843
 21
485.7932530079
  0
LINE
  5
3C3
100
AcDbEntity
  8
0
100
AcDbLine
 62
7
  6
CONTINUOUS
 10
381.3712570348
 20
484.578246589
 11
381.3712570681
 21
483.5622985002
  0
LINE
  5
3C4
100
AcDbEntity
  8
0
100
AcDbLine
 62
7
  6
CONTINUOUS
 10
463.9768045282
 20
373.6881958704
 11
463.6234970564
 21
373.484214924
  0
LINE
  5
3C5
100
AcDbEntity
  8
0
100
AcDbLine
 62
7
  6
CONTINUOUS
 10
224.97570755
 20
235.7016718618
 11
234.1680574337
 21
241.0088458621
  0
LINE
  5
3C6
100
AcDbEntity
  8
0
100
AcDbLine
 62
7
  6
CONTINUOUS
 10
246.1889109854
 20
246.7245054833
 11
463.9768928472
 21
372.4637048757
  0
LINE
  5
3C7
100
AcDbEntity
  8
0
100
AcDbLine
 62
7
  6
CONTINUOUS
 10
190.1521843143
 20
203.7137082395
 11
194.2691461463
 21
206.0906230732
  0
LINE
  5
3C8
100
AcDbEntity
  8
0
100
AcDbLine
 62
7
  6
CONTINUOUS
 10
246.1889109854
 20
235.7017228521
 11
463.9768928472
 21
361.4409222445
  0
LINE
  5
3C9
100
AcDbEntity
  8
0
100
AcDbLine
 62
7
  6
CONTINUOUS
 10
463.9768869593
 20
373.2801897841
 11
454.7844605324
 21
378.5873195929
  0
LINE
  5
3CA
100
AcDbEntity
  8
0
100
AcDbLine
 62
7
  6
CONTINUOUS
 10
463.9767986403
 20
385.52746341
 11
446.9603965824
 21
395.3516654656
  0
LINE
  5
3CB
100
AcDbEntity
  8
0
100
AcDbLine
 62
7
  6
CONTINUOUS
 10
344.6015731633
 20
502.7694422698
 11
336.8587867986
 21
528.7745773104
  0
LINE
  5
3CC
100
AcDbEntity
  8
0
100
AcDbLine
 62
7
  6
CONTINUOUS
 10
346.4852350386
 20
528.7746004495
 11
349.8624472179
 21
502.7694548784
  0
LINE
  5
3CD
100
AcDbEntity
  8
0
100
AcDbLine
 62
7
  6
CONTINUOUS
 10
207.8405897382
 20
193.5015336368
 11
211.9575515701
 21
195.8784484704
  0
LINE
  5
3CE
100
AcDbEntity
  8
0
100
AcDbLine
 62
7
  6
CONTINUOUS
 10
319.1744302657
 20
518.5645702512
 11
327.7425650425
 21
508.0601373511
  0
LINE
  5
3CF
100
AcDbEntity
  8
0
100
AcDbLine
 62
7
  6
CONTINUOUS
 10
454.4915860625
 20
378.9955637468
 11
454.7844546445
 21
379.4038045013
  0
LINE
  5
3D0
100
AcDbEntity
  8
0
100
AcDbLine
 62
7
  6
CONTINUOUS
 10
463.9768045282
 20
384.7109785016
 11
464.2696731102
 21
385.1192192561
  0
LINE
  5
3D1
100
AcDbEntity
  8
0
100
AcDbLine
 62
7
  6
CONTINUOUS
 10
460.6533958856
 20
326.4535029159
 11
223.3493481166
 21
189.4467648766
  0
LINE
  5
3D2
100
AcDbEntity
  8
0
100
AcDbLine
 62
7
  6
CONTINUOUS
 10
224.0564578417
 20
188.222021705
 11
461.3605056107
 21
325.2287597443
  0
LINE
  5
3D3
100
AcDbEntity
  8
0
100
AcDbLine
 62
7
  6
CONTINUOUS
 10
460.4059463421
 20
320.3910843675
 11
457.4994734434
 21
318.7130414736
  0
LINE
  5
3D4
100
AcDbEntity
  8
0
100
AcDbLine
 62
7
  6
CONTINUOUS
 10
227.7687838988
 20
186.0787577437
 11
232.0114069221
 21
188.528222667
  0
LINE
  5
3D5
100
AcDbEntity
  8
0
100
AcDbLine
 62
7
  6
CONTINUOUS
 10
460.4059463421
 20
316.3085722818
 11
457.4994734434
 21
314.6305293879
  0
LINE
  5
3D6
100
AcDbEntity
  8
0
100
AcDbLine
 62
7
  6
CONTINUOUS
 10
227.7687838988
 20
181.9962456581
 11
232.0114069221
 21
184.4457105813
  0
LINE
  5
3D7
100
AcDbEntity
  8
0
100
AcDbLine
 62
7
  6
CONTINUOUS
 10
231.6578873871
 20
183.8334335939
 11
235.9005104104
 21
186.2828985171
  0
LINE
  5
3D8
100
AcDbEntity
  8
0
100
AcDbLine
 62
7
  6
CONTINUOUS
 10
461.3885769317
 20
316.4677173237
 11
464.2950498304
 21
318.1457602176
  0
LINE
  5
3D9
100
AcDbEntity
  8
0
100
AcDbLine
 62
7
  6
CONTINUOUS
 10
238.5521895435
 20
182.3025409625
 11
471.6136142891
 21
316.8598140785
  0
LINE
  5
3DA
100
AcDbEntity
  8
0
100
AcDbLine
 62
7
  6
CONTINUOUS
 10
319.1744703444
 20
513.0068172226
 11
370.9599442574
 21
483.1091362947
  0
LINE
  5
3DB
100
AcDbEntity
  8
0
100
AcDbLine
 62
7
  6
CONTINUOUS
 10
343.6172480591
 20
500.5681404639
 11
347.3039425274
 21
498.4396745726
  0
LINE
  5
3DC
100
AcDbEntity
  8
0
100
AcDbLine
 62
7
  6
CONTINUOUS
 10
380.0939672997
 20
482.9470115085
 11
375.1640208843
 21
485.7932530079
  0
LINE
  5
3DD
100
AcDbEntity
  8
0
100
AcDbLine
 62
7
  6
CONTINUOUS
 10
380.8368625946
 20
483.2537675487
 11
349.8624470463
 21
501.1364501432
  0
LINE
  5
3DE
100
AcDbEntity
  8
0
100
AcDbLine
 62
7
  6
CONTINUOUS
 10
343.5449042371
 20
500.5263729882
 11
375.159984875
 21
482.0991707683
  0
LINE
  5
3DF
100
AcDbEntity
  8
0
100
AcDbLine
 62
7
  6
CONTINUOUS
 10
318.0149588938
 20
513.908952626
 11
319.1839895655
 21
513.0013214221
  0
LINE
  5
3E0
100
AcDbEntity
  8
0
100
AcDbLine
 62
7
  6
CONTINUOUS
 10
431.4429671633
 20
364.7071088501
 11
432.3596482428
 21
363.1847161612
  0
LINE
  5
3E1
100
AcDbEntity
  8
0
100
AcDbLine
 62
7
  6
CONTINUOUS
 10
428.44486026
 20
360.930770136
 11
428.4386889369
 21
361.342584279
  0
LINE
  5
3E2
100
AcDbEntity
  8
0
100
AcDbLine
 62
7
  6
CONTINUOUS
 10
436.9498710837
 20
470.9429282036
 11
437.2547344438
 21
450.5993095392
  0
LINE
  5
3E3
100
AcDbEntity
  8
0
100
AcDbLine
 62
7
  6
CONTINUOUS
 10
437.2683113546
 20
450.3465203583
 11
438.5210899403
 21
366.7482493287
  0
LINE
  5
3E4
100
AcDbEntity
  8
0
100
AcDbLine
 62
7
  6
CONTINUOUS
 10
423.3134510475
 20
467.9765074368
 11
423.3134510475
 21
468.3656603115
  0
LINE
  5
3E5
100
AcDbEntity
  8
0
100
AcDbLine
 62
7
  6
CONTINUOUS
 10
424.7861283565
 20
511.0973233862
 11
424.7861283565
 21
510.607421936
  0
LINE
  5
3E6
100
AcDbEntity
  8
0
100
AcDbLine
 62
7
  6
CONTINUOUS
 10
426.3418320461
 20
501.5607833955
 11
426.3418320461
 21
477.0657108816
  0
LINE
  5
3E7
100
AcDbEntity
  8
0
100
AcDbLine
 62
7
  6
CONTINUOUS
 10
427.5277412248
 20
468.4576011841
 11
427.5277412248
 21
468.082324506
  0
LINE
  5
3E8
100
AcDbEntity
  8
0
100
AcDbLine
 62
7
  6
CONTINUOUS
 10
430.0849697587
 20
482.2830277244
 11
430.0849697587
 21
506.7781002383
  0
LINE
  5
3E9
100
AcDbEntity
  8
0
100
AcDbLine
 62
7
  6
CONTINUOUS
 10
431.4427040311
 20
364.7071090483
 11
431.4427040311
 21
361.4410993798
  0
LINE
  5
3EA
100
AcDbEntity
  8
0
100
AcDbLine
 62
7
  6
CONTINUOUS
 10
431.9804088857
 20
359.297817572
 11
431.9804088857
 21
358.8895663634
  0
LINE
  5
3EB
100
AcDbEntity
  8
0
100
AcDbLine
 62
7
  6
CONTINUOUS
 10
432.3596482428
 20
362.368213744
 11
432.3596482428
 21
363.1847161612
  0
LINE
  5
3EC
100
AcDbEntity
  8
0
100
AcDbLine
 62
7
  6
CONTINUOUS
 10
433.4442489331
 20
365.5645479996
 11
433.4442489331
 21
366.7893016253
  0
LINE
  5
3ED
100
AcDbEntity
  8
0
100
AcDbLine
 62
7
  6
CONTINUOUS
 10
433.5365090165
 20
362.5926398832
 11
433.5365090165
 21
361.776137466
  0
LINE
  5
3EE
100
AcDbEntity
  8
0
100
AcDbLine
 62
7
  6
CONTINUOUS
 10
434.6451281707
 20
364.5042307363
 11
434.6451281707
 21
363.6877283192
  0
LINE
  5
3EF
100
AcDbEntity
  8
0
100
AcDbLine
 62
7
  6
CONTINUOUS
 10
436.0236512818
 20
365.3001166748
 11
436.0236512818
 21
364.4836142577
  0
LINE
  5
3F0
100
AcDbEntity
  8
0
100
AcDbLine
 62
7
  6
CONTINUOUS
 10
437.1248469965
 20
364.6643554154
 11
437.1248469965
 21
363.8478529982
  0
LINE
  5
3F1
100
AcDbEntity
  8
0
100
AcDbLine
 62
7
  6
CONTINUOUS
 10
437.9158969299
 20
361.3911406069
 11
437.9158969299
 21
362.6158942326
  0
LINE
  5
3F2
100
AcDbEntity
  8
0
100
AcDbLine
 62
7
  6
CONTINUOUS
 10
438.3295758037
 20
366.6314348714
 11
438.3295758037
 21
365.8149324542
  0
LINE
  5
3F3
100
AcDbEntity
  8
0
100
AcDbLine
 62
7
  6
CONTINUOUS
 10
439.2992376462
 20
363.4089987884
 11
439.9426703476
 21
364.7071090399
  0
LINE
  5
3F4
100
AcDbEntity
  8
0
100
AcDbLine
 62
7
  6
CONTINUOUS
 10
464.2696731102
 20
374.0964366249
 11
463.9768045282
 21
373.6881958704
  0
LINE
  5
3F5
100
AcDbEntity
  8
0
100
AcDbLine
 62
7
  6
CONTINUOUS
 10
463.9768928472
 20
372.4637048757
 11
464.2697614292
 21
372.8719456303
  0
LINE
  5
3F6
100
AcDbEntity
  8
0
100
AcDbLine
 62
7
  6
CONTINUOUS
 10
464.2697614292
 20
361.849162999
 11
463.9768928472
 21
361.4409222445
  0
LINE
  5
3F7
100
AcDbEntity
  8
0
100
AcDbLine
 62
7
  6
CONTINUOUS
 10
238.5521895435
 20
178.2200288768
 11
471.6136142891
 21
312.7773019929
  0
LINE
  5
3F8
100
AcDbEntity
  8
0
100
AcDbLine
 62
7
  6
CONTINUOUS
 10
381.3712570348
 20
484.578246589
 11
349.8624472179
 21
502.7694548784
  0
LINE
  5
3F9
100
AcDbEntity
  8
0
100
AcDbLine
 62
7
  6
CONTINUOUS
 10
276.4242277389
 20
553.1702743931
 11
275.4510787623
 21
553.7321095062
  0
LINE
  5
3FA
100
AcDbEntity
  8
0
100
AcDbLine
 62
7
  6
CONTINUOUS
 10
423.3134510474
 20
468.3656603115
 11
424.2101602946
 21
467.8479566983
  0
LINE
  5
3FB
100
AcDbEntity
  8
0
100
AcDbLine
 62
7
  6
CONTINUOUS
 10
454.7844605324
 20
378.5873195929
 11
454.4915860625
 21
378.9955637468
  0
LINE
  5
3FC
100
AcDbEntity
  8
0
100
AcDbLine
 62
7
  6
CONTINUOUS
 10
464.2697614292
 20
372.8719456303
 11
463.9768869593
 21
373.2801897841
  0
LINE
  5
3FD
100
AcDbEntity
  8
0
100
AcDbLine
 62
7
  6
CONTINUOUS
 10
464.2696731102
 20
385.1192192561
 11
463.9767986403
 21
385.52746341
  0
LINE
  5
3FE
100
AcDbEntity
  8
0
100
AcDbLine
 62
7
  6
CONTINUOUS
 10
461.3885769317
 20
316.4677173237
 11
461.7793263809
 21
315.1859808382
  0
LINE
  5
3FF
100
AcDbEntity
  8
0
100
AcDbLine
 62
7
  6
CONTINUOUS
 10
445.0836525876
 20
482.4809664842
 11
445.5147598516
 21
462.3164289759
  0
LINE
  5
400
100
AcDbEntity
  8
0
100
AcDbLine
 62
7
  6
CONTINUOUS
 10
445.5339589605
 20
462.0716150691
 11
447.3055131021
 21
379.2092443365
  0
LINE
  5
401
100
AcDbEntity
  8
0
100
AcDbLine
 62
7
  6
CONTINUOUS
 10
439.2992376462
 20
363.4089987884
 11
439.2992376462
 21
362.1842451627
  0
LINE
  5
402
100
AcDbEntity
  8
0
100
AcDbLine
 62
7
  6
CONTINUOUS
 10
439.9427040311
 20
364.7071090483
 11
439.9427040311
 21
361.4410993798
  0
LINE
  5
403
100
AcDbEntity
  8
0
100
AcDbLine
 62
7
  6
CONTINUOUS
 10
454.7844546445
 20
378.5873195929
 11
454.7844546445
 21
379.4038045013
  0
LINE
  5
404
100
AcDbEntity
  8
0
100
AcDbLine
 62
7
  6
CONTINUOUS
 10
457.4994734434
 20
314.6305293879
 11
457.4994734434
 21
318.7130414736
  0
LINE
  5
405
100
AcDbEntity
  8
0
100
AcDbLine
 62
7
  6
CONTINUOUS
 10
398.2707089515
 20
498.8769195217
 11
346.4852350386
 21
528.7746004495
  0
LINE
  5
406
100
AcDbEntity
  8
0
100
AcDbLine
 62
7
  6
CONTINUOUS
 10
436.9497075293
 20
493.6232216855
 11
430.0849697587
 21
497.5864902242
  0
LINE
  5
407
100
AcDbEntity
  8
0
100
AcDbLine
 62
7
  6
CONTINUOUS
 10
348.7147752283
 20
544.564531155
 11
318.1552737037
 21
562.2076684455
  0
LINE
  5
408
100
AcDbEntity
  8
0
100
AcDbLine
 62
7
  6
CONTINUOUS
 10
460.4059463421
 20
320.3910843675
 11
460.4059463421
 21
316.3085722818
  0
LINE
  5
409
100
AcDbEntity
  8
0
100
AcDbLine
 62
7
  6
CONTINUOUS
 10
460.6533958856
 20
326.4535029159
 11
460.6533958856
 21
359.5221118328
  0
LINE
  5
40A
100
AcDbEntity
  8
0
100
AcDbLine
 62
7
  6
CONTINUOUS
 10
461.3885769317
 20
316.4677173237
 11
461.3885769317
 21
314.1241050457
  0
LINE
  5
40B
100
AcDbEntity
  8
0
100
AcDbLine
 62
7
  6
CONTINUOUS
 10
463.9768045282
 20
384.7109785016
 11
463.9768045282
 21
373.6881958704
  0
LINE
  5
40C
100
AcDbEntity
  8
0
100
AcDbLine
 62
7
  6
CONTINUOUS
 10
463.9768928472
 20
372.4637048757
 11
463.9768928472
 21
361.4409222445
  0
LINE
  5
40D
100
AcDbEntity
  8
0
100
AcDbLine
 62
7
  6
CONTINUOUS
 10
464.2696948031
 20
374.0964366249
 11
464.2696948031
 21
385.1192192561
  0
LINE
  5
40E
100
AcDbEntity
  8
0
100
AcDbLine
 62
7
  6
CONTINUOUS
 10
464.2697831221
 20
372.8719456303
 11
464.2697831221
 21
361.849162999
  0
LINE
  5
40F
100
AcDbEntity
  8
0
100
AcDbLine
 62
7
  6
CONTINUOUS
 10
471.6136142891
 20
316.8598140785
 11
471.6136142891
 21
312.7773019929
  0
LINE
  5
410
100
AcDbEntity
  8
0
100
AcDbLine
 62
7
  6
CONTINUOUS
 10
472.4922851137
 20
314.0020242564
 11
472.4922851137
 21
318.0845363421
  0
LINE
  5
411
100
AcDbEntity
  8
0
100
AcDbLine
 62
7
  6
CONTINUOUS
 10
366.8031308944
 20
544.0831638066
 11
424.7861283565
 21
510.607421936
  0
LINE
  5
412
100
AcDbEntity
  8
0
100
AcDbLine
 62
7
  6
CONTINUOUS
 10
424.7861283565
 20
511.0973233862
 11
366.8031308944
 21
544.5730652569
  0
LINE
  5
413
100
AcDbEntity
  8
0
100
AcDbLine
 62
7
  6
CONTINUOUS
 10
426.3417567983
 20
511.9954605247
 11
368.3587593363
 21
545.4712023954
  0
ARC
  5
414
100
AcDbEntity
  8
0
100
AcDbCircle
 62
7
  6
CONTINUOUS
 10
146.9742770647
 20
335.5951527233
 40
19.0754
100
AcDbArc
 50
159.7533381751
 51
260.2463656371
  0
ARC
  5
415
100
AcDbEntity
  8
0
100
AcDbCircle
 62
7
  6
CONTINUOUS
 10
130.7107533864
 20
369.8880137997
 40
19.0754
100
AcDbArc
 50
159.7533381751
 51
260.2463656371
  0
ARC
  5
416
100
AcDbEntity
  8
0
100
AcDbCircle
 62
7
  6
CONTINUOUS
 10
174.5515563455
 20
319.673763297
 40
19.0754
100
AcDbArc
 50
159.7533381751
 51
260.2463656371
  0
ARC
  5
417
100
AcDbEntity
  8
0
100
AcDbCircle
 62
7
  6
CONTINUOUS
 10
160.4093618425
 20
356.0079117784
 40
19.0754
100
AcDbArc
 50
159.7533381751
 51
260.2463656371
  0
ARC
  5
418
100
AcDbEntity
  8
0
100
AcDbCircle
 62
7
  6
CONTINUOUS
 10
190.1079702987
 20
335.59579042
 40
19.0754
100
AcDbArc
 50
159.7533381751
 51
260.2463656371
  0
ARC
  5
419
100
AcDbEntity
  8
0
100
AcDbCircle
 62
7
  6
CONTINUOUS
 10
192.8301967409
 20
305.732229023
 40
13.0486929825
100
AcDbArc
 50
153.0508926974
 51
266.9551009038
  0
ARC
  5
41A
100
AcDbEntity
  8
0
100
AcDbCircle
 62
7
  6
CONTINUOUS
 10
150.4646854866
 20
298.1831547528
 40
7.5165105721
100
AcDbArc
 50
253.7516848992
 51
256.4196232905
  0
ARC
  5
41B
100
AcDbEntity
  8
0
100
AcDbCircle
 62
7
  6
CONTINUOUS
 10
150.0230163452
 20
293.8198268659
 40
4.6463148023
100
AcDbArc
 50
113.7148646987
 51
116.4063054083
  0
ARC
  5
41C
100
AcDbEntity
  8
0
100
AcDbCircle
 62
7
  6
CONTINUOUS
 10
107.6475100526
 20
330.9709194691
 40
4.5190008314
100
AcDbArc
 50
233.3152584603
 51
234.5465587081
  0
ARC
  5
41D
100
AcDbEntity
  8
0
100
AcDbCircle
 62
7
  6
CONTINUOUS
 10
198.9472737778
 20
278.9441439981
 40
4.498804905
100
AcDbArc
 50
184.755612838
 51
187.0447261229
  0
ARC
  5
41E
100
AcDbEntity
  8
0
100
AcDbCircle
 62
7
  6
CONTINUOUS
 10
266.7743733169
 20
263.7786574713
 40
4.4596292472
100
AcDbArc
 50
61.6275818344
 51
65.487243743
  0
ARC
  5
41F
100
AcDbEntity
  8
0
100
AcDbCircle
 62
7
  6
CONTINUOUS
 10
151.5227537409
 20
294.4085600458
 40
4.4457720802
100
AcDbArc
 50
62.2151915809
 51
64.7511483163
  0
ARC
  5
420
100
AcDbEntity
  8
0
100
AcDbCircle
 62
7
  6
CONTINUOUS
 10
106.9302446297
 20
332.0056226611
 40
4.405536342
100
AcDbArc
 50
183.3282055167
 51
187.0659479588
  0
ARC
  5
421
100
AcDbEntity
  8
0
100
AcDbCircle
 62
7
  6
CONTINUOUS
 10
267.1119363143
 20
267.0324682732
 40
3.7670082901
100
AcDbArc
 50
299.957137805
 51
304.1148714332
  0
ARC
  5
422
100
AcDbEntity
  8
0
100
AcDbCircle
 62
7
  6
CONTINUOUS
 10
151.9541214747
 20
297.4873201153
 40
3.5755581995
100
AcDbArc
 50
299.9281691866
 51
307.0898377636
  0
ARC
  5
423
100
AcDbEntity
  8
0
100
AcDbCircle
 62
7
  6
CONTINUOUS
 10
197.160950337
 20
340.5592469398
 40
2.2385553389
100
AcDbArc
 50
359.8242850229
 51
0.3237266841
  0
ARC
  5
424
100
AcDbEntity
  8
0
100
AcDbCircle
 62
7
  6
CONTINUOUS
 10
147.9035334318
 20
297.3459907103
 40
1.4243564059
100
AcDbArc
 50
173.3744941836
 51
179.9827670542
  0
ARC
  5
425
100
AcDbEntity
  8
0
100
AcDbCircle
 62
7
  6
CONTINUOUS
 10
109.2764161582
 20
436.3918587435
 40
26.3130633429
100
AcDbArc
 50
239.6327644736
 51
240.0008621841
  0
ARC
  5
426
100
AcDbEntity
  8
0
100
AcDbCircle
 62
7
  6
CONTINUOUS
 10
97.2676213105
 20
425.1271188026
 40
9.4153212611
100
AcDbArc
 50
177.4038593423
 51
177.8763850975
  0
ARC
  5
427
100
AcDbEntity
  8
0
100
AcDbCircle
 62
7
  6
CONTINUOUS
 10
97.2550743792
 20
425.127572072
 40
9.4027661508
100
AcDbArc
 50
177.8763121234
 51
178.7720795126
  0
ARC
  5
428
100
AcDbEntity
  8
0
100
AcDbCircle
 62
7
  6
CONTINUOUS
 10
97.256334493
 20
425.3727853176
 40
9.3848227692
100
AcDbArc
 50
178.7721700032
 51
179.3726258593
  0
ARC
  5
429
100
AcDbEntity
  8
0
100
AcDbCircle
 62
7
  6
CONTINUOUS
 10
97.2487409477
 20
425.3728693749
 40
9.3772287588
100
AcDbArc
 50
179.3726313982
 51
180.0831401328
  0
ARC
  5
42A
100
AcDbEntity
  8
0
100
AcDbCircle
 62
7
  6
CONTINUOUS
 10
148.6325242538
 20
425.6252211009
 40
7.0046604144
100
AcDbArc
 50
243.8323116189
 51
247.713427498
  0
ARC
  5
42B
100
AcDbEntity
  8
0
100
AcDbCircle
 62
7
  6
CONTINUOUS
 10
150.90907272
 20
425.0468958914
 40
6.3602866125
100
AcDbArc
 50
296.1673868135
 51
299.940563927
  0
ARC
  5
42C
100
AcDbEntity
  8
0
100
AcDbCircle
 62
7
  6
CONTINUOUS
 10
148.2879515687
 20
424.9335701462
 40
6.2319436581
100
AcDbArc
 50
240.0209669308
 51
243.8712803827
  0
ARC
  5
42D
100
AcDbEntity
  8
0
100
AcDbCircle
 62
7
  6
CONTINUOUS
 10
114.2117454017
 20
443.7673371246
 40
5.8582960414
100
AcDbArc
 50
234.2627952911
 51
240.0752123916
  0
ARC
  5
42E
100
AcDbEntity
  8
0
100
AcDbCircle
 62
7
  6
CONTINUOUS
 10
107.7020560947
 20
396.365946061
 40
4.6115968432
100
AcDbArc
 50
231.963431202
 51
234.5318107088
  0
ARC
  5
42F
100
AcDbEntity
  8
0
100
AcDbCircle
 62
7
  6
CONTINUOUS
 10
235.6776833382
 20
498.7798937381
 40
3.909084839
100
AcDbArc
 50
168.5007932104
 51
175.2796940792
  0
ARC
  5
430
100
AcDbEntity
  8
0
100
AcDbCircle
 62
7
  6
CONTINUOUS
 10
278.103913571
 20
523.2745429704
 40
3.909084839
100
AcDbArc
 50
168.5007932104
 51
175.2796940792
  0
ARC
  5
431
100
AcDbEntity
  8
0
100
AcDbCircle
 62
7
  6
CONTINUOUS
 10
106.1178859426
 20
397.2997261073
 40
3.5923964252
100
AcDbArc
 50
177.0757896876
 51
179.7196299608
  0
ARC
  5
432
100
AcDbEntity
  8
0
100
AcDbCircle
 62
7
  6
CONTINUOUS
 10
113.0015400539
 20
442.0198345654
 40
3.341216783
100
AcDbArc
 50
217.951890926
 51
220.5574619495
  0
ARC
  5
433
100
AcDbEntity
  8
0
100
AcDbCircle
 62
7
  6
CONTINUOUS
 10
112.2901568797
 20
439.9463483669
 40
3.0476044204
100
AcDbArc
 50
148.2027756434
 51
149.1074545572
  0
ARC
  5
434
100
AcDbEntity
  8
0
100
AcDbCircle
 62
7
  6
CONTINUOUS
 10
112.1300808405
 20
440.0391746601
 40
2.8625794458
100
AcDbArc
 50
149.0568036461
 51
155.1065113
  0
ARC
  5
435
100
AcDbEntity
  8
0
100
AcDbCircle
 62
7
  6
CONTINUOUS
 10
105.2366860573
 20
393.6305450274
 40
2.2385553495
100
AcDbArc
 50
359.8242850241
 51
0.3237266829
  0
ARC
  5
436
100
AcDbEntity
  8
0
100
AcDbCircle
 62
7
  6
CONTINUOUS
 10
111.9153048336
 20
440.2332128861
 40
2.1035729204
100
AcDbArc
 50
180.0002140372
 51
181.9090067211
  0
ARC
  5
437
100
AcDbEntity
  8
0
100
AcDbCircle
 62
7
  6
CONTINUOUS
 10
129.1223845802
 20
452.5605476832
 40
1.7220450457
100
AcDbArc
 50
88.7078766022
 51
91.2923518115
  0
ARC
  5
438
100
AcDbEntity
  8
0
100
AcDbCircle
 62
7
  6
CONTINUOUS
 10
435.1580200801
 20
360.7906807259
 40
5.0721613038
100
AcDbArc
 50
109.7476361484
 51
114.2999631918
  0
ARC
  5
439
100
AcDbEntity
  8
0
100
AcDbCircle
 62
7
  6
CONTINUOUS
 10
462.3427229669
 20
312.1451117933
 40
4.6282510308
100
AcDbArc
 50
92.6503371411
 51
98.0843554901
  0
ARC
  5
43A
100
AcDbEntity
  8
0
100
AcDbCircle
 62
7
  6
CONTINUOUS
 10
462.2945470151
 20
312.4707848465
 40
4.2990398771
100
AcDbArc
 50
98.0590665703
 51
103.3884856272
  0
ARC
  5
43B
100
AcDbEntity
  8
0
100
AcDbCircle
 62
7
  6
CONTINUOUS
 10
351.9255181284
 20
313.3070482603
 40
3.8432004875
100
AcDbArc
 50
58.0535742093
 51
59.2533560739
  0
ARC
  5
43C
100
AcDbEntity
  8
0
100
AcDbCircle
 62
7
  6
CONTINUOUS
 10
351.9777345834
 20
315.999938091
 40
3.7414357666
100
AcDbArc
 50
299.9470967613
 51
304.5738028661
  0
ARC
  5
43D
100
AcDbEntity
  8
0
100
AcDbCircle
 62
7
  6
CONTINUOUS
 10
348.0361795543
 20
315.7158448099
 40
1.4458824654
100
AcDbArc
 50
167.663666813
 51
179.922109782
  0
ARC
  5
43E
100
AcDbEntity
  8
0
100
AcDbCircle
 62
7
  6
CONTINUOUS
 10
432.888001898
 20
364.7052064214
 40
1.4452441386
100
AcDbArc
 50
167.8161805807
 51
179.9245788529
  0
ARC
  5
43F
100
AcDbEntity
  8
0
100
AcDbCircle
 62
7
  6
CONTINUOUS
 10
424.112131693
 20
473.1341043979
 40
26.3127165008
100
AcDbArc
 50
299.9995509654
 51
300.367661634
  0
ARC
  5
440
100
AcDbEntity
  8
0
100
AcDbCircle
 62
7
  6
CONTINUOUS
 10
436.1207681622
 20
461.8696649122
 40
9.4153043355
100
AcDbArc
 50
2.1235980437
 51
2.596126004
  0
ARC
  5
441
100
AcDbEntity
  8
0
100
AcDbCircle
 62
7
  6
CONTINUOUS
 10
436.1333164817
 20
461.8701182282
 40
9.4027478362
100
AcDbArc
 50
1.2279154653
 51
2.1236710257
  0
ARC
  5
442
100
AcDbEntity
  8
0
100
AcDbCircle
 62
7
  6
CONTINUOUS
 10
436.1320317179
 20
462.1153298197
 40
9.3848291042
100
AcDbArc
 50
0.6273627301
 51
1.2278318378
  0
ARC
  5
443
100
AcDbEntity
  8
0
100
AcDbCircle
 62
7
  6
CONTINUOUS
 10
436.1396269341
 20
462.1154138844
 40
9.3772334229
100
AcDbArc
 50
359.9166774438
 51
0.627357248
  0
SPLINE
  5
444
100
AcDbEntity
  8
0
100
AcDbSpline
 62
7
  6
CONTINUOUS
 70
0
 71
3
 72
23
 73
19
 74
0
 42
0.0000001
 43
0.0000001
 44
0.0000000001
 40
0.0
 40
0.0
 40
0.0
 40
0.0
 40
0.0474275931
 40
0.0922040823
 40
0.1366910573
 40
0.1833287145
 40
0.2340310664
 40
0.2898964834
 40
0.3512395325
 40
0.4177495644
 40
0.4886536211
 40
0.5628514199
 40
0.6390261781
 40
0.7157388762
 40
0.7915202828
 40
0.8649570919
 40
0.934791288
 40
1.0
 40
1.0
 40
1.0
 40
1.0
 10
192.1370649544
 20
292.7019726341
 30
0.0
 10
192.5445992656
 20
292.680159598
 30
0.0
 10
193.3468077919
 20
292.7282976611
 30
0.0
 10
194.4719206952
 20
293.1238132317
 30
0.0
 10
195.4244779415
 20
293.8319475123
 30
0.0
 10
196.1668049892
 20
294.8189763313
 30
0.0
 10
196.6824850342
 20
296.0441791104
 30
0.0
 10
196.9653892053
 20
297.4692599767
 30
0.0
 10
197.0128619621
 20
299.0554758399
 30
0.0
 10
196.8258090151
 20
300.7602888585
 30
0.0
 10
196.4101891638
 20
302.5371786107
 30
0.0
 10
195.7778418776
 20
304.3368440503
 30
0.0
 10
194.9466182734
 20
306.1088302421
 30
0.0
 10
193.9398816448
 20
307.8031202077
 30
0.0
 10
192.786385561
 20
309.3720741828
 30
0.0
 10
191.5180292258
 20
310.7713602139
 30
0.0
 10
190.1712092157
 20
311.9621015852
 30
0.0
 10
189.2080921347
 20
312.6199121319
 30
0.0
 10
188.72214054
 20
312.9004700689
 30
0.0
  0
SPLINE
  5
445
100
AcDbEntity
  8
0
100
AcDbSpline
 62
7
  6
CONTINUOUS
 70
0
 71
3
 72
15
 73
11
 74
0
 42
0.0000001
 43
0.0000001
 44
0.0000000001
 40
0.0
 40
0.0
 40
0.0
 40
0.0
 40
0.1518236333
 40
0.2920188813
 40
0.4211847364
 40
0.5410639987
 40
0.6546923407
 40
0.7661378966
 40
0.8798889979
 40
1.0
 40
1.0
 40
1.0
 40
1.0
 10
188.72214054
 20
312.9004700689
 30
0.0
 10
188.3427549646
 20
313.1195034778
 30
0.0
 10
187.5868482144
 20
313.4982205623
 30
0.0
 10
186.4292251021
 20
313.8832929669
 30
0.0
 10
185.3128670057
 20
314.0548603313
 30
0.0
 10
184.2595372569
 20
314.004835328
 30
0.0
 10
183.292786129
 20
313.7302580299
 30
0.0
 10
182.4384898972
 20
313.2337331555
 30
0.0
 10
181.7205026739
 20
312.5295066122
 30
0.0
 10
181.3555056447
 20
311.9548260628
 30
0.0
 10
181.1984793671
 20
311.6458703907
 30
0.0
  0
SPLINE
  5
446
100
AcDbEntity
  8
0
100
AcDbSpline
 62
7
  6
CONTINUOUS
 70
0
 71
3
 72
26
 73
22
 74
0
 42
0.0000001
 43
0.0000001
 44
0.0000000001
 40
0.0
 40
0.0
 40
0.0
 40
0.0
 40
0.049771491
 40
0.073183568
 40
0.0959147167
 40
0.1182729593
 40
0.1405937613
 40
0.1632153436
 40
0.1864539794
 40
0.2357284966
 40
0.2900518843
 40
0.3500336307
 40
0.4155291006
 40
0.4858320629
 40
0.5598385555
 40
0.6361800203
 40
0.7133359455
 40
0.7897348087
 40
0.8638526361
 40
0.9343111525
 40
1.0
 40
1.0
 40
1.0
 40
1.0
 10
129.0775326084
 20
342.1964164005
 30
0.0
 10
129.2894099424
 20
342.7708334991
 30
0.0
 10
129.6930249874
 20
343.5889395959
 30
0.0
 10
130.4199607362
 20
344.5221745231
 30
0.0
 10
131.0291749852
 20
345.1088750282
 30
0.0
 10
131.7082779447
 20
345.5902158346
 30
0.0
 10
132.4514992083
 20
345.9621144155
 30
0.0
 10
133.2524023172
 20
346.2213812605
 30
0.0
 10
134.4095891148
 20
346.4183639375
 30
0.0
 10
135.9867188346
 20
346.3578529163
 30
0.0
 10
137.9418325109
 20
345.8297002427
 30
0.0
 10
139.9464624091
 20
344.8713453172
 30
0.0
 10
141.9447615047
 20
343.513515636
 30
0.0
 10
143.8804608523
 20
341.797088554
 30
0.0
 10
145.696876846
 20
339.7729767021
 30
0.0
 10
147.3401167877
 20
337.501593612
 30
0.0
 10
148.7609890084
 20
335.0509526982
 30
0.0
 10
149.9168553223
 20
332.4946326403
 30
0.0
 10
150.7730406305
 20
329.9089537074
 30
0.0
 10
151.3039777545
 20
327.3717317387
 30
0.0
 10
151.4353254882
 20
325.6955711196
 30
0.0
 10
151.4353254882
 20
324.8875215272
 30
0.0
  0
SPLINE
  5
447
100
AcDbEntity
  8
0
100
AcDbSpline
 62
7
  6
CONTINUOUS
 70
0
 71
3
 72
15
 73
11
 74
0
 42
0.0000001
 43
0.0000001
 44
0.0000000001
 40
0.0
 40
0.0
 40
0.0
 40
0.0
 40
0.151228102
 40
0.2899517767
 40
0.4170065328
 40
0.5347061083
 40
0.6469266071
 40
0.7586475459
 40
0.8749590593
 40
1.0
 40
1.0
 40
1.0
 40
1.0
 10
151.4353254882
 20
324.8875215272
 30
0.0
 10
151.4353254882
 20
324.2323721844
 30
0.0
 10
151.3553705631
 20
322.9737800926
 30
0.0
 10
150.9602288134
 20
321.2023269302
 30
0.0
 10
150.2993209374
 20
319.665539964
 30
0.0
 10
149.3806463265
 20
318.403010503
 30
0.0
 10
148.2213237786
 20
317.4548596554
 30
0.0
 10
146.8547996931
 20
316.8558005727
 30
0.0
 10
145.3279759637
 20
316.6217289012
 30
0.0
 10
144.2765440528
 20
316.7037131798
 30
0.0
 10
143.7426733815
 20
316.7954880367
 30
0.0
  0
SPLINE
  5
448
100
AcDbEntity
  8
0
100
AcDbSpline
 62
7
  6
CONTINUOUS
 70
0
 71
3
 72
26
 73
22
 74
0
 42
0.0000001
 43
0.0000001
 44
0.0000000001
 40
0.0
 40
0.0
 40
0.0
 40
0.0
 40
0.049771491
 40
0.073183568
 40
0.0959147167
 40
0.1182729593
 40
0.1405937613
 40
0.1632153436
 40
0.1864539794
 40
0.2357284966
 40
0.2900518843
 40
0.3500336307
 40
0.4155291006
 40
0.4858320629
 40
0.5598385555
 40
0.6361800203
 40
0.7133359455
 40
0.7897348087
 40
0.8638526361
 40
0.9343111525
 40
1.0
 40
1.0
 40
1.0
 40
1.0
 10
112.81400893
 20
376.4892774769
 30
0.0
 10
113.025886264
 20
377.0636945756
 30
0.0
 10
113.429501309
 20
377.8818006723
 30
0.0
 10
114.1564370578
 20
378.8150355995
 30
0.0
 10
114.7656513068
 20
379.4017361046
 30
0.0
 10
115.4447542663
 20
379.883076911
 30
0.0
 10
116.1879755299
 20
380.2549754919
 30
0.0
 10
116.9888786389
 20
380.5142423369
 30
0.0
 10
118.1460654364
 20
380.7112250139
 30
0.0
 10
119.7231951562
 20
380.6507139928
 30
0.0
 10
121.6783088325
 20
380.1225613191
 30
0.0
 10
123.6829387308
 20
379.1642063936
 30
0.0
 10
125.6812378264
 20
377.8063767124
 30
0.0
 10
127.6169371739
 20
376.0899496304
 30
0.0
 10
129.4333531676
 20
374.0658377785
 30
0.0
 10
131.0765931093
 20
371.7944546884
 30
0.0
 10
132.49746533
 20
369.3438137746
 30
0.0
 10
133.6533316439
 20
366.7874937167
 30
0.0
 10
134.5095169521
 20
364.2018147838
 30
0.0
 10
135.0404540761
 20
361.6645928151
 30
0.0
 10
135.1718018099
 20
359.988432196
 30
0.0
 10
135.1718018099
 20
359.1803826036
 30
0.0
  0
SPLINE
  5
449
100
AcDbEntity
  8
0
100
AcDbSpline
 62
7
  6
CONTINUOUS
 70
0
 71
3
 72
15
 73
11
 74
0
 42
0.0000001
 43
0.0000001
 44
0.0000000001
 40
0.0
 40
0.0
 40
0.0
 40
0.0
 40
0.151228102
 40
0.2899517767
 40
0.4170065328
 40
0.5347061083
 40
0.6469266071
 40
0.7586475459
 40
0.8749590593
 40
1.0
 40
1.0
 40
1.0
 40
1.0
 10
135.1718018099
 20
359.1803826036
 30
0.0
 10
135.1718018099
 20
358.5252332608
 30
0.0
 10
135.0918468847
 20
357.2666411691
 30
0.0
 10
134.696705135
 20
355.4951880066
 30
0.0
 10
134.035797259
 20
353.9584010404
 30
0.0
 10
133.1171226481
 20
352.6958715794
 30
0.0
 10
131.9578001003
 20
351.7477207319
 30
0.0
 10
130.5912760147
 20
351.1486616491
 30
0.0
 10
129.0644522853
 20
350.9145899777
 30
0.0
 10
128.0130203744
 20
350.9965742562
 30
0.0
 10
127.4791497031
 20
351.0883491131
 30
0.0
  0
SPLINE
  5
44A
100
AcDbEntity
  8
0
100
AcDbSpline
 62
7
  6
CONTINUOUS
 70
0
 71
3
 72
26
 73
22
 74
0
 42
0.0000001
 43
0.0000001
 44
0.0000000001
 40
0.0
 40
0.0
 40
0.0
 40
0.0
 40
0.049771491
 40
0.073183568
 40
0.0959147167
 40
0.1182729593
 40
0.1405937613
 40
0.1632153436
 40
0.1864539794
 40
0.2357284966
 40
0.2900518843
 40
0.3500336307
 40
0.4155291006
 40
0.4858320629
 40
0.5598385555
 40
0.6361800203
 40
0.7133359455
 40
0.7897348087
 40
0.8638526361
 40
0.9343111525
 40
1.0
 40
1.0
 40
1.0
 40
1.0
 10
156.6548118891
 20
326.2750269742
 30
0.0
 10
156.8666892231
 20
326.8494440729
 30
0.0
 10
157.2703042682
 20
327.6675501696
 30
0.0
 10
157.9972400169
 20
328.6007850968
 30
0.0
 10
158.6064542659
 20
329.1874856019
 30
0.0
 10
159.2855572254
 20
329.6688264083
 30
0.0
 10
160.028778489
 20
330.0407249892
 30
0.0
 10
160.829681598
 20
330.2999918342
 30
0.0
 10
161.9868683955
 20
330.4969745112
 30
0.0
 10
163.5639981154
 20
330.43646349
 30
0.0
 10
165.5191117916
 20
329.9083108164
 30
0.0
 10
167.5237416899
 20
328.9499558909
 30
0.0
 10
169.5220407855
 20
327.5921262097
 30
0.0
 10
171.457740133
 20
325.8756991277
 30
0.0
 10
173.2741561267
 20
323.8515872758
 30
0.0
 10
174.9173960684
 20
321.5802041857
 30
0.0
 10
176.3382682891
 20
319.1295632719
 30
0.0
 10
177.494134603
 20
316.573243214
 30
0.0
 10
178.3503199113
 20
313.9875642811
 30
0.0
 10
178.8812570352
 20
311.4503423124
 30
0.0
 10
179.012604769
 20
309.7741816933
 30
0.0
 10
179.012604769
 20
308.9661321009
 30
0.0
  0
SPLINE
  5
44B
100
AcDbEntity
  8
0
100
AcDbSpline
 62
7
  6
CONTINUOUS
 70
0
 71
3
 72
15
 73
11
 74
0
 42
0.0000001
 43
0.0000001
 44
0.0000000001
 40
0.0
 40
0.0
 40
0.0
 40
0.0
 40
0.151228102
 40
0.2899517767
 40
0.4170065328
 40
0.5347061083
 40
0.6469266071
 40
0.7586475459
 40
0.8749590593
 40
1.0
 40
1.0
 40
1.0
 40
1.0
 10
179.012604769
 20
308.9661321009
 30
0.0
 10
179.012604769
 20
308.3109827581
 30
0.0
 10
178.9326498438
 20
307.0523906663
 30
0.0
 10
178.5375080941
 20
305.2809375039
 30
0.0
 10
177.8766002181
 20
303.7441505377
 30
0.0
 10
176.9579256073
 20
302.4816210767
 30
0.0
 10
175.7986030594
 20
301.5334702291
 30
0.0
 10
174.4320789738
 20
300.9344111464
 30
0.0
 10
172.9052552444
 20
300.700339475
 30
0.0
 10
171.8538233335
 20
300.7823237535
 30
0.0
 10
171.3199526622
 20
300.8740986104
 30
0.0
  0
SPLINE
  5
44C
100
AcDbEntity
  8
0
100
AcDbSpline
 62
7
  6
CONTINUOUS
 70
0
 71
3
 72
26
 73
22
 74
0
 42
0.0000001
 43
0.0000001
 44
0.0000000001
 40
0.0
 40
0.0
 40
0.0
 40
0.0
 40
0.049771491
 40
0.073183568
 40
0.0959147167
 40
0.1182729593
 40
0.1405937613
 40
0.1632153436
 40
0.1864539794
 40
0.2357284966
 40
0.2900518843
 40
0.3500336307
 40
0.4155291006
 40
0.4858320629
 40
0.5598385555
 40
0.6361800203
 40
0.7133359455
 40
0.7897348087
 40
0.8638526361
 40
0.9343111525
 40
1.0
 40
1.0
 40
1.0
 40
1.0
 10
142.5126173862
 20
362.6091754555
 30
0.0
 10
142.7244947202
 20
363.1835925542
 30
0.0
 10
143.1281097652
 20
364.001698651
 30
0.0
 10
143.855045514
 20
364.9349335782
 30
0.0
 10
144.464259763
 20
365.5216340833
 30
0.0
 10
145.1433627224
 20
366.0029748896
 30
0.0
 10
145.886583986
 20
366.3748734706
 30
0.0
 10
146.687487095
 20
366.6341403156
 30
0.0
 10
147.8446738926
 20
366.8311229926
 30
0.0
 10
149.4218036124
 20
366.7706119714
 30
0.0
 10
151.3769172887
 20
366.2424592978
 30
0.0
 10
153.3815471869
 20
365.2841043723
 30
0.0
 10
155.3798462825
 20
363.9262746911
 30
0.0
 10
157.3155456301
 20
362.2098476091
 30
0.0
 10
159.1319616237
 20
360.1857357571
 30
0.0
 10
160.7752015655
 20
357.9143526671
 30
0.0
 10
162.1960737862
 20
355.4637117533
 30
0.0
 10
163.3519401001
 20
352.9073916953
 30
0.0
 10
164.2081254083
 20
350.3217127624
 30
0.0
 10
164.7390625323
 20
347.7844907938
 30
0.0
 10
164.870410266
 20
346.1083301747
 30
0.0
 10
164.870410266
 20
345.3002805823
 30
0.0
  0
SPLINE
  5
44D
100
AcDbEntity
  8
0
100
AcDbSpline
 62
7
  6
CONTINUOUS
 70
0
 71
3
 72
15
 73
11
 74
0
 42
0.0000001
 43
0.0000001
 44
0.0000000001
 40
0.0
 40
0.0
 40
0.0
 40
0.0
 40
0.151228102
 40
0.2899517767
 40
0.4170065328
 40
0.5347061083
 40
0.6469266071
 40
0.7586475459
 40
0.8749590593
 40
1.0
 40
1.0
 40
1.0
 40
1.0
 10
164.870410266
 20
345.3002805823
 30
0.0
 10
164.870410266
 20
344.6451312395
 30
0.0
 10
164.7904553408
 20
343.3865391477
 30
0.0
 10
164.3953135912
 20
341.6150859853
 30
0.0
 10
163.7344057152
 20
340.0782990191
 30
0.0
 10
162.8157311043
 20
338.8157695581
 30
0.0
 10
161.6564085564
 20
337.8676187105
 30
0.0
 10
160.2898844709
 20
337.2685596278
 30
0.0
 10
158.7630607415
 20
337.0344879563
 30
0.0
 10
157.7116288306
 20
337.1164722348
 30
0.0
 10
157.1777581592
 20
337.2082470918
 30
0.0
  0
SPLINE
  5
44E
100
AcDbEntity
  8
0
100
AcDbSpline
 62
7
  6
CONTINUOUS
 70
0
 71
3
 72
26
 73
22
 74
0
 42
0.0000001
 43
0.0000001
 44
0.0000000001
 40
0.0
 40
0.0
 40
0.0
 40
0.0
 40
0.049771491
 40
0.073183568
 40
0.0959147167
 40
0.1182729593
 40
0.1405937613
 40
0.1632153436
 40
0.1864539794
 40
0.2357284966
 40
0.2900518843
 40
0.3500336307
 40
0.4155291006
 40
0.4858320629
 40
0.5598385555
 40
0.6361800203
 40
0.7133359455
 40
0.7897348087
 40
0.8638526361
 40
0.9343111525
 40
1.0
 40
1.0
 40
1.0
 40
1.0
 10
172.2112258423
 20
342.1970540972
 30
0.0
 10
172.4231031763
 20
342.7714711959
 30
0.0
 10
172.8267182214
 20
343.5895772926
 30
0.0
 10
173.5536539701
 20
344.5228122198
 30
0.0
 10
174.1628682192
 20
345.1095127249
 30
0.0
 10
174.8419711786
 20
345.5908535313
 30
0.0
 10
175.5851924422
 20
345.9627521122
 30
0.0
 10
176.3860955512
 20
346.2220189572
 30
0.0
 10
177.5432823487
 20
346.4190016342
 30
0.0
 10
179.1204120686
 20
346.3584906131
 30
0.0
 10
181.0755257449
 20
345.8303379394
 30
0.0
 10
183.0801556431
 20
344.8719830139
 30
0.0
 10
185.0784547387
 20
343.5141533327
 30
0.0
 10
187.0141540862
 20
341.7977262507
 30
0.0
 10
188.8305700799
 20
339.7736143988
 30
0.0
 10
190.4738100217
 20
337.5022313087
 30
0.0
 10
191.8946822424
 20
335.0515903949
 30
0.0
 10
193.0505485562
 20
332.495270337
 30
0.0
 10
193.9067338645
 20
329.9095914041
 30
0.0
 10
194.4376709884
 20
327.3723694354
 30
0.0
 10
194.5690187222
 20
325.6962088163
 30
0.0
 10
194.5690187222
 20
324.8881592239
 30
0.0
  0
SPLINE
  5
44F
100
AcDbEntity
  8
0
100
AcDbSpline
 62
7
  6
CONTINUOUS
 70
0
 71
3
 72
15
 73
11
 74
0
 42
0.0000001
 43
0.0000001
 44
0.0000000001
 40
0.0
 40
0.0
 40
0.0
 40
0.0
 40
0.151228102
 40
0.2899517767
 40
0.4170065328
 40
0.5347061083
 40
0.6469266071
 40
0.7586475459
 40
0.8749590593
 40
1.0
 40
1.0
 40
1.0
 40
1.0
 10
194.5690187222
 20
324.8881592239
 30
0.0
 10
194.5690187222
 20
324.2330098811
 30
0.0
 10
194.489063797
 20
322.9744177894
 30
0.0
 10
194.0939220473
 20
321.2029646269
 30
0.0
 10
193.4330141713
 20
319.6661776607
 30
0.0
 10
192.5143395605
 20
318.4036481997
 30
0.0
 10
191.3550170126
 20
317.4554973521
 30
0.0
 10
189.988492927
 20
316.8564382694
 30
0.0
 10
188.4616691977
 20
316.622366598
 30
0.0
 10
187.4102372868
 20
316.7043508765
 30
0.0
 10
186.8763666154
 20
316.7961257334
 30
0.0
  0
SPLINE
  5
450
100
AcDbEntity
  8
0
100
AcDbSpline
 62
7
  6
CONTINUOUS
 70
0
 71
3
 72
13
 73
9
 74
0
 42
0.0000001
 43
0.0000001
 44
0.0000000001
 40
0.0
 40
0.0
 40
0.0
 40
0.0
 40
0.2962831724
 40
0.5799796208
 40
0.7053336341
 40
0.8158181315
 40
0.9123310927
 40
1.0
 40
1.0
 40
1.0
 40
1.0
 10
357.9205317299
 20
496.4766016807
 30
0.0
 10
357.5584040671
 20
496.4022090663
 30
0.0
 10
356.8260609454
 20
496.361726101
 30
0.0
 10
355.9505982128
 20
496.5447636477
 30
0.0
 10
355.3687723723
 20
496.8391548801
 30
0.0
 10
355.0446817843
 20
497.1046482737
 30
0.0
 10
354.8337348012
 20
497.413685828
 30
0.0
 10
354.7827911499
 20
497.6454622166
 30
0.0
 10
354.7827720656
 20
497.7548518881
 30
0.0
  0
SPLINE
  5
451
100
AcDbEntity
  8
0
100
AcDbSpline
 62
7
  6
CONTINUOUS
 70
0
 71
3
 72
9
 73
5
 74
0
 42
0.0000001
 43
0.0000001
 44
0.0000000001
 40
0.0
 40
0.0
 40
0.0
 40
0.0
 40
0.265848733
 40
1.0
 40
1.0
 40
1.0
 40
1.0
 10
355.4710503666
 20
497.4894640405
 30
0.0
 10
355.4299859116
 20
497.4657556079
 30
0.0
 10
355.2785424879
 20
497.3716554136
 30
0.0
 10
355.1390931815
 20
497.2566798704
 30
0.0
 10
355.0511055251
 20
497.159702995
 30
0.0
  0
SPLINE
  5
452
100
AcDbEntity
  8
0
100
AcDbSpline
 62
7
  6
CONTINUOUS
 70
0
 71
3
 72
9
 73
5
 74
0
 42
0.0000001
 43
0.0000001
 44
0.0000000001
 40
0.0
 40
0.0
 40
0.0
 40
0.0
 40
0.2592876831
 40
1.0
 40
1.0
 40
1.0
 40
1.0
 10
355.8764516159
 20
497.6766910116
 30
0.0
 10
355.8401766506
 20
497.6634356041
 30
0.0
 10
355.7013070357
 20
497.6095783955
 30
0.0
 10
355.5665984721
 20
497.5446284357
 30
0.0
 10
355.4710503666
 20
497.4894640405
 30
0.0
  0
SPLINE
  5
453
100
AcDbEntity
  8
0
100
AcDbSpline
 62
7
  6
CONTINUOUS
 70
0
 71
3
 72
9
 73
5
 74
0
 42
0.0000001
 43
0.0000001
 44
0.0000000001
 40
0.0
 40
0.0
 40
0.0
 40
0.0
 40
0.4867431006
 40
1.0
 40
1.0
 40
1.0
 40
1.0
 10
354.7827720656
 20
497.7548518881
 30
0.0
 10
354.7827585102
 20
497.8325506133
 30
0.0
 10
354.8072572069
 20
497.9929622609
 30
0.0
 10
354.8755354076
 20
498.1395092604
 30
0.0
 10
354.9184925579
 20
498.2092759549
 30
0.0
  0
SPLINE
  5
454
100
AcDbEntity
  8
0
100
AcDbSpline
 62
7
  6
CONTINUOUS
 70
0
 71
3
 72
11
 73
7
 74
0
 42
0.0000001
 43
0.0000001
 44
0.0000000001
 40
0.0
 40
0.0
 40
0.0
 40
0.0
 40
0.2898106296
 40
0.5490476628
 40
0.7822298124
 40
1.0
 40
1.0
 40
1.0
 40
1.0
 10
111.656916879
 20
444.029875407
 30
0.0
 10
111.3803766582
 20
443.8702157891
 30
0.0
 10
110.8787622276
 20
443.5249416581
 30
0.0
 10
110.2795944499
 20
442.8947930303
 30
0.0
 10
109.9002843255
 20
442.1981346598
 30
0.0
 10
109.8117319138
 20
441.6979033418
 30
0.0
 10
109.8117319132
 20
441.4579586535
 30
0.0
  0
SPLINE
  5
455
100
AcDbEntity
  8
0
100
AcDbSpline
 62
7
  6
CONTINUOUS
 70
0
 71
3
 72
9
 73
5
 74
0
 42
0.0000001
 43
0.0000001
 44
0.0000000001
 40
0.0
 40
0.0
 40
0.0
 40
0.0
 40
0.4805342522
 40
1.0
 40
1.0
 40
1.0
 40
1.0
 10
109.8117319132
 20
441.4579586535
 30
0.0
 10
109.8117319127
 20
441.1991974694
 30
0.0
 10
109.9156187355
 20
440.657022324
 30
0.0
 10
110.1949200029
 20
440.1855991343
 30
0.0
 10
110.3668989938
 20
439.964987594
 30
0.0
  0
SPLINE
  5
456
100
AcDbEntity
  8
0
100
AcDbSpline
 62
7
  6
CONTINUOUS
 70
0
 71
3
 72
9
 73
5
 74
0
 42
0.0000001
 43
0.0000001
 44
0.0000000001
 40
0.0
 40
0.0
 40
0.0
 40
0.0
 40
0.2333324136
 40
1.0
 40
1.0
 40
1.0
 40
1.0
 10
110.4630363971
 20
439.8473408886
 30
0.0
 10
110.5407506274
 20
439.7564915769
 30
0.0
 10
110.8940795917
 20
439.3844757245
 30
0.0
 10
111.3167586659
 20
439.082427893
 30
0.0
 10
111.656953973
 20
438.8860204842
 30
0.0
  0
SPLINE
  5
457
100
AcDbEntity
  8
0
100
AcDbSpline
 62
7
  6
CONTINUOUS
 70
0
 71
3
 72
11
 73
7
 74
0
 42
0.0000001
 43
0.0000001
 44
0.0000000001
 40
0.0
 40
0.0
 40
0.0
 40
0.0
 40
0.2177727568
 40
0.4509515946
 40
0.7102007126
 40
1.0
 40
1.0
 40
1.0
 40
1.0
 10
162.5990157496
 20
472.7094685482
 30
0.0
 10
162.8628929142
 20
472.8618171909
 30
0.0
 10
163.4692362383
 20
473.0820318807
 30
0.0
 10
164.4762192841
 20
473.1072594298
 30
0.0
 10
165.54963191
 20
472.8484113243
 30
0.0
 10
166.2478372063
 20
472.5160203025
 30
0.0
 10
166.5989910133
 20
472.313286144
 30
0.0
  0
SPLINE
  5
458
100
AcDbEntity
  8
0
100
AcDbSpline
 62
7
  6
CONTINUOUS
 70
0
 71
3
 72
11
 73
7
 74
0
 42
0.0000001
 43
0.0000001
 44
0.0000000001
 40
0.0
 40
0.0
 40
0.0
 40
0.0
 40
0.2177718007
 40
0.4509502392
 40
0.71019972
 40
1.0
 40
1.0
 40
1.0
 40
1.0
 10
159.0634965636
 20
470.6682477788
 30
0.0
 10
158.7996134895
 20
470.5158957564
 30
0.0
 10
158.3057177016
 20
470.1008846459
 30
0.0
 10
157.7803694283
 20
469.2414006564
 30
0.0
 10
157.4678320625
 20
468.1823416758
 30
0.0
 10
157.4065940261
 20
467.411459499
 30
0.0
 10
157.4065940261
 20
467.0059720737
 30
0.0
  0
SPLINE
  5
459
100
AcDbEntity
  8
0
100
AcDbSpline
 62
7
  6
CONTINUOUS
 70
0
 71
3
 72
9
 73
5
 74
0
 42
0.0000001
 43
0.0000001
 44
0.0000000001
 40
0.0
 40
0.0
 40
0.0
 40
0.0
 40
0.470527926
 40
1.0
 40
1.0
 40
1.0
 40
1.0
 10
193.8083966208
 20
455.1075774238
 30
0.0
 10
192.9078646088
 20
456.0530347933
 30
0.0
 10
190.7100570483
 20
457.7958154909
 30
0.0
 10
188.2183274764
 20
459.0519035788
 30
0.0
 10
186.8589259817
 20
459.609371207
 30
0.0
  0
SPLINE
  5
45A
100
AcDbEntity
  8
0
100
AcDbSpline
 62
7
  6
CONTINUOUS
 70
0
 71
3
 72
11
 73
7
 74
0
 42
0.0000001
 43
0.0000001
 44
0.0000000001
 40
0.0
 40
0.0
 40
0.0
 40
0.0
 40
0.2872240611
 40
0.5455185235
 40
0.7797550044
 40
1.0
 40
1.0
 40
1.0
 40
1.0
 10
156.0613925106
 20
457.7150272023
 30
0.0
 10
155.1356250923
 20
457.1306560858
 30
0.0
 10
153.4588987813
 20
455.8784994437
 30
0.0
 10
151.4709634986
 20
453.6352862484
 30
0.0
 10
150.2208561923
 20
451.1847252984
 30
0.0
 10
149.9310770007
 20
449.4416794649
 30
0.0
 10
149.9310755457
 20
448.602199036
 30
0.0
  0
SPLINE
  5
45B
100
AcDbEntity
  8
0
100
AcDbSpline
 62
7
  6
CONTINUOUS
 70
0
 71
3
 72
11
 73
7
 74
0
 42
0.0000001
 43
0.0000001
 44
0.0000000001
 40
0.0
 40
0.0
 40
0.0
 40
0.0
 40
0.227818058
 40
0.4767300234
 40
0.737704847
 40
1.0
 40
1.0
 40
1.0
 40
1.0
 10
151.7497633284
 20
452.4804505106
 30
0.0
 10
152.2518865701
 20
452.7703497689
 30
0.0
 10
153.2349062441
 20
453.4969713173
 30
0.0
 10
154.5365618371
 20
454.8598927126
 30
0.0
 10
155.6700517976
 20
456.4735678005
 30
0.0
 10
156.2748624561
 20
457.6662479023
 30
0.0
 10
156.5312305304
 20
458.2826025105
 30
0.0
  0
SPLINE
  5
45C
100
AcDbEntity
  8
0
100
AcDbSpline
 62
7
  6
CONTINUOUS
 70
0
 71
3
 72
9
 73
5
 74
0
 42
0.0000001
 43
0.0000001
 44
0.0000000001
 40
0.0
 40
0.0
 40
0.0
 40
0.0
 40
0.5234119138
 40
1.0
 40
1.0
 40
1.0
 40
1.0
 10
156.5312305304
 20
458.2826025105
 30
0.0
 10
156.8066068502
 20
458.9446563334
 30
0.0
 10
157.2322329536
 20
460.2543206939
 30
0.0
 10
157.4065940261
 20
461.6255280042
 30
0.0
 10
157.4065940261
 20
462.2784230786
 30
0.0
  0
SPLINE
  5
45D
100
AcDbEntity
  8
0
100
AcDbSpline
 62
7
  6
CONTINUOUS
 70
0
 71
3
 72
11
 73
7
 74
0
 42
0.0000001
 43
0.0000001
 44
0.0000000001
 40
0.0
 40
0.0
 40
0.0
 40
0.0
 40
0.2372187663
 40
0.4999989261
 40
0.7627796706
 40
1.0
 40
1.0
 40
1.0
 40
1.0
 10
183.5696244168
 20
462.5155080355
 30
0.0
 10
184.3726713516
 20
462.0518791602
 30
0.0
 10
185.8924894844
 20
460.772822096
 30
0.0
 10
187.6663605891
 20
458.3488038585
 30
0.0
 10
188.8787012568
 20
455.6005771373
 30
0.0
 10
189.226502218
 20
453.6448422561
 30
0.0
 10
189.226502218
 20
452.7175626623
 30
0.0
  0
SPLINE
  5
45E
100
AcDbEntity
  8
0
100
AcDbSpline
 62
7
  6
CONTINUOUS
 70
0
 71
3
 72
11
 73
7
 74
0
 42
0.0000001
 43
0.0000001
 44
0.0000000001
 40
0.0
 40
0.0
 40
0.0
 40
0.0
 40
0.2315576771
 40
0.4712266945
 40
0.7258013218
 40
1.0
 40
1.0
 40
1.0
 40
1.0
 10
149.9310755457
 20
448.602199036
 30
0.0
 10
149.9310744875
 20
447.991733126
 30
0.0
 10
150.0797549901
 20
446.7448923307
 30
0.0
 10
150.7366948914
 20
444.9322592502
 30
0.0
 10
151.807787358
 20
443.1982662241
 30
0.0
 10
152.7440835589
 20
442.1556527299
 30
0.0
 10
153.2650493602
 20
441.6545006075
 30
0.0
  0
SPLINE
  5
45F
100
AcDbEntity
  8
0
100
AcDbSpline
 62
7
  6
CONTINUOUS
 70
0
 71
3
 72
9
 73
5
 74
0
 42
0.0000001
 43
0.0000001
 44
0.0000000001
 40
0.0
 40
0.0
 40
0.0
 40
0.0
 40
0.2455480933
 40
1.0
 40
1.0
 40
1.0
 40
1.0
 10
161.2452225085
 20
437.0386077344
 30
0.0
 10
161.499441719
 20
436.95014855
 30
0.0
 10
162.5395336109
 20
436.603723625
 30
0.0
 10
163.5976099505
 20
436.3117561811
 30
0.0
 10
164.402157711
 20
436.1202301525
 30
0.0
  0
SPLINE
  5
460
100
AcDbEntity
  8
0
100
AcDbSpline
 62
7
  6
CONTINUOUS
 70
0
 71
3
 72
11
 73
7
 74
0
 42
0.0000001
 43
0.0000001
 44
0.0000000001
 40
0.0
 40
0.0
 40
0.0
 40
0.0
 40
0.2897992961
 40
0.5490484233
 40
0.7822272535
 40
1.0
 40
1.0
 40
1.0
 40
1.0
 10
163.0634718273
 20
470.2720653746
 30
0.0
 10
162.7123180099
 20
470.4747995391
 30
0.0
 10
162.0141126859
 20
470.8071905605
 30
0.0
 10
160.9407000482
 20
471.0660386681
 30
0.0
 10
159.933717008
 20
471.0408111017
 30
0.0
 10
159.3273737293
 20
470.8205963902
 30
0.0
 10
159.0634965636
 20
470.6682477788
 30
0.0
  0
SPLINE
  5
461
100
AcDbEntity
  8
0
100
AcDbSpline
 62
7
  6
CONTINUOUS
 70
0
 71
3
 72
11
 73
7
 74
0
 42
0.0000001
 43
0.0000001
 44
0.0000000001
 40
0.0
 40
0.0
 40
0.0
 40
0.0
 40
0.2372203557
 40
0.5000011099
 40
0.76278126
 40
1.0
 40
1.0
 40
1.0
 40
1.0
 10
185.690983032
 20
450.6763418929
 30
0.0
 10
185.690983032
 20
451.6036215896
 30
0.0
 10
185.3431820085
 20
453.5593566111
 30
0.0
 10
184.130841227
 20
456.3075833941
 30
0.0
 10
182.3569701189
 20
458.7316015021
 30
0.0
 10
180.8371520765
 20
460.0106584423
 30
0.0
 10
180.0341052308
 20
460.4742872661
 30
0.0
  0
SPLINE
  5
462
100
AcDbEntity
  8
0
100
AcDbSpline
 62
7
  6
CONTINUOUS
 70
0
 71
3
 72
10
 73
6
 74
0
 42
0.0000001
 43
0.0000001
 44
0.0000000001
 40
0.0
 40
0.0
 40
0.0
 40
0.0
 40
0.5369136173
 40
0.7740783886
 40
1.0
 40
1.0
 40
1.0
 40
1.0
 10
105.0266008838
 20
326.4807377332
 30
0.0
 10
105.3023923797
 20
326.3646641331
 30
0.0
 10
105.7349694775
 20
326.2519586437
 30
0.0
 10
106.2942862099
 20
326.3121742757
 30
0.0
 10
106.5377158744
 20
326.4094690127
 30
0.0
 10
106.6467579797
 20
326.4724151241
 30
0.0
  0
SPLINE
  5
463
100
AcDbEntity
  8
0
100
AcDbSpline
 62
7
  6
CONTINUOUS
 70
0
 71
3
 72
11
 73
7
 74
0
 42
0.0000001
 43
0.0000001
 44
0.0000000001
 40
0.0
 40
0.0
 40
0.0
 40
0.0
 40
0.24189144
 40
0.5004217769
 40
0.7587296456
 40
1.0
 40
1.0
 40
1.0
 40
1.0
 10
101.8510635232
 20
331.0554460276
 30
0.0
 10
101.8991305329
 20
330.6657766936
 30
0.0
 10
102.0987208135
 20
329.8708241624
 30
0.0
 10
102.6223239689
 20
328.7491917489
 30
0.0
 10
103.3359562695
 20
327.7390133407
 30
0.0
 10
103.9266390756
 20
327.1726674984
 30
0.0
 10
104.2407026774
 20
326.9387314248
 30
0.0
  0
SPLINE
  5
464
100
AcDbEntity
  8
0
100
AcDbSpline
 62
7
  6
CONTINUOUS
 70
0
 71
3
 72
10
 73
6
 74
0
 42
0.0000001
 43
0.0000001
 44
0.0000000001
 40
0.0
 40
0.0
 40
0.0
 40
0.0
 40
0.2268017058
 40
0.4643854139
 40
1.0
 40
1.0
 40
1.0
 40
1.0
 10
194.571138649
 20
280.3291599456
 30
0.0
 10
194.4647687437
 20
280.2677469434
 30
0.0
 10
194.2636331522
 20
280.1105493839
 30
0.0
 10
193.9370165601
 20
279.6724657902
 30
0.0
 10
193.8153877693
 20
279.2563530329
 30
0.0
 10
193.7745931501
 20
278.9691714093
 30
0.0
  0
SPLINE
  5
465
100
AcDbEntity
  8
0
100
AcDbSpline
 62
7
  6
CONTINUOUS
 70
0
 71
3
 72
9
 73
5
 74
0
 42
0.0000001
 43
0.0000001
 44
0.0000000001
 40
0.0
 40
0.0
 40
0.0
 40
0.0
 40
0.5176420767
 40
1.0
 40
1.0
 40
1.0
 40
1.0
 10
199.6453568777
 20
274.0045222138
 30
0.0
 10
200.0800156427
 20
273.9572359454
 30
0.0
 10
200.9382708727
 20
273.9711575048
 30
0.0
 10
201.7510326308
 20
274.2634182068
 30
0.0
 10
202.1038699128
 20
274.4671276478
 30
0.0
  0
SPLINE
  5
466
100
AcDbEntity
  8
0
100
AcDbSpline
 62
7
  6
CONTINUOUS
 70
0
 71
3
 72
9
 73
5
 74
0
 42
0.0000001
 43
0.0000001
 44
0.0000000001
 40
0.0
 40
0.0
 40
0.0
 40
0.0
 40
0.4789198318
 40
1.0
 40
1.0
 40
1.0
 40
1.0
 10
102.4547540721
 20
338.0605331617
 30
0.0
 10
102.4547540721
 20
337.3641307239
 30
0.0
 10
102.6060964342
 20
335.9087085044
 30
0.0
 10
102.9877018433
 20
334.4996692524
 30
0.0
 10
103.2352970023
 20
333.7835558512
 30
0.0
  0
SPLINE
  5
467
100
AcDbEntity
  8
0
100
AcDbSpline
 62
7
  6
CONTINUOUS
 70
0
 71
3
 72
9
 73
5
 74
0
 42
0.0000001
 43
0.0000001
 44
0.0000000001
 40
0.0
 40
0.0
 40
0.0
 40
0.0
 40
0.2619735097
 40
1.0
 40
1.0
 40
1.0
 40
1.0
 10
107.5846207641
 20
326.9453740422
 30
0.0
 10
107.7671173866
 20
326.771526995
 30
0.0
 10
108.4806464712
 20
326.126291303
 30
0.0
 10
109.2644706197
 20
325.5557550425
 30
0.0
 10
109.8794061861
 20
325.2007298594
 30
0.0
  0
SPLINE
  5
468
100
AcDbEntity
  8
0
100
AcDbSpline
 62
7
  6
CONTINUOUS
 70
0
 71
3
 72
11
 73
7
 74
0
 42
0.0000001
 43
0.0000001
 44
0.0000000001
 40
0.0
 40
0.0
 40
0.0
 40
0.0
 40
0.237239768
 40
0.4999988393
 40
0.7627585384
 40
1.0
 40
1.0
 40
1.0
 40
1.0
 10
203.5714329922
 20
347.8600220781
 30
0.0
 10
203.8726019728
 20
347.6861460197
 30
0.0
 10
204.4425232936
 20
347.2064851906
 30
0.0
 10
205.10769893
 20
346.2975025387
 30
0.0
 10
205.5623189545
 20
345.2669520366
 30
0.0
 10
205.6927621677
 20
344.5335530629
 30
0.0
 10
205.6927621677
 20
344.1857925632
 30
0.0
  0
SPLINE
  5
469
100
AcDbEntity
  8
0
100
AcDbSpline
 62
7
  6
CONTINUOUS
 70
0
 71
3
 72
9
 73
5
 74
0
 42
0.0000001
 43
0.0000001
 44
0.0000000001
 40
0.0
 40
0.0
 40
0.0
 40
0.0
 40
0.4668131954
 40
1.0
 40
1.0
 40
1.0
 40
1.0
 10
194.5711253646
 20
345.6493763145
 30
0.0
 10
194.3732535594
 20
345.535137389
 30
0.0
 10
194.013589336
 20
345.1708121591
 30
0.0
 10
193.8505994577
 20
344.6959011505
 30
0.0
 10
193.8000589752
 20
344.4398738919
 30
0.0
  0
SPLINE
  5
46A
100
AcDbEntity
  8
0
100
AcDbSpline
 62
7
  6
CONTINUOUS
 70
0
 71
3
 72
9
 73
5
 74
0
 42
0.0000001
 43
0.0000001
 44
0.0000000001
 40
0.0
 40
0.0
 40
0.0
 40
0.0
 40
0.2575076187
 40
1.0
 40
1.0
 40
1.0
 40
1.0
 10
205.6927621677
 20
280.0903528185
 30
0.0
 10
205.6927621677
 20
279.9817213828
 30
0.0
 10
205.6857705365
 20
279.5599190088
 30
0.0
 10
205.6502367237
 20
279.1383893167
 30
0.0
 10
205.6051994715
 20
278.828418338
 30
0.0
  0
SPLINE
  5
46B
100
AcDbEntity
  8
0
100
AcDbSpline
 62
7
  6
CONTINUOUS
 70
0
 71
3
 72
11
 73
7
 74
0
 42
0.0000001
 43
0.0000001
 44
0.0000000001
 40
0.0
 40
0.0
 40
0.0
 40
0.0
 40
0.2803378854
 40
0.536471885
 40
0.7735767382
 40
1.0
 40
1.0
 40
1.0
 40
1.0
 10
205.6051994715
 20
278.828418338
 30
0.0
 10
205.548096131
 20
278.4354019467
 30
0.0
 10
205.3808681795
 20
277.6894325312
 30
0.0
 10
204.937873586
 20
276.6783621904
 30
0.0
 10
204.3209903381
 20
275.8540889094
 30
0.0
 10
203.7958682197
 20
275.4439974947
 30
0.0
 10
203.5180775872
 20
275.2836159556
 30
0.0
  0
LINE
  5
46C
100
AcDbEntity
  8
0
100
AcDbLine
 62
7
  6
CONTINUOUS
 10
193.7426425515
 20
343.8182931037
 11
193.7427181587
 21
343.8377477205
  0
SPLINE
  5
46D
100
AcDbEntity
  8
0
100
AcDbSpline
 62
7
  6
CONTINUOUS
 70
0
 71
3
 72
11
 73
7
 74
0
 42
0.0000001
 43
0.0000001
 44
0.0000000001
 40
0.0
 40
0.0
 40
0.0
 40
0.0
 40
0.232182422
 40
0.4888893114
 40
0.7515157409
 40
1.0
 40
1.0
 40
1.0
 40
1.0
 10
193.7426425515
 20
343.8182931037
 30
0.0
 10
193.7426425515
 20
343.4168943415
 30
0.0
 10
193.8739134196
 20
342.5708722139
 30
0.0
 10
194.3477087194
 20
341.3527537066
 30
0.0
 10
195.0605246967
 20
340.2237856205
 30
0.0
 10
195.6766557175
 20
339.5784691182
 30
0.0
 10
196.0103205853
 20
339.3078993036
 30
0.0
  0
SPLINE
  5
46E
100
AcDbEntity
  8
0
100
AcDbSpline
 62
7
  6
CONTINUOUS
 70
0
 71
3
 72
9
 73
5
 74
0
 42
0.0000001
 43
0.0000001
 44
0.0000000001
 40
0.0
 40
0.0
 40
0.0
 40
0.0
 40
0.2570832826
 40
1.0
 40
1.0
 40
1.0
 40
1.0
 10
196.7174244225
 20
339.7161434575
 30
0.0
 10
196.7576554612
 20
339.6835199908
 30
0.0
 10
196.9161391979
 20
339.5591174155
 30
0.0
 10
197.0827064157
 20
339.4448744023
 30
0.0
 10
197.2107793174
 20
339.3674062382
 30
0.0
  0
SPLINE
  5
46F
100
AcDbEntity
  8
0
100
AcDbSpline
 62
7
  6
CONTINUOUS
 70
0
 71
3
 72
9
 73
5
 74
0
 42
0.0000001
 43
0.0000001
 44
0.0000000001
 40
0.0
 40
0.0
 40
0.0
 40
0.0
 40
0.5308449
 40
1.0
 40
1.0
 40
1.0
 40
1.0
 10
197.2109017554
 20
338.6345878011
 30
0.0
 10
197.446396841
 20
338.5617771964
 30
0.0
 10
197.9157411456
 20
338.4839616637
 30
0.0
 10
198.3824366992
 20
338.6122524223
 30
0.0
 10
198.5710548744
 20
338.7212537945
 30
0.0
  0
SPLINE
  5
470
100
AcDbEntity
  8
0
100
AcDbSpline
 62
7
  6
CONTINUOUS
 70
0
 71
3
 72
9
 73
5
 74
0
 42
0.0000001
 43
0.0000001
 44
0.0000000001
 40
0.0
 40
0.0
 40
0.0
 40
0.0
 40
0.2553188863
 40
1.0
 40
1.0
 40
1.0
 40
1.0
 10
196.8505455036
 20
274.2918086841
 30
0.0
 10
196.8801515499
 20
274.2694871904
 30
0.0
 10
196.9971518421
 20
274.1834588772
 30
0.0
 10
197.1183621348
 20
274.103113773
 30
0.0
 10
197.2108961252
 20
274.0471444964
 30
0.0
  0
SPLINE
  5
471
100
AcDbEntity
  8
0
100
AcDbSpline
 62
7
  6
CONTINUOUS
 70
0
 71
3
 72
9
 73
5
 74
0
 42
0.0000001
 43
0.0000001
 44
0.0000000001
 40
0.0
 40
0.0
 40
0.0
 40
0.0
 40
0.5308647517
 40
1.0
 40
1.0
 40
1.0
 40
1.0
 10
197.2109017554
 20
273.3143944307
 30
0.0
 10
197.4464049077
 20
273.241581332
 30
0.0
 10
197.9157659893
 20
273.1637191129
 30
0.0
 10
198.3824090071
 20
273.2921266821
 30
0.0
 10
198.5710398426
 20
273.4010863474
 30
0.0
  0
SPLINE
  5
472
100
AcDbEntity
  8
0
100
AcDbSpline
 62
7
  6
CONTINUOUS
 70
0
 71
3
 72
11
 73
7
 74
0
 42
0.0000001
 43
0.0000001
 44
0.0000000001
 40
0.0
 40
0.0
 40
0.0
 40
0.0
 40
0.2416975099
 40
0.5000215268
 40
0.7583341988
 40
1.0
 40
1.0
 40
1.0
 40
1.0
 10
193.7753277923
 20
277.98414794
 30
0.0
 10
193.8230925494
 20
277.5969289049
 30
0.0
 10
194.020825617
 20
276.8069040745
 30
0.0
 10
194.5393836226
 20
275.6911998404
 30
0.0
 10
195.2465353929
 20
274.6844679417
 30
0.0
 10
195.8319511632
 20
274.1184129541
 30
0.0
 10
196.1434416664
 20
273.8835645303
 30
0.0
  0
SPLINE
  5
473
100
AcDbEntity
  8
0
100
AcDbSpline
 62
7
  6
CONTINUOUS
 70
0
 71
3
 72
11
 73
7
 74
0
 42
0.0000001
 43
0.0000001
 44
0.0000000001
 40
0.0
 40
0.0
 40
0.0
 40
0.0
 40
0.2177833598
 40
0.4509104088
 40
0.7102966711
 40
1.0
 40
1.0
 40
1.0
 40
1.0
 10
103.0760974476
 20
403.5293177672
 30
0.0
 10
102.9771376706
 20
403.4721836366
 30
0.0
 10
102.7919879952
 20
403.3165286738
 30
0.0
 10
102.5948742218
 20
402.9942386792
 30
0.0
 10
102.4778002323
 20
402.597057588
 30
0.0
 10
102.4547540721
 20
402.3079773395
 30
0.0
 10
102.4547540721
 20
402.1559729064
 30
0.0
  0
SPLINE
  5
474
100
AcDbEntity
  8
0
100
AcDbSpline
 62
7
  6
CONTINUOUS
 70
0
 71
3
 72
11
 73
7
 74
0
 42
0.0000001
 43
0.0000001
 44
0.0000000001
 40
0.0
 40
0.0
 40
0.0
 40
0.0
 40
0.2177843137
 40
0.4509117637
 40
0.7102976701
 40
1.0
 40
1.0
 40
1.0
 40
1.0
 10
104.490305122
 20
404.3458060749
 30
0.0
 10
104.5892627137
 20
404.4029388824
 30
0.0
 10
104.8166331654
 20
404.4854534814
 30
0.0
 10
105.194291611
 20
404.4950157205
 30
0.0
 10
105.5967870057
 20
404.397820258
 30
0.0
 10
105.8586544498
 20
404.2732448353
 30
0.0
 10
105.990290922
 20
404.1972462019
 30
0.0
  0
LINE
  5
475
100
AcDbEntity
  8
0
100
AcDbLine
 62
7
  6
CONTINUOUS
 10
101.8183782824
 20
396.8895911913
 11
101.8184538896
 21
396.9090458082
  0
SPLINE
  5
476
100
AcDbEntity
  8
0
100
AcDbSpline
 62
7
  6
CONTINUOUS
 70
0
 71
3
 72
9
 73
5
 74
0
 42
0.0000001
 43
0.0000001
 44
0.0000000001
 40
0.0
 40
0.0
 40
0.0
 40
0.0
 40
0.4650946374
 40
1.0
 40
1.0
 40
1.0
 40
1.0
 10
102.6468693675
 20
333.4004665871
 30
0.0
 10
102.4421875193
 20
333.2823285736
 30
0.0
 10
102.0715658237
 20
332.8994038442
 30
0.0
 10
101.912448238
 20
332.4025836582
 30
0.0
 10
101.8653279917
 20
332.1348976267
 30
0.0
  0
SPLINE
  5
477
100
AcDbEntity
  8
0
100
AcDbSpline
 62
7
  6
CONTINUOUS
 70
0
 71
3
 72
11
 73
7
 74
0
 42
0.0000001
 43
0.0000001
 44
0.0000000001
 40
0.0
 40
0.0
 40
0.0
 40
0.0
 40
0.2326982076
 40
0.4900761274
 40
0.7527536389
 40
1.0
 40
1.0
 40
1.0
 40
1.0
 10
101.8183782824
 20
396.8895911913
 30
0.0
 10
101.8183782824
 20
396.4806649725
 30
0.0
 10
101.9545203485
 20
395.6186259865
 30
0.0
 10
102.4438186711
 20
394.3808508514
 30
0.0
 10
103.1776112591
 20
393.2399229825
 30
0.0
 10
103.8111667223
 20
392.5931550304
 30
0.0
 10
104.1534509418
 20
392.3255268402
 30
0.0
  0
SPLINE
  5
478
100
AcDbEntity
  8
0
100
AcDbSpline
 62
7
  6
CONTINUOUS
 70
0
 71
3
 72
10
 73
6
 74
0
 42
0.0000001
 43
0.0000001
 44
0.0000000001
 40
0.0
 40
0.0
 40
0.0
 40
0.0
 40
0.5369089972
 40
0.7740691541
 40
1.0
 40
1.0
 40
1.0
 40
1.0
 10
105.0266008838
 20
391.8009311036
 30
0.0
 10
105.3023906903
 20
391.6848582145
 30
0.0
 10
105.7349702951
 20
391.5721478843
 30
0.0
 10
106.294276133
 20
391.6323942078
 30
0.0
 10
106.5377312559
 20
391.7296249204
 30
0.0
 10
106.6467879237
 20
391.7925567204
 30
0.0
  0
SPLINE
  5
479
100
AcDbEntity
  8
0
100
AcDbSpline
 62
7
  6
CONTINUOUS
 70
0
 71
3
 72
11
 73
7
 74
0
 42
0.0000001
 43
0.0000001
 44
0.0000000001
 40
0.0
 40
0.0
 40
0.0
 40
0.0
 40
0.2897016594
 40
0.5490895814
 40
0.7822189142
 40
1.0
 40
1.0
 40
1.0
 40
1.0
 10
202.1572253178
 20
342.1445192676
 30
0.0
 10
202.1572253178
 20
341.9418474038
 30
0.0
 10
202.1264974982
 20
341.5564064947
 30
0.0
 10
201.97040672
 20
341.0268269798
 30
0.0
 10
201.7075825412
 20
340.5971035246
 30
0.0
 10
201.4607101809
 20
340.3895754731
 30
0.0
 10
201.3287706399
 20
340.3133873047
 30
0.0
  0
SPLINE
  5
47A
100
AcDbEntity
  8
0
100
AcDbSpline
 62
7
  6
CONTINUOUS
 70
0
 71
3
 72
11
 73
7
 74
0
 42
0.0000001
 43
0.0000001
 44
0.0000000001
 40
0.0
 40
0.0
 40
0.0
 40
0.0
 40
0.2897016594
 40
0.5490895814
 40
0.7822189142
 40
1.0
 40
1.0
 40
1.0
 40
1.0
 10
202.1572253178
 20
276.8243258972
 30
0.0
 10
202.1572253178
 20
276.6216540335
 30
0.0
 10
202.1264974982
 20
276.2362131243
 30
0.0
 10
201.97040672
 20
275.7066336095
 30
0.0
 10
201.7075825412
 20
275.2769101542
 30
0.0
 10
201.4607101809
 20
275.0693821027
 30
0.0
 10
201.3287706399
 20
274.9931939343
 30
0.0
  0
SPLINE
  5
47B
100
AcDbEntity
  8
0
100
AcDbSpline
 62
7
  6
CONTINUOUS
 70
0
 71
3
 72
9
 73
5
 74
0
 42
0.0000001
 43
0.0000001
 44
0.0000000001
 40
0.0
 40
0.0
 40
0.0
 40
0.0
 40
0.4624210531
 40
1.0
 40
1.0
 40
1.0
 40
1.0
 10
198.5710398426
 20
273.4010863474
 30
0.0
 10
198.7863523443
 20
273.5254582616
 30
0.0
 10
199.1738790254
 20
273.9383685331
 30
0.0
 10
199.325679173
 20
274.4698417165
 30
0.0
 10
199.3668351119
 20
274.7559627151
 30
0.0
  0
SPLINE
  5
47C
100
AcDbEntity
  8
0
100
AcDbSpline
 62
7
  6
CONTINUOUS
 70
0
 71
3
 72
9
 73
5
 74
0
 42
0.0000001
 43
0.0000001
 44
0.0000000001
 40
0.0
 40
0.0
 40
0.0
 40
0.0
 40
0.269736846
 40
1.0
 40
1.0
 40
1.0
 40
1.0
 10
197.9180055927
 20
345.4055323888
 30
0.0
 10
197.8218469004
 20
345.4868339305
 30
0.0
 10
197.4546803311
 20
345.7745623598
 30
0.0
 10
197.0398179029
 20
346.0076715579
 30
0.0
 10
196.7174244225
 20
346.1185012479
 30
0.0
  0
SPLINE
  5
47D
100
AcDbEntity
  8
0
100
AcDbSpline
 62
7
  6
CONTINUOUS
 70
0
 71
3
 72
9
 73
5
 74
0
 42
0.0000001
 43
0.0000001
 44
0.0000000001
 40
0.0
 40
0.0
 40
0.0
 40
0.0
 40
0.2418406693
 40
1.0
 40
1.0
 40
1.0
 40
1.0
 10
200.1065737819
 20
340.9801390801
 30
0.0
 10
200.1062948625
 20
341.0342452299
 30
0.0
 10
200.1003673369
 20
341.2579367827
 30
0.0
 10
200.076130579
 20
341.4810169994
 30
0.0
 10
200.0492077662
 20
341.6484892851
 30
0.0
  0
SPLINE
  5
47E
100
AcDbEntity
  8
0
100
AcDbSpline
 62
7
  6
CONTINUOUS
 70
0
 71
3
 72
15
 73
11
 74
0
 42
0.0000001
 43
0.0000001
 44
0.0000000001
 40
0.0
 40
0.0
 40
0.0
 40
0.0
 40
0.0869313433
 40
0.1864011611
 40
0.3037885282
 40
0.4375986154
 40
0.5820965189
 40
0.729420053
 40
0.8711665023
 40
1.0
 40
1.0
 40
1.0
 40
1.0
 10
105.4045379255
 20
400.3128753543
 30
0.0
 10
105.604329229
 20
400.4282443587
 30
0.0
 10
106.1063220983
 20
400.5572064748
 30
0.0
 10
106.9142941799
 20
400.3953985508
 30
0.0
 10
107.7397443904
 20
399.9445120062
 30
0.0
 10
108.5312603933
 20
399.2436405631
 30
0.0
 10
109.2300761242
 20
398.3491041887
 30
0.0
 10
109.7802746718
 20
397.3322138886
 30
0.0
 10
110.1373133796
 20
396.2766532944
 30
0.0
 10
110.2329610487
 20
395.5577311758
 30
0.0
 10
110.2329610487
 20
395.2158173553
 30
0.0
  0
SPLINE
  5
47F
100
AcDbEntity
  8
0
100
AcDbSpline
 62
7
  6
CONTINUOUS
 70
0
 71
3
 72
11
 73
7
 74
0
 42
0.0000001
 43
0.0000001
 44
0.0000000001
 40
0.0
 40
0.0
 40
0.0
 40
0.0
 40
0.2897016594
 40
0.5490895814
 40
0.7822189142
 40
1.0
 40
1.0
 40
1.0
 40
1.0
 10
110.2329610487
 20
395.2158173553
 30
0.0
 10
110.2329610487
 20
395.0131454915
 30
0.0
 10
110.2022332291
 20
394.6277045823
 30
0.0
 10
110.0461424509
 20
394.0981250675
 30
0.0
 10
109.7833182721
 20
393.6684016122
 30
0.0
 10
109.5364459117
 20
393.4608735607
 30
0.0
 10
109.4045063708
 20
393.3846853923
 30
0.0
  0
SPLINE
  5
480
100
AcDbEntity
  8
0
100
AcDbSpline
 62
7
  6
CONTINUOUS
 70
0
 71
3
 72
11
 73
7
 74
0
 42
0.0000001
 43
0.0000001
 44
0.0000000001
 40
0.0
 40
0.0
 40
0.0
 40
0.0
 40
0.2897016594
 40
0.5490895814
 40
0.7822189142
 40
1.0
 40
1.0
 40
1.0
 40
1.0
 10
110.2329610487
 20
329.8956239849
 30
0.0
 10
110.2329610487
 20
329.6929521211
 30
0.0
 10
110.2022332291
 20
329.3075112119
 30
0.0
 10
110.0461424509
 20
328.7779316971
 30
0.0
 10
109.7833182721
 20
328.3482082419
 30
0.0
 10
109.5364459117
 20
328.1406801903
 30
0.0
 10
109.4045063708
 20
328.064492022
 30
0.0
  0
SPLINE
  5
481
100
AcDbEntity
  8
0
100
AcDbSpline
 62
7
  6
CONTINUOUS
 70
0
 71
3
 72
11
 73
7
 74
0
 42
0.0000001
 43
0.0000001
 44
0.0000000001
 40
0.0
 40
0.0
 40
0.0
 40
0.0
 40
0.217781682
 40
0.4509082202
 40
0.7103143135
 40
1.0
 40
1.0
 40
1.0
 40
1.0
 10
198.5710548744
 20
338.7212537945
 30
0.0
 10
198.702968543
 20
338.7974859545
 30
0.0
 10
198.9498786998
 20
339.0049396261
 30
0.0
 10
199.2127140953
 20
339.4346891578
 30
0.0
 10
199.3687649969
 20
339.9642699434
 30
0.0
 10
199.3995203527
 20
340.3497074624
 30
0.0
 10
199.3995203527
 20
340.5523670675
 30
0.0
  0
SPLINE
  5
482
100
AcDbEntity
  8
0
100
AcDbSpline
 62
7
  6
CONTINUOUS
 70
0
 71
3
 72
9
 73
5
 74
0
 42
0.0000001
 43
0.0000001
 44
0.0000000001
 40
0.0
 40
0.0
 40
0.0
 40
0.0
 40
0.2631591662
 40
1.0
 40
1.0
 40
1.0
 40
1.0
 10
105.733704721
 20
333.3618495034
 30
0.0
 10
105.6695913146
 20
333.4088959174
 30
0.0
 10
105.4213903542
 20
333.5811939038
 30
0.0
 10
105.1538396332
 20
333.7268787667
 30
0.0
 10
104.9478065146
 20
333.8113123644
 30
0.0
  0
SPLINE
  5
483
100
AcDbEntity
  8
0
100
AcDbSpline
 62
7
  6
CONTINUOUS
 70
0
 71
3
 72
9
 73
5
 74
0
 42
0.0000001
 43
0.0000001
 44
0.0000000001
 40
0.0
 40
0.0
 40
0.0
 40
0.0
 40
0.5333843724
 40
1.0
 40
1.0
 40
1.0
 40
1.0
 10
196.0103205853
 20
345.7102570941
 30
0.0
 10
195.762353717
 20
345.7955010361
 30
0.0
 10
195.2675981305
 20
345.8934263308
 30
0.0
 10
194.7697811473
 20
345.7640678602
 30
0.0
 10
194.5711253646
 20
345.6493763145
 30
0.0
  0
SPLINE
  5
484
100
AcDbEntity
  8
0
100
AcDbSpline
 62
7
  6
CONTINUOUS
 70
0
 71
3
 72
9
 73
5
 74
0
 42
0.0000001
 43
0.0000001
 44
0.0000000001
 40
0.0
 40
0.0
 40
0.0
 40
0.0
 40
0.4987493207
 40
1.0
 40
1.0
 40
1.0
 40
1.0
 10
199.342103929
 20
341.2402451313
 30
0.0
 10
199.2265038286
 20
341.9593309571
 30
0.0
 10
198.6926410689
 20
343.3530331648
 30
0.0
 10
197.7698605091
 20
344.5246922854
 30
0.0
 10
197.2109017554
 20
344.9972882349
 30
0.0
  0
SPLINE
  5
485
100
AcDbEntity
  8
0
100
AcDbSpline
 62
7
  6
CONTINUOUS
 70
0
 71
3
 72
9
 73
5
 74
0
 42
0.0000001
 43
0.0000001
 44
0.0000000001
 40
0.0
 40
0.0
 40
0.0
 40
0.0
 40
0.2422804814
 40
1.0
 40
1.0
 40
1.0
 40
1.0
 10
108.1823599208
 20
328.7117159387
 30
0.0
 10
108.1823599208
 20
328.7619326004
 30
0.0
 10
108.1782183506
 20
328.9691904417
 30
0.0
 10
108.1581435772
 20
329.1760314581
 30
0.0
 10
108.1354102114
 20
329.3314273727
 30
0.0
  0
SPLINE
  5
486
100
AcDbEntity
  8
0
100
AcDbSpline
 62
7
  6
CONTINUOUS
 70
0
 71
3
 72
15
 73
11
 74
0
 42
0.0000001
 43
0.0000001
 44
0.0000000001
 40
0.0
 40
0.0
 40
0.0
 40
0.0
 40
0.0869313433
 40
0.1864011611
 40
0.3037885282
 40
0.4375986154
 40
0.5820965189
 40
0.729420053
 40
0.8711665023
 40
1.0
 40
1.0
 40
1.0
 40
1.0
 10
197.3288021946
 20
347.2415772667
 30
0.0
 10
197.5285934981
 20
347.356946271
 30
0.0
 10
198.0305863674
 20
347.4859083872
 30
0.0
 10
198.838558449
 20
347.3241004631
 30
0.0
 10
199.6640086595
 20
346.8732139185
 30
0.0
 10
200.4555246625
 20
346.1723424754
 30
0.0
 10
201.1543403933
 20
345.2778061011
 30
0.0
 10
201.704538941
 20
344.260915801
 30
0.0
 10
202.0615776487
 20
343.2053552068
 30
0.0
 10
202.1572253178
 20
342.4864330882
 30
0.0
 10
202.1572253178
 20
342.1445192676
 30
0.0
  0
SPLINE
  5
487
100
AcDbEntity
  8
0
100
AcDbSpline
 62
7
  6
CONTINUOUS
 70
0
 71
3
 72
10
 73
6
 74
0
 42
0.0000001
 43
0.0000001
 44
0.0000000001
 40
0.0
 40
0.0
 40
0.0
 40
0.0
 40
0.5361357814
 40
0.7735468098
 40
1.0
 40
1.0
 40
1.0
 40
1.0
 10
104.2407026774
 20
333.4030682106
 30
0.0
 10
103.9688985317
 20
333.5144551665
 30
0.0
 10
103.543122847
 20
333.6211630297
 30
0.0
 10
102.9937367988
 20
333.5587671996
 30
0.0
 10
102.7543259558
 20
333.4624882466
 30
0.0
 10
102.6468693675
 20
333.4004665871
 30
0.0
  0
SPLINE
  5
488
100
AcDbEntity
  8
0
100
AcDbSpline
 62
7
  6
CONTINUOUS
 70
0
 71
3
 72
9
 73
5
 74
0
 42
0.0000001
 43
0.0000001
 44
0.0000000001
 40
0.0
 40
0.0
 40
0.0
 40
0.0
 40
0.2424359126
 40
1.0
 40
1.0
 40
1.0
 40
1.0
 10
108.14967468
 20
328.2355049567
 30
0.0
 10
108.1551693658
 20
328.2737046682
 30
0.0
 10
108.1747468006
 20
328.431708462
 30
0.0
 10
108.1823599208
 20
328.5911208864
 30
0.0
 10
108.1823599208
 20
328.7117159387
 30
0.0
  0
SPLINE
  5
489
100
AcDbEntity
  8
0
100
AcDbSpline
 62
7
  6
CONTINUOUS
 70
0
 71
3
 72
11
 73
7
 74
0
 42
0.0000001
 43
0.0000001
 44
0.0000000001
 40
0.0
 40
0.0
 40
0.0
 40
0.0
 40
0.2436594293
 40
0.5024466515
 40
0.7599457227
 40
1.0
 40
1.0
 40
1.0
 40
1.0
 10
107.4283063742
 20
328.9231832188
 30
0.0
 10
107.3719225436
 20
329.3085998358
 30
0.0
 10
107.1610761936
 20
330.0907060885
 30
0.0
 10
106.6307418378
 20
331.1903910996
 30
0.0
 10
105.9198050821
 20
332.1758514088
 30
0.0
 10
105.3359946164
 20
332.7265722457
 30
0.0
 10
105.0266008838
 20
332.9536053495
 30
0.0
  0
SPLINE
  5
48A
100
AcDbEntity
  8
0
100
AcDbSpline
 62
7
  6
CONTINUOUS
 70
0
 71
3
 72
9
 73
5
 74
0
 42
0.0000001
 43
0.0000001
 44
0.0000000001
 40
0.0
 40
0.0
 40
0.0
 40
0.0
 40
0.24607877
 40
1.0
 40
1.0
 40
1.0
 40
1.0
 10
202.1038699128
 20
274.4671276478
 30
0.0
 10
202.2123479976
 20
274.5297571123
 30
0.0
 10
202.6394923744
 20
274.8077151334
 30
0.0
 10
203.0036259779
 20
275.1789701874
 30
0.0
 10
203.2310038967
 20
275.4881189165
 30
0.0
  0
SPLINE
  5
48B
100
AcDbEntity
  8
0
100
AcDbSpline
 62
7
  6
CONTINUOUS
 70
0
 71
3
 72
9
 73
5
 74
0
 42
0.0000001
 43
0.0000001
 44
0.0000000001
 40
0.0
 40
0.0
 40
0.0
 40
0.0
 40
0.461887611
 40
1.0
 40
1.0
 40
1.0
 40
1.0
 10
203.2310038967
 20
275.4881189165
 30
0.0
 10
203.5937649474
 20
275.9813379522
 30
0.0
 10
204.1409368767
 20
277.2266970965
 30
0.0
 10
204.2785544932
 20
278.5605655789
 30
0.0
 10
204.2785544932
 20
279.2738645108
 30
0.0
  0
SPLINE
  5
48C
100
AcDbEntity
  8
0
100
AcDbSpline
 62
7
  6
CONTINUOUS
 70
0
 71
3
 72
9
 73
5
 74
0
 42
0.0000001
 43
0.0000001
 44
0.0000000001
 40
0.0
 40
0.0
 40
0.0
 40
0.0
 40
0.267050052
 40
1.0
 40
1.0
 40
1.0
 40
1.0
 10
197.9180055927
 20
280.0853390184
 30
0.0
 10
197.8323788878
 20
280.1577358341
 30
0.0
 10
197.5030839261
 20
280.4179505894
 30
0.0
 10
197.1362174752
 20
280.6342621857
 30
0.0
 10
196.8505455036
 20
280.7487377739
 30
0.0
  0
SPLINE
  5
48D
100
AcDbEntity
  8
0
100
AcDbSpline
 62
7
  6
CONTINUOUS
 70
0
 71
3
 72
9
 73
5
 74
0
 42
0.0000001
 43
0.0000001
 44
0.0000000001
 40
0.0
 40
0.0
 40
0.0
 40
0.0
 40
0.243511881
 40
1.0
 40
1.0
 40
1.0
 40
1.0
 10
200.1066241899
 20
275.640417851
 30
0.0
 10
200.1066241899
 20
275.6817455975
 30
0.0
 10
200.1038336203
 20
275.8514554408
 30
0.0
 10
200.0902260185
 20
276.0209397516
 30
0.0
 10
200.0746735913
 20
276.1483820658
 30
0.0
  0
SPLINE
  5
48E
100
AcDbEntity
  8
0
100
AcDbSpline
 62
7
  6
CONTINUOUS
 70
0
 71
3
 72
9
 73
5
 74
0
 42
0.0000001
 43
0.0000001
 44
0.0000000001
 40
0.0
 40
0.0
 40
0.0
 40
0.0
 40
0.2424359126
 40
1.0
 40
1.0
 40
1.0
 40
1.0
 10
200.0739389491
 20
275.164206869
 30
0.0
 10
200.0794336349
 20
275.2024065806
 30
0.0
 10
200.0990110697
 20
275.3604103744
 30
0.0
 10
200.1066241899
 20
275.5198227987
 30
0.0
 10
200.1066241899
 20
275.640417851
 30
0.0
  0
SPLINE
  5
48F
100
AcDbEntity
  8
0
100
AcDbSpline
 62
7
  6
CONTINUOUS
 70
0
 71
3
 72
15
 73
11
 74
0
 42
0.0000001
 43
0.0000001
 44
0.0000000001
 40
0.0
 40
0.0
 40
0.0
 40
0.0
 40
0.0869313433
 40
0.1864011611
 40
0.3037885282
 40
0.4375986154
 40
0.5820965189
 40
0.729420053
 40
0.8711665023
 40
1.0
 40
1.0
 40
1.0
 40
1.0
 10
197.3288021946
 20
281.9213838963
 30
0.0
 10
197.5285934981
 20
282.0367529007
 30
0.0
 10
198.0305863674
 20
282.1657150168
 30
0.0
 10
198.838558449
 20
282.0039070927
 30
0.0
 10
199.6640086595
 20
281.5530205482
 30
0.0
 10
200.4555246625
 20
280.8521491051
 30
0.0
 10
201.1543403933
 20
279.9576127307
 30
0.0
 10
201.704538941
 20
278.9407224306
 30
0.0
 10
202.0615776487
 20
277.8851618364
 30
0.0
 10
202.1572253178
 20
277.1662397178
 30
0.0
 10
202.1572253178
 20
276.8243258972
 30
0.0
  0
SPLINE
  5
490
100
AcDbEntity
  8
0
100
AcDbSpline
 62
7
  6
CONTINUOUS
 70
0
 71
3
 72
11
 73
7
 74
0
 42
0.0000001
 43
0.0000001
 44
0.0000000001
 40
0.0
 40
0.0
 40
0.0
 40
0.0
 40
0.2372413576
 40
0.5000010231
 40
0.762760128
 40
1.0
 40
1.0
 40
1.0
 40
1.0
 10
204.2785544932
 20
343.3693042554
 30
0.0
 10
204.2785544932
 20
343.7170646027
 30
0.0
 10
204.1481113734
 20
344.4504633756
 30
0.0
 10
203.6934915131
 20
345.4810137849
 30
0.0
 10
203.0283158785
 20
346.3899966254
 30
0.0
 10
202.4583944304
 20
346.8696576358
 30
0.0
 10
202.1572253178
 20
347.0435337704
 30
0.0
  0
SPLINE
  5
491
100
AcDbEntity
  8
0
100
AcDbSpline
 62
7
  6
CONTINUOUS
 70
0
 71
3
 72
11
 73
7
 74
0
 42
0.0000001
 43
0.0000001
 44
0.0000000001
 40
0.0
 40
0.0
 40
0.0
 40
0.0
 40
0.2177833898
 40
0.4509256392
 40
0.710250264
 40
1.0
 40
1.0
 40
1.0
 40
1.0
 10
106.6467879237
 20
391.7925567204
 30
0.0
 10
106.7787512225
 20
391.8687069283
 30
0.0
 10
107.0256253627
 20
392.0762714249
 30
0.0
 10
107.2884093757
 20
392.5059643968
 30
0.0
 10
107.4445801057
 20
393.0355208752
 30
0.0
 10
107.4752560836
 20
393.420959676
 30
0.0
 10
107.4752560836
 20
393.6236651552
 30
0.0
  0
SPLINE
  5
492
100
AcDbEntity
  8
0
100
AcDbSpline
 62
7
  6
CONTINUOUS
 70
0
 71
3
 72
11
 73
7
 74
0
 42
0.0000001
 43
0.0000001
 44
0.0000000001
 40
0.0
 40
0.0
 40
0.0
 40
0.0
 40
0.289702329
 40
0.5490881649
 40
0.7822156415
 40
1.0
 40
1.0
 40
1.0
 40
1.0
 10
104.5760832475
 20
403.3807578942
 30
0.0
 10
104.4444467753
 20
403.4567565275
 30
0.0
 10
104.1825793852
 20
403.5813319789
 30
0.0
 10
103.7800839958
 20
403.678527404
 30
0.0
 10
103.4024255702
 20
403.6689651612
 30
0.0
 10
103.1750550334
 20
403.5864506327
 30
0.0
 10
103.0760974476
 20
403.5293177672
 30
0.0
  0
SPLINE
  5
493
100
AcDbEntity
  8
0
100
AcDbSpline
 62
7
  6
CONTINUOUS
 70
0
 71
3
 72
9
 73
5
 74
0
 42
0.0000001
 43
0.0000001
 44
0.0000000001
 40
0.0
 40
0.0
 40
0.0
 40
0.0
 40
0.5376222312
 40
1.0
 40
1.0
 40
1.0
 40
1.0
 10
196.1434416664
 20
280.3404936201
 30
0.0
 10
195.874910369
 20
280.4481005304
 30
0.0
 10
195.3384267583
 20
280.5826784789
 30
0.0
 10
194.7866063597
 20
280.4535609117
 30
0.0
 10
194.571138649
 20
280.3291599456
 30
0.0
  0
SPLINE
  5
494
100
AcDbEntity
  8
0
100
AcDbSpline
 62
7
  6
CONTINUOUS
 70
0
 71
3
 72
10
 73
6
 74
0
 42
0.0000001
 43
0.0000001
 44
0.0000000001
 40
0.0
 40
0.0
 40
0.0
 40
0.0
 40
0.2403348714
 40
0.4972325161
 40
1.0
 40
1.0
 40
1.0
 40
1.0
 10
199.367569754
 20
275.7401379119
 30
0.0
 10
199.3232298833
 20
276.1034751356
 30
0.0
 10
199.143812729
 20
276.8461725781
 30
0.0
 10
198.5245651871
 20
278.2406472111
 30
0.0
 10
197.7956327215
 20
279.182708679
 30
0.0
 10
197.2109017554
 20
279.6770948645
 30
0.0
  0
SPLINE
  5
495
100
AcDbEntity
  8
0
100
AcDbSpline
 62
7
  6
CONTINUOUS
 70
0
 71
3
 72
9
 73
5
 74
0
 42
0.0000001
 43
0.0000001
 44
0.0000000001
 40
0.0
 40
0.0
 40
0.0
 40
0.0
 40
0.4624100937
 40
1.0
 40
1.0
 40
1.0
 40
1.0
 10
106.6467579797
 20
326.4724151241
 30
0.0
 10
106.8620988806
 20
326.5967237323
 30
0.0
 10
107.2496147334
 20
327.0096814096
 30
0.0
 10
107.4014142586
 20
327.5411353182
 30
0.0
 10
107.4425708428
 20
327.8272608028
 30
0.0
  0
SPLINE
  5
496
100
AcDbEntity
  8
0
100
AcDbSpline
 62
7
  6
CONTINUOUS
 70
0
 71
3
 72
9
 73
5
 74
0
 42
0.0000001
 43
0.0000001
 44
0.0000000001
 40
0.0
 40
0.0
 40
0.0
 40
0.0
 40
0.2648778539
 40
1.0
 40
1.0
 40
1.0
 40
1.0
 10
105.733704721
 20
398.6820428738
 30
0.0
 10
105.66253314
 20
398.7342685759
 30
0.0
 10
105.3882767568
 20
398.9234841434
 30
0.0
 10
105.0901209716
 20
399.0800720571
 30
0.0
 10
104.8605547791
 20
399.1656510366
 30
0.0
  0
SPLINE
  5
497
100
AcDbEntity
  8
0
100
AcDbSpline
 62
7
  6
CONTINUOUS
 70
0
 71
3
 72
9
 73
5
 74
0
 42
0.0000001
 43
0.0000001
 44
0.0000000001
 40
0.0
 40
0.0
 40
0.0
 40
0.0
 40
0.2381095867
 40
1.0
 40
1.0
 40
1.0
 40
1.0
 10
108.1823095128
 20
394.0514371677
 30
0.0
 10
108.1818701643
 20
394.1366641472
 30
0.0
 10
108.1679869819
 20
394.4945084946
 30
0.0
 10
108.1092378016
 20
394.8499706187
 30
0.0
 10
108.0453725613
 20
395.115095298
 30
0.0
  0
SPLINE
  5
498
100
AcDbEntity
  8
0
100
AcDbSpline
 62
7
  6
CONTINUOUS
 70
0
 71
3
 72
15
 73
11
 74
0
 42
0.0000001
 43
0.0000001
 44
0.0000000001
 40
0.0
 40
0.0
 40
0.0
 40
0.0
 40
0.0869313433
 40
0.1864011611
 40
0.3037885282
 40
0.4375986154
 40
0.5820965189
 40
0.729420053
 40
0.8711665023
 40
1.0
 40
1.0
 40
1.0
 40
1.0
 10
105.4045379255
 20
334.992681984
 30
0.0
 10
105.604329229
 20
335.1080509883
 30
0.0
 10
106.1063220983
 20
335.2370131045
 30
0.0
 10
106.9142941799
 20
335.0752051804
 30
0.0
 10
107.7397443904
 20
334.6243186358
 30
0.0
 10
108.5312603933
 20
333.9234471927
 30
0.0
 10
109.2300761242
 20
333.0289108183
 30
0.0
 10
109.7802746718
 20
332.0120205182
 30
0.0
 10
110.1373133796
 20
330.956459924
 30
0.0
 10
110.2329610487
 20
330.2375378054
 30
0.0
 10
110.2329610487
 20
329.8956239849
 30
0.0
  0
SPLINE
  5
499
100
AcDbEntity
  8
0
100
AcDbSpline
 62
7
  6
CONTINUOUS
 70
0
 71
3
 72
9
 73
5
 74
0
 42
0.0000001
 43
0.0000001
 44
0.0000000001
 40
0.0
 40
0.0
 40
0.0
 40
0.0
 40
0.535554463
 40
1.0
 40
1.0
 40
1.0
 40
1.0
 10
104.1534509418
 20
398.7574068827
 30
0.0
 10
103.8949942316
 20
398.8537558323
 30
0.0
 10
103.378958213
 20
398.969738005
 30
0.0
 10
102.8539903352
 20
398.8403313885
 30
0.0
 10
102.6468447531
 20
398.7207029015
 30
0.0
  0
SPLINE
  5
49A
100
AcDbEntity
  8
0
100
AcDbSpline
 62
7
  6
CONTINUOUS
 70
0
 71
3
 72
9
 73
5
 74
0
 42
0.0000001
 43
0.0000001
 44
0.0000000001
 40
0.0
 40
0.0
 40
0.0
 40
0.0
 40
0.508317782
 40
1.0
 40
1.0
 40
1.0
 40
1.0
 10
107.3382687241
 20
394.7068511442
 30
0.0
 10
107.167255834
 20
395.416779384
 30
0.0
 10
106.5671504291
 20
396.7518467808
 30
0.0
 10
105.5960678717
 20
397.8559238756
 30
0.0
 10
105.0266008838
 20
398.2737987199
 30
0.0
  0
SPLINE
  5
49B
100
AcDbEntity
  8
0
100
AcDbSpline
 62
7
  6
CONTINUOUS
 70
0
 71
3
 72
11
 73
7
 74
0
 42
0.0000001
 43
0.0000001
 44
0.0000000001
 40
0.0
 40
0.0
 40
0.0
 40
0.0
 40
0.237219572
 40
0.5000005441
 40
0.7627812203
 40
1.0
 40
1.0
 40
1.0
 40
1.0
 10
318.1552737037
 20
562.2076684455
 30
0.0
 10
315.366892379
 20
563.8175047345
 30
0.0
 10
308.8820691014
 20
566.1669826796
 30
0.0
 10
298.5132510908
 20
567.2926365624
 30
0.0
 10
288.1444491093
 20
566.1669351271
 30
0.0
 10
281.6596518678
 20
563.8174250387
 30
0.0
 10
278.871291464
 20
562.2075740185
 30
0.0
  0
SPLINE
  5
49C
100
AcDbEntity
  8
0
100
AcDbSpline
 62
7
  6
CONTINUOUS
 70
0
 71
3
 72
11
 73
7
 74
0
 42
0.0000001
 43
0.0000001
 44
0.0000000001
 40
0.0
 40
0.0
 40
0.0
 40
0.0
 40
0.2893849324
 40
0.54874054
 40
0.7822497157
 40
1.0
 40
1.0
 40
1.0
 40
1.0
 10
96.4385014619
 20
456.8805823192
 30
0.0
 10
95.2373191401
 20
456.1870835219
 30
0.0
 10
93.0553406054
 20
454.688737661
 30
0.0
 10
90.4359330345
 20
451.9617855578
 30
0.0
 10
88.7528507055
 20
448.9498171314
 30
0.0
 10
88.3271359753
 20
446.7818449691
 30
0.0
 10
88.304772998
 20
445.7384211515
 30
0.0
  0
SPLINE
  5
49D
100
AcDbEntity
  8
0
100
AcDbSpline
 62
7
  6
CONTINUOUS
 70
0
 71
3
 72
11
 73
7
 74
0
 42
0.0000001
 43
0.0000001
 44
0.0000000001
 40
0.0
 40
0.0
 40
0.0
 40
0.0
 40
0.2177787927
 40
0.4509217956
 40
0.7102585595
 40
1.0
 40
1.0
 40
1.0
 40
1.0
 10
297.1950790607
 20
524.0981573479
 30
0.0
 10
297.1951553642
 20
523.6601506823
 30
0.0
 10
297.0331736392
 20
522.7471650665
 30
0.0
 10
296.3411539239
 20
521.4751909499
 30
0.0
 10
295.2471133935
 20
520.3251992042
 30
0.0
 10
294.3315780369
 20
519.6947579629
 30
0.0
 10
293.8269085644
 20
519.4033886463
 30
0.0
  0
SPLINE
  5
49E
100
AcDbEntity
  8
0
100
AcDbSpline
 62
7
  6
CONTINUOUS
 70
0
 71
3
 72
11
 73
7
 74
0
 42
0.0000001
 43
0.0000001
 44
0.0000000001
 40
0.0
 40
0.0
 40
0.0
 40
0.0
 40
0.2372279392
 40
0.4999994737
 40
0.7627712946
 40
1.0
 40
1.0
 40
1.0
 40
1.0
 10
158.6655713985
 20
420.9562123667
 30
0.0
 10
157.3826626753
 20
420.2155290971
 30
0.0
 10
154.3991495341
 20
419.1345770745
 30
0.0
 10
149.6287610457
 20
418.6167759425
 30
0.0
 10
144.858365355
 20
419.1345552951
 30
0.0
 10
141.874840479
 20
420.2154925046
 30
0.0
 10
140.5919222668
 20
420.9561689077
 30
0.0
  0
SPLINE
  5
49F
100
AcDbEntity
  8
0
100
AcDbSpline
 62
7
  6
CONTINUOUS
 70
0
 71
3
 72
13
 73
9
 74
0
 42
0.0000001
 43
0.0000001
 44
0.0000000001
 40
0.0
 40
0.0
 40
0.0
 40
0.0
 40
0.2698956012
 40
0.5613257437
 40
0.6954661216
 40
0.8131446799
 40
0.9128555334
 40
1.0
 40
1.0
 40
1.0
 40
1.0
 10
258.9166858483
 20
370.4242145542
 30
0.0
 10
258.2205384131
 20
370.0222960442
 30
0.0
 10
256.5564323881
 20
369.5718497681
 30
0.0
 10
254.452330892
 20
369.6784685608
 30
0.0
 10
252.9072666004
 20
370.193183763
 30
0.0
 10
252.0037073021
 20
370.7440251607
 30
0.0
 10
251.391478046
 20
371.4401036449
 30
0.0
 10
251.2348987269
 20
372.001752504
 30
0.0
 10
251.2348887052
 20
372.2612982749
 30
0.0
  0
SPLINE
  5
4A0
100
AcDbEntity
  8
0
100
AcDbSpline
 62
7
  6
CONTINUOUS
 70
0
 71
3
 72
13
 73
9
 74
0
 42
0.0000001
 43
0.0000001
 44
0.0000000001
 40
0.0
 40
0.0
 40
0.0
 40
0.0
 40
0.2698956012
 40
0.5613257437
 40
0.6954661216
 40
0.8131446799
 40
0.9128555334
 40
1.0
 40
1.0
 40
1.0
 40
1.0
 10
343.769146314
 20
419.4135130188
 30
0.0
 10
343.0729988787
 20
419.0115945088
 30
0.0
 10
341.4088928538
 20
418.5611482327
 30
0.0
 10
339.3047913577
 20
418.6677670254
 30
0.0
 10
337.7597270661
 20
419.1824822276
 30
0.0
 10
336.8561677678
 20
419.7333236253
 30
0.0
 10
336.2439385117
 20
420.4294021095
 30
0.0
 10
336.0873591926
 20
420.9910509686
 30
0.0
 10
336.0873491708
 20
421.2505967395
 30
0.0
  0
SPLINE
  5
4A1
100
AcDbEntity
  8
0
100
AcDbSpline
 62
7
  6
CONTINUOUS
 70
0
 71
3
 72
11
 73
7
 74
0
 42
0.0000001
 43
0.0000001
 44
0.0000000001
 40
0.0
 40
0.0
 40
0.0
 40
0.0
 40
0.2439009493
 40
0.5135918587
 40
0.775720355
 40
1.0
 40
1.0
 40
1.0
 40
1.0
 10
428.6216067796
 20
468.4028114833
 30
0.0
 10
428.1101636867
 20
468.1075314385
 30
0.0
 10
426.9088659624
 20
467.700731469
 30
0.0
 10
425.0177974386
 20
467.5753045316
 30
0.0
 10
423.1987167687
 20
467.895589616
 30
0.0
 10
422.1158581204
 20
468.4375487145
 30
0.0
 10
421.7039981541
 20
468.7914953026
 30
0.0
  0
SPLINE
  5
4A2
100
AcDbEntity
  8
0
100
AcDbSpline
 62
7
  6
CONTINUOUS
 70
0
 71
3
 72
9
 73
5
 74
0
 42
0.0000001
 43
0.0000001
 44
0.0000000001
 40
0.0
 40
0.0
 40
0.0
 40
0.0
 40
0.2592048426
 40
1.0
 40
1.0
 40
1.0
 40
1.0
 10
421.7039981541
 20
468.7914953026
 30
0.0
 10
421.6697396632
 20
468.8209365616
 30
0.0
 10
421.5400735729
 20
468.9373625907
 30
0.0
 10
421.4208425506
 20
469.0656826252
 30
0.0
 10
421.3411437698
 20
469.1672411519
 30
0.0
  0
SPLINE
  5
4A3
100
AcDbEntity
  8
0
100
AcDbSpline
 62
7
  6
CONTINUOUS
 70
0
 71
3
 72
9
 73
5
 74
0
 42
0.0000001
 43
0.0000001
 44
0.0000000001
 40
0.0
 40
0.0
 40
0.0
 40
0.0
 40
0.5196761152
 40
1.0
 40
1.0
 40
1.0
 40
1.0
 10
421.3411437698
 20
469.1672411519
 30
0.0
 10
421.2169066765
 20
469.3255539395
 30
0.0
 10
421.0148268056
 20
469.6639285173
 30
0.0
 10
420.9398168185
 20
470.0538934199
 30
0.0
 10
420.9398096365
 20
470.2398952041
 30
0.0
  0
SPLINE
  5
4A4
100
AcDbEntity
  8
0
100
AcDbSpline
 62
7
  6
CONTINUOUS
 70
0
 71
3
 72
13
 73
9
 74
0
 42
0.0000001
 43
0.0000001
 44
0.0000000001
 40
0.0
 40
0.0
 40
0.0
 40
0.0
 40
0.2698956012
 40
0.5613257437
 40
0.6954661216
 40
0.8131446799
 40
0.9128555334
 40
1.0
 40
1.0
 40
1.0
 40
1.0
 10
164.5177082912
 20
401.2462929393
 30
0.0
 10
163.821560856
 20
400.8443744293
 30
0.0
 10
162.1574548311
 20
400.3939281532
 30
0.0
 10
160.053353335
 20
400.5005469459
 30
0.0
 10
158.5082890433
 20
401.0152621481
 30
0.0
 10
157.604729745
 20
401.5661035458
 30
0.0
 10
156.992500489
 20
402.26218203
 30
0.0
 10
156.8359211699
 20
402.8238308891
 30
0.0
 10
156.8359111481
 20
403.08337666
 30
0.0
  0
SPLINE
  5
4A5
100
AcDbEntity
  8
0
100
AcDbSpline
 62
7
  6
CONTINUOUS
 70
0
 71
3
 72
13
 73
9
 74
0
 42
0.0000001
 43
0.0000001
 44
0.0000000001
 40
0.0
 40
0.0
 40
0.0
 40
0.0
 40
0.2698956012
 40
0.5613257437
 40
0.6954661216
 40
0.8131446799
 40
0.9128555334
 40
1.0
 40
1.0
 40
1.0
 40
1.0
 10
111.1307532926
 20
455.7465322489
 30
0.0
 10
110.4346058573
 20
455.3446137389
 30
0.0
 10
108.7704998324
 20
454.8941674629
 30
0.0
 10
106.6663983363
 20
455.0007862555
 30
0.0
 10
105.1213340447
 20
455.5155014578
 30
0.0
 10
104.2177747464
 20
456.0663428555
 30
0.0
 10
103.6055454903
 20
456.7624213396
 30
0.0
 10
103.4489661712
 20
457.3240701988
 30
0.0
 10
103.4489561494
 20
457.5836159697
 30
0.0
  0
SPLINE
  5
4A6
100
AcDbEntity
  8
0
100
AcDbSpline
 62
7
  6
CONTINUOUS
 70
0
 71
3
 72
13
 73
9
 74
0
 42
0.0000001
 43
0.0000001
 44
0.0000000001
 40
0.0
 40
0.0
 40
0.0
 40
0.0
 40
0.2698956012
 40
0.5613257437
 40
0.6954661216
 40
0.8131446799
 40
0.9128555334
 40
1.0
 40
1.0
 40
1.0
 40
1.0
 10
195.9832137582
 20
504.7358307135
 30
0.0
 10
195.287066323
 20
504.3339122035
 30
0.0
 10
193.6229602981
 20
503.8834659274
 30
0.0
 10
191.518858802
 20
503.9900847201
 30
0.0
 10
189.9737945104
 20
504.5047999223
 30
0.0
 10
189.070235212
 20
505.0556413201
 30
0.0
 10
188.458005956
 20
505.7517198042
 30
0.0
 10
188.3014266369
 20
506.3133686634
 30
0.0
 10
188.3014166151
 20
506.5729144343
 30
0.0
  0
SPLINE
  5
4A7
100
AcDbEntity
  8
0
100
AcDbSpline
 62
7
  6
CONTINUOUS
 70
0
 71
3
 72
13
 73
9
 74
0
 42
0.0000001
 43
0.0000001
 44
0.0000000001
 40
0.0
 40
0.0
 40
0.0
 40
0.0
 40
0.2698956012
 40
0.5613257437
 40
0.6954661216
 40
0.8131446799
 40
0.9128555334
 40
1.0
 40
1.0
 40
1.0
 40
1.0
 10
280.8356742239
 20
553.7251291781
 30
0.0
 10
280.1395267887
 20
553.3232106681
 30
0.0
 10
278.4754207637
 20
552.872764392
 30
0.0
 10
276.3713192676
 20
552.9793831847
 30
0.0
 10
274.826254976
 20
553.4940983869
 30
0.0
 10
273.9226956777
 20
554.0449397846
 30
0.0
 10
273.3104664217
 20
554.7410182688
 30
0.0
 10
273.1538871025
 20
555.3026671279
 30
0.0
 10
273.1538770808
 20
555.5622128988
 30
0.0
  0
SPLINE
  5
4A8
100
AcDbEntity
  8
0
100
AcDbSpline
 62
7
  6
CONTINUOUS
 70
0
 71
3
 72
16
 73
12
 74
0
 42
0.0000001
 43
0.0000001
 44
0.0000000001
 40
0.0
 40
0.0
 40
0.0
 40
0.0
 40
0.1287504849
 40
0.2703972725
 40
0.4176174969
 40
0.5620242719
 40
0.6957534795
 40
0.8130674101
 40
0.9124732896
 40
0.9571219109
 40
1.0
 40
1.0
 40
1.0
 40
1.0
 10
293.8269085644
 20
519.4033886463
 30
0.0
 10
292.9755974571
 20
518.9118868832
 30
0.0
 10
291.0481585182
 20
518.1166203575
 30
0.0
 10
287.9068627107
 20
517.4882021306
 30
0.0
 10
284.584192677
 20
517.3963900038
 30
0.0
 10
281.3523218631
 20
517.8497432287
 30
0.0
 10
278.4695301107
 20
518.8146573673
 30
0.0
 10
276.1597116371
 20
520.2164686365
 30
0.0
 10
274.8143264883
 20
521.7617192936
 30
0.0
 10
274.2826884131
 20
523.0996610288
 30
0.0
 10
274.1952714201
 20
523.7707837679
 30
0.0
 10
274.1952143896
 20
524.0981572986
 30
0.0
  0
SPLINE
  5
4A9
100
AcDbEntity
  8
0
100
AcDbSpline
 62
7
  6
CONTINUOUS
 70
0
 71
3
 72
16
 73
12
 74
0
 42
0.0000001
 43
0.0000001
 44
0.0000000001
 40
0.0
 40
0.0
 40
0.0
 40
0.0
 40
0.1287504849
 40
0.2703972725
 40
0.4176174969
 40
0.5620242719
 40
0.6957534795
 40
0.8130674101
 40
0.9124732896
 40
0.9571219109
 40
1.0
 40
1.0
 40
1.0
 40
1.0
 10
251.4006783315
 20
494.908739414
 30
0.0
 10
250.5493672242
 20
494.4172376509
 30
0.0
 10
248.6219282854
 20
493.6219711252
 30
0.0
 10
245.4806324779
 20
492.9935528983
 30
0.0
 10
242.1579624442
 20
492.9017407715
 30
0.0
 10
238.9260916302
 20
493.3550939964
 30
0.0
 10
236.0432998779
 20
494.320008135
 30
0.0
 10
233.7334814043
 20
495.7218194042
 30
0.0
 10
232.3880962555
 20
497.2670700613
 30
0.0
 10
231.8564581803
 20
498.6050117965
 30
0.0
 10
231.7690411873
 20
499.2761345356
 30
0.0
 10
231.7689841568
 20
499.6035080664
 30
0.0
  0
SPLINE
  5
4AA
100
AcDbEntity
  8
0
100
AcDbSpline
 62
7
  6
CONTINUOUS
 70
0
 71
3
 72
11
 73
7
 74
0
 42
0.0000001
 43
0.0000001
 44
0.0000000001
 40
0.0
 40
0.0
 40
0.0
 40
0.0
 40
0.289774579
 40
0.5490322178
 40
0.7822322968
 40
1.0
 40
1.0
 40
1.0
 40
1.0
 10
96.1338041959
 20
413.8566687067
 30
0.0
 10
94.8968136578
 20
414.5708293704
 30
0.0
 10
92.6527817876
 20
416.1152422169
 30
0.0
 10
89.9712849085
 20
418.933203857
 30
0.0
 10
88.2721110852
 20
422.0485765093
 30
0.0
 10
87.8730805214
 20
424.2858514287
 30
0.0
 10
87.8715220612
 20
425.3592623732
 30
0.0
  0
SPLINE
  5
4AB
100
AcDbEntity
  8
0
100
AcDbSpline
 62
7
  6
CONTINUOUS
 70
0
 71
3
 72
11
 73
7
 74
0
 42
0.0000001
 43
0.0000001
 44
0.0000000001
 40
0.0
 40
0.0
 40
0.0
 40
0.0
 40
0.237218806
 40
0.4999994918
 40
0.7627804543
 40
1.0
 40
1.0
 40
1.0
 40
1.0
 10
254.8219444433
 20
345.2723178407
 30
0.0
 10
251.9903057615
 20
343.6374802442
 30
0.0
 10
245.4048578573
 20
341.2515035017
 30
0.0
 10
234.8751219715
 20
340.1083303649
 30
0.0
 10
224.3453705871
 20
341.2514556885
 30
0.0
 10
217.759897319
 20
343.6373996738
 30
0.0
 10
214.9282380194
 20
345.272221948
 30
0.0
  0
SPLINE
  5
4AC
100
AcDbEntity
  8
0
100
AcDbSpline
 62
7
  6
CONTINUOUS
 70
0
 71
3
 72
10
 73
6
 74
0
 42
0.0000001
 43
0.0000001
 44
0.0000000001
 40
0.0
 40
0.0
 40
0.0
 40
0.0
 40
0.2183824859
 40
0.4522373614
 40
1.0
 40
1.0
 40
1.0
 40
1.0
 10
282.1534838407
 20
555.562212248
 30
0.0
 10
282.1534904569
 20
555.3908656991
 30
0.0
 10
282.0904689747
 20
555.0334831572
 30
0.0
 10
281.710291453
 20
554.3356912923
 30
0.0
 10
281.2078784015
 20
553.9400200775
 30
0.0
 10
280.8356742239
 20
553.7251291781
 30
0.0
  0
SPLINE
  5
4AD
100
AcDbEntity
  8
0
100
AcDbSpline
 62
7
  6
CONTINUOUS
 70
0
 71
3
 72
10
 73
6
 74
0
 42
0.0000001
 43
0.0000001
 44
0.0000000001
 40
0.0
 40
0.0
 40
0.0
 40
0.0
 40
0.2183824859
 40
0.4522373614
 40
1.0
 40
1.0
 40
1.0
 40
1.0
 10
197.301023375
 20
506.5729137834
 30
0.0
 10
197.3010299912
 20
506.4015672345
 30
0.0
 10
197.2380085091
 20
506.0441846926
 30
0.0
 10
196.8578309873
 20
505.3463928277
 30
0.0
 10
196.3554179358
 20
504.9507216129
 30
0.0
 10
195.9832137582
 20
504.7358307135
 30
0.0
  0
SPLINE
  5
4AE
100
AcDbEntity
  8
0
100
AcDbSpline
 62
7
  6
CONTINUOUS
 70
0
 71
3
 72
10
 73
6
 74
0
 42
0.0000001
 43
0.0000001
 44
0.0000000001
 40
0.0
 40
0.0
 40
0.0
 40
0.0
 40
0.2183824859
 40
0.4522373614
 40
1.0
 40
1.0
 40
1.0
 40
1.0
 10
112.4485629094
 20
457.5836153188
 30
0.0
 10
112.4485695255
 20
457.41226877
 30
0.0
 10
112.3855480434
 20
457.0548862281
 30
0.0
 10
112.0053705217
 20
456.3570943631
 30
0.0
 10
111.5029574702
 20
455.9614231483
 30
0.0
 10
111.1307532926
 20
455.7465322489
 30
0.0
  0
SPLINE
  5
4AF
100
AcDbEntity
  8
0
100
AcDbSpline
 62
7
  6
CONTINUOUS
 70
0
 71
3
 72
10
 73
6
 74
0
 42
0.0000001
 43
0.0000001
 44
0.0000000001
 40
0.0
 40
0.0
 40
0.0
 40
0.0
 40
0.2183824859
 40
0.4522373614
 40
1.0
 40
1.0
 40
1.0
 40
1.0
 10
165.835517908
 20
403.0833760092
 30
0.0
 10
165.8355245242
 20
402.9120294603
 30
0.0
 10
165.7725030421
 20
402.5546469184
 30
0.0
 10
165.3923255203
 20
401.8568550535
 30
0.0
 10
164.8899124688
 20
401.4611838387
 30
0.0
 10
164.5177082912
 20
401.2462929393
 30
0.0
  0
SPLINE
  5
4B0
100
AcDbEntity
  8
0
100
AcDbSpline
 62
7
  6
CONTINUOUS
 70
0
 71
3
 72
10
 73
6
 74
0
 42
0.0000001
 43
0.0000001
 44
0.0000000001
 40
0.0
 40
0.0
 40
0.0
 40
0.0
 40
0.2183824859
 40
0.4522373614
 40
1.0
 40
1.0
 40
1.0
 40
1.0
 10
429.9394163964
 20
470.2398945533
 30
0.0
 10
429.9394230126
 20
470.0685480044
 30
0.0
 10
429.8764015304
 20
469.7111654625
 30
0.0
 10
429.4962240087
 20
469.0133735976
 30
0.0
 10
428.9938109572
 20
468.6177023827
 30
0.0
 10
428.6216067796
 20
468.4028114833
 30
0.0
  0
SPLINE
  5
4B1
100
AcDbEntity
  8
0
100
AcDbSpline
 62
7
  6
CONTINUOUS
 70
0
 71
3
 72
10
 73
6
 74
0
 42
0.0000001
 43
0.0000001
 44
0.0000000001
 40
0.0
 40
0.0
 40
0.0
 40
0.0
 40
0.2183824859
 40
0.4522373614
 40
1.0
 40
1.0
 40
1.0
 40
1.0
 10
345.0869559308
 20
421.2505960887
 30
0.0
 10
345.0869625469
 20
421.0792495398
 30
0.0
 10
345.0239410648
 20
420.7218669979
 30
0.0
 10
344.643763543
 20
420.024075133
 30
0.0
 10
344.1413504916
 20
419.6284039182
 30
0.0
 10
343.769146314
 20
419.4135130188
 30
0.0
  0
SPLINE
  5
4B2
100
AcDbEntity
  8
0
100
AcDbSpline
 62
7
  6
CONTINUOUS
 70
0
 71
3
 72
10
 73
6
 74
0
 42
0.0000001
 43
0.0000001
 44
0.0000000001
 40
0.0
 40
0.0
 40
0.0
 40
0.0
 40
0.2183824859
 40
0.4522373614
 40
1.0
 40
1.0
 40
1.0
 40
1.0
 10
260.2344954651
 20
372.2612976241
 30
0.0
 10
260.2345020813
 20
372.0899510752
 30
0.0
 10
260.1714805991
 20
371.7325685333
 30
0.0
 10
259.7913030774
 20
371.0347766684
 30
0.0
 10
259.2888900259
 20
370.6391054536
 30
0.0
 10
258.9166858483
 20
370.4242145542
 30
0.0
  0
SPLINE
  5
4B3
100
AcDbEntity
  8
0
100
AcDbSpline
 62
7
  6
CONTINUOUS
 70
0
 71
3
 72
11
 73
7
 74
0
 42
0.0000001
 43
0.0000001
 44
0.0000000001
 40
0.0
 40
0.0
 40
0.0
 40
0.0
 40
0.2177821605
 40
0.4509085882
 40
0.7102951949
 40
1.0
 40
1.0
 40
1.0
 40
1.0
 10
427.8849169659
 20
506.7781002384
 30
0.0
 10
427.884916853
 20
506.3751291611
 30
0.0
 10
427.7360009769
 20
505.535210519
 30
0.0
 10
427.0992620065
 20
504.3649329512
 30
0.0
 10
426.0926669975
 20
503.307047641
 30
0.0
 10
425.2504263699
 20
502.726938073
 30
0.0
 10
424.7861906508
 20
502.4589130554
 30
0.0
  0
SPLINE
  5
4B4
100
AcDbEntity
  8
0
100
AcDbSpline
 62
7
  6
CONTINUOUS
 70
0
 71
3
 72
15
 73
11
 74
0
 42
0.0000001
 43
0.0000001
 44
0.0000000001
 40
0.0
 40
0.0
 40
0.0
 40
0.0
 40
0.0869302718
 40
0.1864000368
 40
0.3037880336
 40
0.4376004358
 40
0.582099273
 40
0.7294176325
 40
0.8711704074
 40
1.0
 40
1.0
 40
1.0
 40
1.0
 10
193.9628887656
 20
404.9349049654
 30
0.0
 10
194.2749995297
 20
405.1152683452
 30
0.0
 10
195.0594234206
 20
405.3166971756
 30
0.0
 10
196.3218451328
 20
405.0639189496
 30
0.0
 10
197.6116446339
 20
404.3594187596
 30
0.0
 10
198.8483986883
 20
403.2642999992
 30
0.0
 10
199.9402680134
 20
401.8665784726
 30
0.0
 10
200.7999854882
 20
400.2776960138
 30
0.0
 10
201.3577830532
 20
398.6283714023
 30
0.0
 10
201.5072544948
 20
397.5050534218
 30
0.0
 10
201.5072544948
 20
396.9708301026
 30
0.0
  0
SPLINE
  5
4B5
100
AcDbEntity
  8
0
100
AcDbSpline
 62
7
  6
CONTINUOUS
 70
0
 71
3
 72
11
 73
7
 74
0
 42
0.0000001
 43
0.0000001
 44
0.0000000001
 40
0.0
 40
0.0
 40
0.0
 40
0.0
 40
0.2177723091
 40
0.4509273687
 40
0.7102218233
 40
1.0
 40
1.0
 40
1.0
 40
1.0
 10
430.0848758157
 20
506.7781002382
 30
0.0
 10
430.0848758095
 20
507.2648526527
 30
0.0
 10
429.9051136721
 20
508.2795169472
 30
0.0
 10
429.1358875428
 20
509.6929474289
 30
0.0
 10
427.9202055573
 20
510.9710819544
 30
0.0
 10
426.902681056
 20
511.6716180799
 30
0.0
 10
426.3417567983
 20
511.9954605247
 30
0.0
  0
SPLINE
  5
4B6
100
AcDbEntity
  8
0
100
AcDbSpline
 62
7
  6
CONTINUOUS
 70
0
 71
3
 72
9
 73
5
 74
0
 42
0.0000001
 43
0.0000001
 44
0.0000000001
 40
0.0
 40
0.0
 40
0.0
 40
0.0
 40
0.2603767255
 40
1.0
 40
1.0
 40
1.0
 40
1.0
 10
110.7900997451
 20
439.0121322384
 30
0.0
 10
110.7235455
 20
439.0601602336
 30
0.0
 10
110.4722196413
 20
439.2503816653
 30
0.0
 10
110.2385598184
 20
439.4646704855
 30
0.0
 10
110.0816313913
 20
439.6370861103
 30
0.0
  0
SPLINE
  5
4B7
100
AcDbEntity
  8
0
100
AcDbSpline
 62
7
  6
CONTINUOUS
 70
0
 71
3
 72
9
 73
5
 74
0
 42
0.0000001
 43
0.0000001
 44
0.0000000001
 40
0.0
 40
0.0
 40
0.0
 40
0.0
 40
0.2581883901
 40
1.0
 40
1.0
 40
1.0
 40
1.0
 10
110.0816313913
 20
439.6370861103
 30
0.0
 10
110.0422944358
 20
439.6803052128
 30
0.0
 10
109.8937632237
 20
439.8511071569
 30
0.0
 10
109.7611193467
 20
440.0359913998
 30
0.0
 10
109.6749136608
 20
440.1800801308
 30
0.0
  0
SPLINE
  5
4B8
100
AcDbEntity
  8
0
100
AcDbSpline
 62
7
  6
CONTINUOUS
 70
0
 71
3
 72
9
 73
5
 74
0
 42
0.0000001
 43
0.0000001
 44
0.0000000001
 40
0.0
 40
0.0
 40
0.0
 40
0.0
 40
0.2619997842
 40
1.0
 40
1.0
 40
1.0
 40
1.0
 10
109.6749136608
 20
440.1800801308
 30
0.0
 10
109.6148388273
 20
440.2804923766
 30
0.0
 10
109.4074910451
 20
440.6761206432
 30
0.0
 10
109.3034575734
 20
441.1283619549
 30
0.0
 10
109.3034576658
 20
441.4579585614
 30
0.0
  0
SPLINE
  5
4B9
100
AcDbEntity
  8
0
100
AcDbSpline
 62
7
  6
CONTINUOUS
 70
0
 71
3
 72
11
 73
7
 74
0
 42
0.0000001
 43
0.0000001
 44
0.0000000001
 40
0.0
 40
0.0
 40
0.0
 40
0.0
 40
0.2177681688
 40
0.4509684975
 40
0.7102259693
 40
1.0
 40
1.0
 40
1.0
 40
1.0
 10
445.5168504412
 20
462.1017770199
 30
0.0
 10
445.5152885823
 20
461.0283797984
 30
0.0
 10
445.1162616029
 20
458.7911363416
 30
0.0
 10
443.4171226601
 20
455.6758030863
 30
0.0
 10
440.7356837238
 20
452.8578702728
 30
0.0
 10
438.4916990376
 20
451.3134671174
 30
0.0
 10
437.2547344433
 20
450.5993095389
 30
0.0
  0
SPLINE
  5
4BA
100
AcDbEntity
  8
0
100
AcDbSpline
 62
7
  6
CONTINUOUS
 70
0
 71
3
 72
11
 73
7
 74
0
 42
0.0000001
 43
0.0000001
 44
0.0000000001
 40
0.0
 40
0.0
 40
0.0
 40
0.0
 40
0.2177498363
 40
0.4512588308
 40
0.7106146016
 40
1.0
 40
1.0
 40
1.0
 40
1.0
 10
445.0835995698
 20
482.4809660912
 30
0.0
 10
445.0612364381
 20
483.5244013924
 30
0.0
 10
444.6355121713
 20
485.6923989683
 30
0.0
 10
442.9523936302
 20
488.7043969374
 30
0.0
 10
440.3329326957
 20
491.4313696326
 30
0.0
 10
438.1509124754
 20
492.9297213756
 30
0.0
 10
436.9497075293
 20
493.6232216855
 30
0.0
  0
SPLINE
  5
4BB
100
AcDbEntity
  8
0
100
AcDbSpline
 62
7
  6
CONTINUOUS
 70
0
 71
3
 72
11
 73
7
 74
0
 42
0.0000001
 43
0.0000001
 44
0.0000000001
 40
0.0
 40
0.0
 40
0.0
 40
0.0
 40
0.2177787927
 40
0.4509217956
 40
0.7102585595
 40
1.0
 40
1.0
 40
1.0
 40
1.0
 10
254.7688488279
 20
499.6035081156
 30
0.0
 10
254.7689251314
 20
499.16550145
 30
0.0
 10
254.6069434064
 20
498.2525158343
 30
0.0
 10
253.9149236911
 20
496.9805417176
 30
0.0
 10
252.8208831607
 20
495.8305499719
 30
0.0
 10
251.9053478041
 20
495.2001087306
 30
0.0
 10
251.4006783315
 20
494.908739414
 30
0.0
  0
SPLINE
  5
4BC
100
AcDbEntity
  8
0
100
AcDbSpline
 62
7
  6
CONTINUOUS
 70
0
 71
3
 72
9
 73
5
 74
0
 42
0.0000001
 43
0.0000001
 44
0.0000000001
 40
0.0
 40
0.0
 40
0.0
 40
0.0
 40
0.5001894773
 40
1.0
 40
1.0
 40
1.0
 40
1.0
 10
279.8672818633
 20
553.736360922
 30
0.0
 10
279.1864698931
 20
554.0548836449
 30
0.0
 10
277.6583986478
 20
554.3206706324
 30
0.0
 10
276.1305384472
 20
554.0521727336
 30
0.0
 10
275.4510787623
 20
553.7321095063
 30
0.0
  0
SPLINE
  5
4BD
100
AcDbEntity
  8
0
100
AcDbSpline
 62
7
  6
CONTINUOUS
 70
0
 71
3
 72
11
 73
7
 74
0
 42
0.0000001
 43
0.0000001
 44
0.0000000001
 40
0.0
 40
0.0
 40
0.0
 40
0.0
 40
0.2372531835
 40
0.500000689
 40
0.7627478198
 40
1.0
 40
1.0
 40
1.0
 40
1.0
 10
349.8624470463
 20
501.1364501432
 30
0.0
 10
349.4889783627
 20
501.352067469
 30
0.0
 10
348.6205373985
 20
501.666753672
 30
0.0
 10
347.2320053961
 20
501.8171999211
 30
0.0
 10
345.8434759772
 20
501.6667470616
 30
0.0
 10
344.9750390043
 20
501.3520567523
 30
0.0
 10
344.6015734728
 20
501.1364376143
 30
0.0
  0
SPLINE
  5
4BE
100
AcDbEntity
  8
0
100
AcDbSpline
 62
7
  6
CONTINUOUS
 70
0
 71
3
 72
11
 73
7
 74
0
 42
0.0000001
 43
0.0000001
 44
0.0000000001
 40
0.0
 40
0.0
 40
0.0
 40
0.0
 40
0.237228705
 40
0.5000005261
 40
0.7627720609
 40
1.0
 40
1.0
 40
1.0
 40
1.0
 10
368.3587593363
 20
545.4712023954
 30
0.0
 10
367.0758411178
 20
546.2118788178
 30
0.0
 10
364.0923162108
 20
547.2928160529
 30
0.0
 10
359.321920465
 20
547.8105954238
 30
0.0
 10
354.5515319169
 20
547.2927942834
 30
0.0
 10
351.5680187445
 20
546.211842234
 30
0.0
 10
350.2851100093
 20
545.4711589517
 30
0.0
  0
SPLINE
  5
4BF
100
AcDbEntity
  8
0
100
AcDbSpline
 62
7
  6
CONTINUOUS
 70
0
 71
3
 72
11
 73
7
 74
0
 42
0.0000001
 43
0.0000001
 44
0.0000000001
 40
0.0
 40
0.0
 40
0.0
 40
0.0
 40
0.2897776971
 40
0.5490719787
 40
0.7822272299
 40
1.0
 40
1.0
 40
1.0
 40
1.0
 10
167.8551484235
 20
440.1458002295
 30
0.0
 10
167.2942346553
 20
439.8219584475
 30
0.0
 10
166.2767294644
 20
439.1214249964
 30
0.0
 10
165.0610721688
 20
437.843299945
 30
0.0
 10
164.2918626801
 20
436.4298831484
 30
0.0
 10
164.1121046477
 20
435.4152305612
 30
0.0
 10
164.1121046539
 20
434.9284833867
 30
0.0
  0
SPLINE
  5
4C0
100
AcDbEntity
  8
0
100
AcDbSpline
 62
7
  6
CONTINUOUS
 70
0
 71
3
 72
11
 73
7
 74
0
 42
0.0000001
 43
0.0000001
 44
0.0000000001
 40
0.0
 40
0.0
 40
0.0
 40
0.0
 40
0.2897052857
 40
0.5490919933
 40
0.7822182543
 40
1.0
 40
1.0
 40
1.0
 40
1.0
 10
169.4108521131
 20
430.6092602387
 30
0.0
 10
168.9466077097
 20
430.8772858065
 30
0.0
 10
168.104351105
 20
431.4573973721
 30
0.0
 10
167.0977357695
 20
432.5152905721
 30
0.0
 10
166.4609831306
 20
433.685579423
 30
0.0
 10
166.3120633907
 20
434.5255078848
 30
0.0
 10
166.3120635037
 20
434.9284833866
 30
0.0
  0
SPLINE
  5
4C1
100
AcDbEntity
  8
0
100
AcDbSpline
 62
7
  6
CONTINUOUS
 70
0
 71
3
 72
11
 73
7
 74
0
 42
0.0000001
 43
0.0000001
 44
0.0000000001
 40
0.0
 40
0.0
 40
0.0
 40
0.0
 40
0.2372398078
 40
0.4999994051
 40
0.7627593222
 40
1.0
 40
1.0
 40
1.0
 40
1.0
 10
242.356229065
 20
397.1335543332
 30
0.0
 10
241.2941125615
 20
396.5203447444
 30
0.0
 10
238.824174306
 20
395.6255269692
 30
0.0
 10
234.8750519905
 20
395.1968097092
 30
0.0
 10
230.925923143
 20
395.6255086093
 30
0.0
 10
228.4559743954
 20
396.5203141898
 30
0.0
 10
227.3938495752
 20
397.1335183681
 30
0.0
  0
SPLINE
  5
4C2
100
AcDbEntity
  8
0
100
AcDbSpline
 62
7
  6
CONTINUOUS
 70
0
 71
3
 72
11
 73
7
 74
0
 42
0.0000001
 43
0.0000001
 44
0.0000000001
 40
0.0
 40
0.0
 40
0.0
 40
0.0
 40
0.2896413964
 40
0.5491107671
 40
0.7822355978
 40
1.0
 40
1.0
 40
1.0
 40
1.0
 10
201.5072544948
 20
396.9708301026
 30
0.0
 10
201.5072544948
 20
396.6542225032
 30
0.0
 10
201.4591300226
 20
396.0519599087
 30
0.0
 10
201.215371431
 20
395.2244704605
 30
0.0
 10
200.8047609911
 20
394.5528450976
 30
0.0
 10
200.4188487066
 20
394.2288663021
 30
0.0
 10
200.2127486597
 20
394.1097646712
 30
0.0
  0
SPLINE
  5
4C3
100
AcDbEntity
  8
0
100
AcDbSpline
 62
7
  6
CONTINUOUS
 70
0
 71
3
 72
9
 73
5
 74
0
 42
0.0000001
 43
0.0000001
 44
0.0000000001
 40
0.0
 40
0.0
 40
0.0
 40
0.0
 40
0.4985809968
 40
1.0
 40
1.0
 40
1.0
 40
1.0
 10
194.9114922671
 20
504.6874057122
 30
0.0
 10
194.2456165027
 20
504.998940425
 30
0.0
 10
192.7487332715
 20
505.266889208
 30
0.0
 10
191.2501637742
 20
505.0193376294
 30
0.0
 10
190.574426798
 20
504.7193475288
 30
0.0
  0
SPLINE
  5
4C4
100
AcDbEntity
  8
0
100
AcDbSpline
 62
7
  6
CONTINUOUS
 70
0
 71
3
 72
11
 73
7
 74
0
 42
0.0000001
 43
0.0000001
 44
0.0000000001
 40
0.0
 40
0.0
 40
0.0
 40
0.0
 40
0.2373240656
 40
0.5000037608
 40
0.7626928989
 40
1.0
 40
1.0
 40
1.0
 40
1.0
 10
370.9504248117
 20
483.114632225
 30
0.0
 10
371.6358886031
 20
482.7201860938
 30
0.0
 10
373.2283987027
 20
482.1462340167
 30
0.0
 10
375.7732519736
 20
481.8617791027
 30
0.0
 10
378.3181478327
 20
482.1459501033
 30
0.0
 10
379.9105165792
 20
482.7202160823
 30
0.0
 10
380.5959172662
 20
483.1146585288
 30
0.0
  0
SPLINE
  5
4C5
100
AcDbEntity
  8
0
100
AcDbSpline
 62
7
  6
CONTINUOUS
 70
0
 71
3
 72
9
 73
5
 74
0
 42
0.0000001
 43
0.0000001
 44
0.0000000001
 40
0.0
 40
0.0
 40
0.0
 40
0.0
 40
0.4987821376
 40
1.0
 40
1.0
 40
1.0
 40
1.0
 10
110.0824409275
 20
455.7116224321
 30
0.0
 10
109.4146611946
 20
456.0240479301
 30
0.0
 10
107.913779966
 20
456.2917375588
 30
0.0
 10
106.41146256
 20
456.0415435059
 30
0.0
 10
105.7351905365
 20
455.7390254802
 30
0.0
  0
SPLINE
  5
4C6
100
AcDbEntity
  8
0
100
AcDbSpline
 62
7
  6
CONTINUOUS
 70
0
 71
3
 72
9
 73
5
 74
0
 42
0.0000001
 43
0.0000001
 44
0.0000000001
 40
0.0
 40
0.0
 40
0.0
 40
0.0
 40
0.5026585415
 40
1.0
 40
1.0
 40
1.0
 40
1.0
 10
257.742900289
 20
370.4328626943
 30
0.0
 10
257.0870387331
 20
370.6968504462
 30
0.0
 10
255.6597948309
 20
370.9132380221
 30
0.0
 10
254.2361041834
 20
370.6582161839
 30
0.0
 10
253.5975628217
 20
370.3725762855
 30
0.0
  0
SPLINE
  5
4C7
100
AcDbEntity
  8
0
100
AcDbSpline
 62
7
  6
CONTINUOUS
 70
0
 71
3
 72
9
 73
5
 74
0
 42
0.0000001
 43
0.0000001
 44
0.0000000001
 40
0.0
 40
0.0
 40
0.0
 40
0.0
 40
0.4956740426
 40
1.0
 40
1.0
 40
1.0
 40
1.0
 10
342.9057270102
 20
419.256077266
 30
0.0
 10
342.2356007411
 20
419.6026859429
 30
0.0
 10
340.6892822318
 20
419.9076052338
 30
0.0
 10
339.1383953723
 20
419.6643685492
 30
0.0
 10
338.4367990831
 20
419.352898334
 30
0.0
  0
SPLINE
  5
4C8
100
AcDbEntity
  8
0
100
AcDbSpline
 62
7
  6
CONTINUOUS
 70
0
 71
3
 72
9
 73
5
 74
0
 42
0.0000001
 43
0.0000001
 44
0.0000000001
 40
0.0
 40
0.0
 40
0.0
 40
0.0
 40
0.5040657149
 40
1.0
 40
1.0
 40
1.0
 40
1.0
 10
427.5277412248
 20
468.4576011841
 30
0.0
 10
426.8585035216
 20
468.7269729062
 30
0.0
 10
425.404413695
 20
468.9413770573
 30
0.0
 10
423.9555556208
 20
468.6681272078
 30
0.0
 10
423.3134510474
 20
468.3656603115
 30
0.0
  0
SPLINE
  5
4C9
100
AcDbEntity
  8
0
100
AcDbSpline
 62
7
  6
CONTINUOUS
 70
0
 71
3
 72
9
 73
5
 74
0
 42
0.0000001
 43
0.0000001
 44
0.0000000001
 40
0.0
 40
0.0
 40
0.0
 40
0.0
 40
0.5022646247
 40
1.0
 40
1.0
 40
1.0
 40
1.0
 10
163.3257641202
 20
401.2804952385
 30
0.0
 10
162.699465078
 20
401.51411981
 30
0.0
 10
161.3518415107
 20
401.709479375
 30
0.0
 10
160.0075141406
 20
401.4808244744
 30
0.0
 10
159.3949261083
 20
401.2287442613
 30
0.0
  0
SPLINE
  5
4CA
100
AcDbEntity
  8
0
100
AcDbSpline
 62
7
  6
CONTINUOUS
 70
0
 71
3
 72
13
 73
9
 74
0
 42
0.0000001
 43
0.0000001
 44
0.0000000001
 40
0.0
 40
0.0
 40
0.0
 40
0.0
 40
0.2698956012
 40
0.5613257437
 40
0.6954661216
 40
0.8131446799
 40
0.9128555334
 40
1.0
 40
1.0
 40
1.0
 40
1.0
 10
422.2576192533
 20
472.076978274
 30
0.0
 10
422.9537666885
 20
472.478896784
 30
0.0
 10
424.6178727134
 20
472.9293430601
 30
0.0
 10
426.7219742096
 20
472.8227242674
 30
0.0
 10
428.2670385012
 20
472.3080090652
 30
0.0
 10
429.1705977995
 20
471.7571676674
 30
0.0
 10
429.7828270555
 20
471.0610891833
 30
0.0
 10
429.9394063746
 20
470.4994403241
 30
0.0
 10
429.9394163964
 20
470.2398945533
 30
0.0
  0
SPLINE
  5
4CB
100
AcDbEntity
  8
0
100
AcDbSpline
 62
7
  6
CONTINUOUS
 70
0
 71
3
 72
10
 73
6
 74
0
 42
0.0000001
 43
0.0000001
 44
0.0000000001
 40
0.0
 40
0.0
 40
0.0
 40
0.0
 40
0.2183824859
 40
0.4522373614
 40
1.0
 40
1.0
 40
1.0
 40
1.0
 10
156.8359111481
 20
403.08337666
 30
0.0
 10
156.8359045319
 20
403.2547232089
 30
0.0
 10
156.8989260141
 20
403.6121057508
 30
0.0
 10
157.2791035358
 20
404.3098976157
 30
0.0
 10
157.7815165873
 20
404.7055688305
 30
0.0
 10
158.1537207649
 20
404.92045973
 30
0.0
  0
SPLINE
  5
4CC
100
AcDbEntity
  8
0
100
AcDbSpline
 62
7
  6
CONTINUOUS
 70
0
 71
3
 72
14
 73
10
 74
0
 42
0.0000001
 43
0.0000001
 44
0.0000000001
 40
0.0
 40
0.0
 40
0.0
 40
0.0
 40
0.0906954941
 40
0.1962281562
 40
0.3179425749
 40
0.4528362246
 40
0.7377478963
 40
0.8749126351
 40
1.0
 40
1.0
 40
1.0
 40
1.0
 10
297.009669421
 20
524.4691828451
 30
0.0
 10
296.8127568834
 20
525.0944779196
 30
0.0
 10
296.0597029482
 20
526.348371865
 30
0.0
 10
294.2648833677
 20
527.8275195765
 30
0.0
 10
291.8872806166
 20
528.9713279783
 30
0.0
 10
288.0871081876
 20
529.9706618174
 30
0.0
 10
283.979559076
 20
530.0362902881
 30
0.0
 10
280.1070613636
 20
529.1760618474
 30
0.0
 10
278.3464110824
 20
528.4285012699
 30
0.0
 10
277.563384886
 20
527.9764235831
 30
0.0
  0
SPLINE
  5
4CD
100
AcDbEntity
  8
0
100
AcDbSpline
 62
7
  6
CONTINUOUS
 70
0
 71
3
 72
13
 73
9
 74
0
 42
0.0000001
 43
0.0000001
 44
0.0000000001
 40
0.0
 40
0.0
 40
0.0
 40
0.0
 40
0.2698956012
 40
0.5613257437
 40
0.6954661216
 40
0.8131446799
 40
0.9128555334
 40
1.0
 40
1.0
 40
1.0
 40
1.0
 10
158.1537207649
 20
404.92045973
 30
0.0
 10
158.8498682001
 20
405.32237824
 30
0.0
 10
160.5139742251
 20
405.772824516
 30
0.0
 10
162.6180757212
 20
405.6662057233
 30
0.0
 10
164.1631400128
 20
405.1514905211
 30
0.0
 10
165.0666993111
 20
404.6006491234
 30
0.0
 10
165.6789285671
 20
403.9045706392
 30
0.0
 10
165.8355078863
 20
403.3429217801
 30
0.0
 10
165.835517908
 20
403.0833760092
 30
0.0
  0
SPLINE
  5
4CE
100
AcDbEntity
  8
0
100
AcDbSpline
 62
7
  6
CONTINUOUS
 70
0
 71
3
 72
11
 73
7
 74
0
 42
0.0000001
 43
0.0000001
 44
0.0000000001
 40
0.0
 40
0.0
 40
0.0
 40
0.0
 40
0.2902008755
 40
0.5493298204
 40
0.7821755217
 40
1.0
 40
1.0
 40
1.0
 40
1.0
 10
436.949871084
 20
470.9429282038
 30
0.0
 10
438.1872263154
 20
471.6573113155
 30
0.0
 10
440.4285119248
 20
473.2038301187
 30
0.0
 10
443.0924676147
 20
476.0338619978
 30
0.0
 10
444.7528377089
 20
479.1659119461
 30
0.0
 10
445.1065789577
 20
481.4087770554
 30
0.0
 10
445.0835995698
 20
482.4809660912
 30
0.0
  0
SPLINE
  5
4CF
100
AcDbEntity
  8
0
100
AcDbSpline
 62
7
  6
CONTINUOUS
 70
0
 71
3
 72
13
 73
9
 74
0
 42
0.0000001
 43
0.0000001
 44
0.0000000001
 40
0.0
 40
0.0
 40
0.0
 40
0.0
 40
0.2698956012
 40
0.5613257437
 40
0.6954661216
 40
0.8131446799
 40
0.9128555334
 40
1.0
 40
1.0
 40
1.0
 40
1.0
 10
104.7667657662
 20
459.4206990396
 30
0.0
 10
105.4629132015
 20
459.8226175496
 30
0.0
 10
107.1270192264
 20
460.2730638257
 30
0.0
 10
109.2311207225
 20
460.166445033
 30
0.0
 10
110.7761850141
 20
459.6517298308
 30
0.0
 10
111.6797443124
 20
459.100888433
 30
0.0
 10
112.2919735685
 20
458.4048099489
 30
0.0
 10
112.4485528876
 20
457.8431610897
 30
0.0
 10
112.4485629094
 20
457.5836153188
 30
0.0
  0
SPLINE
  5
4D0
100
AcDbEntity
  8
0
100
AcDbSpline
 62
7
  6
CONTINUOUS
 70
0
 71
3
 72
11
 73
7
 74
0
 42
0.0000001
 43
0.0000001
 44
0.0000000001
 40
0.0
 40
0.0
 40
0.0
 40
0.0
 40
0.2897781767
 40
0.5490726313
 40
0.7822276909
 40
1.0
 40
1.0
 40
1.0
 40
1.0
 10
167.8552236713
 20
405.2160505863
 30
0.0
 10
167.2942994136
 20
405.5398930312
 30
0.0
 10
166.2767749123
 20
406.2404291567
 30
0.0
 10
165.0610929268
 20
407.5185636822
 30
0.0
 10
164.2918667975
 20
408.9319941639
 30
0.0
 10
164.1121046601
 20
409.9466584584
 30
0.0
 10
164.1121046539
 20
410.4334108728
 30
0.0
  0
SPLINE
  5
4D1
100
AcDbEntity
  8
0
100
AcDbSpline
 62
7
  6
CONTINUOUS
 70
0
 71
3
 72
10
 73
6
 74
0
 42
0.0000001
 43
0.0000001
 44
0.0000000001
 40
0.0
 40
0.0
 40
0.0
 40
0.0
 40
0.2183824859
 40
0.4522373614
 40
1.0
 40
1.0
 40
1.0
 40
1.0
 10
420.9398096365
 20
470.2398952041
 30
0.0
 10
420.9398030203
 20
470.411241753
 30
0.0
 10
421.0028245025
 20
470.7686242949
 30
0.0
 10
421.3830020242
 20
471.4664161598
 30
0.0
 10
421.8854150757
 20
471.8620873746
 30
0.0
 10
422.2576192533
 20
472.076978274
 30
0.0
  0
SPLINE
  5
4D2
100
AcDbEntity
  8
0
100
AcDbSpline
 62
7
  6
CONTINUOUS
 70
0
 71
3
 72
11
 73
7
 74
0
 42
0.0000001
 43
0.0000001
 44
0.0000000001
 40
0.0
 40
0.0
 40
0.0
 40
0.0
 40
0.2177821605
 40
0.4509085882
 40
0.7102951949
 40
1.0
 40
1.0
 40
1.0
 40
1.0
 10
109.3034576658
 20
441.4579585614
 30
0.0
 10
109.3034577382
 20
441.7161952253
 30
0.0
 10
109.3988877609
 20
442.2544417653
 30
0.0
 10
109.8069303147
 20
443.0043927965
 30
0.0
 10
110.4519883639
 20
443.6823192996
 30
0.0
 10
110.991722906
 20
444.0540719339
 30
0.0
 10
111.289219898
 20
444.2258308771
 30
0.0
  0
SPLINE
  5
4D3
100
AcDbEntity
  8
0
100
AcDbSpline
 62
7
  6
CONTINUOUS
 70
0
 71
3
 72
10
 73
6
 74
0
 42
0.0000001
 43
0.0000001
 44
0.0000000001
 40
0.0
 40
0.0
 40
0.0
 40
0.0
 40
0.2183824859
 40
0.4522373614
 40
1.0
 40
1.0
 40
1.0
 40
1.0
 10
273.1538770808
 20
555.5622128988
 30
0.0
 10
273.1538704646
 20
555.7335594477
 30
0.0
 10
273.2168919467
 20
556.0909419896
 30
0.0
 10
273.5970694685
 20
556.7887338545
 30
0.0
 10
274.09948252
 20
557.1844050693
 30
0.0
 10
274.4716866976
 20
557.3992959688
 30
0.0
  0
SPLINE
  5
4D4
100
AcDbEntity
  8
0
100
AcDbSpline
 62
7
  6
CONTINUOUS
 70
0
 71
3
 72
13
 73
9
 74
0
 42
0.0000001
 43
0.0000001
 44
0.0000000001
 40
0.0
 40
0.0
 40
0.0
 40
0.0
 40
0.2698956012
 40
0.5613257437
 40
0.6954661216
 40
0.8131446799
 40
0.9128555334
 40
1.0
 40
1.0
 40
1.0
 40
1.0
 10
189.6192262319
 20
508.4099975042
 30
0.0
 10
190.3153736671
 20
508.8119160142
 30
0.0
 10
191.9794796921
 20
509.2623622902
 30
0.0
 10
194.0835811882
 20
509.1557434976
 30
0.0
 10
195.6286454798
 20
508.6410282953
 30
0.0
 10
196.5322047781
 20
508.0901868976
 30
0.0
 10
197.1444340341
 20
507.3941084135
 30
0.0
 10
197.3010133533
 20
506.8324595543
 30
0.0
 10
197.301023375
 20
506.5729137834
 30
0.0
  0
SPLINE
  5
4D5
100
AcDbEntity
  8
0
100
AcDbSpline
 62
7
  6
CONTINUOUS
 70
0
 71
3
 72
10
 73
6
 74
0
 42
0.0000001
 43
0.0000001
 44
0.0000000001
 40
0.0
 40
0.0
 40
0.0
 40
0.0
 40
0.2183824859
 40
0.4522373614
 40
1.0
 40
1.0
 40
1.0
 40
1.0
 10
336.0873491708
 20
421.2505967395
 30
0.0
 10
336.0873425547
 20
421.4219432884
 30
0.0
 10
336.1503640368
 20
421.7793258303
 30
0.0
 10
336.5305415585
 20
422.4771176952
 30
0.0
 10
337.03295461
 20
422.87278891
 30
0.0
 10
337.4051587876
 20
423.0876798094
 30
0.0
  0
SPLINE
  5
4D6
100
AcDbEntity
  8
0
100
AcDbSpline
 62
7
  6
CONTINUOUS
 70
0
 71
3
 72
11
 73
7
 74
0
 42
0.0000001
 43
0.0000001
 44
0.0000000001
 40
0.0
 40
0.0
 40
0.0
 40
0.0
 40
0.2373240656
 40
0.5000037607
 40
0.7626928989
 40
1.0
 40
1.0
 40
1.0
 40
1.0
 10
346.4947544862
 20
528.7691045182
 30
0.0
 10
345.8092906945
 20
529.1635506495
 30
0.0
 10
344.2167805944
 20
529.7375027274
 30
0.0
 10
341.6719273224
 20
530.0219576415
 30
0.0
 10
339.1270314622
 20
529.7377866407
 30
0.0
 10
337.5346627153
 20
529.1635206611
 30
0.0
 10
336.8492620281
 20
528.7690782144
 30
0.0
  0
SPLINE
  5
4D7
100
AcDbEntity
  8
0
100
AcDbSpline
 62
7
  6
CONTINUOUS
 70
0
 71
3
 72
11
 73
7
 74
0
 42
0.0000001
 43
0.0000001
 44
0.0000000001
 40
0.0
 40
0.0
 40
0.0
 40
0.0
 40
0.2373136773
 40
0.4999885209
 40
0.7626635204
 40
1.0
 40
1.0
 40
1.0
 40
1.0
 10
344.6015729326
 20
502.769744551
 30
0.0
 10
344.9749257863
 20
502.9860592953
 30
0.0
 10
345.8427851371
 20
503.3038783497
 30
0.0
 10
347.2320269224
 20
503.450997355
 30
0.0
 10
348.6211728251
 20
503.3038100889
 30
0.0
 10
349.4893347462
 20
502.9862667237
 30
0.0
 10
349.8624471321
 20
502.769454938
 30
0.0
  0
SPLINE
  5
4D8
100
AcDbEntity
  8
0
100
AcDbSpline
 62
7
  6
CONTINUOUS
 70
0
 71
3
 72
11
 73
7
 74
0
 42
0.0000001
 43
0.0000001
 44
0.0000000001
 40
0.0
 40
0.0
 40
0.0
 40
0.0
 40
0.2372405738
 40
0.5000004574
 40
0.7627600882
 40
1.0
 40
1.0
 40
1.0
 40
1.0
 10
366.8031308944
 20
544.0831638066
 30
0.0
 10
365.7410065398
 20
544.6963677161
 30
0.0
 10
363.2710585701
 20
545.5911732272
 30
0.0
 10
359.3219302955
 20
546.0198724655
 30
0.0
 10
355.3728074072
 20
545.5911555437
 30
0.0
 10
352.9028683737
 20
544.6963376991
 30
0.0
 10
351.8407514046
 20
544.0831278415
 30
0.0
  0
SPLINE
  5
4D9
100
AcDbEntity
  8
0
100
AcDbSpline
 62
7
  6
CONTINUOUS
 70
0
 71
3
 72
11
 73
7
 74
0
 42
0.0000001
 43
0.0000001
 44
0.0000000001
 40
0.0
 40
0.0
 40
0.0
 40
0.0
 40
0.2868111445
 40
0.5466503149
 40
0.7818418793
 40
1.0
 40
1.0
 40
1.0
 40
1.0
 10
169.4107898188
 20
438.7577691193
 30
0.0
 10
168.9897486766
 20
438.5146823535
 30
0.0
 10
168.2188835523
 20
437.9917040623
 30
0.0
 10
167.2694516511
 20
437.0541906313
 30
0.0
 10
166.6151593707
 20
436.0233275563
 30
0.0
 10
166.3924250592
 20
435.2742378652
 30
0.0
 10
166.3434188466
 20
434.9076979521
 30
0.0
  0
SPLINE
  5
4DA
100
AcDbEntity
  8
0
100
AcDbSpline
 62
7
  6
CONTINUOUS
 70
0
 71
3
 72
11
 73
7
 74
0
 42
0.0000001
 43
0.0000001
 44
0.0000000001
 40
0.0
 40
0.0
 40
0.0
 40
0.0
 40
0.2372279391
 40
0.4999994739
 40
0.762771295
 40
1.0
 40
1.0
 40
1.0
 40
1.0
 10
243.9118704603
 20
371.7403521594
 30
0.0
 10
242.6289617251
 20
370.9996688771
 30
0.0
 10
239.6454485527
 20
369.9187168277
 30
0.0
 10
234.8750600046
 20
369.4009156873
 30
0.0
 10
230.1046642588
 20
369.9186950582
 30
0.0
 10
227.1211393518
 20
370.9996322932
 30
0.0
 10
225.8382211333
 20
371.7403087157
 30
0.0
  0
SPLINE
  5
4DB
100
AcDbEntity
  8
0
100
AcDbSpline
 62
7
  6
CONTINUOUS
 70
0
 71
3
 72
11
 73
7
 74
0
 42
0.0000001
 43
0.0000001
 44
0.0000000001
 40
0.0
 40
0.0
 40
0.0
 40
0.0
 40
0.2897776971
 40
0.5490719787
 40
0.7822272299
 40
1.0
 40
1.0
 40
1.0
 40
1.0
 10
426.3418320461
 20
501.5607833955
 30
0.0
 10
426.9027458143
 20
501.8846251775
 30
0.0
 10
427.9202510052
 20
502.5851586286
 30
0.0
 10
429.1359083008
 20
503.86328368
 30
0.0
 10
429.9051177895
 20
505.2767004765
 30
0.0
 10
430.0848758219
 20
506.2913530637
 30
0.0
 10
430.0848758157
 20
506.7781002382
 30
0.0
  0
SPLINE
  5
4DC
100
AcDbEntity
  8
0
100
AcDbSpline
 62
7
  6
CONTINUOUS
 70
0
 71
3
 72
11
 73
7
 74
0
 42
0.0000001
 43
0.0000001
 44
0.0000000001
 40
0.0
 40
0.0
 40
0.0
 40
0.0
 40
0.237228705
 40
0.5000005261
 40
0.7627720609
 40
1.0
 40
1.0
 40
1.0
 40
1.0
 10
225.8382211333
 20
396.2353812296
 30
0.0
 10
227.1211393518
 20
395.4947048071
 30
0.0
 10
230.1046642588
 20
394.4137675721
 30
0.0
 10
234.8750600046
 20
393.8959882012
 30
0.0
 10
239.6454485527
 20
394.4137893416
 30
0.0
 10
242.6289617251
 20
395.494741391
 30
0.0
 10
243.9118704603
 20
396.2354246733
 30
0.0
  0
SPLINE
  5
4DD
100
AcDbEntity
  8
0
100
AcDbSpline
 62
7
  6
CONTINUOUS
 70
0
 71
3
 72
10
 73
6
 74
0
 42
0.0000001
 43
0.0000001
 44
0.0000000001
 40
0.0
 40
0.0
 40
0.0
 40
0.0
 40
0.2183824859
 40
0.4522373614
 40
1.0
 40
1.0
 40
1.0
 40
1.0
 10
251.2348887052
 20
372.2612982749
 30
0.0
 10
251.234882089
 20
372.4326448238
 30
0.0
 10
251.2979035711
 20
372.7900273657
 30
0.0
 10
251.6780810929
 20
373.4878192306
 30
0.0
 10
252.1804941444
 20
373.8834904454
 30
0.0
 10
252.552698322
 20
374.0983813449
 30
0.0
  0
SPLINE
  5
4DE
100
AcDbEntity
  8
0
100
AcDbSpline
 62
7
  6
CONTINUOUS
 70
0
 71
3
 72
11
 73
7
 74
0
 42
0.0000001
 43
0.0000001
 44
0.0000000001
 40
0.0
 40
0.0
 40
0.0
 40
0.0
 40
0.2372398078
 40
0.4999994051
 40
0.7627593222
 40
1.0
 40
1.0
 40
1.0
 40
1.0
 10
351.8407514046
 20
544.5730292918
 30
0.0
 10
352.9028679081
 20
545.1862388806
 30
0.0
 10
355.3728061636
 20
546.0810566558
 30
0.0
 10
359.3219284791
 20
546.5097739158
 30
0.0
 10
363.2710573266
 20
546.0810750157
 30
0.0
 10
365.7410060742
 20
545.1862694352
 30
0.0
 10
366.8031308944
 20
544.5730652569
 30
0.0
  0
SPLINE
  5
4DF
100
AcDbEntity
  8
0
100
AcDbSpline
 62
7
  6
CONTINUOUS
 70
0
 71
3
 72
13
 73
9
 74
0
 42
0.0000001
 43
0.0000001
 44
0.0000000001
 40
0.0
 40
0.0
 40
0.0
 40
0.0
 40
0.2698956012
 40
0.5613257437
 40
0.6954661216
 40
0.8131446799
 40
0.9128555334
 40
1.0
 40
1.0
 40
1.0
 40
1.0
 10
274.4716866976
 20
557.3992959688
 30
0.0
 10
275.1678341328
 20
557.8012144788
 30
0.0
 10
276.8319401577
 20
558.2516607548
 30
0.0
 10
278.9360416538
 20
558.1450419621
 30
0.0
 10
280.4811059454
 20
557.6303267599
 30
0.0
 10
281.3846652438
 20
557.0794853622
 30
0.0
 10
281.9968944998
 20
556.383406878
 30
0.0
 10
282.1534738189
 20
555.8217580189
 30
0.0
 10
282.1534838407
 20
555.562212248
 30
0.0
  0
SPLINE
  5
4E0
100
AcDbEntity
  8
0
100
AcDbSpline
 62
7
  6
CONTINUOUS
 70
0
 71
3
 72
11
 73
7
 74
0
 42
0.0000001
 43
0.0000001
 44
0.0000000001
 40
0.0
 40
0.0
 40
0.0
 40
0.0
 40
0.2897052857
 40
0.5490919933
 40
0.7822182543
 40
1.0
 40
1.0
 40
1.0
 40
1.0
 10
424.7861283565
 20
511.0973233862
 30
0.0
 10
425.2503727599
 20
510.8292978185
 30
0.0
 10
426.0926293646
 20
510.2491862529
 30
0.0
 10
427.0992447001
 20
509.1912930529
 30
0.0
 10
427.735997339
 20
508.021004202
 30
0.0
 10
427.8849170789
 20
507.1810757401
 30
0.0
 10
427.8849169659
 20
506.7781002384
 30
0.0
  0
SPLINE
  5
4E1
100
AcDbEntity
  8
0
100
AcDbSpline
 62
7
  6
CONTINUOUS
 70
0
 71
3
 72
10
 73
6
 74
0
 42
0.0000001
 43
0.0000001
 44
0.0000000001
 40
0.0
 40
0.0
 40
0.0
 40
0.0
 40
0.2183824859
 40
0.4522373614
 40
1.0
 40
1.0
 40
1.0
 40
1.0
 10
188.3014166151
 20
506.5729144343
 30
0.0
 10
188.3014099989
 20
506.7442609831
 30
0.0
 10
188.3644314811
 20
507.101643525
 30
0.0
 10
188.7446090028
 20
507.79943539
 30
0.0
 10
189.2470220543
 20
508.1951066048
 30
0.0
 10
189.6192262319
 20
508.4099975042
 30
0.0
  0
SPLINE
  5
4E2
100
AcDbEntity
  8
0
100
AcDbSpline
 62
7
  6
CONTINUOUS
 70
0
 71
3
 72
11
 73
7
 74
0
 42
0.0000001
 43
0.0000001
 44
0.0000000001
 40
0.0
 40
0.0
 40
0.0
 40
0.0
 40
0.2896413964
 40
0.5491107671
 40
0.7822355978
 40
1.0
 40
1.0
 40
1.0
 40
1.0
 10
192.6683829305
 20
402.0738395341
 30
0.0
 10
192.6683829305
 20
402.3904471334
 30
0.0
 10
192.7165074027
 20
402.9927097279
 30
0.0
 10
192.9602659943
 20
403.8201991761
 30
0.0
 10
193.3708764342
 20
404.491824539
 30
0.0
 10
193.7567887187
 20
404.8158033345
 30
0.0
 10
193.9628887656
 20
404.9349049654
 30
0.0
  0
SPLINE
  5
4E3
100
AcDbEntity
  8
0
100
AcDbSpline
 62
7
  6
CONTINUOUS
 70
0
 71
3
 72
14
 73
10
 74
0
 42
0.0000001
 43
0.0000001
 44
0.0000000001
 40
0.0
 40
0.0
 40
0.0
 40
0.0
 40
0.2660158178
 40
0.4117907183
 40
0.5556589976
 40
0.6901928737
 40
0.8096590991
 40
0.9117805573
 40
1.0
 40
1.0
 40
1.0
 40
1.0
 10
192.8098036979
 20
402.1554883648
 30
0.0
 10
192.8098036979
 20
401.077953557
 30
0.0
 10
193.2389805713
 20
399.4069427666
 30
0.0
 10
194.2831796047
 20
397.4114453656
 30
0.0
 10
195.3202035383
 20
396.0295019426
 30
0.0
 10
196.5029225591
 20
394.9213007238
 30
0.0
 10
197.7490680093
 20
394.1684249825
 30
0.0
 10
198.9791197168
 20
393.8282123606
 30
0.0
 10
199.7745351504
 20
393.9325525388
 30
0.0
 10
200.1049099361
 20
394.068744362
 30
0.0
  0
SPLINE
  5
4E4
100
AcDbEntity
  8
0
100
AcDbSpline
 62
7
  6
CONTINUOUS
 70
0
 71
3
 72
11
 73
7
 74
0
 42
0.0000001
 43
0.0000001
 44
0.0000000001
 40
0.0
 40
0.0
 40
0.0
 40
0.0
 40
0.2372279392
 40
0.4999994737
 40
0.7627712946
 40
1.0
 40
1.0
 40
1.0
 40
1.0
 10
169.073710232
 20
486.5689647107
 30
0.0
 10
170.3566189552
 20
487.3096479804
 30
0.0
 10
173.3401320963
 20
488.3906000025
 30
0.0
 10
178.1105205859
 20
488.9084011367
 30
0.0
 10
182.880916272
 20
488.3906217755
 30
0.0
 10
185.8644411586
 20
487.3096845844
 30
0.0
 10
187.1473593641
 20
486.5690081694
 30
0.0
  0
SPLINE
  5
4E5
100
AcDbEntity
  8
0
100
AcDbSpline
 62
7
  6
CONTINUOUS
 70
0
 71
3
 72
16
 73
12
 74
0
 42
0.0000001
 43
0.0000001
 44
0.0000000001
 40
0.0
 40
0.0
 40
0.0
 40
0.0
 40
0.1287504849
 40
0.2703972725
 40
0.4176174969
 40
0.5620242719
 40
0.6957534795
 40
0.8130674101
 40
0.9124732896
 40
0.9571219109
 40
1.0
 40
1.0
 40
1.0
 40
1.0
 10
277.563384886
 20
528.7929260002
 30
0.0
 10
278.4146959933
 20
529.2844277633
 30
0.0
 10
280.3421349321
 20
530.079694289
 30
0.0
 10
283.4834307396
 20
530.7081125159
 30
0.0
 10
286.8061007733
 20
530.7999246427
 30
0.0
 10
290.0379715873
 20
530.3465714179
 30
0.0
 10
292.9207633396
 20
529.3816572793
 30
0.0
 10
295.2305818132
 20
527.9798460101
 30
0.0
 10
296.575966962
 20
526.434595353
 30
0.0
 10
297.1076050372
 20
525.0966536178
 30
0.0
 10
297.1950220302
 20
524.4255308786
 30
0.0
 10
297.1950790607
 20
524.0981573479
 30
0.0
  0
SPLINE
  5
4E6
100
AcDbEntity
  8
0
100
AcDbSpline
 62
7
  6
CONTINUOUS
 70
0
 71
3
 72
16
 73
12
 74
0
 42
0.0000001
 43
0.0000001
 44
0.0000000001
 40
0.0
 40
0.0
 40
0.0
 40
0.0
 40
0.1287504849
 40
0.2703972725
 40
0.4176174969
 40
0.5620242719
 40
0.6957534795
 40
0.8130674101
 40
0.9124732896
 40
0.9571219109
 40
1.0
 40
1.0
 40
1.0
 40
1.0
 10
235.1371546531
 20
504.298276768
 30
0.0
 10
235.9884657604
 20
504.789778531
 30
0.0
 10
237.9159046993
 20
505.5850450567
 30
0.0
 10
241.0572005068
 20
506.2134632836
 30
0.0
 10
244.3798705405
 20
506.3052754105
 30
0.0
 10
247.6117413544
 20
505.8519221856
 30
0.0
 10
250.4945331068
 20
504.887008047
 30
0.0
 10
252.8043515804
 20
503.4851967778
 30
0.0
 10
254.1497367292
 20
501.9399461207
 30
0.0
 10
254.6813748043
 20
500.6020043855
 30
0.0
 10
254.7687917974
 20
499.9308816463
 30
0.0
 10
254.7688488279
 20
499.6035081156
 30
0.0
  0
SPLINE
  5
4E7
100
AcDbEntity
  8
0
100
AcDbSpline
 62
7
  6
CONTINUOUS
 70
0
 71
3
 72
12
 73
8
 74
0
 42
0.0000001
 43
0.0000001
 44
0.0000000001
 40
0.0
 40
0.0
 40
0.0
 40
0.0
 40
0.2882901263
 40
0.5299130153
 40
0.6418797899
 40
0.7544519519
 40
1.0
 40
1.0
 40
1.0
 40
1.0
 10
319.1839548451
 20
518.5700692368
 30
0.0
 10
318.7136900912
 20
518.2976881901
 30
0.0
 10
317.9002721993
 20
517.6873406721
 30
0.0
 10
317.257538762
 20
516.6048994019
 30
0.0
 10
317.1532640829
 20
515.7198114429
 30
0.0
 10
317.3095053695
 20
514.8365603106
 30
0.0
 10
317.6978984059
 20
514.2463389614
 30
0.0
 10
318.0147240151
 20
513.9088791225
 30
0.0
  0
SPLINE
  5
4E8
100
AcDbEntity
  8
0
100
AcDbSpline
 62
7
  6
CONTINUOUS
 70
0
 71
3
 72
11
 73
7
 74
0
 42
0.0000001
 43
0.0000001
 44
0.0000000001
 40
0.0
 40
0.0
 40
0.0
 40
0.0
 40
0.2177787927
 40
0.4509217956
 40
0.7102585595
 40
1.0
 40
1.0
 40
1.0
 40
1.0
 10
274.1952143896
 20
524.0981572986
 30
0.0
 10
274.1951380861
 20
524.5361639642
 30
0.0
 10
274.3571198111
 20
525.44914958
 30
0.0
 10
275.0491395264
 20
526.7211236966
 30
0.0
 10
276.1431800568
 20
527.8711154423
 30
0.0
 10
277.0587154134
 20
528.5015566836
 30
0.0
 10
277.563384886
 20
528.7929260002
 30
0.0
  0
SPLINE
  5
4E9
100
AcDbEntity
  8
0
100
AcDbSpline
 62
7
  6
CONTINUOUS
 70
0
 71
3
 72
9
 73
5
 74
0
 42
0.0000001
 43
0.0000001
 44
0.0000000001
 40
0.0
 40
0.0
 40
0.0
 40
0.0
 40
0.2689457194
 40
1.0
 40
1.0
 40
1.0
 40
1.0
 10
381.3712570616
 20
484.5790358151
 30
0.0
 10
381.4480330028
 20
484.5349689679
 30
0.0
 10
381.7268217279
 20
484.3604914201
 30
0.0
 10
381.979810289
 20
484.1394045322
 30
0.0
 10
382.1285014212
 20
483.9502161272
 30
0.0
  0
SPLINE
  5
4EA
100
AcDbEntity
  8
0
100
AcDbSpline
 62
7
  6
CONTINUOUS
 70
0
 71
3
 72
15
 73
11
 74
0
 42
0.0000001
 43
0.0000001
 44
0.0000000001
 40
0.0
 40
0.0
 40
0.0
 40
0.0
 40
0.1448892962
 40
0.274536791
 40
0.3911145995
 40
0.5000009564
 40
0.6088871396
 40
0.7254644865
 40
0.8551113596
 40
1.0
 40
1.0
 40
1.0
 40
1.0
 10
107.0466367198
 20
440.3231104095
 30
0.0
 10
106.4857152802
 20
440.64695123
 30
0.0
 10
105.4681954019
 20
441.3475820519
 30
0.0
 10
104.2525168966
 20
442.6253173531
 30
0.0
 10
103.4832890345
 20
444.0399743119
 30
0.0
 10
103.2167038391
 20
445.5404384672
 30
0.0
 10
103.4832666809
 20
447.0409046715
 30
0.0
 10
104.2524743944
 20
448.4555665719
 30
0.0
 10
105.4681351103
 20
449.7333084039
 30
0.0
 10
106.4856448828
 20
450.4339440234
 30
0.0
 10
107.0465614462
 20
450.7577874261
 30
0.0
  0
SPLINE
  5
4EB
100
AcDbEntity
  8
0
100
AcDbSpline
 62
7
  6
CONTINUOUS
 70
0
 71
3
 72
10
 73
6
 74
0
 42
0.0000001
 43
0.0000001
 44
0.0000000001
 40
0.0
 40
0.0
 40
0.0
 40
0.0
 40
0.2183824859
 40
0.4522373614
 40
1.0
 40
1.0
 40
1.0
 40
1.0
 10
103.4489561494
 20
457.5836159697
 30
0.0
 10
103.4489495333
 20
457.7549625186
 30
0.0
 10
103.5119710154
 20
458.1123450605
 30
0.0
 10
103.8921485371
 20
458.8101369254
 30
0.0
 10
104.3945615886
 20
459.2058081402
 30
0.0
 10
104.7667657662
 20
459.4206990396
 30
0.0
  0
SPLINE
  5
4EC
100
AcDbEntity
  8
0
100
AcDbSpline
 62
7
  6
CONTINUOUS
 70
0
 71
3
 72
11
 73
7
 74
0
 42
0.0000001
 43
0.0000001
 44
0.0000000001
 40
0.0
 40
0.0
 40
0.0
 40
0.0
 40
0.237219572
 40
0.5000005441
 40
0.7627812203
 40
1.0
 40
1.0
 40
1.0
 40
1.0
 10
215.2330988422
 20
365.6158420774
 30
0.0
 10
218.0214801669
 20
364.0060057884
 30
0.0
 10
224.5063034445
 20
361.6565278434
 30
0.0
 10
234.8751214551
 20
360.5308739605
 30
0.0
 10
245.2439234365
 20
361.6565753958
 30
0.0
 10
251.7287206781
 20
364.0060854842
 30
0.0
 10
254.5170810818
 20
365.6159365044
 30
0.0
  0
SPLINE
  5
4ED
100
AcDbEntity
  8
0
100
AcDbSpline
 62
7
  6
CONTINUOUS
 70
0
 71
3
 72
13
 73
9
 74
0
 42
0.0000001
 43
0.0000001
 44
0.0000000001
 40
0.0
 40
0.0
 40
0.0
 40
0.0
 40
0.2698956012
 40
0.5613257437
 40
0.6954661216
 40
0.8131446799
 40
0.9128555334
 40
1.0
 40
1.0
 40
1.0
 40
1.0
 10
252.552698322
 20
374.0983813449
 30
0.0
 10
253.2488457572
 20
374.5002998549
 30
0.0
 10
254.9129517821
 20
374.9507461309
 30
0.0
 10
257.0170532782
 20
374.8441273382
 30
0.0
 10
258.5621175698
 20
374.329412136
 30
0.0
 10
259.4656768682
 20
373.7785707383
 30
0.0
 10
260.0779061242
 20
373.0824922541
 30
0.0
 10
260.2344854433
 20
372.520843395
 30
0.0
 10
260.2344954651
 20
372.2612976241
 30
0.0
  0
SPLINE
  5
4EE
100
AcDbEntity
  8
0
100
AcDbSpline
 62
7
  6
CONTINUOUS
 70
0
 71
3
 72
15
 73
11
 74
0
 42
0.0000001
 43
0.0000001
 44
0.0000000001
 40
0.0
 40
0.0
 40
0.0
 40
0.0
 40
0.1448521768
 40
0.2745451629
 40
0.3911080996
 40
0.4999989887
 40
0.6088900533
 40
0.7254534611
 40
0.8551471319
 40
1.0
 40
1.0
 40
1.0
 40
1.0
 10
110.5821100893
 20
444.63407158
 30
0.0
 10
110.2407328262
 20
444.4369784976
 30
0.0
 10
109.6213887076
 20
444.0103333875
 30
0.0
 10
108.8811874298
 20
443.2326500686
 30
0.0
 10
108.4129626786
 20
442.3713324405
 30
0.0
 10
108.2505725774
 20
441.4579394269
 30
0.0
 10
108.4129759609
 20
440.5445475735
 30
0.0
 10
108.881212872
 20
439.6832326367
 30
0.0
 10
109.6214252041
 20
438.9055530942
 30
0.0
 10
110.2407756142
 20
438.4789106371
 30
0.0
 10
110.582155929
 20
438.2818190777
 30
0.0
  0
SPLINE
  5
4EF
100
AcDbEntity
  8
0
100
AcDbSpline
 62
7
  6
CONTINUOUS
 70
0
 71
3
 72
11
 73
7
 74
0
 42
0.0000001
 43
0.0000001
 44
0.0000000001
 40
0.0
 40
0.0
 40
0.0
 40
0.0
 40
0.2372405742
 40
0.5000004575
 40
0.762760088
 40
1.0
 40
1.0
 40
1.0
 40
1.0
 10
183.611840222
 20
480.4452752912
 30
0.0
 10
182.8308073874
 20
480.8961946073
 30
0.0
 10
181.0145318623
 20
481.5541895591
 30
0.0
 10
178.1105415438
 20
481.8694334177
 30
0.0
 10
175.2065551851
 20
481.5541765553
 30
0.0
 10
173.390286236
 20
480.8961725266
 30
0.0
 10
172.6092588313
 20
480.4452488394
 30
0.0
  0
SPLINE
  5
4F0
100
AcDbEntity
  8
0
100
AcDbSpline
 62
7
  6
CONTINUOUS
 70
0
 71
3
 72
9
 73
5
 74
0
 42
0.0000001
 43
0.0000001
 44
0.0000000001
 40
0.0
 40
0.0
 40
0.0
 40
0.0
 40
0.2290098083
 40
1.0
 40
1.0
 40
1.0
 40
1.0
 10
128.415274877
 20
454.113504308
 30
0.0
 10
128.4611063211
 20
454.1399649466
 30
0.0
 10
128.6709713051
 20
454.2383954182
 30
0.0
 10
128.9054242088
 20
454.2781358236
 30
0.0
 10
129.08354578
 20
454.2821546904
 30
0.0
  0
SPLINE
  5
4F1
100
AcDbEntity
  8
0
100
AcDbSpline
 62
7
  6
CONTINUOUS
 70
0
 71
3
 72
9
 73
5
 74
0
 42
0.0000001
 43
0.0000001
 44
0.0000000001
 40
0.0
 40
0.0
 40
0.0
 40
0.0
 40
0.2672485431
 40
1.0
 40
1.0
 40
1.0
 40
1.0
 10
129.161216517
 20
454.2821548452
 30
0.0
 10
129.2229250796
 20
454.2807627927
 30
0.0
 10
129.4528919191
 20
454.2632056846
 30
0.0
 10
129.6829234174
 20
454.1981251479
 30
0.0
 10
129.8294884394
 20
454.1135077073
 30
0.0
  0
SPLINE
  5
4F2
100
AcDbEntity
  8
0
100
AcDbSpline
 62
7
  6
CONTINUOUS
 70
0
 71
3
 72
12
 73
8
 74
0
 42
0.0000001
 43
0.0000001
 44
0.0000000001
 40
0.0
 40
0.0
 40
0.0
 40
0.0
 40
0.2654353231
 40
0.380910129
 40
0.4908459039
 40
0.7205976925
 40
1.0
 40
1.0
 40
1.0
 40
1.0
 10
398.6765478939
 20
493.5772664248
 30
0.0
 10
399.1582351355
 20
493.912319715
 30
0.0
 10
399.7959780266
 20
494.5174222779
 30
0.0
 10
400.2287697508
 20
495.5274182885
 30
0.0
 10
400.3208603079
 20
496.5494822446
 30
0.0
 10
399.7117429406
 20
497.8699086689
 30
0.0
 10
398.7956370284
 20
498.5728439498
 30
0.0
 10
398.261189731
 20
498.8824153219
 30
0.0
  0
SPLINE
  5
4F3
100
AcDbEntity
  8
0
100
AcDbSpline
 62
7
  6
CONTINUOUS
 70
0
 71
3
 72
13
 73
9
 74
0
 42
0.0000001
 43
0.0000001
 44
0.0000000001
 40
0.0
 40
0.0
 40
0.0
 40
0.0
 40
0.2698956012
 40
0.5613257437
 40
0.6954661216
 40
0.8131446799
 40
0.9128555334
 40
1.0
 40
1.0
 40
1.0
 40
1.0
 10
337.4051587876
 20
423.0876798094
 30
0.0
 10
338.1013062229
 20
423.4895983194
 30
0.0
 10
339.7654122478
 20
423.9400445955
 30
0.0
 10
341.8695137439
 20
423.8334258028
 30
0.0
 10
343.4145780355
 20
423.3187106006
 30
0.0
 10
344.3181373338
 20
422.7678692029
 30
0.0
 10
344.9303665899
 20
422.0717907187
 30
0.0
 10
345.086945909
 20
421.5101418596
 30
0.0
 10
345.0869559308
 20
421.2505960887
 30
0.0
  0
SPLINE
  5
4F4
100
AcDbEntity
  8
0
100
AcDbSpline
 62
7
  6
CONTINUOUS
 70
0
 71
3
 72
11
 73
7
 74
0
 42
0.0000001
 43
0.0000001
 44
0.0000000001
 40
0.0
 40
0.0
 40
0.0
 40
0.0
 40
0.2178240254
 40
0.450669538
 40
0.7097986511
 40
1.0
 40
1.0
 40
1.0
 40
1.0
 10
88.304772998
 20
445.7384211515
 30
0.0
 10
88.2817932716
 20
444.6662207215
 30
0.0
 10
88.6355432144
 20
442.4233299492
 30
0.0
 10
90.2959495028
 20
439.2912500595
 30
0.0
 10
92.9599591317
 20
436.4611976608
 30
0.0
 10
95.2012868904
 20
434.9146732701
 30
0.0
 10
96.4386650165
 20
434.2002888374
 30
0.0
  0
SPLINE
  5
4F5
100
AcDbEntity
  8
0
100
AcDbSpline
 62
7
  6
CONTINUOUS
 70
0
 71
3
 72
11
 73
7
 74
0
 42
0.0000001
 43
0.0000001
 44
0.0000000001
 40
0.0
 40
0.0
 40
0.0
 40
0.0
 40
0.2181576348
 40
0.4533490242
 40
0.7131884366
 40
1.0
 40
1.0
 40
1.0
 40
1.0
 10
427.8535610511
 20
506.7573185327
 30
0.0
 10
427.8045539158
 20
507.1238624682
 30
0.0
 10
427.5818148864
 20
507.8729607045
 30
0.0
 10
426.9275088187
 20
508.9038336949
 30
0.0
 10
425.9780574363
 20
509.841354005
 30
0.0
 10
425.2071774829
 20
510.3643346088
 30
0.0
 10
424.7861283565
 20
510.607421936
 30
0.0
  0
SPLINE
  5
4F6
100
AcDbEntity
  8
0
100
AcDbSpline
 62
7
  6
CONTINUOUS
 70
0
 71
3
 72
14
 73
10
 74
0
 42
0.0000001
 43
0.0000001
 44
0.0000000001
 40
0.0
 40
0.0
 40
0.0
 40
0.0
 40
0.0906954941
 40
0.1962281562
 40
0.3179425749
 40
0.4528362246
 40
0.7377478963
 40
0.8749126351
 40
1.0
 40
1.0
 40
1.0
 40
1.0
 10
254.5834391882
 20
499.9745336128
 30
0.0
 10
254.3865266506
 20
500.5998286873
 30
0.0
 10
253.6334727154
 20
501.8537226327
 30
0.0
 10
251.8386531349
 20
503.3328703442
 30
0.0
 10
249.4610503838
 20
504.476678746
 30
0.0
 10
245.6608779547
 20
505.4760125851
 30
0.0
 10
241.5533288431
 20
505.5416410558
 30
0.0
 10
237.6808311308
 20
504.6814126151
 30
0.0
 10
235.9201808496
 20
503.9338520376
 30
0.0
 10
235.1371546531
 20
503.4817743508
 30
0.0
  0
SPLINE
  5
4F7
100
AcDbEntity
  8
0
100
AcDbSpline
 62
7
  6
CONTINUOUS
 70
0
 71
3
 72
8
 73
4
 74
0
 42
0.0000001
 43
0.0000001
 44
0.0000000001
 40
0.0
 40
0.0
 40
0.0
 40
0.0
 40
1.0
 40
1.0
 40
1.0
 40
1.0
 10
109.5334583367
 20
441.2441280436
 30
0.0
 10
109.4747361669
 20
441.1172585215
 30
0.0
 10
109.4256843334
 20
440.9853458503
 30
0.0
 10
109.3884237961
 20
440.8506023116
 30
0.0
  0
SPLINE
  5
4F8
100
AcDbEntity
  8
0
100
AcDbSpline
 62
7
  6
CONTINUOUS
 70
0
 71
3
 72
11
 73
7
 74
0
 42
0.0000001
 43
0.0000001
 44
0.0000000001
 40
0.0
 40
0.0
 40
0.0
 40
0.0
 40
0.2177821605
 40
0.4509085882
 40
0.7102951949
 40
1.0
 40
1.0
 40
1.0
 40
1.0
 10
166.3120635037
 20
434.9284833866
 30
0.0
 10
166.3120636166
 20
435.3314544639
 30
0.0
 10
166.4609794927
 20
436.171373106
 30
0.0
 10
167.0977184631
 20
437.3416506738
 30
0.0
 10
168.1043134721
 20
438.399535984
 30
0.0
 10
168.9465540997
 20
438.979645552
 30
0.0
 10
169.4107898188
 20
439.2476705695
 30
0.0
  0
SPLINE
  5
4F9
100
AcDbEntity
  8
0
100
AcDbSpline
 62
7
  6
CONTINUOUS
 70
0
 71
3
 72
15
 73
11
 74
0
 42
0.0000001
 43
0.0000001
 44
0.0000000001
 40
0.0
 40
0.0
 40
0.0
 40
0.0
 40
0.0869302718
 40
0.1864000368
 40
0.3037880336
 40
0.4376004358
 40
0.582099273
 40
0.7294176325
 40
0.8711704074
 40
1.0
 40
1.0
 40
1.0
 40
1.0
 10
200.2127486597
 20
394.1097646712
 30
0.0
 10
199.9006378956
 20
393.9294012914
 30
0.0
 10
199.1162140047
 20
393.727972461
 30
0.0
 10
197.8537922925
 20
393.980750687
 30
0.0
 10
196.5639927914
 20
394.685250877
 30
0.0
 10
195.327238737
 20
395.7803696374
 30
0.0
 10
194.2353694118
 20
397.1780911641
 30
0.0
 10
193.3756519371
 20
398.7669736229
 30
0.0
 10
192.8178543721
 20
400.4162982344
 30
0.0
 10
192.6683829305
 20
401.5396162148
 30
0.0
 10
192.6683829305
 20
402.0738395341
 30
0.0
  0
SPLINE
  5
4FA
100
AcDbEntity
  8
0
100
AcDbSpline
 62
7
  6
CONTINUOUS
 70
0
 71
3
 72
10
 73
6
 74
0
 42
0.0000001
 43
0.0000001
 44
0.0000000001
 40
0.0
 40
0.0
 40
0.0
 40
0.0
 40
0.2183779972
 40
0.4531763804
 40
1.0
 40
1.0
 40
1.0
 40
1.0
 10
193.9871296685
 20
404.943549194
 30
0.0
 10
193.7975464227
 20
404.8166140749
 30
0.0
 10
193.4460994671
 20
404.4854392007
 30
0.0
 10
192.9263964305
 20
403.5661001451
 30
0.0
 10
192.8098036979
 20
402.7267917844
 30
0.0
 10
192.8098036979
 20
402.1554883648
 30
0.0
  0
SPLINE
  5
4FB
100
AcDbEntity
  8
0
100
AcDbSpline
 62
7
  6
CONTINUOUS
 70
0
 71
3
 72
11
 73
7
 74
0
 42
0.0000001
 43
0.0000001
 44
0.0000000001
 40
0.0
 40
0.0
 40
0.0
 40
0.0
 40
0.2177723091
 40
0.4509273687
 40
0.7102218233
 40
1.0
 40
1.0
 40
1.0
 40
1.0
 10
164.1121046539
 20
434.9284833867
 30
0.0
 10
164.1121046601
 20
434.4417309723
 30
0.0
 10
164.2918667975
 20
433.4270666778
 30
0.0
 10
165.0610929268
 20
432.0136361961
 30
0.0
 10
166.2767749123
 20
430.7355016705
 30
0.0
 10
167.2942994136
 20
430.0349655451
 30
0.0
 10
167.8552236713
 20
429.7111231002
 30
0.0
  0
SPLINE
  5
4FC
100
AcDbEntity
  8
0
100
AcDbSpline
 62
7
  6
CONTINUOUS
 70
0
 71
3
 72
11
 73
7
 74
0
 42
0.0000001
 43
0.0000001
 44
0.0000000001
 40
0.0
 40
0.0
 40
0.0
 40
0.0
 40
0.2177787927
 40
0.4509217956
 40
0.7102585595
 40
1.0
 40
1.0
 40
1.0
 40
1.0
 10
231.7689841568
 20
499.6035080664
 30
0.0
 10
231.7689078533
 20
500.0415147319
 30
0.0
 10
231.9308895782
 20
500.9545003477
 30
0.0
 10
232.6229092936
 20
502.2264744643
 30
0.0
 10
233.716949824
 20
503.37646621
 30
0.0
 10
234.6324851806
 20
504.0069074513
 30
0.0
 10
235.1371546531
 20
504.298276768
 30
0.0
  0
SPLINE
  5
4FD
100
AcDbEntity
  8
0
100
AcDbSpline
 62
7
  6
CONTINUOUS
 70
0
 71
3
 72
9
 73
5
 74
0
 42
0.0000001
 43
0.0000001
 44
0.0000000001
 40
0.0
 40
0.0
 40
0.0
 40
0.0
 40
0.5459493799
 40
1.0
 40
1.0
 40
1.0
 40
1.0
 10
235.1371546531
 20
503.4817743508
 30
0.0
 10
234.3122079018
 20
503.0054939649
 30
0.0
 10
232.888377394
 20
501.9383371971
 30
0.0
 10
232.0047334141
 20
500.335559799
 30
0.0
 10
231.847063743
 20
499.5591868764
 30
0.0
  0
SPLINE
  5
4FE
100
AcDbEntity
  8
0
100
AcDbSpline
 62
7
  6
CONTINUOUS
 70
0
 71
3
 72
9
 73
5
 74
0
 42
0.0000001
 43
0.0000001
 44
0.0000000001
 40
0.0
 40
0.0
 40
0.0
 40
0.0
 40
0.5459493799
 40
1.0
 40
1.0
 40
1.0
 40
1.0
 10
277.563384886
 20
527.9764235831
 30
0.0
 10
276.7384381347
 20
527.5001431972
 30
0.0
 10
275.3146076268
 20
526.4329864294
 30
0.0
 10
274.4309636469
 20
524.8302090313
 30
0.0
 10
274.2732939759
 20
524.0538361087
 30
0.0
  0
SPLINE
  5
4FF
100
AcDbEntity
  8
0
100
AcDbSpline
 62
7
  6
CONTINUOUS
 70
0
 71
3
 72
11
 73
7
 74
0
 42
0.0000001
 43
0.0000001
 44
0.0000000001
 40
0.0
 40
0.0
 40
0.0
 40
0.0
 40
0.2177727701
 40
0.4509280213
 40
0.7102223029
 40
1.0
 40
1.0
 40
1.0
 40
1.0
 10
430.0848758157
 20
482.2830277244
 30
0.0
 10
430.0848758219
 20
481.7962805498
 30
0.0
 10
429.9051177895
 20
480.7816279627
 30
0.0
 10
429.1359083008
 20
479.3682111661
 30
0.0
 10
427.9202510052
 20
478.0900861147
 30
0.0
 10
426.9027458143
 20
477.3895526636
 30
0.0
 10
426.3418320461
 20
477.0657108816
 30
0.0
  0
SPLINE
  5
500
100
AcDbEntity
  8
0
100
AcDbSpline
 62
7
  6
CONTINUOUS
 70
0
 71
3
 72
11
 73
7
 74
0
 42
0.0000001
 43
0.0000001
 44
0.0000000001
 40
0.0
 40
0.0
 40
0.0
 40
0.0
 40
0.2372524156
 40
0.4999996414
 40
0.7627470637
 40
1.0
 40
1.0
 40
1.0
 40
1.0
 10
238.5521895435
 20
178.2200288768
 30
0.0
 10
238.251007309
 20
178.0461422706
 30
0.0
 10
237.550654325
 20
177.792359493
 30
0.0
 10
236.4308719195
 20
177.6710267618
 30
0.0
 10
235.3110882129
 20
177.7923546232
 30
0.0
 10
234.6107330059
 20
178.0461338628
 30
0.0
 10
234.3095488564
 20
178.2200186788
 30
0.0
  0
SPLINE
  5
501
100
AcDbEntity
  8
0
100
AcDbSpline
 62
7
  6
CONTINUOUS
 70
0
 71
3
 72
9
 73
5
 74
0
 42
0.0000001
 43
0.0000001
 44
0.0000000001
 40
0.0
 40
0.0
 40
0.0
 40
0.0
 40
0.2595032102
 40
1.0
 40
1.0
 40
1.0
 40
1.0
 10
450.6832465007
 20
313.7570335726
 30
0.0
 10
450.6097183058
 20
313.7145823028
 30
0.0
 10
450.3298920883
 20
313.5450628759
 30
0.0
 10
450.0644109701
 20
313.3512371705
 30
0.0
 10
449.8807797806
 20
313.1932015211
 30
0.0
  0
SPLINE
  5
502
100
AcDbEntity
  8
0
100
AcDbSpline
 62
7
  6
CONTINUOUS
 70
0
 71
3
 72
9
 73
5
 74
0
 42
0.0000001
 43
0.0000001
 44
0.0000000001
 40
0.0
 40
0.0
 40
0.0
 40
0.0
 40
0.520585
 40
1.0
 40
1.0
 40
1.0
 40
1.0
 10
457.4994734434
 20
314.6305293879
 30
0.0
 10
456.3149093893
 20
314.8790529683
 30
0.0
 10
453.9522912533
 20
314.9611793451
 30
0.0
 10
451.6485492285
 20
314.3143480356
 30
0.0
 10
450.6832465007
 20
313.7570335726
 30
0.0
  0
SPLINE
  5
503
100
AcDbEntity
  8
0
100
AcDbSpline
 62
7
  6
CONTINUOUS
 70
0
 71
3
 72
9
 73
5
 74
0
 42
0.0000001
 43
0.0000001
 44
0.0000000001
 40
0.0
 40
0.0
 40
0.0
 40
0.0
 40
0.5000011283
 40
1.0
 40
1.0
 40
1.0
 40
1.0
 10
460.6533958856
 20
326.4535029159
 30
0.0
 10
460.6533958856
 20
326.2111546183
 30
0.0
 10
460.8190168918
 20
325.7326266566
 30
0.0
 10
461.1506255887
 20
325.3499312902
 30
0.0
 10
461.3605056107
 20
325.2287597443
 30
0.0
  0
SPLINE
  5
504
100
AcDbEntity
  8
0
100
AcDbSpline
 62
7
  6
CONTINUOUS
 70
0
 71
3
 72
15
 73
11
 74
0
 42
0.0000001
 43
0.0000001
 44
0.0000000001
 40
0.0
 40
0.0
 40
0.0
 40
0.0
 40
0.1288281168
 40
0.2705730231
 40
0.4178855965
 40
0.5623847015
 40
0.6962026063
 40
0.8135940147
 40
0.9130657345
 40
1.0
 40
1.0
 40
1.0
 40
1.0
 10
459.8756729276
 20
312.5324158494
 30
0.0
 10
459.3945215499
 20
312.2546246302
 30
0.0
 10
458.3051014134
 20
311.8051386293
 30
0.0
 10
456.5296252296
 20
311.4498881178
 30
0.0
 10
454.6515822873
 20
311.3979521759
 30
0.0
 10
452.8249280434
 20
311.6545086026
 30
0.0
 10
451.1954268722
 20
312.1989083699
 30
0.0
 10
449.8901476072
 20
312.9942263384
 30
0.0
 10
449.0059511879
 20
313.9997946459
 30
0.0
 10
448.7794470442
 20
314.8110670988
 30
0.0
 10
448.7795959661
 20
315.1859803151
 30
0.0
  0
SPLINE
  5
505
100
AcDbEntity
  8
0
100
AcDbSpline
 62
7
  6
CONTINUOUS
 70
0
 71
3
 72
9
 73
5
 74
0
 42
0.0000001
 43
0.0000001
 44
0.0000000001
 40
0.0
 40
0.0
 40
0.0
 40
0.0
 40
0.5508359905
 40
1.0
 40
1.0
 40
1.0
 40
1.0
 10
61.7747582567
 20
284.3627295926
 30
0.0
 10
61.526627438
 20
284.2194720527
 30
0.0
 10
61.1002611599
 20
283.8931324066
 30
0.0
 10
60.8962552185
 20
283.3716391922
 30
0.0
 10
60.896255291
 20
283.1380073302
 30
0.0
  0
SPLINE
  5
506
100
AcDbEntity
  8
0
100
AcDbSpline
 62
7
  6
CONTINUOUS
 70
0
 71
3
 72
9
 73
5
 74
0
 42
0.0000001
 43
0.0000001
 44
0.0000000001
 40
0.0
 40
0.0
 40
0.0
 40
0.0
 40
0.5508366897
 40
1.0
 40
1.0
 40
1.0
 40
1.0
 10
61.7747759205
 20
277.8307627817
 30
0.0
 10
61.5266405869
 20
277.9740205425
 30
0.0
 10
61.1002663039
 20
278.300361151
 30
0.0
 10
60.896255239
 20
278.8218607621
 30
0.0
 10
60.896255291
 20
279.0554952422
 30
0.0
  0
SPLINE
  5
507
100
AcDbEntity
  8
0
100
AcDbSpline
 62
7
  6
CONTINUOUS
 70
0
 71
3
 72
9
 73
5
 74
0
 42
0.0000001
 43
0.0000001
 44
0.0000000001
 40
0.0
 40
0.0
 40
0.0
 40
0.0
 40
0.2665725228
 40
1.0
 40
1.0
 40
1.0
 40
1.0
 10
69.9549619184
 20
279.1681202924
 30
0.0
 10
69.8356149066
 20
279.1511254714
 30
0.0
 10
69.3911301367
 20
279.0694594099
 30
0.0
 10
68.9562996309
 20
278.9151615253
 30
0.0
 10
68.6690604131
 20
278.7493248755
 30
0.0
  0
SPLINE
  5
508
100
AcDbEntity
  8
0
100
AcDbSpline
 62
7
  6
CONTINUOUS
 70
0
 71
3
 72
8
 73
4
 74
0
 42
0.0000001
 43
0.0000001
 44
0.0000000001
 40
0.0
 40
0.0
 40
0.0
 40
0.0
 40
1.0
 40
1.0
 40
1.0
 40
1.0
 10
72.827864913
 20
280.7678601767
 30
0.0
 10
72.7426378589
 20
280.7009833032
 30
0.0
 10
72.6519836834
 20
280.6406793643
 30
0.0
 10
72.5581639014
 20
280.5865128113
 30
0.0
  0
SPLINE
  5
509
100
AcDbEntity
  8
0
100
AcDbSpline
 62
7
  6
CONTINUOUS
 70
0
 71
3
 72
11
 73
7
 74
0
 42
0.0000001
 43
0.0000001
 44
0.0000000001
 40
0.0
 40
0.0
 40
0.0
 40
0.0
 40
0.2177499666
 40
0.4508672849
 40
0.7103386168
 40
1.0
 40
1.0
 40
1.0
 40
1.0
 10
461.7794384296
 20
315.1859808307
 30
0.0
 10
461.7793886884
 20
314.9384456349
 30
0.0
 10
461.68807855
 20
314.4224559766
 30
0.0
 10
461.2967324841
 20
313.7034673661
 30
0.0
 10
460.6782790175
 20
313.0535521399
 30
0.0
 10
460.1608409012
 20
312.697056673
 30
0.0
 10
459.8756729276
 20
312.5324158494
 30
0.0
  0
SPLINE
  5
50A
100
AcDbEntity
  8
0
100
AcDbSpline
 62
7
  6
CONTINUOUS
 70
0
 71
3
 72
9
 73
5
 74
0
 42
0.0000001
 43
0.0000001
 44
0.0000000001
 40
0.0
 40
0.0
 40
0.0
 40
0.0
 40
0.2642538071
 40
1.0
 40
1.0
 40
1.0
 40
1.0
 10
461.2990939874
 20
316.6529872728
 30
0.0
 10
461.2169313767
 20
316.6333578348
 30
0.0
 10
460.9085968214
 20
316.5492840042
 30
0.0
 10
460.6096344895
 20
316.4261709866
 30
0.0
 10
460.4059463421
 20
316.3085722818
 30
0.0
  0
SPLINE
  5
50B
100
AcDbEntity
  8
0
100
AcDbSpline
 62
7
  6
CONTINUOUS
 70
0
 71
3
 72
9
 73
5
 74
0
 42
0.0000001
 43
0.0000001
 44
0.0000000001
 40
0.0
 40
0.0
 40
0.0
 40
0.0
 40
0.4491683742
 40
1.0
 40
1.0
 40
1.0
 40
1.0
 10
465.1003800198
 20
319.2684221761
 30
0.0
 10
465.1005421762
 20
319.0542552935
 30
0.0
 10
464.9132352674
 20
318.5762258159
 30
0.0
 10
464.5225037454
 20
318.2770800128
 30
0.0
 10
464.2950498304
 20
318.1457602176
 30
0.0
  0
SPLINE
  5
50C
100
AcDbEntity
  8
0
100
AcDbSpline
 62
7
  6
CONTINUOUS
 70
0
 71
3
 72
9
 73
5
 74
0
 42
0.0000001
 43
0.0000001
 44
0.0000000001
 40
0.0
 40
0.0
 40
0.0
 40
0.0
 40
0.2665725228
 40
1.0
 40
1.0
 40
1.0
 40
1.0
 10
233.2973084274
 20
184.8645059982
 30
0.0
 10
233.1779614155
 20
184.8475111773
 30
0.0
 10
232.7334766457
 20
184.7658451157
 30
0.0
 10
232.2986461399
 20
184.6115472311
 30
0.0
 10
232.0114069221
 20
184.4457105813
 30
0.0
  0
SPLINE
  5
50D
100
AcDbEntity
  8
0
100
AcDbSpline
 62
7
  6
CONTINUOUS
 70
0
 71
3
 72
9
 73
5
 74
0
 42
0.0000001
 43
0.0000001
 44
0.0000000001
 40
0.0
 40
0.0
 40
0.0
 40
0.0
 40
0.4491683742
 40
1.0
 40
1.0
 40
1.0
 40
1.0
 10
236.7058405998
 20
187.4055604756
 30
0.0
 10
236.7060027561
 20
187.191393593
 30
0.0
 10
236.5186958474
 20
186.7133641154
 30
0.0
 10
236.1279643253
 20
186.4142183123
 30
0.0
 10
235.9005104104
 20
186.2828985171
 30
0.0
  0
SPLINE
  5
50E
100
AcDbEntity
  8
0
100
AcDbSpline
 62
7
  6
CONTINUOUS
 70
0
 71
3
 72
9
 73
5
 74
0
 42
0.0000001
 43
0.0000001
 44
0.0000000001
 40
0.0
 40
0.0
 40
0.0
 40
0.0
 40
0.4491634741
 40
1.0
 40
1.0
 40
1.0
 40
1.0
 10
472.4921172548
 20
318.0845363409
 30
0.0
 10
472.4921171823
 20
318.3181709059
 30
0.0
 10
472.2881062379
 20
318.8396705116
 30
0.0
 10
471.8617318848
 20
319.1660110858
 30
0.0
 10
471.6135966253
 20
319.3092688037
 30
0.0
  0
SPLINE
  5
50F
100
AcDbEntity
  8
0
100
AcDbSpline
 62
7
  6
CONTINUOUS
 70
0
 71
3
 72
9
 73
5
 74
0
 42
0.0000001
 43
0.0000001
 44
0.0000000001
 40
0.0
 40
0.0
 40
0.0
 40
0.0
 40
0.4491641734
 40
1.0
 40
1.0
 40
1.0
 40
1.0
 10
472.4921172548
 20
314.0020242576
 30
0.0
 10
472.4921172029
 20
313.7683923106
 30
0.0
 10
472.2881113819
 20
313.2468991017
 30
0.0
 10
471.8617450338
 20
312.92055949
 30
0.0
 10
471.6136142891
 20
312.7773019929
 30
0.0
  0
SPLINE
  5
510
100
AcDbEntity
  8
0
100
AcDbSpline
 62
7
  6
CONTINUOUS
 70
0
 71
3
 72
9
 73
5
 74
0
 42
0.0000001
 43
0.0000001
 44
0.0000000001
 40
0.0
 40
0.0
 40
0.0
 40
0.0
 40
0.4491634741
 40
1.0
 40
1.0
 40
1.0
 40
1.0
 10
60.896255291
 20
283.1380073302
 30
0.0
 10
60.8962553636
 20
282.9043727652
 30
0.0
 10
61.100266308
 20
282.3828731595
 30
0.0
 10
61.526640661
 20
282.0565325853
 30
0.0
 10
61.7747759205
 20
281.9132748674
 30
0.0
  0
SPLINE
  5
511
100
AcDbEntity
  8
0
100
AcDbSpline
 62
7
  6
CONTINUOUS
 70
0
 71
3
 72
11
 73
7
 74
0
 42
0.0000001
 43
0.0000001
 44
0.0000000001
 40
0.0
 40
0.0
 40
0.0
 40
0.0
 40
0.2177648073
 40
0.4508950352
 40
0.7103684932
 40
1.0
 40
1.0
 40
1.0
 40
1.0
 10
448.7795959661
 20
315.1859803151
 30
0.0
 10
448.7796942977
 20
315.4335317663
 30
0.0
 10
448.870788764
 20
315.9495718402
 30
0.0
 10
449.2622013603
 20
316.6686127559
 30
0.0
 10
449.8807191274
 20
317.3184198589
 30
0.0
 10
450.3981086321
 20
317.6749222157
 30
0.0
 10
450.6832465007
 20
317.8395456582
 30
0.0
  0
SPLINE
  5
512
100
AcDbEntity
  8
0
100
AcDbSpline
 62
7
  6
CONTINUOUS
 70
0
 71
3
 72
9
 73
5
 74
0
 42
0.0000001
 43
0.0000001
 44
0.0000000001
 40
0.0
 40
0.0
 40
0.0
 40
0.0
 40
0.5508359905
 40
1.0
 40
1.0
 40
1.0
 40
1.0
 10
471.6136142891
 20
316.8598140785
 30
0.0
 10
471.8617451079
 20
317.0030716184
 30
0.0
 10
472.288111386
 20
317.3294112645
 30
0.0
 10
472.4921173274
 20
317.8509044789
 30
0.0
 10
472.4921172548
 20
318.0845363409
 30
0.0
  0
SPLINE
  5
513
100
AcDbEntity
  8
0
100
AcDbSpline
 62
7
  6
CONTINUOUS
 70
0
 71
3
 72
11
 73
7
 74
0
 42
0.0000001
 43
0.0000001
 44
0.0000000001
 40
0.0
 40
0.0
 40
0.0
 40
0.0
 40
0.2372531816
 40
0.5000006935
 40
0.7627478297
 40
1.0
 40
1.0
 40
1.0
 40
1.0
 10
234.3095488564
 20
182.3025307644
 30
0.0
 10
234.6107333172
 20
182.1286457687
 30
0.0
 10
235.3110890556
 20
181.8748664686
 30
0.0
 10
236.4308731498
 20
181.7535388474
 30
0.0
 10
237.5506551678
 20
181.874871819
 30
0.0
 10
238.2510076203
 20
182.1286545361
 30
0.0
 10
238.5521895435
 20
182.3025409625
 30
0.0
  0
SPLINE
  5
514
100
AcDbEntity
  8
0
100
AcDbSpline
 62
7
  6
CONTINUOUS
 70
0
 71
3
 72
13
 73
9
 74
0
 42
0.0000001
 43
0.0000001
 44
0.0000000001
 40
0.0
 40
0.0
 40
0.0
 40
0.0
 40
0.2699040481
 40
0.5613092475
 40
0.6954524627
 40
0.8131377821
 40
0.9128550148
 40
1.0
 40
1.0
 40
1.0
 40
1.0
 10
232.0114069221
 20
188.528222667
 30
0.0
 10
232.4368442207
 20
188.7738475397
 30
0.0
 10
233.4537819909
 20
189.0491058525
 30
0.0
 10
234.7395794446
 20
188.9838970806
 30
0.0
 10
235.6837822486
 20
188.6694078176
 30
0.0
 10
236.2359931938
 20
188.3328303324
 30
0.0
 10
236.6102504894
 20
187.907425854
 30
0.0
 10
236.7057205065
 20
187.5641728842
 30
0.0
 10
236.7058405998
 20
187.4055604756
 30
0.0
  0
SPLINE
  5
515
100
AcDbEntity
  8
0
100
AcDbSpline
 62
7
  6
CONTINUOUS
 70
0
 71
3
 72
13
 73
9
 74
0
 42
0.0000001
 43
0.0000001
 44
0.0000000001
 40
0.0
 40
0.0
 40
0.0
 40
0.0
 40
0.2699040481
 40
0.5613092475
 40
0.6954524627
 40
0.8131377821
 40
0.9128550148
 40
1.0
 40
1.0
 40
1.0
 40
1.0
 10
460.4059463421
 20
320.3910843675
 30
0.0
 10
460.8313836408
 20
320.6367092402
 30
0.0
 10
461.848321411
 20
320.911967553
 30
0.0
 10
463.1341188646
 20
320.8467587811
 30
0.0
 10
464.0783216687
 20
320.5322695181
 30
0.0
 10
464.6305326138
 20
320.1956920329
 30
0.0
 10
465.0047899095
 20
319.7702875545
 30
0.0
 10
465.1002599265
 20
319.4270345847
 30
0.0
 10
465.1003800198
 20
319.2684221761
 30
0.0
  0
SPLINE
  5
516
100
AcDbEntity
  8
0
100
AcDbSpline
 62
7
  6
CONTINUOUS
 70
0
 71
3
 72
9
 73
5
 74
0
 42
0.0000001
 43
0.0000001
 44
0.0000000001
 40
0.0
 40
0.0
 40
0.0
 40
0.0
 40
0.479415
 40
1.0
 40
1.0
 40
1.0
 40
1.0
 10
450.6832465007
 20
317.8395456582
 30
0.0
 10
451.6485492285
 20
318.3968601213
 30
0.0
 10
453.9522912533
 20
319.0436914308
 30
0.0
 10
456.3149093893
 20
318.9615650539
 30
0.0
 10
457.4994734434
 20
318.7130414735
 30
0.0
  0
SPLINE
  5
517
100
AcDbEntity
  8
0
100
AcDbSpline
 62
7
  6
CONTINUOUS
 70
0
 71
3
 72
11
 73
7
 74
0
 42
0.0000001
 43
0.0000001
 44
0.0000000001
 40
0.0
 40
0.0
 40
0.0
 40
0.0
 40
0.2407192207
 40
0.5071619561
 40
0.7696959929
 40
1.0
 40
1.0
 40
1.0
 40
1.0
 10
68.6690604131
 20
282.8318369612
 30
0.0
 10
68.9651842267
 20
283.0028031041
 30
0.0
 10
69.6577471636
 20
283.2446639502
 30
0.0
 10
70.756139949
 20
283.3379883703
 30
0.0
 10
71.8322476697
 20
283.181377108
 30
0.0
 10
72.4882975084
 20
282.8960619183
 30
0.0
 10
72.7543462669
 20
282.7056985578
 30
0.0
  0
SPLINE
  5
518
100
AcDbEntity
  8
0
100
AcDbSpline
 62
7
  6
CONTINUOUS
 70
0
 71
3
 72
9
 73
5
 74
0
 42
0.0000001
 43
0.0000001
 44
0.0000000001
 40
0.0
 40
0.0
 40
0.0
 40
0.0
 40
0.4999988717
 40
1.0
 40
1.0
 40
1.0
 40
1.0
 10
224.0564578417
 20
188.222021705
 30
0.0
 10
223.8465778197
 20
188.3431932509
 30
0.0
 10
223.5149691229
 20
188.7258886173
 30
0.0
 10
223.3493481166
 20
189.204416579
 30
0.0
 10
223.3493481166
 20
189.4467648766
 30
0.0
  0
SPLINE
  5
519
100
AcDbEntity
  8
0
100
AcDbSpline
 62
7
  6
CONTINUOUS
 70
0
 71
3
 72
8
 73
4
 74
0
 42
0.0000001
 43
0.0000001
 44
0.0000000001
 40
0.0
 40
0.0
 40
0.0
 40
0.0
 40
1.0
 40
1.0
 40
1.0
 40
1.0
 10
355.0901771932
 20
315.717810382
 30
0.0
 10
355.0901570419
 20
315.8980074624
 30
0.0
 10
355.0541409578
 20
316.0807502306
 30
0.0
 10
354.9894486456
 20
316.2489343348
 30
0.0
  0
SPLINE
  5
51A
100
AcDbEntity
  8
0
100
AcDbSpline
 62
7
  6
CONTINUOUS
 70
0
 71
3
 72
9
 73
5
 74
0
 42
0.0000001
 43
0.0000001
 44
0.0000000001
 40
0.0
 40
0.0
 40
0.0
 40
0.0
 40
0.2373449262
 40
1.0
 40
1.0
 40
1.0
 40
1.0
 10
354.9894486456
 20
316.2489343348
 30
0.0
 10
354.9668328498
 20
316.3077298428
 30
0.0
 10
354.8570277061
 20
316.5498561848
 30
0.0
 10
354.6939447765
 20
316.7657968536
 30
0.0
 10
354.5534252395
 20
316.9114967
 30
0.0
  0
SPLINE
  5
51B
100
AcDbEntity
  8
0
100
AcDbSpline
 62
7
  6
CONTINUOUS
 70
0
 71
3
 72
9
 73
5
 74
0
 42
0.0000001
 43
0.0000001
 44
0.0000000001
 40
0.0
 40
0.0
 40
0.0
 40
0.0
 40
0.7440686346
 40
1.0
 40
1.0
 40
1.0
 40
1.0
 10
356.0899498124
 20
312.4518009131
 30
0.0
 10
356.0899497585
 20
312.6255572472
 30
0.0
 10
356.0542768691
 20
312.8608747467
 30
0.0
 10
355.9767252395
 20
313.0812324765
 30
0.0
 10
355.9544421461
 20
313.1366886635
 30
0.0
  0
SPLINE
  5
51C
100
AcDbEntity
  8
0
100
AcDbSpline
 62
7
  6
CONTINUOUS
 70
0
 71
3
 72
9
 73
5
 74
0
 42
0.0000001
 43
0.0000001
 44
0.0000000001
 40
0.0
 40
0.0
 40
0.0
 40
0.0
 40
0.234526358
 40
1.0
 40
1.0
 40
1.0
 40
1.0
 10
355.9544421461
 20
313.1366886635
 30
0.0
 10
355.9211996221
 20
313.2194197098
 30
0.0
 10
355.7561702856
 20
313.5628711356
 30
0.0
 10
355.5057675933
 20
313.8609320234
 30
0.0
 10
355.2919004022
 20
314.0582839364
 30
0.0
  0
SPLINE
  5
51D
100
AcDbEntity
  8
0
100
AcDbSpline
 62
7
  6
CONTINUOUS
 70
0
 71
3
 72
9
 73
5
 74
0
 42
0.0000001
 43
0.0000001
 44
0.0000000001
 40
0.0
 40
0.0
 40
0.0
 40
0.0
 40
0.7429652971
 40
1.0
 40
1.0
 40
1.0
 40
1.0
 10
439.9426814735
 20
364.7071090402
 30
0.0
 10
439.9426705621
 20
364.8591852337
 30
0.0
 10
439.9084298875
 20
365.0656020527
 30
0.0
 10
439.8355247783
 20
365.2569406534
 30
0.0
 10
439.8145193985
 20
365.3051774878
 30
0.0
  0
SPLINE
  5
51E
100
AcDbEntity
  8
0
100
AcDbSpline
 62
7
  6
CONTINUOUS
 70
0
 71
3
 72
9
 73
5
 74
0
 42
0.0000001
 43
0.0000001
 44
0.0000000001
 40
0.0
 40
0.0
 40
0.0
 40
0.0
 40
0.2368861648
 40
1.0
 40
1.0
 40
1.0
 40
1.0
 10
439.8145193985
 20
365.3051774878
 30
0.0
 10
439.7894182406
 20
365.3628198828
 30
0.0
 10
439.6696478154
 20
365.6001306465
 30
0.0
 10
439.4997131068
 20
365.8101830557
 30
0.0
 10
439.3551064594
 20
365.9519886305
 30
0.0
  0
SPLINE
  5
51F
100
AcDbEntity
  8
0
100
AcDbSpline
 62
7
  6
CONTINUOUS
 70
0
 71
3
 72
9
 73
5
 74
0
 42
0.0000001
 43
0.0000001
 44
0.0000000001
 40
0.0
 40
0.0
 40
0.0
 40
0.0
 40
0.7440686346
 40
1.0
 40
1.0
 40
1.0
 40
1.0
 10
440.9424102781
 20
361.4410993777
 30
0.0
 10
440.9424102241
 20
361.6148557118
 30
0.0
 10
440.9067373347
 20
361.8501732113
 30
0.0
 10
440.8291857052
 20
362.0705309411
 30
0.0
 10
440.8069026118
 20
362.1259871281
 30
0.0
  0
SPLINE
  5
520
100
AcDbEntity
  8
0
100
AcDbSpline
 62
7
  6
CONTINUOUS
 70
0
 71
3
 72
9
 73
5
 74
0
 42
0.0000001
 43
0.0000001
 44
0.0000000001
 40
0.0
 40
0.0
 40
0.0
 40
0.0
 40
0.234526358
 40
1.0
 40
1.0
 40
1.0
 40
1.0
 10
440.8069026118
 20
362.1259871281
 30
0.0
 10
440.7736600878
 20
362.2087181743
 30
0.0
 10
440.6086307512
 20
362.5521696002
 30
0.0
 10
440.358228059
 20
362.850230488
 30
0.0
 10
440.1443608678
 20
363.047582401
 30
0.0
  0
SPLINE
  5
521
100
AcDbEntity
  8
0
100
AcDbSpline
 62
7
  6
CONTINUOUS
 70
0
 71
3
 72
9
 73
5
 74
0
 42
0.0000001
 43
0.0000001
 44
0.0000000001
 40
0.0
 40
0.0
 40
0.0
 40
0.0
 40
0.2440588693
 40
1.0
 40
1.0
 40
1.0
 40
1.0
 10
270.2377156051
 20
266.7285118562
 30
0.0
 10
270.2377008302
 20
266.7906653923
 30
0.0
 10
270.2210887404
 20
267.0452970693
 30
0.0
 10
270.1350447444
 20
267.2934384269
 30
0.0
 10
270.0430363894
 20
267.4625406941
 30
0.0
  0
SPLINE
  5
522
100
AcDbEntity
  8
0
100
AcDbSpline
 62
7
  6
CONTINUOUS
 70
0
 71
3
 72
9
 73
5
 74
0
 42
0.0000001
 43
0.0000001
 44
0.0000000001
 40
0.0
 40
0.0
 40
0.0
 40
0.0
 40
0.2367312994
 40
1.0
 40
1.0
 40
1.0
 40
1.0
 10
270.0430363894
 20
267.4625406941
 30
0.0
 10
270.0130363595
 20
267.5176777854
 30
0.0
 10
269.8742254299
 20
267.7439942364
 30
0.0
 10
269.6919750179
 20
267.9420466931
 30
0.0
 10
269.5399612276
 20
268.075654141
 30
0.0
  0
SPLINE
  5
523
100
AcDbEntity
  8
0
100
AcDbSpline
 62
7
  6
CONTINUOUS
 70
0
 71
3
 72
9
 73
5
 74
0
 42
0.0000001
 43
0.0000001
 44
0.0000000001
 40
0.0
 40
0.0
 40
0.0
 40
0.0
 40
0.7440686346
 40
1.0
 40
1.0
 40
1.0
 40
1.0
 10
271.2374893468
 20
263.4625024485
 30
0.0
 10
271.2374892928
 20
263.6362587827
 30
0.0
 10
271.2018164034
 20
263.8715762822
 30
0.0
 10
271.1242647738
 20
264.091934012
 30
0.0
 10
271.1019816805
 20
264.147390199
 30
0.0
  0
SPLINE
  5
524
100
AcDbEntity
  8
0
100
AcDbSpline
 62
7
  6
CONTINUOUS
 70
0
 71
3
 72
9
 73
5
 74
0
 42
0.0000001
 43
0.0000001
 44
0.0000000001
 40
0.0
 40
0.0
 40
0.0
 40
0.0
 40
0.234526358
 40
1.0
 40
1.0
 40
1.0
 40
1.0
 10
271.1019816805
 20
264.147390199
 30
0.0
 10
271.0687391565
 20
264.2301212452
 30
0.0
 10
270.9037098199
 20
264.5735726711
 30
0.0
 10
270.6533071277
 20
264.8716335588
 30
0.0
 10
270.4394399365
 20
265.0689854718
 30
0.0
  0
SPLINE
  5
525
100
AcDbEntity
  8
0
100
AcDbSpline
 62
7
  6
CONTINUOUS
 70
0
 71
3
 72
9
 73
5
 74
0
 42
0.0000001
 43
0.0000001
 44
0.0000000001
 40
0.0
 40
0.0
 40
0.0
 40
0.0
 40
0.2435156907
 40
1.0
 40
1.0
 40
1.0
 40
1.0
 10
154.9791136774
 20
297.3464190741
 30
0.0
 10
154.9791023494
 20
297.4117118405
 30
0.0
 10
154.9606990371
 20
297.6798192121
 30
0.0
 10
154.8653990705
 20
297.9401811174
 30
0.0
 10
154.764529897
 20
298.1161542091
 30
0.0
  0
SPLINE
  5
526
100
AcDbEntity
  8
0
100
AcDbSpline
 62
7
  6
CONTINUOUS
 70
0
 71
3
 72
9
 73
5
 74
0
 42
0.0000001
 43
0.0000001
 44
0.0000000001
 40
0.0
 40
0.0
 40
0.0
 40
0.0
 40
0.2366579384
 40
1.0
 40
1.0
 40
1.0
 40
1.0
 10
154.764529897
 20
298.1161542091
 30
0.0
 10
154.7333430809
 20
298.1705617179
 30
0.0
 10
154.5898955835
 20
298.3937546042
 30
0.0
 10
154.4046600963
 20
298.5885281357
 30
0.0
 10
154.250889433
 20
298.7199472742
 30
0.0
  0
SPLINE
  5
527
100
AcDbEntity
  8
0
100
AcDbSpline
 62
7
  6
CONTINUOUS
 70
0
 71
3
 72
9
 73
5
 74
0
 42
0.0000001
 43
0.0000001
 44
0.0000000001
 40
0.0
 40
0.0
 40
0.0
 40
0.0
 40
0.4999994563
 40
1.0
 40
1.0
 40
1.0
 40
1.0
 10
224.97570755
 20
235.7016718618
 30
0.0
 10
224.765828447
 20
235.5804988286
 30
0.0
 10
224.2686014609
 20
235.4846684964
 30
0.0
 10
223.7713744208
 20
235.5804966791
 30
0.0
 10
223.5614939876
 20
235.7016684625
 30
0.0
  0
SPLINE
  5
528
100
AcDbEntity
  8
0
100
AcDbSpline
 62
7
  6
CONTINUOUS
 70
0
 71
3
 72
9
 73
5
 74
0
 42
0.0000001
 43
0.0000001
 44
0.0000000001
 40
0.0
 40
0.0
 40
0.0
 40
0.0
 40
0.5000005437
 40
1.0
 40
1.0
 40
1.0
 40
1.0
 10
235.5822709961
 20
241.0088492615
 30
0.0
 10
235.3723905629
 20
241.1300210448
 30
0.0
 10
234.8751635228
 20
241.2258492276
 30
0.0
 10
234.3779365367
 20
241.1300188954
 30
0.0
 10
234.1680574337
 20
241.0088458621
 30
0.0
  0
SPLINE
  5
529
100
AcDbEntity
  8
0
100
AcDbSpline
 62
7
  6
CONTINUOUS
 70
0
 71
3
 72
9
 73
5
 74
0
 42
0.0000001
 43
0.0000001
 44
0.0000000001
 40
0.0
 40
0.0
 40
0.0
 40
0.0
 40
0.4999994563
 40
1.0
 40
1.0
 40
1.0
 40
1.0
 10
246.1889109854
 20
235.7017228521
 30
0.0
 10
245.9790318825
 20
235.5805498188
 30
0.0
 10
245.4818048963
 20
235.4847194866
 30
0.0
 10
244.9845778562
 20
235.5805476694
 30
0.0
 10
244.774697423
 20
235.7017194527
 30
0.0
  0
SPLINE
  5
52A
100
AcDbEntity
  8
0
100
AcDbSpline
 62
7
  6
CONTINUOUS
 70
0
 71
3
 72
9
 73
5
 74
0
 42
0.0000001
 43
0.0000001
 44
0.0000000001
 40
0.0
 40
0.0
 40
0.0
 40
0.0
 40
0.2685076797
 40
1.0
 40
1.0
 40
1.0
 40
1.0
 10
146.2757931354
 20
295.6853206124
 30
0.0
 10
146.2007753433
 20
295.6160031194
 30
0.0
 10
145.9331242426
 20
295.3460627588
 30
0.0
 10
145.716982502
 20
295.0204379207
 30
0.0
 10
145.613667206
 20
294.7620700754
 30
0.0
  0
SPLINE
  5
52B
100
AcDbEntity
  8
0
100
AcDbSpline
 62
7
  6
CONTINUOUS
 70
0
 71
3
 72
9
 73
5
 74
0
 42
0.0000001
 43
0.0000001
 44
0.0000000001
 40
0.0
 40
0.0
 40
0.0
 40
0.0
 40
0.2558941166
 40
1.0
 40
1.0
 40
1.0
 40
1.0
 10
145.613667206
 20
294.7620700754
 30
0.0
 10
145.5915887411
 20
294.7068569016
 30
0.0
 10
145.5147415565
 20
294.4874675471
 30
0.0
 10
145.4793760096
 20
294.2533226146
 30
0.0
 10
145.4793728578
 20
294.0804095972
 30
0.0
  0
SPLINE
  5
52C
100
AcDbEntity
  8
0
100
AcDbSpline
 62
7
  6
CONTINUOUS
 70
0
 71
3
 72
8
 73
4
 74
0
 42
0.0000001
 43
0.0000001
 44
0.0000000001
 40
0.0
 40
0.0
 40
0.0
 40
0.0
 40
1.0
 40
1.0
 40
1.0
 40
1.0
 10
153.4191005462
 20
298.4295994865
 30
0.0
 10
153.254459035
 20
298.5073000695
 30
0.0
 10
153.085050467
 20
298.5754102833
 30
0.0
 10
152.9129921852
 20
298.6349094888
 30
0.0
  0
SPLINE
  5
52D
100
AcDbEntity
  8
0
100
AcDbSpline
 62
7
  6
CONTINUOUS
 70
0
 71
3
 72
9
 73
5
 74
0
 42
0.0000001
 43
0.0000001
 44
0.0000000001
 40
0.0
 40
0.0
 40
0.0
 40
0.0
 40
0.5055091588
 40
1.0
 40
1.0
 40
1.0
 40
1.0
 10
152.9129921852
 20
299.4514119059
 30
0.0
 10
152.1429394293
 20
299.7177026456
 30
0.0
 10
150.5085737306
 20
299.925229001
 30
0.0
 10
148.8839707869
 20
299.6193336494
 30
0.0
 10
148.1543367362
 20
299.2985524897
 30
0.0
  0
SPLINE
  5
52E
100
AcDbEntity
  8
0
100
AcDbSpline
 62
7
  6
CONTINUOUS
 70
0
 71
3
 72
9
 73
5
 74
0
 42
0.0000001
 43
0.0000001
 44
0.0000000001
 40
0.0
 40
0.0
 40
0.0
 40
0.0
 40
0.2716516035
 40
1.0
 40
1.0
 40
1.0
 40
1.0
 10
147.0062700238
 20
298.5299861504
 30
0.0
 10
146.9341275647
 20
298.454347414
 30
0.0
 10
146.6860230736
 20
298.1609794841
 30
0.0
 10
146.5209928895
 20
297.7887185856
 30
0.0
 10
146.4886895877
 20
297.5103320257
 30
0.0
  0
SPLINE
  5
52F
100
AcDbEntity
  8
0
100
AcDbSpline
 62
7
  6
CONTINUOUS
 70
0
 71
3
 72
9
 73
5
 74
0
 42
0.0000001
 43
0.0000001
 44
0.0000000001
 40
0.0
 40
0.0
 40
0.0
 40
0.0
 40
0.5020406995
 40
1.0
 40
1.0
 40
1.0
 40
1.0
 10
268.6246548724
 20
268.6528379422
 30
0.0
 10
267.7866665878
 20
269.035587483
 30
0.0
 10
265.9188961371
 20
269.3457517026
 30
0.0
 10
264.0538226422
 20
269.0001846233
 30
0.0
 10
263.233665756
 20
268.5972940838
 30
0.0
  0
SPLINE
  5
530
100
AcDbEntity
  8
0
100
AcDbSpline
 62
7
  6
CONTINUOUS
 70
0
 71
3
 72
9
 73
5
 74
0
 42
0.0000001
 43
0.0000001
 44
0.0000000001
 40
0.0
 40
0.0
 40
0.0
 40
0.0
 40
0.2724312836
 40
1.0
 40
1.0
 40
1.0
 40
1.0
 10
262.5016227702
 20
268.1319622969
 30
0.0
 10
262.42064797
 20
268.0649172699
 30
0.0
 10
262.1370224153
 20
267.8041971682
 30
0.0
 10
261.9103786556
 20
267.4718195173
 30
0.0
 10
261.8191675292
 20
267.2062876091
 30
0.0
  0
SPLINE
  5
531
100
AcDbEntity
  8
0
100
AcDbSpline
 62
7
  6
CONTINUOUS
 70
0
 71
3
 72
8
 73
4
 74
0
 42
0.0000001
 43
0.0000001
 44
0.0000000001
 40
0.0
 40
0.0
 40
0.0
 40
0.0
 40
1.0
 40
1.0
 40
1.0
 40
1.0
 10
261.8191675292
 20
267.2062876091
 30
0.0
 10
261.7666846514
 20
267.0535005614
 30
0.0
 10
261.7378627095
 20
266.890061825
 30
0.0
 10
261.7378317179
 20
266.7285120387
 30
0.0
  0
SPLINE
  5
532
100
AcDbEntity
  8
0
100
AcDbSpline
 62
7
  6
CONTINUOUS
 70
0
 71
3
 72
8
 73
4
 74
0
 42
0.0000001
 43
0.0000001
 44
0.0000000001
 40
0.0
 40
0.0
 40
0.0
 40
0.0
 40
1.0
 40
1.0
 40
1.0
 40
1.0
 10
438.7189706563
 20
365.6133902839
 30
0.0
 10
438.5928447152
 20
365.6872353322
 30
0.0
 10
438.462518515
 20
365.754211126
 30
0.0
 10
438.3295758037
 20
365.8149324542
 30
0.0
  0
SPLINE
  5
533
100
AcDbEntity
  8
0
100
AcDbSpline
 62
7
  6
CONTINUOUS
 70
0
 71
3
 72
9
 73
5
 74
0
 42
0.0000001
 43
0.0000001
 44
0.0000000001
 40
0.0
 40
0.0
 40
0.0
 40
0.0
 40
0.4942895841
 40
1.0
 40
1.0
 40
1.0
 40
1.0
 10
438.3295758037
 20
366.6314348714
 30
0.0
 10
437.5848337552
 20
366.9715943728
 30
0.0
 10
435.9135046526
 20
367.292816271
 30
0.0
 10
434.2324136768
 20
367.0729933433
 30
0.0
 10
433.4442489331
 20
366.7893016254
 30
0.0
  0
SPLINE
  5
534
100
AcDbEntity
  8
0
100
AcDbSpline
 62
7
  6
CONTINUOUS
 70
0
 71
3
 72
9
 73
5
 74
0
 42
0.0000001
 43
0.0000001
 44
0.0000000001
 40
0.0
 40
0.0
 40
0.0
 40
0.0
 40
0.272280556
 40
1.0
 40
1.0
 40
1.0
 40
1.0
 10
432.0705434271
 20
365.9906343041
 30
0.0
 10
431.9941021096
 20
365.9187295218
 30
0.0
 10
431.7291016793
 20
365.639749028
 30
0.0
 10
431.5343646676
 20
365.2844225551
 30
0.0
 10
431.4753111114
 20
365.0102234069
 30
0.0
  0
SPLINE
  5
535
100
AcDbEntity
  8
0
100
AcDbSpline
 62
7
  6
CONTINUOUS
 70
0
 71
3
 72
8
 73
4
 74
0
 42
0.0000001
 43
0.0000001
 44
0.0000000001
 40
0.0
 40
0.0
 40
0.0
 40
0.0
 40
1.0
 40
1.0
 40
1.0
 40
1.0
 10
353.8903264986
 20
316.6100344934
 30
0.0
 10
353.7568105739
 20
316.6894686637
 30
0.0
 10
353.6184310918
 20
316.7610882903
 30
0.0
 10
353.477115338
 20
316.8256339897
 30
0.0
  0
SPLINE
  5
536
100
AcDbEntity
  8
0
100
AcDbSpline
 62
7
  6
CONTINUOUS
 70
0
 71
3
 72
9
 73
5
 74
0
 42
0.0000001
 43
0.0000001
 44
0.0000000001
 40
0.0
 40
0.0
 40
0.0
 40
0.0
 40
0.5015356313
 40
1.0
 40
1.0
 40
1.0
 40
1.0
 10
353.477115338
 20
317.6421364068
 30
0.0
 10
352.6445946161
 20
318.0223886489
 30
0.0
 10
350.7880012449
 20
318.3334573961
 30
0.0
 10
348.9334818973
 20
317.9957105309
 30
0.0
 10
348.1142727742
 20
317.6002982351
 30
0.0
  0
SPLINE
  5
537
100
AcDbEntity
  8
0
100
AcDbSpline
 62
7
  6
CONTINUOUS
 70
0
 71
3
 72
9
 73
5
 74
0
 42
0.0000001
 43
0.0000001
 44
0.0000000001
 40
0.0
 40
0.0
 40
0.0
 40
0.0
 40
0.2722932308
 40
1.0
 40
1.0
 40
1.0
 40
1.0
 10
347.2209494559
 20
317.0040283262
 30
0.0
 10
347.1443981317
 20
316.9322276696
 30
0.0
 10
346.8789583566
 20
316.653645994
 30
0.0
 10
346.6834612161
 20
316.2988053292
 30
0.0
 10
346.6236820983
 20
316.0247574844
 30
0.0
  0
SPLINE
  5
538
100
AcDbEntity
  8
0
100
AcDbSpline
 62
7
  6
CONTINUOUS
 70
0
 71
3
 72
11
 73
7
 74
0
 42
0.0000001
 43
0.0000001
 44
0.0000000001
 40
0.0
 40
0.0
 40
0.0
 40
0.0
 40
0.2182301856
 40
0.4512469118
 40
0.7102105734
 40
1.0
 40
1.0
 40
1.0
 40
1.0
 10
87.854467485
 20
425.32906973
 30
0.0
 10
87.8313335581
 20
424.2496745337
 30
0.0
 10
88.1831755978
 20
421.9933476027
 30
0.0
 10
89.8382162891
 20
418.8374763638
 30
0.0
 10
92.4971242324
 20
415.9799977916
 30
0.0
 10
94.7371309795
 20
414.4136538802
 30
0.0
 10
95.9740981502
 20
413.6888713167
 30
0.0
  0
SPLINE
  5
539
100
AcDbEntity
  8
0
100
AcDbSpline
 62
7
  6
CONTINUOUS
 70
0
 71
3
 72
9
 73
5
 74
0
 42
0.0000001
 43
0.0000001
 44
0.0000000001
 40
0.0
 40
0.0
 40
0.0
 40
0.0
 40
0.4491565434
 40
1.0
 40
1.0
 40
1.0
 40
1.0
 10
154.9789712732
 20
294.0804091609
 30
0.0
 10
154.9789840531
 20
293.7494336086
 30
0.0
 10
154.6898871145
 20
293.0106703414
 30
0.0
 10
154.0858994695
 20
292.5483387776
 30
0.0
 10
153.7343733017
 20
292.3453862615
 30
0.0
  0
SPLINE
  5
53A
100
AcDbEntity
  8
0
100
AcDbSpline
 62
7
  6
CONTINUOUS
 70
0
 71
3
 72
11
 73
7
 74
0
 42
0.0000001
 43
0.0000001
 44
0.0000000001
 40
0.0
 40
0.0
 40
0.0
 40
0.0
 40
0.1985421774
 40
0.4258289653
 40
0.6941537374
 40
1.0
 40
1.0
 40
1.0
 40
1.0
 10
145.4793728578
 20
294.0804095972
 30
0.0
 10
145.4793673258
 20
293.7769258566
 30
0.0
 10
145.662991299
 20
293.1200431292
 30
0.0
 10
146.3804139895
 20
292.3066060553
 30
0.0
 10
147.4382945571
 20
291.6640117385
 30
0.0
 10
148.2778488025
 20
291.385073762
 30
0.0
 10
148.7327264794
 20
291.2771534816
 30
0.0
  0
SPLINE
  5
53B
100
AcDbEntity
  8
0
100
AcDbSpline
 62
7
  6
CONTINUOUS
 70
0
 71
3
 72
9
 73
5
 74
0
 42
0.0000001
 43
0.0000001
 44
0.0000000001
 40
0.0
 40
0.0
 40
0.0
 40
0.0
 40
0.5192627188
 40
1.0
 40
1.0
 40
1.0
 40
1.0
 10
148.7327264794
 20
291.2771534816
 30
0.0
 10
149.7160221036
 20
291.0438654026
 30
0.0
 10
151.6951695952
 20
290.9432542221
 30
0.0
 10
153.6312177134
 20
291.4693414026
 30
0.0
 10
154.4414830269
 20
291.937145507
 30
0.0
  0
SPLINE
  5
53C
100
AcDbEntity
  8
0
100
AcDbSpline
 62
7
  6
CONTINUOUS
 70
0
 71
3
 72
10
 73
6
 74
0
 42
0.0000001
 43
0.0000001
 44
0.0000000001
 40
0.0
 40
0.0
 40
0.0
 40
0.0
 40
0.547752844
 40
0.7815965272
 40
1.0
 40
1.0
 40
1.0
 40
1.0
 10
269.7001091568
 20
261.3192384894
 30
0.0
 10
270.1343380896
 20
261.5699391842
 30
0.0
 10
270.7204405774
 20
262.03154476
 30
0.0
 10
271.1640616555
 20
262.8456086892
 30
0.0
 10
271.2374894088
 20
263.2625796254
 30
0.0
 10
271.2374893468
 20
263.4625024485
 30
0.0
  0
SPLINE
  5
53D
100
AcDbEntity
  8
0
100
AcDbSpline
 62
7
  6
CONTINUOUS
 70
0
 71
3
 72
11
 73
7
 74
0
 42
0.0000001
 43
0.0000001
 44
0.0000000001
 40
0.0
 40
0.0
 40
0.0
 40
0.0
 40
0.2372531816
 40
0.5000006935
 40
0.7627478297
 40
1.0
 40
1.0
 40
1.0
 40
1.0
 10
262.2754879544
 20
261.3192206428
 30
0.0
 10
262.8025607608
 20
261.0149219003
 30
0.0
 10
264.0281833031
 20
260.570808125
 30
0.0
 10
265.9878054679
 20
260.358484788
 30
0.0
 10
267.9474239994
 20
260.5708174883
 30
0.0
 10
269.1730407913
 20
261.0149372431
 30
0.0
 10
269.7001091568
 20
261.3192384894
 30
0.0
  0
SPLINE
  5
53E
100
AcDbEntity
  8
0
100
AcDbSpline
 62
7
  6
CONTINUOUS
 70
0
 71
3
 72
9
 73
5
 74
0
 42
0.0000001
 43
0.0000001
 44
0.0000000001
 40
0.0
 40
0.0
 40
0.0
 40
0.0
 40
0.4491565434
 40
1.0
 40
1.0
 40
1.0
 40
1.0
 10
355.0900578687
 20
312.4518006079
 30
0.0
 10
355.0900706486
 20
312.1208250556
 30
0.0
 10
354.80097371
 20
311.3820617884
 30
0.0
 10
354.196986065
 20
310.9197302246
 30
0.0
 10
353.8454598973
 20
310.7167777085
 30
0.0
  0
SPLINE
  5
53F
100
AcDbEntity
  8
0
100
AcDbSpline
 62
7
  6
CONTINUOUS
 70
0
 71
3
 72
13
 73
9
 74
0
 42
0.0000001
 43
0.0000001
 44
0.0000000001
 40
0.0
 40
0.0
 40
0.0
 40
0.0
 40
0.2698982859
 40
0.5613425066
 40
0.695469568
 40
0.8131406387
 40
0.9128519364
 40
1.0
 40
1.0
 40
1.0
 40
1.0
 10
268.9929994316
 20
261.7274792439
 30
0.0
 10
268.3355203466
 20
261.3478857831
 30
0.0
 10
266.7638173933
 20
260.9224490712
 30
0.0
 10
264.7765985885
 20
261.0231769135
 30
0.0
 10
263.3173940905
 20
261.5093021278
 30
0.0
 10
262.4640869975
 20
262.0295140936
 30
0.0
 10
261.8858648266
 20
262.6869078295
 30
0.0
 10
261.737991321
 20
263.2173662583
 30
0.0
 10
261.7379740801
 20
263.4625029249
 30
0.0
  0
SPLINE
  5
540
100
AcDbEntity
  8
0
100
AcDbSpline
 62
7
  6
CONTINUOUS
 70
0
 71
3
 72
10
 73
6
 74
0
 42
0.0000001
 43
0.0000001
 44
0.0000000001
 40
0.0
 40
0.0
 40
0.0
 40
0.0
 40
0.2184036142
 40
0.4522473232
 40
1.0
 40
1.0
 40
1.0
 40
1.0
 10
356.0899498124
 20
312.0435497086
 30
0.0
 10
356.0899497679
 20
311.8436267547
 30
0.0
 10
356.0165221324
 20
311.4266556499
 30
0.0
 10
355.5729007409
 20
310.6125918332
 30
0.0
 10
354.9867984255
 20
310.1509863653
 30
0.0
 10
354.5525696224
 20
309.9002857454
 30
0.0
  0
SPLINE
  5
541
100
AcDbEntity
  8
0
100
AcDbSpline
 62
7
  6
CONTINUOUS
 70
0
 71
3
 72
9
 73
5
 74
0
 42
0.0000001
 43
0.0000001
 44
0.0000000001
 40
0.0
 40
0.0
 40
0.0
 40
0.0
 40
0.2574638831
 40
1.0
 40
1.0
 40
1.0
 40
1.0
 10
268.4186938934
 20
263.4910633489
 30
0.0
 10
268.4695021611
 20
263.5115179841
 30
0.0
 10
268.6655361494
 20
263.594141552
 30
0.0
 10
268.8562001171
 20
263.6897546371
 30
0.0
 10
268.9929994316
 20
263.7687352868
 30
0.0
  0
SPLINE
  5
542
100
AcDbEntity
  8
0
100
AcDbSpline
 62
7
  6
CONTINUOUS
 70
0
 71
3
 72
9
 73
5
 74
0
 42
0.0000001
 43
0.0000001
 44
0.0000000001
 40
0.0
 40
0.0
 40
0.0
 40
0.0
 40
0.5013739639
 40
1.0
 40
1.0
 40
1.0
 40
1.0
 10
263.654460894
 20
264.6776792223
 30
0.0
 10
264.4105455353
 20
264.3909439086
 30
0.0
 10
266.0428309742
 20
264.1468405147
 30
0.0
 10
267.6726822799
 20
264.415484054
 30
0.0
 10
268.4186938934
 20
264.7158169746
 30
0.0
  0
SPLINE
  5
543
100
AcDbEntity
  8
0
100
AcDbSpline
 62
7
  6
CONTINUOUS
 70
0
 71
3
 72
9
 73
5
 74
0
 42
0.0000001
 43
0.0000001
 44
0.0000000001
 40
0.0
 40
0.0
 40
0.0
 40
0.0
 40
0.2357515726
 40
1.0
 40
1.0
 40
1.0
 40
1.0
 10
262.6547273115
 20
264.3896168149
 30
0.0
 10
262.7266328116
 20
264.3371428022
 30
0.0
 10
263.0405419997
 20
264.1267993
 30
0.0
 10
263.3846427858
 20
263.9635018302
 30
0.0
 10
263.654460894
 20
263.8611768051
 30
0.0
  0
SPLINE
  5
544
100
AcDbEntity
  8
0
100
AcDbSpline
 62
7
  6
CONTINUOUS
 70
0
 71
3
 72
9
 73
5
 74
0
 42
0.0000001
 43
0.0000001
 44
0.0000000001
 40
0.0
 40
0.0
 40
0.0
 40
0.0
 40
0.2741749363
 40
1.0
 40
1.0
 40
1.0
 40
1.0
 10
439.4050300881
 20
359.2978354186
 30
0.0
 10
439.5377915363
 20
359.3744848189
 30
0.0
 10
440.0076333318
 20
359.6757780219
 30
0.0
 10
440.4242216633
 20
360.0774452233
 30
0.0
 10
440.6374961653
 20
360.4227169342
 30
0.0
  0
SPLINE
  5
545
100
AcDbEntity
  8
0
100
AcDbSpline
 62
7
  6
CONTINUOUS
 70
0
 71
3
 72
9
 73
5
 74
0
 42
0.0000001
 43
0.0000001
 44
0.0000000001
 40
0.0
 40
0.0
 40
0.0
 40
0.0
 40
0.2627121001
 40
1.0
 40
1.0
 40
1.0
 40
1.0
 10
440.6374961653
 20
360.4227169342
 30
0.0
 10
440.6867698678
 20
360.5024865055
 30
0.0
 10
440.8567536102
 20
360.8163507916
 30
0.0
 10
440.9424103598
 20
361.1779646296
 30
0.0
 10
440.9424102781
 20
361.4410993777
 30
0.0
  0
SPLINE
  5
546
100
AcDbEntity
  8
0
100
AcDbSpline
 62
7
  6
CONTINUOUS
 70
0
 71
3
 72
11
 73
7
 74
0
 42
0.0000001
 43
0.0000001
 44
0.0000000001
 40
0.0
 40
0.0
 40
0.0
 40
0.0
 40
0.2372531816
 40
0.5000006935
 40
0.7627478297
 40
1.0
 40
1.0
 40
1.0
 40
1.0
 10
431.9804088857
 20
359.297817572
 30
0.0
 10
432.5074816922
 20
358.9935188294
 30
0.0
 10
433.7331042344
 20
358.5494050542
 30
0.0
 10
435.6927263992
 20
358.3370817172
 30
0.0
 10
437.6523449307
 20
358.5494144175
 30
0.0
 10
438.8779617226
 20
358.9935341723
 30
0.0
 10
439.4050300881
 20
359.2978354186
 30
0.0
  0
SPLINE
  5
547
100
AcDbEntity
  8
0
100
AcDbSpline
 62
7
  6
CONTINUOUS
 70
0
 71
3
 72
13
 73
9
 74
0
 42
0.0000001
 43
0.0000001
 44
0.0000000001
 40
0.0
 40
0.0
 40
0.0
 40
0.0
 40
0.2698956012
 40
0.5613257437
 40
0.6954661216
 40
0.8131446799
 40
0.9128555334
 40
1.0
 40
1.0
 40
1.0
 40
1.0
 10
438.697920363
 20
359.7060761731
 30
0.0
 10
438.0404477852
 20
359.3264864692
 30
0.0
 10
436.468792095
 20
358.9010649862
 30
0.0
 10
434.4815851265
 20
359.0017605127
 30
0.0
 10
433.02235774
 20
359.4878804259
 30
0.0
 10
432.1689961804
 20
360.0081195237
 30
0.0
 10
431.5907796608
 20
360.665526981
 30
0.0
 10
431.4428991928
 20
361.1959731257
 30
0.0
 10
431.4428897278
 20
361.4410996871
 30
0.0
  0
SPLINE
  5
548
100
AcDbEntity
  8
0
100
AcDbSpline
 62
7
  6
CONTINUOUS
 70
0
 71
3
 72
9
 73
5
 74
0
 42
0.0000001
 43
0.0000001
 44
0.0000000001
 40
0.0
 40
0.0
 40
0.0
 40
0.0
 40
0.2618674262
 40
1.0
 40
1.0
 40
1.0
 40
1.0
 10
438.697920363
 20
361.7473322159
 30
0.0
 10
438.7541722931
 20
361.779809089
 30
0.0
 10
438.9658882551
 20
361.9090020346
 30
0.0
 10
439.1649049113
 20
362.0598433849
 30
0.0
 10
439.2992376462
 20
362.1842451627
 30
0.0
  0
SPLINE
  5
549
100
AcDbEntity
  8
0
100
AcDbSpline
 62
7
  6
CONTINUOUS
 70
0
 71
3
 72
9
 73
5
 74
0
 42
0.0000001
 43
0.0000001
 44
0.0000000001
 40
0.0
 40
0.0
 40
0.0
 40
0.0
 40
0.2595286098
 40
1.0
 40
1.0
 40
1.0
 40
1.0
 10
437.9158969299
 20
361.3911406069
 30
0.0
 10
437.9860203897
 20
361.4159895638
 30
0.0
 10
438.2541879341
 20
361.5172584263
 30
0.0
 10
438.5140955544
 20
361.6412015467
 30
0.0
 10
438.697920363
 20
361.7473322159
 30
0.0
  0
SPLINE
  5
54A
100
AcDbEntity
  8
0
100
AcDbSpline
 62
7
  6
CONTINUOUS
 70
0
 71
3
 72
9
 73
5
 74
0
 42
0.0000001
 43
0.0000001
 44
0.0000000001
 40
0.0
 40
0.0
 40
0.0
 40
0.0
 40
0.4491565434
 40
1.0
 40
1.0
 40
1.0
 40
1.0
 10
439.9425183344
 20
361.4410990725
 30
0.0
 10
439.9425311143
 20
361.1101235202
 30
0.0
 10
439.6534341757
 20
360.371360253
 30
0.0
 10
439.0494465307
 20
359.9090286892
 30
0.0
 10
438.697920363
 20
359.7060761731
 30
0.0
  0
SPLINE
  5
54B
100
AcDbEntity
  8
0
100
AcDbSpline
 62
7
  6
CONTINUOUS
 70
0
 71
3
 72
9
 73
5
 74
0
 42
0.0000001
 43
0.0000001
 44
0.0000000001
 40
0.0
 40
0.0
 40
0.0
 40
0.0
 40
0.7425976372
 40
1.0
 40
1.0
 40
1.0
 40
1.0
 10
440.9424102781
 20
361.0328481732
 30
0.0
 10
440.9424102346
 20
360.8374429732
 30
0.0
 10
440.896817975
 20
360.5718849485
 30
0.0
 10
440.7996404255
 20
360.3272458236
 30
0.0
 10
440.7716773622
 20
360.2655553389
 30
0.0
  0
SPLINE
  5
54C
100
AcDbEntity
  8
0
100
AcDbSpline
 62
7
  6
CONTINUOUS
 70
0
 71
3
 72
9
 73
5
 74
0
 42
0.0000001
 43
0.0000001
 44
0.0000000001
 40
0.0
 40
0.0
 40
0.0
 40
0.0
 40
0.2242913694
 40
1.0
 40
1.0
 40
1.0
 40
1.0
 10
440.7716773622
 20
360.2655553389
 30
0.0
 10
440.711241532
 20
360.1322253238
 30
0.0
 10
440.3788587265
 20
359.5657346924
 30
0.0
 10
439.8434822026
 20
359.1427231453
 30
0.0
 10
439.4050300881
 20
358.88958421
 30
0.0
  0
SPLINE
  5
54D
100
AcDbEntity
  8
0
100
AcDbSpline
 62
7
  6
CONTINUOUS
 70
0
 71
3
 72
9
 73
5
 74
0
 42
0.0000001
 43
0.0000001
 44
0.0000000001
 40
0.0
 40
0.0
 40
0.0
 40
0.0
 40
0.5008292825
 40
1.0
 40
1.0
 40
1.0
 40
1.0
 10
433.5365090165
 20
362.5926398831
 30
0.0
 10
434.2375584484
 20
362.3543521691
 30
0.0
 10
435.7297087496
 20
362.1451411585
 30
0.0
 10
437.220291803
 20
362.3693995236
 30
0.0
 10
437.9158969299
 20
362.6158942326
 30
0.0
  0
SPLINE
  5
54E
100
AcDbEntity
  8
0
100
AcDbSpline
 62
7
  6
CONTINUOUS
 70
0
 71
3
 72
9
 73
5
 74
0
 42
0.0000001
 43
0.0000001
 44
0.0000000001
 40
0.0
 40
0.0
 40
0.0
 40
0.0
 40
0.2340040615
 40
1.0
 40
1.0
 40
1.0
 40
1.0
 10
432.3596482428
 20
362.3682137441
 30
0.0
 10
432.4428382842
 20
362.3075046845
 30
0.0
 10
432.8103600996
 20
362.0645755436
 30
0.0
 10
433.2173249426
 20
361.8846285935
 30
0.0
 10
433.5365090165
 20
361.776137466
 30
0.0
  0
SPLINE
  5
54F
100
AcDbEntity
  8
0
100
AcDbSpline
 62
7
  6
CONTINUOUS
 70
0
 71
3
 72
10
 73
6
 74
0
 42
0.0000001
 43
0.0000001
 44
0.0000000001
 40
0.0
 40
0.0
 40
0.0
 40
0.0
 40
0.547752844
 40
0.7815965272
 40
1.0
 40
1.0
 40
1.0
 40
1.0
 10
354.5525696224
 20
310.308536954
 30
0.0
 10
354.9867985552
 20
310.5592376487
 30
0.0
 10
355.5729010431
 20
311.0208432245
 30
0.0
 10
356.0165221212
 20
311.8349071538
 30
0.0
 10
356.0899498745
 20
312.2518780899
 30
0.0
 10
356.0899498124
 20
312.4518009131
 30
0.0
  0
SPLINE
  5
550
100
AcDbEntity
  8
0
100
AcDbSpline
 62
7
  6
CONTINUOUS
 70
0
 71
3
 72
11
 73
7
 74
0
 42
0.0000001
 43
0.0000001
 44
0.0000000001
 40
0.0
 40
0.0
 40
0.0
 40
0.0
 40
0.2372531816
 40
0.5000006935
 40
0.7627478297
 40
1.0
 40
1.0
 40
1.0
 40
1.0
 10
347.12794842
 20
310.3085191074
 30
0.0
 10
347.6550212265
 20
310.0042203649
 30
0.0
 10
348.8806437687
 20
309.5601065896
 30
0.0
 10
350.8402659335
 20
309.3477832526
 30
0.0
 10
352.7998844651
 20
309.5601159529
 30
0.0
 10
354.0255012569
 20
310.0042357077
 30
0.0
 10
354.5525696224
 20
310.308536954
 30
0.0
  0
SPLINE
  5
551
100
AcDbEntity
  8
0
100
AcDbSpline
 62
7
  6
CONTINUOUS
 70
0
 71
3
 72
13
 73
9
 74
0
 42
0.0000001
 43
0.0000001
 44
0.0000000001
 40
0.0
 40
0.0
 40
0.0
 40
0.0
 40
0.2698956012
 40
0.5613257437
 40
0.6954661216
 40
0.8131446799
 40
0.9128555334
 40
1.0
 40
1.0
 40
1.0
 40
1.0
 10
353.8454598973
 20
310.7167777085
 30
0.0
 10
353.1879873196
 20
310.3371880046
 30
0.0
 10
351.6163316294
 20
309.9117665217
 30
0.0
 10
349.6291246608
 20
310.0124620481
 30
0.0
 10
348.1698972743
 20
310.4985819613
 30
0.0
 10
347.3165357148
 20
311.0188210592
 30
0.0
 10
346.7383191952
 20
311.6762285164
 30
0.0
 10
346.5904387271
 20
312.2066746612
 30
0.0
 10
346.5904292621
 20
312.4518012226
 30
0.0
  0
SPLINE
  5
552
100
AcDbEntity
  8
0
100
AcDbSpline
 62
7
  6
CONTINUOUS
 70
0
 71
3
 72
9
 73
5
 74
0
 42
0.0000001
 43
0.0000001
 44
0.0000000001
 40
0.0
 40
0.0
 40
0.0
 40
0.0
 40
0.2594854798
 40
1.0
 40
1.0
 40
1.0
 40
1.0
 10
353.0681000307
 20
312.4034971124
 30
0.0
 10
353.1377865801
 20
312.4282626456
 30
0.0
 10
353.4043315467
 20
312.5291677337
 30
0.0
 10
353.6626804041
 20
312.6525065917
 30
0.0
 10
353.8454598973
 20
312.7580337513
 30
0.0
  0
SPLINE
  5
553
100
AcDbEntity
  8
0
100
AcDbSpline
 62
7
  6
CONTINUOUS
 70
0
 71
3
 72
9
 73
5
 74
0
 42
0.0000001
 43
0.0000001
 44
0.0000000001
 40
0.0
 40
0.0
 40
0.0
 40
0.0
 40
0.4491565434
 40
1.0
 40
1.0
 40
1.0
 40
1.0
 10
270.2375974031
 20
263.4625021433
 30
0.0
 10
270.237610183
 20
263.131526591
 30
0.0
 10
269.9485132444
 20
262.3927633238
 30
0.0
 10
269.3445255994
 20
261.93043176
 30
0.0
 10
268.9929994316
 20
261.7274792439
 30
0.0
  0
SPLINE
  5
554
100
AcDbEntity
  8
0
100
AcDbSpline
 62
7
  6
CONTINUOUS
 70
0
 71
3
 72
9
 73
5
 74
0
 42
0.0000001
 43
0.0000001
 44
0.0000000001
 40
0.0
 40
0.0
 40
0.0
 40
0.0
 40
0.5431931332
 40
1.0
 40
1.0
 40
1.0
 40
1.0
 10
354.1008771339
 20
314.1440087882
 30
0.0
 10
354.3862326206
 20
314.341071527
 30
0.0
 10
354.8726502602
 20
314.7835667458
 30
0.0
 10
355.0902098067
 20
315.4261740575
 30
0.0
 10
355.0901771932
 20
315.717810382
 30
0.0
  0
SPLINE
  5
555
100
AcDbEntity
  8
0
100
AcDbSpline
 62
7
  6
CONTINUOUS
 70
0
 71
3
 72
9
 73
5
 74
0
 42
0.0000001
 43
0.0000001
 44
0.0000000001
 40
0.0
 40
0.0
 40
0.0
 40
0.0
 40
0.5019299527
 40
1.0
 40
1.0
 40
1.0
 40
1.0
 10
348.7727199253
 20
313.5740248527
 30
0.0
 10
349.4653014274
 20
313.3513832478
 30
0.0
 10
350.9284299303
 20
313.1603222102
 30
0.0
 10
352.3878849066
 20
313.3865126935
 30
0.0
 10
353.0681000307
 20
313.6282507381
 30
0.0
  0
SPLINE
  5
556
100
AcDbEntity
  8
0
100
AcDbSpline
 62
7
  6
CONTINUOUS
 70
0
 71
3
 72
9
 73
5
 74
0
 42
0.0000001
 43
0.0000001
 44
0.0000000001
 40
0.0
 40
0.0
 40
0.0
 40
0.0
 40
0.2331927503
 40
1.0
 40
1.0
 40
1.0
 40
1.0
 10
347.5071877771
 20
313.3789152795
 30
0.0
 10
347.5959293866
 20
313.3141548879
 30
0.0
 10
347.9902035765
 20
313.0552939186
 30
0.0
 10
348.4288044781
 20
312.8680796579
 30
0.0
 10
348.7727199253
 20
312.7575224356
 30
0.0
  0
SPLINE
  5
557
100
AcDbEntity
  8
0
100
AcDbSpline
 62
7
  6
CONTINUOUS
 70
0
 71
3
 72
10
 73
6
 74
0
 42
0.0000001
 43
0.0000001
 44
0.0000000001
 40
0.0
 40
0.0
 40
0.0
 40
0.0
 40
0.2184036142
 40
0.4522473232
 40
1.0
 40
1.0
 40
1.0
 40
1.0
 10
271.2374893468
 20
263.0542512441
 30
0.0
 10
271.2374893023
 20
262.8543282901
 30
0.0
 10
271.1640616667
 20
262.4373571853
 30
0.0
 10
270.7204402753
 20
261.6232933687
 30
0.0
 10
270.1343379599
 20
261.1616879007
 30
0.0
 10
269.7001091568
 20
260.9109872808
 30
0.0
  0
SPLINE
  5
558
100
AcDbEntity
  8
0
100
AcDbSpline
 62
7
  6
CONTINUOUS
 70
0
 71
3
 72
9
 73
5
 74
0
 42
0.0000001
 43
0.0000001
 44
0.0000000001
 40
0.0
 40
0.0
 40
0.0
 40
0.0
 40
0.5000005437
 40
1.0
 40
1.0
 40
1.0
 40
1.0
 10
244.774697423
 20
246.724502084
 30
0.0
 10
244.9845778562
 20
246.6033303007
 30
0.0
 10
245.4818048963
 20
246.5075021179
 30
0.0
 10
245.9790318825
 20
246.6033324501
 30
0.0
 10
246.1889109854
 20
246.7245054833
 30
0.0
  0
SPLINE
  5
559
100
AcDbEntity
  8
0
100
AcDbSpline
 62
7
  6
CONTINUOUS
 70
0
 71
3
 72
9
 73
5
 74
0
 42
0.0000001
 43
0.0000001
 44
0.0000000001
 40
0.0
 40
0.0
 40
0.0
 40
0.0
 40
0.4999994563
 40
1.0
 40
1.0
 40
1.0
 40
1.0
 10
234.1680574337
 20
252.0316284934
 30
0.0
 10
234.3779365367
 20
252.1528015266
 30
0.0
 10
234.8751635228
 20
252.2486318588
 30
0.0
 10
235.3723905629
 20
252.1528036761
 30
0.0
 10
235.5822709961
 20
252.0316318927
 30
0.0
  0
SPLINE
  5
55A
100
AcDbEntity
  8
0
100
AcDbSpline
 62
7
  6
CONTINUOUS
 70
0
 71
3
 72
9
 73
5
 74
0
 42
0.0000001
 43
0.0000001
 44
0.0000000001
 40
0.0
 40
0.0
 40
0.0
 40
0.0
 40
0.5000005437
 40
1.0
 40
1.0
 40
1.0
 40
1.0
 10
223.5614939876
 20
246.7244510937
 30
0.0
 10
223.7713744208
 20
246.6032793104
 30
0.0
 10
224.2686014609
 20
246.5074511276
 30
0.0
 10
224.765828447
 20
246.6032814598
 30
0.0
 10
224.97570755
 20
246.7244544931
 30
0.0
  0
SPLINE
  5
55B
100
AcDbEntity
  8
0
100
AcDbSpline
 62
7
  6
CONTINUOUS
 70
0
 71
3
 72
9
 73
5
 74
0
 42
0.0000001
 43
0.0000001
 44
0.0000000001
 40
0.0
 40
0.0
 40
0.0
 40
0.0
 40
0.2351811271
 40
1.0
 40
1.0
 40
1.0
 40
1.0
 10
154.441483027
 20
291.5288942985
 30
0.0
 10
154.3193383357
 20
291.458374449
 30
0.0
 10
153.7870078977
 20
291.181124916
 30
0.0
 10
153.2132725197
 20
290.9872906331
 30
0.0
 10
152.7675935666
 20
290.8789043915
 30
0.0
  0
SPLINE
  5
55C
100
AcDbEntity
  8
0
100
AcDbSpline
 62
7
  6
CONTINUOUS
 70
0
 71
3
 72
9
 73
5
 74
0
 42
0.0000001
 43
0.0000001
 44
0.0000000001
 40
0.0
 40
0.0
 40
0.0
 40
0.0
 40
0.2474973288
 40
1.0
 40
1.0
 40
1.0
 40
1.0
 10
152.7675935666
 20
290.8789043915
 30
0.0
 10
152.4398457401
 20
290.7991982378
 30
0.0
 10
151.0963498165
 20
290.5636550123
 30
0.0
 10
149.6965472797
 20
290.6357206934
 30
0.0
 10
148.6997395667
 20
290.8767947096
 30
0.0
  0
SPLINE
  5
55D
100
AcDbEntity
  8
0
100
AcDbSpline
 62
7
  6
CONTINUOUS
 70
0
 71
3
 72
11
 73
7
 74
0
 42
0.0000001
 43
0.0000001
 44
0.0000000001
 40
0.0
 40
0.0
 40
0.0
 40
0.0
 40
0.3038266297
 40
0.5703001432
 40
0.7981766373
 40
1.0
 40
1.0
 40
1.0
 40
1.0
 10
148.3615599529
 20
290.9668680227
 30
0.0
 10
147.952734904
 20
291.0861380637
 30
0.0
 10
147.201488283
 20
291.3767932863
 30
0.0
 10
146.2634793888
 20
292.007448933
 30
0.0
 10
145.6363784698
 20
292.7813828586
 30
0.0
 10
145.4793972831
 20
293.3892669023
 30
0.0
 10
145.4793863599
 20
293.6721586393
 30
0.0
  0
SPLINE
  5
55E
100
AcDbEntity
  8
0
100
AcDbSpline
 62
7
  6
CONTINUOUS
 70
0
 71
3
 72
11
 73
7
 74
0
 42
0.0000001
 43
0.0000001
 44
0.0000000001
 40
0.0
 40
0.0
 40
0.0
 40
0.0
 40
0.237218806
 40
0.4999994918
 40
0.7627804543
 40
1.0
 40
1.0
 40
1.0
 40
1.0
 10
256.0882999391
 20
261.4212576298
 30
0.0
 10
253.0768912335
 20
259.6826303812
 30
0.0
 10
246.0733581638
 20
257.1451770051
 30
0.0
 10
234.8751291954
 20
255.929428132
 30
0.0
 10
223.6768837445
 20
257.1451261563
 30
0.0
 10
216.6733237006
 20
259.6825446957
 30
0.0
 10
213.6618930683
 20
261.4211556493
 30
0.0
  0
SPLINE
  5
55F
100
AcDbEntity
  8
0
100
AcDbSpline
 62
7
  6
CONTINUOUS
 70
0
 71
3
 72
11
 73
7
 74
0
 42
0.0000001
 43
0.0000001
 44
0.0000000001
 40
0.0
 40
0.0
 40
0.0
 40
0.0
 40
0.2372524156
 40
0.4999996414
 40
0.7627470637
 40
1.0
 40
1.0
 40
1.0
 40
1.0
 10
269.7001091568
 20
260.9109872808
 30
0.0
 10
269.1730402464
 20
260.60668572
 30
0.0
 10
267.9474225245
 20
260.1625658592
 30
0.0
 10
265.9878033148
 20
259.9502335794
 30
0.0
 10
264.0281818282
 20
260.162557337
 30
0.0
 10
262.802560216
 20
260.6066710063
 30
0.0
 10
262.2754879544
 20
260.9109694343
 30
0.0
  0
SPLINE
  5
560
100
AcDbEntity
  8
0
100
AcDbSpline
 62
7
  6
CONTINUOUS
 70
0
 71
3
 72
11
 73
7
 74
0
 42
0.0000001
 43
0.0000001
 44
0.0000000001
 40
0.0
 40
0.0
 40
0.0
 40
0.0
 40
0.2372524156
 40
0.4999996414
 40
0.7627470637
 40
1.0
 40
1.0
 40
1.0
 40
1.0
 10
354.5525696224
 20
309.9002857454
 30
0.0
 10
354.0255007121
 20
309.5959841846
 30
0.0
 10
352.7998829902
 20
309.1518643238
 30
0.0
 10
350.8402637805
 20
308.939532044
 30
0.0
 10
348.8806422939
 20
309.1518558016
 30
0.0
 10
347.6550206816
 20
309.5959694709
 30
0.0
 10
347.12794842
 20
309.9002678988
 30
0.0
  0
SPLINE
  5
561
100
AcDbEntity
  8
0
100
AcDbSpline
 62
7
  6
CONTINUOUS
 70
0
 71
3
 72
11
 73
7
 74
0
 42
0.0000001
 43
0.0000001
 44
0.0000000001
 40
0.0
 40
0.0
 40
0.0
 40
0.0
 40
0.2372524156
 40
0.4999996414
 40
0.7627470637
 40
1.0
 40
1.0
 40
1.0
 40
1.0
 10
439.4050300881
 20
358.88958421
 30
0.0
 10
438.8779611777
 20
358.5852826492
 30
0.0
 10
437.6523434559
 20
358.1411627884
 30
0.0
 10
435.6927242461
 20
357.9288305086
 30
0.0
 10
433.7331027595
 20
358.1411542662
 30
0.0
 10
432.5074811473
 20
358.5852679355
 30
0.0
 10
431.9804088857
 20
358.8895663634
 30
0.0
  0
SPLINE
  5
562
100
AcDbEntity
  8
0
100
AcDbSpline
 62
7
  6
CONTINUOUS
 70
0
 71
3
 72
11
 73
7
 74
0
 42
0.0000001
 43
0.0000001
 44
0.0000000001
 40
0.0
 40
0.0
 40
0.0
 40
0.0
 40
0.2902013582
 40
0.5493304796
 40
0.7821759852
 40
1.0
 40
1.0
 40
1.0
 40
1.0
 10
94.8674592436
 20
330.0056024087
 30
0.0
 10
93.5311000836
 20
330.7771322751
 30
0.0
 10
91.1104828224
 20
332.4473671348
 30
0.0
 10
88.2333723232
 20
335.503802591
 30
0.0
 10
86.4401460363
 20
338.8864254421
 30
0.0
 10
86.0580988483
 20
341.3087305859
 30
0.0
 10
86.0829167102
 20
342.4666989725
 30
0.0
  0
SPLINE
  5
563
100
AcDbEntity
  8
0
100
AcDbSpline
 62
7
  6
CONTINUOUS
 70
0
 71
3
 72
11
 73
7
 74
0
 42
0.0000001
 43
0.0000001
 44
0.0000000001
 40
0.0
 40
0.0
 40
0.0
 40
0.0
 40
0.2178244888
 40
0.4506701973
 40
0.7097991338
 40
1.0
 40
1.0
 40
1.0
 40
1.0
 10
447.3054558272
 20
379.2092439117
 30
0.0
 10
447.330273465
 20
378.0512877211
 30
0.0
 10
446.9482354599
 20
375.629010078
 30
0.0
 10
445.1550481017
 20
372.2464195764
 30
0.0
 10
442.2779959236
 20
369.1900063649
 30
0.0
 10
439.857424289
 20
367.5197777193
 30
0.0
 10
438.5210899403
 20
366.7482493287
 30
0.0
  0
SPLINE
  5
564
100
AcDbEntity
  8
0
100
AcDbSpline
 62
7
  6
CONTINUOUS
 70
0
 71
3
 72
13
 73
9
 74
0
 42
0.0000001
 43
0.0000001
 44
0.0000000001
 40
0.0
 40
0.0
 40
0.0
 40
0.0
 40
0.2698956012
 40
0.5613257437
 40
0.6954661216
 40
0.8131446799
 40
0.9128555334
 40
1.0
 40
1.0
 40
1.0
 40
1.0
 10
153.7343733017
 20
292.3453862615
 30
0.0
 10
153.076900724
 20
291.9657965576
 30
0.0
 10
151.5052450338
 20
291.5403750747
 30
0.0
 10
149.5180380653
 20
291.6410706011
 30
0.0
 10
148.0588106787
 20
292.1271905143
 30
0.0
 10
147.2054491192
 20
292.6474296121
 30
0.0
 10
146.6272325996
 20
293.3048370694
 30
0.0
 10
146.4793521316
 20
293.8352832142
 30
0.0
 10
146.4793426665
 20
294.0804097756
 30
0.0
  0
SPLINE
  5
565
100
AcDbEntity
  8
0
100
AcDbSpline
 62
7
  6
CONTINUOUS
 70
0
 71
3
 72
9
 73
5
 74
0
 42
0.0000001
 43
0.0000001
 44
0.0000000001
 40
0.0
 40
0.0
 40
0.0
 40
0.0
 40
0.2610605503
 40
1.0
 40
1.0
 40
1.0
 40
1.0
 10
152.7792154783
 20
293.9722963137
 30
0.0
 10
152.8659905667
 20
293.9998840856
 30
0.0
 10
153.1957516753
 20
294.1134546166
 30
0.0
 10
153.5148129029
 20
294.2596907672
 30
0.0
 10
153.7380171071
 20
294.3885570054
 30
0.0
  0
SPLINE
  5
566
100
AcDbEntity
  8
0
100
AcDbSpline
 62
7
  6
CONTINUOUS
 70
0
 71
3
 72
8
 73
4
 74
0
 42
0.0000001
 43
0.0000001
 44
0.0000000001
 40
0.0
 40
0.0
 40
0.0
 40
0.0
 40
1.0
 40
1.0
 40
1.0
 40
1.0
 10
204.2110183237
 20
275.7179948185
 30
0.0
 10
204.4393307384
 20
275.681660611
 30
0.0
 10
204.6707161671
 20
275.6602428752
 30
0.0
 10
204.9018772614
 20
275.6568840316
 30
0.0
  0
SPLINE
  5
567
100
AcDbEntity
  8
0
100
AcDbSpline
 62
7
  6
CONTINUOUS
 70
0
 71
3
 72
9
 73
5
 74
0
 42
0.0000001
 43
0.0000001
 44
0.0000000001
 40
0.0
 40
0.0
 40
0.0
 40
0.0
 40
0.2294462958
 40
1.0
 40
1.0
 40
1.0
 40
1.0
 10
147.0831686058
 20
295.2690793671
 30
0.0
 10
147.1651886703
 20
295.1900219454
 30
0.0
 10
147.5447355942
 20
294.8683576054
 30
0.0
 10
147.9937061523
 20
294.6356699687
 30
0.0
 10
148.3501317644
 20
294.4966611644
 30
0.0
  0
SPLINE
  5
568
100
AcDbEntity
  8
0
100
AcDbSpline
 62
7
  6
CONTINUOUS
 70
0
 71
3
 72
9
 73
5
 74
0
 42
0.0000001
 43
0.0000001
 44
0.0000000001
 40
0.0
 40
0.0
 40
0.0
 40
0.0
 40
0.4958525576
 40
1.0
 40
1.0
 40
1.0
 40
1.0
 10
148.3501317644
 20
295.3131635815
 30
0.0
 10
149.0413627698
 20
295.043578029
 30
0.0
 10
150.5469423369
 20
294.7838326668
 30
0.0
 10
152.0603195097
 20
294.9684965788
 30
0.0
 10
152.7792154783
 20
295.1970499393
 30
0.0
  0
SPLINE
  5
569
100
AcDbEntity
  8
0
100
AcDbSpline
 62
7
  6
CONTINUOUS
 70
0
 71
3
 72
11
 73
7
 74
0
 42
0.0000001
 43
0.0000001
 44
0.0000000001
 40
0.0
 40
0.0
 40
0.0
 40
0.0
 40
0.2897889398
 40
0.5487524284
 40
0.7817693499
 40
1.0
 40
1.0
 40
1.0
 40
1.0
 10
437.4144431974
 20
450.4315151559
 30
0.0
 10
438.6513866935
 20
451.1562962055
 30
0.0
 10
440.8913498758
 20
452.7226340459
 30
0.0
 10
443.5502021303
 20
455.5800910279
 30
0.0
 10
445.2052055484
 20
458.7359310112
 30
0.0
 10
445.5570386613
 20
460.9922313156
 30
0.0
 10
445.5339050832
 20
462.0716146697
 30
0.0
  0
SPLINE
  5
56A
100
AcDbEntity
  8
0
100
AcDbSpline
 62
7
  6
CONTINUOUS
 70
0
 71
3
 72
11
 73
7
 74
0
 42
0.0000001
 43
0.0000001
 44
0.0000000001
 40
0.0
 40
0.0
 40
0.0
 40
0.0
 40
0.237219572
 40
0.5000005441
 40
0.7627812203
 40
1.0
 40
1.0
 40
1.0
 40
1.0
 10
214.9146612222
 20
345.0194327016
 30
0.0
 10
217.7482482088
 20
343.3834975019
 30
0.0
 10
224.3382044272
 20
340.9959294631
 30
0.0
 10
234.8751232916
 20
339.8520263085
 30
0.0
 10
245.4120258671
 20
340.9959777866
 30
0.0
 10
252.0019556272
 20
343.3835784899
 30
0.0
 10
254.8355213537
 20
345.0195286596
 30
0.0
  0
ELLIPSE
  5
56B
100
AcDbEntity
  8
0
100
AcDbEllipse
 62
7
  6
CONTINUOUS
 10
198.6503434002
 20
282.9645712243
 30
0.0
 11
-4.8665283201
 21
8.736841999
 31
0.0
 40
0.5873432686
 41
2.6016637085
 42
3.9360363262
  0
ENDSEC
  0
SECTION
  2
OBJECTS
  0
DICTIONARY
  5
C
100
AcDbDictionary
280
0
281
1
  3
ACAD_GROUP
350
D
  3
ACAD_MLINESTYLE
350
17
  3
ACAD_LAYOUT
350
1A
  3
ACAD_PLOTSETTINGS
350
19
  3
ACAD_PLOTSTYLENAME
350
E
  0
DICTIONARY
  5
D
102
{ACAD_REACTORS
330
C
102
}
100
AcDbDictionary
280
0
281
1
  0
ACDBDICTIONARYWDFLT
  5
E
102
{ACAD_REACTORS
330
C
102
}
100
AcDbDictionary
281
1
  3
Normal
350
F
100
AcDbDictionaryWithDefault
340
F
  0
DICTIONARY
  5
17
102
{ACAD_REACTORS
330
C
102
}
100
AcDbDictionary
280
0
281
1
  3
Standard
350
18
  0
DICTIONARY
  5
19
102
{ACAD_REACTORS
330
C
102
}
100
AcDbDictionary
281
1
  0
DICTIONARY
  5
1A
102
{ACAD_REACTORS
330
C
102
}
100
AcDbDictionary
281
1
  3
Model
350
56C
  3
Layout1
350
56D
  0
ACDBPLACEHOLDER
  5
F
102
{ACAD_REACTORS
330
E
102
}
  0
MLINESTYLE
  5
18
102
{ACAD_REACTORS
330
17
102
}
100
AcDbMlineStyle
  2
STANDARD
 70
0
  3

 62
256
 51
90.0
 52
90.0
 71
2
 49
0.5
 62
256
  6
BYLAYER
 49
-0.5
 62
256
  6
BYLAYER
  0
LAYOUT
  5
56C
102
{ACAD_REACTORS
330
1A
102
}
100
AcDbPlotSettings
  1

  2
none_device
  4

  6

 40
0.0
 41
0.0
 42
0.0
 43
0.0
 44
210.0
 45
297.0
 46
0.0
 47
0.0
 48
0.0
 49
0.0
140
0.0
141
0.0
142
1.0
143
1.0
 70
1024
 72
1
 73
0
 74
0
  7

 75
0
147
1.0
148
0.0
149
0.0
100
AcDbLayout
  1
Model
 70
0
 71
0
 10
0.0
 20
0.0
 11
210.0
 21
297.0
 12
0.0
 22
0.0
 32
0.0
 14
0.0
 24
0.0
 34
0.0
 15
0.0
 25
0.0
 35
0.0
146
0.0
 13
0.0
 23
0.0
 33
0.0
 16
1.0
 26
0.0
 36
0.0
 17
0.0
 27
1.0
 37
0.0
 76
0
330
212
345
0
346
0
  0
LAYOUT
  5
56D
102
{ACAD_REACTORS
330
1A
102
}
100
AcDbPlotSettings
  1

  2
none_device
  4

  6

 40
0.0
 41
0.0
 42
0.0
 43
0.0
 44
210.0
 45
297.0
 46
0.0
 47
0.0
 48
0.0
 49
0.0
140
0.0
141
0.0
142
1.0
143
1.0
 70
0
 72
1
 73
0
 74
0
  7

 75
0
147
1.0
148
0.0
149
0.0
100
AcDbLayout
  1
Layout1
 70
0
 71
1
 10
0.0
 20
0.0
 11
210.0
 21
297.0
 12
0.0
 22
0.0
 32
0.0
 14
0.0
 24
0.0
 34
0.0
 15
0.0
 25
0.0
 35
0.0
146
0.0
 13
0.0
 23
0.0
 33
0.0
 16
1.0
 26
0.0
 36
0.0
 17
0.0
 27
1.0
 37
0.0
 76
0
330
213
345
0
346
0
  0
ENDSEC
  0
EOF
