999
DXF file: C:\Users\sesa63760\Dev\_Creo\CAD\MCADID0000924_3D-CAD\drw0001_1.dxf
999
Pro/ENGINEER 2019471 by Parametric Technology Corporation
  0
SECTION
  2
HEADER
  9
$ACADVER
  1
AC1024
  9
$DWGCODEPAGE
  3
ANSI_1252
  9
$EXTMAX
 10
525.2304310473
 20
742.8258953384
 30
0.0
  9
$EXTMIN
 10
0.0
 20
0.0
 30
0.0
  9
$LIMMIN
 10
0.0
 20
0.0
  9
$LIMMAX
 10
525.2304310473
 20
742.8258953384
  9
$VIEWCTR
 10
262.6152155237
 20
371.4129476692
  9
$VIEWSIZE
 40
742.8258953384
  9
$CLAYER
  8
0
  9
$LTSCALE
 40
48.421243548
  9
$CELTYPE
  6
BYLAYER
  9
$DIMSCALE
 40
1.0
  9
$DIMASZ
 40
6.2527432268
  9
$DIMEXO
 40
1.0
  9
$DIMDLI
 40
33.4546773604
  9
$DIMEXE
 40
1.0
  9
$DIMCEN
 40
7.9234762169
  9
$DIMLFAC
 40
1.0
  9
$DIMBLK
  1
_FILLED
  9
$DIMALT
 70
0
  9
$DIMALTF
 40
0.0393700787
  9
$DIMTXT
 40
8.7538405175
  9
$DIMTOL
 70
1
  9
$DIMLIM
 70
0
  9
$DIMTFAC
 40
1.0
  9
$DIMTP
 40
0.01
  9
$DIMTM
 40
0.01
  9
$DIMGAP
 40
0.625
  9
$DIMDSEP
 70
46
  9
$AUNITS
 70
0
  9
$PDMODE
 70
3
  9
$PDSIZE
 40
0.3125
  9
$HANDSEED
  5
51D
  9
$TILEMODE
 70
1
  9
$MEASUREMENT
 70
1
  9
$INSUNITS
 70
4
  0
ENDSEC
  0
SECTION
  2
CLASSES
  0
CLASS
  1
ACDBDICTIONARYWDFLT
  2
AcDbDictionaryWithDefault
  3
AutoCAD 2000
 90
0
 91
1
280
0
281
0
  0
CLASS
  1
ACDBPLACEHOLDER
  2
AcDbPlaceHolder
  3
AutoCAD 2000
 90
0
 91
1
280
0
281
0
  0
CLASS
  1
LAYOUT
  2
AcDbLayout
  3
AutoCAD 2000
 90
0
 91
0
280
0
281
0
  0
ENDSEC
  0
SECTION
  2
TABLES
  0
TABLE
  2
VPORT
  5
8
100
AcDbSymbolTable
 70
2
  0
VPORT
  5
1F4
100
AcDbSymbolTableRecord
100
AcDbViewportTableRecord
  2
*ACTIVE
 70
0
 10
0.0
 20
0.0
 11
1.0
 21
1.0
 12
262.6152155237
 22
371.4129476692
 13
0.0
 23
0.0
 14
1.0
 24
1.0
 15
0.0
 25
0.0
 16
0.0
 26
0.0
 36
1.0
 17
0.0
 27
0.0
 37
0.0
 40
742.8258953384
 41
0.7070707071
 42
50.0
 43
0.0
 44
0.0
 50
0.0
 51
0.0
 71
0
 72
100
 73
1
 74
1
 75
0
 76
0
 77
0
 78
0
  0
ENDTAB
  0
TABLE
  2
LTYPE
  5
5
100
AcDbSymbolTable
 70
6
  0
LTYPE
  5
14
100
AcDbSymbolTableRecord
100
AcDbLinetypeTableRecord
  2
BYBLOCK
 70
0
  3

 72
65
 73
0
 40
0.0
  0
LTYPE
  5
15
100
AcDbSymbolTableRecord
100
AcDbLinetypeTableRecord
  2
BYLAYER
 70
0
  3

 72
65
 73
0
 40
0.0
  0
LTYPE
  5
16
100
AcDbSymbolTableRecord
100
AcDbLinetypeTableRecord
  2
CONTINUOUS
 70
64
  3
Solid line
 72
65
 73
0
 40
0.0
  0
LTYPE
  5
1F5
100
AcDbSymbolTableRecord
100
AcDbLinetypeTableRecord
  2
CENTER
 70
64
  3
____ _ ____ _ ____ _ ____ _ ____ _ ____ _ ____
 72
65
 73
4
 40
0.6
 49
0.375
 74
0
 49
-0.075
 74
0
 49
0.075
 74
0
 49
-0.075
 74
0
  0
LTYPE
  5
1F6
100
AcDbSymbolTableRecord
100
AcDbLinetypeTableRecord
  2
HIDDEN
 70
64
  3
- - - - - - - - - - - - - - - - - - - -
 72
65
 73
2
 40
0.2
 49
0.1
 74
0
 49
-0.1
 74
0
  0
LTYPE
  5
1F7
100
AcDbSymbolTableRecord
100
AcDbLinetypeTableRecord
  2
PHANTOM
 70
64
  3
_____ _ _ _____ _ _ _____ _ _ _____
 72
65
 73
6
 40
0.8
 49
0.45
 74
0
 49
-0.05
 74
0
 49
0.1
 74
0
 49
-0.05
 74
0
 49
0.1
 74
0
 49
-0.05
 74
0
  0
LTYPE
  5
1F8
100
AcDbSymbolTableRecord
100
AcDbLinetypeTableRecord
  2
DOT
 70
64
  3
. . . . . . . . . . . . . . . . . . . .
 72
65
 73
2
 40
0.2
 49
0.1
 74
0
 49
-0.1
 74
0
  0
LTYPE
  5
1F9
100
AcDbSymbolTableRecord
100
AcDbLinetypeTableRecord
  2
DASHED
 70
64
  3
- - - - - - - - - - - - - - - - - - - -
 72
65
 73
2
 40
0.2
 49
0.1
 74
0
 49
-0.1
 74
0
  0
ENDTAB
  0
TABLE
  2
LAYER
  5
2
100
AcDbSymbolTable
 70
36
  0
LAYER
  5
10
100
AcDbSymbolTableRecord
100
AcDbLayerTableRecord
  2
0
 70
0
 62
7
  6
CONTINUOUS
370
-3
390
F
  0
LAYER
  5
1FA
100
AcDbSymbolTableRecord
100
AcDbLayerTableRecord
  2
DEFAULT_1
 70
0
 62
7
  6
CENTER
370
-3
390
F
  0
LAYER
  5
1FB
100
AcDbSymbolTableRecord
100
AcDbLayerTableRecord
  2
DEFAULT_2
 70
0
 62
8
  6
HIDDEN
370
-3
390
F
  0
LAYER
  5
1FC
100
AcDbSymbolTableRecord
100
AcDbLayerTableRecord
  2
DEFAULT_3
 70
0
 62
7
  6
PHANTOM
370
-3
390
F
  0
LAYER
  5
1FD
100
AcDbSymbolTableRecord
100
AcDbLayerTableRecord
  2
00_COMPONENTS
 70
0
 62
7
  6
CONTINUOUS
370
-3
390
F
  0
LAYER
  5
1FE
100
AcDbSymbolTableRecord
100
AcDbLayerTableRecord
  2
01_1_DEFAULT_DATUMS
 70
0
 62
7
  6
CONTINUOUS
370
-3
390
F
  0
LAYER
  5
1FF
100
AcDbSymbolTableRecord
100
AcDbLayerTableRecord
  2
01_PLANES
 70
0
 62
7
  6
CONTINUOUS
370
-3
390
F
  0
LAYER
  5
200
100
AcDbSymbolTableRecord
100
AcDbLayerTableRecord
  2
02_COORD_SYS
 70
0
 62
7
  6
CONTINUOUS
370
-3
390
F
  0
LAYER
  5
201
100
AcDbSymbolTableRecord
100
AcDbLayerTableRecord
  2
03_AXES
 70
0
 62
7
  6
CONTINUOUS
370
-3
390
F
  0
LAYER
  5
202
100
AcDbSymbolTableRecord
100
AcDbLayerTableRecord
  2
04_POINTS
 70
0
 62
7
  6
CONTINUOUS
370
-3
390
F
  0
LAYER
  5
203
100
AcDbSymbolTableRecord
100
AcDbLayerTableRecord
  2
05_CURVES
 70
0
 62
7
  6
CONTINUOUS
370
-3
390
F
  0
LAYER
  5
204
100
AcDbSymbolTableRecord
100
AcDbLayerTableRecord
  2
06_SURFS
 70
0
 62
7
  6
CONTINUOUS
370
-3
390
F
  0
LAYER
  5
205
100
AcDbSymbolTableRecord
100
AcDbLayerTableRecord
  2
07_COSMETICS
 70
0
 62
7
  6
CONTINUOUS
370
-3
390
F
  0
LAYER
  5
206
100
AcDbSymbolTableRecord
100
AcDbLayerTableRecord
  2
10_NOTES
 70
0
 62
7
  6
CONTINUOUS
370
-3
390
F
  0
LAYER
  5
207
100
AcDbSymbolTableRecord
100
AcDbLayerTableRecord
  2
11_NOTES_PUB
 70
0
 62
7
  6
CONTINUOUS
370
-3
390
F
  0
LAYER
  5
208
100
AcDbSymbolTableRecord
100
AcDbLayerTableRecord
  2
13_REF_GTOL
 70
0
 62
7
  6
CONTINUOUS
370
-3
390
F
  0
LAYER
  5
209
100
AcDbSymbolTableRecord
100
AcDbLayerTableRecord
  2
16_MISC
 70
0
 62
7
  6
CONTINUOUS
370
-3
390
F
  0
LAYER
  5
20A
100
AcDbSymbolTableRecord
100
AcDbLayerTableRecord
  2
17_NO_PRINT
 70
0
 62
7
  6
CONTINUOUS
370
-3
390
F
  0
LAYER
  5
20B
100
AcDbSymbolTableRecord
100
AcDbLayerTableRecord
  2
18_DATUM_CAMS_JOINTS
 70
0
 62
7
  6
CONTINUOUS
370
-3
390
F
  0
LAYER
  5
20C
100
AcDbSymbolTableRecord
100
AcDbLayerTableRecord
  2
19_DATUM_FUNCTIONAL
 70
0
 62
7
  6
CONTINUOUS
370
-3
390
F
  0
LAYER
  5
20D
100
AcDbSymbolTableRecord
100
AcDbLayerTableRecord
  2
20_DATUM_KINEMATIC_SCHEME
 70
0
 62
7
  6
CONTINUOUS
370
-3
390
F
  0
LAYER
  5
20E
100
AcDbSymbolTableRecord
100
AcDbLayerTableRecord
  2
INTFCLR_113918
 70
0
 62
7
  6
CONTINUOUS
370
-3
390
F
  0
LAYER
  5
20F
100
AcDbSymbolTableRecord
100
AcDbLayerTableRecord
  2
INTFCLR_114401
 70
0
 62
7
  6
CONTINUOUS
370
-3
390
F
  0
ENDTAB
  0
TABLE
  2
STYLE
  5
3
100
AcDbSymbolTable
 70
1
  0
STYLE
  5
11
100
AcDbSymbolTableRecord
100
AcDbTextStyleTableRecord
  2
STANDARD
 70
0
 40
0.0
 41
0.8
 50
0.0
 71
0
 42
0.2
  3
txt
  4

  0
STYLE
  5
210
100
AcDbSymbolTableRecord
100
AcDbTextStyleTableRecord
  2
TEXTSTYLE_1
 70
0
 40
0.0
 41
0.8
 50
0.0
 71
0
 42
0.2
  3
gdt
  4

  0
ENDTAB
  0
TABLE
  2
VIEW
  5
6
100
AcDbSymbolTable
 70
0
  0
ENDTAB
  0
TABLE
  2
UCS
  5
7
100
AcDbSymbolTable
 70
0
  0
ENDTAB
  0
TABLE
  2
APPID
  5
9
100
AcDbSymbolTable
 70
1
  0
APPID
  5
211
100
AcDbSymbolTableRecord
100
AcDbRegAppTableRecord
  2
ACAD
 70
0
  0
ENDTAB
  0
TABLE
  2
BLOCK_RECORD
  5
1
100
AcDbSymbolTable
 70
0
  0
BLOCK_RECORD
  5
212
100
AcDbSymbolTableRecord
100
AcDbBlockTableRecord
  2
*Model_Space
  0
BLOCK_RECORD
  5
213
100
AcDbSymbolTableRecord
100
AcDbBlockTableRecord
  2
*Paper_Space
  0
BLOCK_RECORD
  5
214
100
AcDbSymbolTableRecord
100
AcDbBlockTableRecord
  2
_FILLED
  0
ENDTAB
  0
TABLE
  2
DIMSTYLE
  5
A
100
AcDbSymbolTable
 70
1
100
AcDbDimStyleTable
 71
0
  0
DIMSTYLE
105
215
100
AcDbSymbolTableRecord
100
AcDbDimStyleTableRecord
  2
STANDARD
 70
0
  3

  4

 40
1.0
 41
6.2527432268
 42
1.0
 43
0.38
 44
1.0
 45
0.0
 46
0.0
 47
0.01
 48
0.01
140
8.7538405175
141
0.09
142
0.0
143
25.4
144
1.0
145
0.0
146
1.0
147
0.625
 71
1
 72
0
 73
0
 74
0
 75
0
 76
0
 77
1
 78
8
 79
2
170
0
171
1
172
0
173
0
174
0
175
0
176
0
177
0
178
0
270
2
179
2
271
2
272
2
273
2
274
2
275
0
280
0
281
0
282
0
283
1
284
8
285
0
286
0
287
3
288
0
340
11
278
46
341
214
342
214
343
214
344
214
  0
ENDTAB
  0
ENDSEC
  0
SECTION
  2
BLOCKS
  0
BLOCK
  5
20
100
AcDbEntity
  8
0
100
AcDbBlockBegin
  2
*Model_Space
 70
0
 10
0.0
 20
0.0
 30
0.0
  3
*Model_Space
  1

  0
ENDBLK
  5
21
100
AcDbEntity
  8
0
100
AcDbBlockEnd
  0
BLOCK
  5
1C
100
AcDbEntity
  8
0
100
AcDbBlockBegin
  2
*Paper_Space
 70
0
 10
0.0
 20
0.0
 30
0.0
  3
*Paper_Space
  1

  0
ENDBLK
  5
1D
100
AcDbEntity
  8
0
100
AcDbBlockEnd
  0
BLOCK
  5
216
100
AcDbEntity
  8
0
100
AcDbBlockBegin
  2
_FILLED
 70
64
 10
0.0
 20
0.0
  3
_FILLED
  1

  0
SOLID
  5
217
100
AcDbEntity
  8
0
  6
BYBLOCK
 62
0
100
AcDbTrace
 10
0.0
 20
0.0
 11
-1.0
 21
0.25
 12
-1.0
 22
-0.25
 13
-1.0
 23
-0.25
  0
ENDBLK
  5
218
100
AcDbEntity
  8
0
  6
BYBLOCK
 62
0
100
AcDbBlockEnd
  0
ENDSEC
  0
SECTION
  2
ENTITIES
  0
LINE
  5
219
100
AcDbEntity
  8
0
100
AcDbLine
 62
7
  6
CONTINUOUS
 10
60.8960874322
 20
300.6928092973
 11
60.8960874322
 21
304.7753213829
  0
LINE
  5
21A
100
AcDbEntity
  8
0
100
AcDbLine
 62
7
  6
CONTINUOUS
 10
61.7747759205
 20
299.4680768357
 11
61.7747759205
 21
303.5505889213
  0
LINE
  5
21B
100
AcDbEntity
  8
0
100
AcDbLine
 62
7
  6
CONTINUOUS
 10
64.4264373898
 20
302.0196860919
 11
64.4264373898
 21
297.9371740062
  0
LINE
  5
21C
100
AcDbEntity
  8
0
100
AcDbLine
 62
7
  6
CONTINUOUS
 10
68.3155408781
 20
299.774361942
 11
68.3155408781
 21
295.6918498564
  0
LINE
  5
21D
100
AcDbEntity
  8
0
100
AcDbLine
 62
7
  6
CONTINUOUS
 10
68.6690604131
 20
304.4691510151
 11
68.6690604131
 21
300.3866389295
  0
LINE
  5
21E
100
AcDbEntity
  8
0
100
AcDbLine
 62
7
  6
CONTINUOUS
 10
69.1185894238
 20
326.7391393049
 11
69.1185894238
 21
315.7163566737
  0
LINE
  5
21F
100
AcDbEntity
  8
0
100
AcDbLine
 62
7
  6
CONTINUOUS
 10
69.1186777428
 20
303.4690830478
 11
69.1186777428
 21
314.4918656791
  0
LINE
  5
220
100
AcDbEntity
  8
0
100
AcDbLine
 62
7
  6
CONTINUOUS
 10
69.4114855866
 20
315.3081125198
 11
69.4114855866
 21
326.3308951511
  0
LINE
  5
221
100
AcDbEntity
  8
0
100
AcDbLine
 62
7
  6
CONTINUOUS
 10
69.4115739056
 20
303.060838894
 11
69.4115739056
 21
314.0836215252
  0
LINE
  5
222
100
AcDbEntity
  8
0
100
AcDbLine
 62
7
  6
CONTINUOUS
 10
69.4115739056
 20
303.060838894
 11
69.1186994357
 21
303.4690830478
  0
LINE
  5
223
100
AcDbEntity
  8
0
100
AcDbLine
 62
7
  6
CONTINUOUS
 10
72.7349766603
 20
297.2228572263
 11
72.7349766603
 21
301.1421148262
  0
LINE
  5
224
100
AcDbEntity
  8
0
100
AcDbLine
 62
7
  6
CONTINUOUS
 10
78.6039120135
 20
321.0237653423
 11
78.6039120135
 21
320.2072804339
  0
LINE
  5
225
100
AcDbEntity
  8
0
100
AcDbLine
 62
7
  6
CONTINUOUS
 10
87.8544135853
 20
403.6917560758
 11
86.0828594437
 21
320.8293853431
  0
LINE
  5
226
100
AcDbEntity
  8
0
100
AcDbLine
 62
7
  6
CONTINUOUS
 10
88.3047199583
 20
424.1011074909
 11
87.8736126943
 21
403.9365699825
  0
LINE
  5
227
100
AcDbEntity
  8
0
100
AcDbLine
 62
7
  6
CONTINUOUS
 10
69.1186994357
 20
314.4918656791
 11
69.4115739056
 21
314.0836215252
  0
LINE
  5
228
100
AcDbEntity
  8
0
100
AcDbLine
 62
7
  6
CONTINUOUS
 10
69.4114855866
 20
315.3081125198
 11
69.1186111167
 21
315.7163566737
  0
LINE
  5
229
100
AcDbEntity
  8
0
100
AcDbLine
 62
7
  6
CONTINUOUS
 10
69.1186111167
 20
326.7391393049
 11
69.4114855866
 21
326.3308951511
  0
LINE
  5
22A
100
AcDbEntity
  8
0
100
AcDbLine
 62
7
  6
CONTINUOUS
 10
78.6039120135
 20
321.0237653423
 11
78.8967864833
 21
320.6155211884
  0
LINE
  5
22B
100
AcDbEntity
  8
0
100
AcDbLine
 62
7
  6
CONTINUOUS
 10
102.4547540721
 20
380.5186588524
 11
102.4547540721
 21
376.8314870529
  0
LINE
  5
22C
100
AcDbEntity
  8
0
100
AcDbLine
 62
7
  6
CONTINUOUS
 10
102.4547540721
 20
375.888971805
 11
102.4547540721
 21
375.6391272287
  0
LINE
  5
22D
100
AcDbEntity
  8
0
100
AcDbLine
 62
7
  6
CONTINUOUS
 10
102.4547540721
 20
372.9568382889
 11
102.4547540721
 21
316.4232191078
  0
LINE
  5
22E
100
AcDbEntity
  8
0
100
AcDbLine
 62
7
  6
CONTINUOUS
 10
104.1534509418
 20
377.1200928288
 11
104.1534509418
 21
374.9082508969
  0
LINE
  5
22F
100
AcDbEntity
  8
0
100
AcDbLine
 62
7
  6
CONTINUOUS
 10
104.1534509418
 20
373.9236515638
 11
104.1534509418
 21
370.6882127862
  0
LINE
  5
230
100
AcDbEntity
  8
0
100
AcDbLine
 62
7
  6
CONTINUOUS
 10
104.2407026774
 20
305.3014173708
 11
104.2407026774
 21
308.0385043761
  0
LINE
  5
231
100
AcDbEntity
  8
0
100
AcDbLine
 62
7
  6
CONTINUOUS
 10
104.2407026774
 20
309.1261913836
 11
104.2407026774
 21
311.7657541566
  0
LINE
  5
232
100
AcDbEntity
  8
0
100
AcDbLine
 62
7
  6
CONTINUOUS
 10
104.8605547791
 20
377.5283369827
 11
104.8605547791
 21
375.3164950507
  0
LINE
  5
233
100
AcDbEntity
  8
0
100
AcDbLine
 62
7
  6
CONTINUOUS
 10
104.8605547791
 20
374.3318957177
 11
104.8605547791
 21
371.0964569401
  0
LINE
  5
234
100
AcDbEntity
  8
0
100
AcDbLine
 62
7
  6
CONTINUOUS
 10
104.9478065146
 20
312.1739983105
 11
104.9478065146
 21
309.5344355375
  0
LINE
  5
235
100
AcDbEntity
  8
0
100
AcDbLine
 62
7
  6
CONTINUOUS
 10
104.9478065146
 20
308.4467485299
 11
104.9478065146
 21
305.7096615247
  0
LINE
  5
236
100
AcDbEntity
  8
0
100
AcDbLine
 62
7
  6
CONTINUOUS
 10
105.0266008838
 20
376.6364846659
 11
105.0266008838
 21
374.4041489472
  0
LINE
  5
237
100
AcDbEntity
  8
0
100
AcDbLine
 62
7
  6
CONTINUOUS
 10
105.0266008838
 20
373.4195496141
 11
105.0266008838
 21
370.1636170497
  0
LINE
  5
238
100
AcDbEntity
  8
0
100
AcDbLine
 62
7
  6
CONTINUOUS
 10
105.0266008838
 20
304.8434236793
 11
105.0266008838
 21
307.5847760998
  0
LINE
  5
239
100
AcDbEntity
  8
0
100
AcDbLine
 62
7
  6
CONTINUOUS
 10
105.0266008838
 20
308.6724631074
 11
105.0266008838
 21
311.3162912956
  0
LINE
  5
23A
100
AcDbEntity
  8
0
100
AcDbLine
 62
7
  6
CONTINUOUS
 10
105.7351905366
 20
433.7329715681
 11
105.7351905366
 21
434.1017114263
  0
LINE
  5
23B
100
AcDbEntity
  8
0
100
AcDbLine
 62
7
  6
CONTINUOUS
 10
106.3438222328
 20
382.355825368
 11
106.3438222328
 21
383.5718412437
  0
LINE
  5
23C
100
AcDbEntity
  8
0
100
AcDbLine
 62
7
  6
CONTINUOUS
 10
94.8674592436
 20
308.3682883548
 11
96.1202273976
 21
391.966565407
  0
LINE
  5
23D
100
AcDbEntity
  8
0
100
AcDbLine
 62
7
  6
CONTINUOUS
 10
96.1338041955
 20
392.2193546531
 11
96.4386650169
 21
412.5629747832
  0
LINE
  5
23E
100
AcDbEntity
  8
0
100
AcDbLine
 62
7
  6
CONTINUOUS
 10
104.2149616066
 20
384.800911694
 11
104.1809290735
 21
382.5298920277
  0
LINE
  5
23F
100
AcDbEntity
  8
0
100
AcDbLine
 62
7
  6
CONTINUOUS
 10
234.3095488564
 20
199.8573327327
 11
231.6578873871
 21
201.3882355622
  0
LINE
  5
240
100
AcDbEntity
  8
0
100
AcDbLine
 62
7
  6
CONTINUOUS
 10
64.4264373898
 20
297.9371740062
 11
61.7747759205
 21
299.4680768357
  0
LINE
  5
241
100
AcDbEntity
  8
0
100
AcDbLine
 62
7
  6
CONTINUOUS
 10
68.3155408781
 20
295.6918498564
 11
227.7687838988
 21
203.633559712
  0
LINE
  5
242
100
AcDbEntity
  8
0
100
AcDbLine
 62
7
  6
CONTINUOUS
 10
61.7747759205
 20
303.5505889213
 11
64.4264373898
 21
302.0196860919
  0
LINE
  5
243
100
AcDbEntity
  8
0
100
AcDbLine
 62
7
  6
CONTINUOUS
 10
68.3155408781
 20
299.774361942
 11
72.7349766603
 21
297.2228572263
  0
LINE
  5
244
100
AcDbEntity
  8
0
100
AcDbLine
 62
7
  6
CONTINUOUS
 10
223.3493481166
 20
210.2675765134
 11
227.7687838988
 21
207.7160717977
  0
LINE
  5
245
100
AcDbEntity
  8
0
100
AcDbLine
 62
7
  6
CONTINUOUS
 10
231.6578873871
 20
205.4707476478
 11
234.3095488564
 21
203.9398448184
  0
LINE
  5
246
100
AcDbEntity
  8
0
100
AcDbLine
 62
7
  6
CONTINUOUS
 10
109.8117081475
 20
419.8206445996
 11
109.8117081475
 21
418.5958909739
  0
LINE
  5
247
100
AcDbEntity
  8
0
100
AcDbLine
 62
7
  6
CONTINUOUS
 10
110.0824409274
 20
434.0743083782
 11
110.0824409274
 21
433.8020776513
  0
LINE
  5
248
100
AcDbEntity
  8
0
100
AcDbLine
 62
7
  6
CONTINUOUS
 10
111.289219898
 20
422.0892666733
 11
111.289219898
 21
422.5885168232
  0
LINE
  5
249
100
AcDbEntity
  8
0
100
AcDbLine
 62
7
  6
CONTINUOUS
 10
111.656953973
 20
416.8404656275
 11
111.656953973
 21
417.2487064302
  0
LINE
  5
24A
100
AcDbEntity
  8
0
100
AcDbLine
 62
7
  6
CONTINUOUS
 10
223.5614939876
 20
214.0643544085
 11
69.4115739056
 21
303.060838894
  0
LINE
  5
24B
100
AcDbEntity
  8
0
100
AcDbLine
 62
7
  6
CONTINUOUS
 10
223.5614939876
 20
225.0871370398
 11
69.4115739056
 21
314.0836215252
  0
LINE
  5
24C
100
AcDbEntity
  8
0
100
AcDbLine
 62
7
  6
CONTINUOUS
 10
69.7648754894
 20
315.1040873799
 11
69.4114855866
 21
315.3081125198
  0
LINE
  5
24D
100
AcDbEntity
  8
0
100
AcDbLine
 62
7
  6
CONTINUOUS
 10
235.5822709961
 20
219.3715352076
 11
244.774697423
 21
214.0644053988
  0
LINE
  5
24E
100
AcDbEntity
  8
0
100
AcDbLine
 62
7
  6
CONTINUOUS
 10
149.1616661767
 20
274.8317792822
 11
149.7569744355
 21
274.4880856741
  0
LINE
  5
24F
100
AcDbEntity
  8
0
100
AcDbLine
 62
7
  6
CONTINUOUS
 10
147.0062700238
 20
276.8926720965
 11
149.1616661767
 21
275.6482816993
  0
LINE
  5
250
100
AcDbEntity
  8
0
100
AcDbLine
 62
7
  6
CONTINUOUS
 10
150.4640963799
 20
274.8963402821
 11
152.7792154784
 21
273.5597358854
  0
LINE
  5
251
100
AcDbEntity
  8
0
100
AcDbLine
 62
7
  6
CONTINUOUS
 10
154.110420898
 20
272.997815809
 11
148.1543367362
 21
276.4364848101
  0
LINE
  5
252
100
AcDbEntity
  8
0
100
AcDbLine
 62
7
  6
CONTINUOUS
 10
151.7037324459
 20
274.7955378092
 11
150.4013022427
 21
275.5474792264
  0
LINE
  5
253
100
AcDbEntity
  8
0
100
AcDbLine
 62
7
  6
CONTINUOUS
 10
213.6618930683
 20
239.7838415954
 11
158.1622934533
 21
271.8258265708
  0
LINE
  5
254
100
AcDbEntity
  8
0
100
AcDbLine
 62
7
  6
CONTINUOUS
 10
148.129462119
 20
277.6181533587
 11
94.8674592436
 21
308.3682883548
  0
LINE
  5
255
100
AcDbEntity
  8
0
100
AcDbLine
 62
7
  6
CONTINUOUS
 10
154.110420898
 20
274.2225694347
 11
151.7037324459
 21
275.6120402263
  0
LINE
  5
256
100
AcDbEntity
  8
0
100
AcDbLine
 62
7
  6
CONTINUOUS
 10
150.4013022427
 20
276.3639816436
 11
148.1543367362
 21
277.6612384357
  0
LINE
  5
257
100
AcDbEntity
  8
0
100
AcDbLine
 62
7
  6
CONTINUOUS
 10
146.4792062282
 20
275.7091050615
 11
147.0831686058
 21
274.4482677303
  0
LINE
  5
258
100
AcDbEntity
  8
0
100
AcDbLine
 62
7
  6
CONTINUOUS
 10
128.415274877
 20
432.476190254
 11
128.415274877
 21
432.0679461001
  0
LINE
  5
259
100
AcDbEntity
  8
0
100
AcDbLine
 62
7
  6
CONTINUOUS
 10
129.8294884394
 20
432.0679528989
 11
129.8294884394
 21
432.4761936534
  0
LINE
  5
25A
100
AcDbEntity
  8
0
100
AcDbLine
 62
7
  6
CONTINUOUS
 10
69.4114796986
 20
327.1473800595
 11
69.1186111167
 21
326.7391393049
  0
LINE
  5
25B
100
AcDbEntity
  8
0
100
AcDbLine
 62
7
  6
CONTINUOUS
 10
69.4115680176
 20
314.9001064336
 11
69.1186994357
 21
314.4918656791
  0
LINE
  5
25C
100
AcDbEntity
  8
0
100
AcDbLine
 62
7
  6
CONTINUOUS
 10
102.6469311015
 20
377.0832393009
 11
101.9553656419
 21
376.1772873271
  0
LINE
  5
25D
100
AcDbEntity
  8
0
100
AcDbLine
 62
7
  6
CONTINUOUS
 10
96.4385014621
 20
435.2432682654
 11
278.8712914636
 21
540.5702599644
  0
LINE
  5
25E
100
AcDbEntity
  8
0
100
AcDbLine
 62
7
  6
CONTINUOUS
 10
279.8672818632
 20
532.099046868
 11
278.830020241
 21
531.5001871659
  0
LINE
  5
25F
100
AcDbEntity
  8
0
100
AcDbLine
 62
7
  6
CONTINUOUS
 10
194.911492267
 20
483.0500916582
 11
193.9775597754
 21
482.5108887014
  0
LINE
  5
260
100
AcDbEntity
  8
0
100
AcDbLine
 62
7
  6
CONTINUOUS
 10
110.0824409274
 20
434.0743083782
 11
109.1250993097
 21
433.5215902368
  0
LINE
  5
261
100
AcDbEntity
  8
0
100
AcDbLine
 62
7
  6
CONTINUOUS
 10
169.0737102059
 20
464.9316506427
 11
107.0465614563
 21
429.1204733789
  0
LINE
  5
262
100
AcDbEntity
  8
0
100
AcDbLine
 62
7
  6
CONTINUOUS
 10
158.1687861737
 20
272.2374529905
 11
154.9791569699
 21
274.0789446098
  0
LINE
  5
263
100
AcDbEntity
  8
0
100
AcDbLine
 62
7
  6
CONTINUOUS
 10
78.6039120135
 20
321.0237653423
 11
69.4114855866
 21
326.3308951511
  0
LINE
  5
264
100
AcDbEntity
  8
0
100
AcDbLine
 62
7
  6
CONTINUOUS
 10
235.5822709961
 20
230.3943178388
 11
244.774697423
 21
225.08718803
  0
LINE
  5
265
100
AcDbEntity
  8
0
100
AcDbLine
 62
7
  6
CONTINUOUS
 10
109.8794061861
 20
303.5634158054
 11
194.229002978
 21
254.8652550912
  0
LINE
  5
266
100
AcDbEntity
  8
0
100
AcDbLine
 62
7
  6
CONTINUOUS
 10
199.3668351119
 20
253.1186486612
 11
197.2109017554
 21
254.363349206
  0
LINE
  5
267
100
AcDbEntity
  8
0
100
AcDbLine
 62
7
  6
CONTINUOUS
 10
196.1434416664
 20
254.9796336336
 11
193.7753277923
 21
256.3468338861
  0
LINE
  5
268
100
AcDbEntity
  8
0
100
AcDbLine
 62
7
  6
CONTINUOUS
 10
101.8510635232
 20
309.4181319737
 11
104.2407026774
 21
308.0385043761
  0
LINE
  5
269
100
AcDbEntity
  8
0
100
AcDbLine
 62
7
  6
CONTINUOUS
 10
105.0266008838
 20
307.5847760998
 11
107.4425708428
 21
306.1899467488
  0
LINE
  5
26A
100
AcDbEntity
  8
0
100
AcDbLine
 62
7
  6
CONTINUOUS
 10
102.5581673604
 20
309.8263761276
 11
104.9478065146
 21
308.4467485299
  0
LINE
  5
26B
100
AcDbEntity
  8
0
100
AcDbLine
 62
7
  6
CONTINUOUS
 10
105.733704721
 20
307.9930202537
 11
108.14967468
 21
306.5981909027
  0
LINE
  5
26C
100
AcDbEntity
  8
0
100
AcDbLine
 62
7
  6
CONTINUOUS
 10
194.4824316295
 20
256.7550780399
 11
196.8505455036
 21
255.3878777874
  0
LINE
  5
26D
100
AcDbEntity
  8
0
100
AcDbLine
 62
7
  6
CONTINUOUS
 10
197.9180055927
 20
254.7715933599
 11
200.0739389491
 21
253.5268928151
  0
LINE
  5
26E
100
AcDbEntity
  8
0
100
AcDbLine
 62
7
  6
CONTINUOUS
 10
199.367569754
 20
254.102823858
 11
197.2109017554
 21
255.3479485391
  0
LINE
  5
26F
100
AcDbEntity
  8
0
100
AcDbLine
 62
7
  6
CONTINUOUS
 10
196.1434416664
 20
255.9642329666
 11
193.7745931501
 21
257.3318573553
  0
LINE
  5
270
100
AcDbEntity
  8
0
100
AcDbLine
 62
7
  6
CONTINUOUS
 10
101.8653279917
 20
310.4975835728
 11
104.2407026774
 21
309.1261913836
  0
LINE
  5
271
100
AcDbEntity
  8
0
100
AcDbLine
 62
7
  6
CONTINUOUS
 10
105.0266008838
 20
308.6724631074
 11
107.4283063742
 21
307.2858691649
  0
LINE
  5
272
100
AcDbEntity
  8
0
100
AcDbLine
 62
7
  6
CONTINUOUS
 10
145.173954945
 20
397.898094666
 11
145.173954945
 21
397.5727549858
  0
LINE
  5
273
100
AcDbEntity
  8
0
100
AcDbLine
 62
7
  6
CONTINUOUS
 10
146.4791569699
 20
275.7091050828
 11
146.4791569699
 21
272.4430954143
  0
LINE
  5
274
100
AcDbEntity
  8
0
100
AcDbLine
 62
7
  6
CONTINUOUS
 10
147.0831686058
 20
273.6317653132
 11
147.0831686058
 21
274.4482677303
  0
LINE
  5
275
100
AcDbEntity
  8
0
100
AcDbLine
 62
7
  6
CONTINUOUS
 10
148.1543367362
 20
276.43648481
 11
148.1543367362
 21
277.6612384357
  0
LINE
  5
276
100
AcDbEntity
  8
0
100
AcDbLine
 62
7
  6
CONTINUOUS
 10
148.3501317644
 20
273.6758495276
 11
148.3501317644
 21
272.8593471105
  0
LINE
  5
277
100
AcDbEntity
  8
0
100
AcDbLine
 62
7
  6
CONTINUOUS
 10
149.1616661767
 20
274.8317792822
 11
149.1616661767
 21
275.6482816993
  0
LINE
  5
278
100
AcDbEntity
  8
0
100
AcDbLine
 62
7
  6
CONTINUOUS
 10
149.931064901
 20
425.5768308728
 11
149.931064901
 21
422.0955278847
  0
LINE
  5
279
100
AcDbEntity
  8
0
100
AcDbLine
 62
7
  6
CONTINUOUS
 10
150.4013022427
 20
275.5474792264
 11
150.4013022427
 21
276.3639816436
  0
LINE
  5
27A
100
AcDbEntity
  8
0
100
AcDbLine
 62
7
  6
CONTINUOUS
 10
151.7037324459
 20
274.7955378092
 11
151.7037324459
 21
275.6120402263
  0
LINE
  5
27B
100
AcDbEntity
  8
0
100
AcDbLine
 62
7
  6
CONTINUOUS
 10
152.7792154784
 20
272.3349822597
 11
152.7792154784
 21
273.5597358854
  0
LINE
  5
27C
100
AcDbEntity
  8
0
100
AcDbLine
 62
7
  6
CONTINUOUS
 10
152.9129921852
 20
277.8140978519
 11
152.9129921852
 21
276.9975954348
  0
LINE
  5
27D
100
AcDbEntity
  8
0
100
AcDbLine
 62
7
  6
CONTINUOUS
 10
154.0835003879
 20
397.5727707515
 11
154.0835003879
 21
397.8981160819
  0
LINE
  5
27E
100
AcDbEntity
  8
0
100
AcDbLine
 62
7
  6
CONTINUOUS
 10
154.110420898
 20
274.2225694347
 11
154.110420898
 21
272.997815809
  0
LINE
  5
27F
100
AcDbEntity
  8
0
100
AcDbLine
 62
7
  6
CONTINUOUS
 10
154.4414830269
 20
269.8915802445
 11
154.4414830268
 21
270.299831453
  0
LINE
  5
280
100
AcDbEntity
  8
0
100
AcDbLine
 62
7
  6
CONTINUOUS
 10
154.9791569699
 20
275.7091050828
 11
154.9791569699
 21
272.4430954143
  0
LINE
  5
281
100
AcDbEntity
  8
0
100
AcDbLine
 62
7
  6
CONTINUOUS
 10
157.4065940261
 20
439.2530549155
 11
157.4065940261
 21
443.9806039107
  0
LINE
  5
282
100
AcDbEntity
  8
0
100
AcDbLine
 62
7
  6
CONTINUOUS
 10
159.3949261083
 20
379.1191451996
 11
159.3949261083
 21
379.5914302074
  0
LINE
  5
283
100
AcDbEntity
  8
0
100
AcDbLine
 62
7
  6
CONTINUOUS
 10
158.1687871617
 20
272.2374534852
 11
158.1622924653
 21
271.8258260761
  0
LINE
  5
284
100
AcDbEntity
  8
0
100
AcDbLine
 62
7
  6
CONTINUOUS
 10
183.6118402506
 20
458.8079612213
 11
187.1473594218
 21
464.9316940831
  0
LINE
  5
285
100
AcDbEntity
  8
0
100
AcDbLine
 62
7
  6
CONTINUOUS
 10
78.8967864833
 20
320.6155211884
 11
78.6039179014
 21
320.2072804339
  0
LINE
  5
286
100
AcDbEntity
  8
0
100
AcDbLine
 62
7
  6
CONTINUOUS
 10
172.609258843
 20
458.8079347936
 11
110.5821100867
 21
422.996757526
  0
LINE
  5
287
100
AcDbEntity
  8
0
100
AcDbLine
 62
7
  6
CONTINUOUS
 10
111.289219898
 20
422.5885168232
 11
128.415274877
 21
432.476190254
  0
LINE
  5
288
100
AcDbEntity
  8
0
100
AcDbLine
 62
7
  6
CONTINUOUS
 10
130.1830344701
 20
433.4968006387
 11
173.3163685401
 21
458.3996940249
  0
LINE
  5
289
100
AcDbEntity
  8
0
100
AcDbLine
 62
7
  6
CONTINUOUS
 10
111.656916879
 20
422.3925613531
 11
129.1223816582
 21
432.4761919537
  0
LINE
  5
28A
100
AcDbEntity
  8
0
100
AcDbLine
 62
7
  6
CONTINUOUS
 10
159.0634897348
 20
447.6428914437
 11
162.5990089208
 21
449.684112213
  0
LINE
  5
28B
100
AcDbEntity
  8
0
100
AcDbLine
 62
7
  6
CONTINUOUS
 10
163.0634718273
 20
447.2466972116
 11
166.5989910133
 21
449.2879179809
  0
LINE
  5
28C
100
AcDbEntity
  8
0
100
AcDbLine
 62
7
  6
CONTINUOUS
 10
150.9512576926
 20
428.9939265621
 11
144.466891637
 21
425.2501984214
  0
LINE
  5
28D
100
AcDbEntity
  8
0
100
AcDbLine
 62
7
  6
CONTINUOUS
 10
262.2754879544
 20
239.2736553803
 11
258.7399393286
 21
241.3148591529
  0
LINE
  5
28E
100
AcDbEntity
  8
0
100
AcDbLine
 62
7
  6
CONTINUOUS
 10
262.2754879544
 20
239.6819065889
 11
258.7337680056
 21
241.7266732959
  0
LINE
  5
28F
100
AcDbEntity
  8
0
100
AcDbLine
 62
7
  6
CONTINUOUS
 10
265.3624643484
 20
244.0264755362
 11
265.112066324
 21
244.1710396326
  0
LINE
  5
290
100
AcDbEntity
  8
0
100
AcDbLine
 62
7
  6
CONTINUOUS
 10
269.2246776175
 20
242.2763923425
 11
268.4186938935
 21
242.7417167355
  0
LINE
  5
291
100
AcDbEntity
  8
0
100
AcDbLine
 62
7
  6
CONTINUOUS
 10
265.7779167312
 20
244.2663356495
 11
265.112066324
 21
244.6507558646
  0
LINE
  5
292
100
AcDbEntity
  8
0
100
AcDbLine
 62
7
  6
CONTINUOUS
 10
268.4186938934
 20
243.0785029206
 11
266.0695862928
 21
244.4347301442
  0
LINE
  5
293
100
AcDbEntity
  8
0
100
AcDbLine
 62
7
  6
CONTINUOUS
 10
265.112066324
 20
244.9875420497
 11
262.5016227702
 21
246.4946482429
  0
LINE
  5
294
100
AcDbEntity
  8
0
100
AcDbLine
 62
7
  6
CONTINUOUS
 10
266.8385996478
 20
244.0622151444
 11
265.8810796789
 21
244.6150270499
  0
LINE
  5
295
100
AcDbEntity
  8
0
100
AcDbLine
 62
7
  6
CONTINUOUS
 10
269.2246776175
 20
243.5011459682
 11
266.8385996478
 21
244.8787175615
  0
LINE
  5
296
100
AcDbEntity
  8
0
100
AcDbLine
 62
7
  6
CONTINUOUS
 10
265.8810796789
 20
245.431529467
 11
263.233665756
 21
246.9599800299
  0
LINE
  5
297
100
AcDbEntity
  8
0
100
AcDbLine
 62
7
  6
CONTINUOUS
 10
110.5821101002
 20
422.9967575329
 11
107.0465614563
 21
429.1204733789
  0
LINE
  5
298
100
AcDbEntity
  8
0
100
AcDbLine
 62
7
  6
CONTINUOUS
 10
163.3257641202
 20
379.6431811846
 11
163.3257641202
 21
379.2597562749
  0
LINE
  5
299
100
AcDbEntity
  8
0
100
AcDbLine
 62
7
  6
CONTINUOUS
 10
164.1120107109
 20
388.7960968189
 11
164.1120107109
 21
413.2911693328
  0
LINE
  5
29A
100
AcDbEntity
  8
0
100
AcDbLine
 62
7
  6
CONTINUOUS
 10
167.8552236713
 20
383.5787365324
 11
167.8552236713
 21
408.0738090463
  0
LINE
  5
29B
100
AcDbEntity
  8
0
100
AcDbLine
 62
7
  6
CONTINUOUS
 10
169.4107898188
 20
417.1204550653
 11
169.4107898188
 21
417.6103565156
  0
LINE
  5
29C
100
AcDbEntity
  8
0
100
AcDbLine
 62
7
  6
CONTINUOUS
 10
173.3163685401
 20
458.3996940249
 11
173.3163685401
 21
445.409725994
  0
LINE
  5
29D
100
AcDbEntity
  8
0
100
AcDbLine
 62
7
  6
CONTINUOUS
 10
183.5696244168
 20
439.4901398724
 11
180.0341052308
 21
437.4489191031
  0
LINE
  5
29E
100
AcDbEntity
  8
0
100
AcDbLine
 62
7
  6
CONTINUOUS
 10
104.4902976373
 20
382.708504985
 11
103.0760899628
 21
381.8920166773
  0
LINE
  5
29F
100
AcDbEntity
  8
0
100
AcDbLine
 62
7
  6
CONTINUOUS
 10
167.8551484235
 20
418.5084861755
 11
350.2851100093
 21
523.8338448978
  0
LINE
  5
2A0
100
AcDbEntity
  8
0
100
AcDbLine
 62
7
  6
CONTINUOUS
 10
104.5760832475
 20
381.7434438403
 11
105.990290922
 21
382.559932148
  0
LINE
  5
2A1
100
AcDbEntity
  8
0
100
AcDbLine
 62
7
  6
CONTINUOUS
 10
169.4107898188
 20
417.6103565156
 11
351.8407514046
 21
522.9357152378
  0
LINE
  5
2A2
100
AcDbEntity
  8
0
100
AcDbLine
 62
7
  6
CONTINUOUS
 10
351.8407514046
 20
522.4458137875
 11
169.4107898188
 21
417.1204550653
  0
LINE
  5
2A3
100
AcDbEntity
  8
0
100
AcDbLine
 62
7
  6
CONTINUOUS
 10
190.574426798
 20
482.7298434462
 11
190.574426798
 21
483.0820334748
  0
LINE
  5
2A4
100
AcDbEntity
  8
0
100
AcDbLine
 62
7
  6
CONTINUOUS
 10
194.911492267
 20
483.0500916582
 11
194.911492267
 21
482.7845175765
  0
LINE
  5
2A5
100
AcDbEntity
  8
0
100
AcDbLine
 62
7
  6
CONTINUOUS
 10
196.0103205853
 20
324.0729430401
 11
196.0103205853
 21
321.5264935709
  0
LINE
  5
2A6
100
AcDbEntity
  8
0
100
AcDbLine
 62
7
  6
CONTINUOUS
 10
196.0103205853
 20
320.8912629012
 11
196.0103205853
 21
317.6705852497
  0
LINE
  5
2A7
100
AcDbEntity
  8
0
100
AcDbLine
 62
7
  6
CONTINUOUS
 10
196.1434416664
 20
252.2462504763
 11
196.1434416664
 21
254.9796336336
  0
LINE
  5
2A8
100
AcDbEntity
  8
0
100
AcDbLine
 62
7
  6
CONTINUOUS
 10
196.1434416664
 20
255.9642329666
 11
196.1434416664
 21
258.7031795661
  0
LINE
  5
2A9
100
AcDbEntity
  8
0
100
AcDbLine
 62
7
  6
CONTINUOUS
 10
196.7174244225
 20
324.481187194
 11
196.7174244225
 21
321.9347377248
  0
LINE
  5
2AA
100
AcDbEntity
  8
0
100
AcDbLine
 62
7
  6
CONTINUOUS
 10
196.7174244225
 20
321.2995070551
 11
196.7174244225
 21
318.0788294035
  0
LINE
  5
2AB
100
AcDbEntity
  8
0
100
AcDbLine
 62
7
  6
CONTINUOUS
 10
196.8505455036
 20
259.11142372
 11
196.8505455036
 21
256.3724771205
  0
LINE
  5
2AC
100
AcDbEntity
  8
0
100
AcDbLine
 62
7
  6
CONTINUOUS
 10
196.8505455036
 20
255.3878777874
 11
196.8505455036
 21
252.6544946302
  0
LINE
  5
2AD
100
AcDbEntity
  8
0
100
AcDbLine
 62
7
  6
CONTINUOUS
 10
197.2109017554
 20
323.359974181
 11
197.2109017554
 21
320.8333533901
  0
LINE
  5
2AE
100
AcDbEntity
  8
0
100
AcDbLine
 62
7
  6
CONTINUOUS
 10
197.2109017554
 20
320.1981227203
 11
197.2109017554
 21
316.9972737471
  0
LINE
  5
2AF
100
AcDbEntity
  8
0
100
AcDbLine
 62
7
  6
CONTINUOUS
 10
197.2109017554
 20
251.6770803768
 11
197.2109017554
 21
254.363349206
  0
LINE
  5
2B0
100
AcDbEntity
  8
0
100
AcDbLine
 62
7
  6
CONTINUOUS
 10
197.2109017554
 20
255.3479485391
 11
197.2109017554
 21
258.0397808106
  0
LINE
  5
2B1
100
AcDbEntity
  8
0
100
AcDbLine
 62
7
  6
CONTINUOUS
 10
105.4045311019
 20
378.675573104
 11
102.6468261367
 21
377.0834209039
  0
LINE
  5
2B2
100
AcDbEntity
  8
0
100
AcDbLine
 62
7
  6
CONTINUOUS
 10
104.1534509418
 20
377.1200928288
 11
104.8605547791
 21
377.5283369827
  0
LINE
  5
2B3
100
AcDbEntity
  8
0
100
AcDbLine
 62
7
  6
CONTINUOUS
 10
101.8184286904
 20
375.2717467913
 11
102.5255325276
 21
375.6799909451
  0
LINE
  5
2B4
100
AcDbEntity
  8
0
100
AcDbLine
 62
7
  6
CONTINUOUS
 10
105.733704721
 20
377.0447288198
 11
105.0266008838
 21
376.6364846659
  0
LINE
  5
2B5
100
AcDbEntity
  8
0
100
AcDbLine
 62
7
  6
CONTINUOUS
 10
104.8605547791
 20
375.3164950507
 11
104.1534509418
 21
374.9082508969
  0
LINE
  5
2B6
100
AcDbEntity
  8
0
100
AcDbLine
 62
7
  6
CONTINUOUS
 10
104.8605547791
 20
374.3318957177
 11
104.1534509418
 21
373.9236515638
  0
LINE
  5
2B7
100
AcDbEntity
  8
0
100
AcDbLine
 62
7
  6
CONTINUOUS
 10
105.733704721
 20
373.827793768
 11
105.0266008838
 21
373.4195496141
  0
LINE
  5
2B8
100
AcDbEntity
  8
0
100
AcDbLine
 62
7
  6
CONTINUOUS
 10
319.1851479989
 20
496.9334440465
 11
336.8480689401
 21
507.1310753349
  0
LINE
  5
2B9
100
AcDbEntity
  8
0
100
AcDbLine
 62
7
  6
CONTINUOUS
 10
107.3382687241
 20
373.0695370902
 11
108.0453725613
 21
373.4777812441
  0
LINE
  5
2BA
100
AcDbEntity
  8
0
100
AcDbLine
 62
7
  6
CONTINUOUS
 10
104.8605547791
 20
371.0964569401
 11
104.1534509418
 21
370.6882127862
  0
LINE
  5
2BB
100
AcDbEntity
  8
0
100
AcDbLine
 62
7
  6
CONTINUOUS
 10
108.1823095128
 20
372.4141231138
 11
107.4752056756
 21
372.0058789599
  0
LINE
  5
2BC
100
AcDbEntity
  8
0
100
AcDbLine
 62
7
  6
CONTINUOUS
 10
164.1120107109
 20
403.6880446552
 11
154.0835003879
 21
397.8981160819
  0
LINE
  5
2BD
100
AcDbEntity
  8
0
100
AcDbLine
 62
7
  6
CONTINUOUS
 10
109.4045131944
 20
371.7473595348
 11
106.6468082292
 21
370.1552073347
  0
LINE
  5
2BE
100
AcDbEntity
  8
0
100
AcDbLine
 62
7
  6
CONTINUOUS
 10
164.1120107109
 20
403.2798005013
 11
154.9468232351
 21
397.988308631
  0
LINE
  5
2BF
100
AcDbEntity
  8
0
100
AcDbLine
 62
7
  6
CONTINUOUS
 10
158.6655714245
 20
399.3188983223
 11
164.1120107109
 21
402.4633827403
  0
LINE
  5
2C0
100
AcDbEntity
  8
0
100
AcDbLine
 62
7
  6
CONTINUOUS
 10
199.3994699447
 20
318.9345808723
 11
197.2109017554
 21
320.1981227203
  0
LINE
  5
2C1
100
AcDbEntity
  8
0
100
AcDbLine
 62
7
  6
CONTINUOUS
 10
196.0103205853
 20
320.8912629012
 11
193.7426929595
 21
322.2004487036
  0
LINE
  5
2C2
100
AcDbEntity
  8
0
100
AcDbLine
 62
7
  6
CONTINUOUS
 10
101.8184286904
 20
375.2717467913
 11
104.1534509418
 21
373.9236515638
  0
LINE
  5
2C3
100
AcDbEntity
  8
0
100
AcDbLine
 62
7
  6
CONTINUOUS
 10
105.0266008838
 20
373.4195496141
 11
107.4752056756
 21
372.0058789599
  0
LINE
  5
2C4
100
AcDbEntity
  8
0
100
AcDbLine
 62
7
  6
CONTINUOUS
 10
199.342103929
 20
319.6029310773
 11
197.2109017554
 21
320.8333533901
  0
LINE
  5
2C5
100
AcDbEntity
  8
0
100
AcDbLine
 62
7
  6
CONTINUOUS
 10
196.0103205853
 20
321.5264935709
 11
193.8000589752
 21
322.802559838
  0
LINE
  5
2C6
100
AcDbEntity
  8
0
100
AcDbLine
 62
7
  6
CONTINUOUS
 10
102.5255325276
 20
375.6799909451
 11
104.8605547791
 21
374.3318957177
  0
LINE
  5
2C7
100
AcDbEntity
  8
0
100
AcDbLine
 62
7
  6
CONTINUOUS
 10
105.733704721
 20
373.827793768
 11
108.1823095128
 21
372.4141231138
  0
LINE
  5
2C8
100
AcDbEntity
  8
0
100
AcDbLine
 62
7
  6
CONTINUOUS
 10
196.1672906607
 20
321.6171197452
 11
196.7174244225
 21
321.2995070551
  0
LINE
  5
2C9
100
AcDbEntity
  8
0
100
AcDbLine
 62
7
  6
CONTINUOUS
 10
199.4990740043
 20
319.6935572516
 11
200.1065737819
 21
319.3428250262
  0
LINE
  5
2CA
100
AcDbEntity
  8
0
100
AcDbLine
 62
7
  6
CONTINUOUS
 10
101.9553656419
 20
376.1772873271
 11
104.1534509418
 21
374.9082508969
  0
LINE
  5
2CB
100
AcDbEntity
  8
0
100
AcDbLine
 62
7
  6
CONTINUOUS
 10
105.0266008838
 20
374.4041489472
 11
107.3382687241
 21
373.0695370902
  0
LINE
  5
2CC
100
AcDbEntity
  8
0
100
AcDbLine
 62
7
  6
CONTINUOUS
 10
202.1572253178
 20
325.4062197165
 11
104.5760832475
 21
381.7434438403
  0
LINE
  5
2CD
100
AcDbEntity
  8
0
100
AcDbLine
 62
7
  6
CONTINUOUS
 10
203.5714329922
 20
326.2227080242
 11
105.990290922
 21
382.559932148
  0
LINE
  5
2CE
100
AcDbEntity
  8
0
100
AcDbLine
 62
7
  6
CONTINUOUS
 10
206.745871753
 20
325.6060022885
 11
104.2149616066
 21
384.800911694
  0
LINE
  5
2CF
100
AcDbEntity
  8
0
100
AcDbLine
 62
7
  6
CONTINUOUS
 10
261.737909247
 20
245.0911979798
 11
262.6547273115
 21
243.5688051781
  0
LINE
  5
2D0
100
AcDbEntity
  8
0
100
AcDbLine
 62
7
  6
CONTINUOUS
 10
204.2785544932
 20
257.6365504568
 11
204.2785544932
 21
321.7319902015
  0
LINE
  5
2D1
100
AcDbEntity
  8
0
100
AcDbLine
 62
7
  6
CONTINUOUS
 10
205.6927621677
 20
258.4530387646
 11
205.6927621677
 21
322.5484785092
  0
LINE
  5
2D2
100
AcDbEntity
  8
0
100
AcDbLine
 62
7
  6
CONTINUOUS
 10
205.7214443325
 20
257.2450607954
 11
206.745871753
 21
325.6060022885
  0
LINE
  5
2D3
100
AcDbEntity
  8
0
100
AcDbLine
 62
7
  6
CONTINUOUS
 10
69.4114796986
 20
327.1473800595
 11
86.4279758259
 21
336.9718000353
  0
LINE
  5
2D4
100
AcDbEntity
  8
0
100
AcDbLine
 62
7
  6
CONTINUOUS
 10
162.0048860912
 20
378.8805764511
 11
163.3257641202
 21
379.6431811846
  0
LINE
  5
2D5
100
AcDbEntity
  8
0
100
AcDbLine
 62
7
  6
CONTINUOUS
 10
340.7540811403
 20
478.9107909204
 11
344.6015731096
 21
481.1321281849
  0
LINE
  5
2D6
100
AcDbEntity
  8
0
100
AcDbLine
 62
7
  6
CONTINUOUS
 10
342.1683250291
 20
478.0942953021
 11
344.6015731949
 21
479.4991233999
  0
LINE
  5
2D7
100
AcDbEntity
  8
0
100
AcDbLine
 62
7
  6
CONTINUOUS
 10
214.9146612223
 20
323.3821186476
 11
96.1202273976
 21
391.966565407
  0
LINE
  5
2D8
100
AcDbEntity
  8
0
100
AcDbLine
 62
7
  6
CONTINUOUS
 10
214.9282380192
 20
323.6349078942
 11
96.1338041962
 21
392.2193546526
  0
LINE
  5
2D9
100
AcDbEntity
  8
0
100
AcDbLine
 62
7
  6
CONTINUOUS
 10
223.3493481166
 20
214.1868341134
 11
223.3493481166
 21
210.2675765134
  0
LINE
  5
2DA
100
AcDbEntity
  8
0
100
AcDbLine
 62
7
  6
CONTINUOUS
 10
223.5614939876
 20
225.0871370398
 11
223.5614939876
 21
214.0643544085
  0
LINE
  5
2DB
100
AcDbEntity
  8
0
100
AcDbLine
 62
7
  6
CONTINUOUS
 10
224.97570755
 20
214.0643578079
 11
224.97570755
 21
225.0871404391
  0
LINE
  5
2DC
100
AcDbEntity
  8
0
100
AcDbLine
 62
7
  6
CONTINUOUS
 10
225.8382211333
 20
374.5980671756
 11
225.8382211333
 21
350.1029946617
  0
LINE
  5
2DD
100
AcDbEntity
  8
0
100
AcDbLine
 62
7
  6
CONTINUOUS
 10
227.7687838988
 20
207.7160717977
 11
227.7687838988
 21
203.633559712
  0
LINE
  5
2DE
100
AcDbEntity
  8
0
100
AcDbLine
 62
7
  6
CONTINUOUS
 10
231.6578873871
 20
205.4707476478
 11
231.6578873871
 21
201.3882355622
  0
LINE
  5
2DF
100
AcDbEntity
  8
0
100
AcDbLine
 62
7
  6
CONTINUOUS
 10
232.0114069221
 20
210.1655367209
 11
232.0114069221
 21
206.0830246353
  0
LINE
  5
2E0
100
AcDbEntity
  8
0
100
AcDbLine
 62
7
  6
CONTINUOUS
 10
214.9146612223
 20
323.3821186476
 11
213.6618930683
 21
239.7838415954
  0
LINE
  5
2E1
100
AcDbEntity
  8
0
100
AcDbLine
 62
7
  6
CONTINUOUS
 10
215.2330988419
 20
343.9785280236
 11
214.9282380199
 21
323.6349078939
  0
LINE
  5
2E2
100
AcDbEntity
  8
0
100
AcDbLine
 62
7
  6
CONTINUOUS
 10
154.110420898
 20
274.2225694347
 11
154.9790483754
 21
275.7091050164
  0
LINE
  5
2E3
100
AcDbEntity
  8
0
100
AcDbLine
 62
7
  6
CONTINUOUS
 10
78.6039179014
 20
320.2072804339
 11
69.4115680176
 21
314.9001064336
  0
LINE
  5
2E4
100
AcDbEntity
  8
0
100
AcDbLine
 62
7
  6
CONTINUOUS
 10
69.1186777428
 20
310.2400322294
 11
61.7747582567
 21
306.0000436465
  0
LINE
  5
2E5
100
AcDbEntity
  8
0
100
AcDbLine
 62
7
  6
CONTINUOUS
 10
68.6690604131
 20
304.4691510151
 11
64.4264373898
 21
302.0196860919
  0
LINE
  5
2E6
100
AcDbEntity
  8
0
100
AcDbLine
 62
7
  6
CONTINUOUS
 10
68.6690604131
 20
300.3866389295
 11
64.4264373898
 21
297.9371740062
  0
LINE
  5
2E7
100
AcDbEntity
  8
0
100
AcDbLine
 62
7
  6
CONTINUOUS
 10
71.7097660469
 20
301.7340070594
 11
68.3155408781
 21
299.774361942
  0
LINE
  5
2E8
100
AcDbEntity
  8
0
100
AcDbLine
 62
7
  6
CONTINUOUS
 10
361.3405812896
 20
467.9324996262
 11
365.6187061728
 21
470.4024614354
  0
LINE
  5
2E9
100
AcDbEntity
  8
0
100
AcDbLine
 62
7
  6
CONTINUOUS
 10
215.2330988419
 20
343.9785280236
 11
96.4386650169
 21
412.5629747832
  0
LINE
  5
2EA
100
AcDbEntity
  8
0
100
AcDbLine
 62
7
  6
CONTINUOUS
 10
160.3668456364
 20
379.0303049005
 11
159.3949261083
 21
379.5914302074
  0
LINE
  5
2EB
100
AcDbEntity
  8
0
100
AcDbLine
 62
7
  6
CONTINUOUS
 10
225.8382211333
 20
350.1029946617
 11
167.8552236713
 21
383.5787365324
  0
LINE
  5
2EC
100
AcDbEntity
  8
0
100
AcDbLine
 62
7
  6
CONTINUOUS
 10
107.0466367404
 20
418.6857963382
 11
140.5919222508
 21
399.3188548575
  0
LINE
  5
2ED
100
AcDbEntity
  8
0
100
AcDbLine
 62
7
  6
CONTINUOUS
 10
144.3105991528
 20
397.9883012859
 11
111.2892598182
 21
417.0527491443
  0
LINE
  5
2EE
100
AcDbEntity
  8
0
100
AcDbLine
 62
7
  6
CONTINUOUS
 10
145.173954945
 20
397.898094666
 11
111.656953973
 21
417.2487064302
  0
LINE
  5
2EF
100
AcDbEntity
  8
0
100
AcDbLine
 62
7
  6
CONTINUOUS
 10
169.0737102059
 20
464.9316506427
 11
172.6092588094
 21
458.8079347734
  0
LINE
  5
2F0
100
AcDbEntity
  8
0
100
AcDbLine
 62
7
  6
CONTINUOUS
 10
234.1680574337
 20
230.3943144395
 11
234.1680574337
 21
219.3715318082
  0
LINE
  5
2F1
100
AcDbEntity
  8
0
100
AcDbLine
 62
7
  6
CONTINUOUS
 10
234.3095488564
 20
203.9398448184
 11
234.3095488564
 21
199.8573327327
  0
LINE
  5
2F2
100
AcDbEntity
  8
0
100
AcDbLine
 62
7
  6
CONTINUOUS
 10
235.5822709961
 20
219.3715352076
 11
235.5822709961
 21
230.3943178388
  0
LINE
  5
2F3
100
AcDbEntity
  8
0
100
AcDbLine
 62
7
  6
CONTINUOUS
 10
238.5521895435
 20
199.8573429308
 11
238.5521895435
 21
203.9398550164
  0
LINE
  5
2F4
100
AcDbEntity
  8
0
100
AcDbLine
 62
7
  6
CONTINUOUS
 10
243.9118704603
 20
350.1030381055
 11
243.9118704603
 21
374.5981106193
  0
LINE
  5
2F5
100
AcDbEntity
  8
0
100
AcDbLine
 62
7
  6
CONTINUOUS
 10
244.774697423
 20
225.08718803
 11
244.774697423
 21
214.0644053988
  0
LINE
  5
2F6
100
AcDbEntity
  8
0
100
AcDbLine
 62
7
  6
CONTINUOUS
 10
246.1889109854
 20
214.0644087981
 11
246.1889109854
 21
225.0871914294
  0
LINE
  5
2F7
100
AcDbEntity
  8
0
100
AcDbLine
 62
7
  6
CONTINUOUS
 10
363.4619471227
 20
466.7077561987
 11
367.740072006
 21
469.177718008
  0
LINE
  5
2F8
100
AcDbEntity
  8
0
100
AcDbLine
 62
7
  6
CONTINUOUS
 10
105.4045311019
 20
313.3553797336
 11
102.6468261367
 21
311.7632275335
  0
LINE
  5
2F9
100
AcDbEntity
  8
0
100
AcDbLine
 62
7
  6
CONTINUOUS
 10
104.2407026774
 20
311.7657541566
 11
104.9478065146
 21
312.1739983105
  0
LINE
  5
2FA
100
AcDbEntity
  8
0
100
AcDbLine
 62
7
  6
CONTINUOUS
 10
105.733704721
 20
311.7245354494
 11
105.0266008838
 21
311.3162912956
  0
LINE
  5
2FB
100
AcDbEntity
  8
0
100
AcDbLine
 62
7
  6
CONTINUOUS
 10
101.8510635232
 20
309.4181319737
 11
102.5581673604
 21
309.8263761276
  0
LINE
  5
2FC
100
AcDbEntity
  8
0
100
AcDbLine
 62
7
  6
CONTINUOUS
 10
104.9478065146
 20
309.5344355375
 11
104.2407026774
 21
309.1261913836
  0
LINE
  5
2FD
100
AcDbEntity
  8
0
100
AcDbLine
 62
7
  6
CONTINUOUS
 10
104.9478065146
 20
308.4467485299
 11
104.2407026774
 21
308.0385043761
  0
LINE
  5
2FE
100
AcDbEntity
  8
0
100
AcDbLine
 62
7
  6
CONTINUOUS
 10
105.733704721
 20
307.9930202537
 11
105.0266008838
 21
307.5847760998
  0
LINE
  5
2FF
100
AcDbEntity
  8
0
100
AcDbLine
 62
7
  6
CONTINUOUS
 10
107.4283063742
 20
307.2858691649
 11
108.1354102114
 21
307.6941133188
  0
LINE
  5
300
100
AcDbEntity
  8
0
100
AcDbLine
 62
7
  6
CONTINUOUS
 10
104.9478065146
 20
305.7096615247
 11
104.2407026774
 21
305.3014173708
  0
LINE
  5
301
100
AcDbEntity
  8
0
100
AcDbLine
 62
7
  6
CONTINUOUS
 10
108.14967468
 20
306.5981909027
 11
107.4425708428
 21
306.1899467488
  0
LINE
  5
302
100
AcDbEntity
  8
0
100
AcDbLine
 62
7
  6
CONTINUOUS
 10
109.4045131944
 20
306.4271661645
 11
106.6468082292
 21
304.8350139644
  0
LINE
  5
303
100
AcDbEntity
  8
0
100
AcDbLine
 62
7
  6
CONTINUOUS
 10
398.2600289191
 20
471.675663217
 11
380.5971127244
 21
461.4780346689
  0
LINE
  5
304
100
AcDbEntity
  8
0
100
AcDbLine
 62
7
  6
CONTINUOUS
 10
347.12794842
 20
288.2629538449
 11
343.5923997943
 21
290.3041576175
  0
LINE
  5
305
100
AcDbEntity
  8
0
100
AcDbLine
 62
7
  6
CONTINUOUS
 10
347.12794842
 20
288.6712050535
 11
343.5862284712
 21
290.7159717605
  0
LINE
  5
306
100
AcDbEntity
  8
0
100
AcDbLine
 62
7
  6
CONTINUOUS
 10
350.2602318159
 20
292.7955210629
 11
349.7964327355
 21
293.0632895291
  0
LINE
  5
307
100
AcDbEntity
  8
0
100
AcDbLine
 62
7
  6
CONTINUOUS
 10
254.4623959139
 20
348.2359619086
 11
253.5975628217
 21
348.7352622315
  0
LINE
  5
308
100
AcDbEntity
  8
0
100
AcDbLine
 62
7
  6
CONTINUOUS
 10
105.7351905365
 20
434.1017114263
 11
106.6764633582
 21
433.5582796034
  0
LINE
  5
309
100
AcDbEntity
  8
0
100
AcDbLine
 62
7
  6
CONTINUOUS
 10
354.1008771339
 20
291.2819411086
 11
353.0681000307
 21
291.8782017579
  0
LINE
  5
30A
100
AcDbEntity
  8
0
100
AcDbLine
 62
7
  6
CONTINUOUS
 10
350.8697210545
 20
293.1474077383
 11
349.7964327355
 21
293.7670570199
  0
LINE
  5
30B
100
AcDbEntity
  8
0
100
AcDbLine
 62
7
  6
CONTINUOUS
 10
353.0681000307
 20
291.9909366842
 11
350.9673537603
 21
293.2037756708
  0
LINE
  5
30C
100
AcDbEntity
  8
0
100
AcDbLine
 62
7
  6
CONTINUOUS
 10
349.7964327355
 20
293.8797919462
 11
347.2209494559
 21
295.3667142723
  0
LINE
  5
30D
100
AcDbEntity
  8
0
100
AcDbLine
 62
7
  6
CONTINUOUS
 10
351.930403971
 20
292.9432872332
 11
350.7594829462
 21
293.6193035085
  0
LINE
  5
30E
100
AcDbEntity
  8
0
100
AcDbLine
 62
7
  6
CONTINUOUS
 10
354.1008771339
 20
292.5066947342
 11
351.930403971
 21
293.7597896503
  0
LINE
  5
30F
100
AcDbEntity
  8
0
100
AcDbLine
 62
7
  6
CONTINUOUS
 10
350.7594829462
 20
294.4358059257
 11
348.1142727742
 21
295.9629841812
  0
LINE
  5
310
100
AcDbEntity
  8
0
100
AcDbLine
 62
7
  6
CONTINUOUS
 10
225.8382211333
 20
374.5980671756
 11
167.8552236713
 21
408.0738090463
  0
LINE
  5
311
100
AcDbEntity
  8
0
100
AcDbLine
 62
7
  6
CONTINUOUS
 10
227.3938495752
 20
375.4962043141
 11
169.4108521131
 21
408.9719461848
  0
LINE
  5
312
100
AcDbEntity
  8
0
100
AcDbLine
 62
7
  6
CONTINUOUS
 10
129.1223816582
 20
432.4761919537
 11
164.1120107109
 21
412.2753772048
  0
LINE
  5
313
100
AcDbEntity
  8
0
100
AcDbLine
 62
7
  6
CONTINUOUS
 10
129.8294884394
 20
432.4761936534
 11
164.1120107109
 21
412.6836179594
  0
LINE
  5
314
100
AcDbEntity
  8
0
100
AcDbLine
 62
7
  6
CONTINUOUS
 10
254.8219444429
 20
323.6350037865
 11
254.5170810822
 21
343.9786224507
  0
LINE
  5
315
100
AcDbEntity
  8
0
100
AcDbLine
 62
7
  6
CONTINUOUS
 10
256.0882999391
 20
239.7839435759
 11
254.8355213536
 21
323.3822146056
  0
LINE
  5
316
100
AcDbEntity
  8
0
100
AcDbLine
 62
7
  6
CONTINUOUS
 10
258.7337680056
 20
241.7266732959
 11
258.7399393287
 21
241.3148591529
  0
LINE
  5
317
100
AcDbEntity
  8
0
100
AcDbLine
 62
7
  6
CONTINUOUS
 10
253.5975628217
 20
348.3668773501
 11
253.5975628217
 21
348.7352622315
  0
LINE
  5
318
100
AcDbEntity
  8
0
100
AcDbLine
 62
7
  6
CONTINUOUS
 10
257.742900289
 20
348.7955486403
 11
257.742900289
 21
348.4429981036
  0
LINE
  5
319
100
AcDbEntity
  8
0
100
AcDbLine
 62
7
  6
CONTINUOUS
 10
261.7377830998
 20
245.0911980652
 11
261.7377830998
 21
241.8251883967
  0
LINE
  5
31A
100
AcDbEntity
  8
0
100
AcDbLine
 62
7
  6
CONTINUOUS
 10
262.2754879544
 20
239.6819065889
 11
262.2754879544
 21
239.2736553803
  0
LINE
  5
31B
100
AcDbEntity
  8
0
100
AcDbLine
 62
7
  6
CONTINUOUS
 10
262.6547273115
 20
242.752302761
 11
262.6547273115
 21
243.5688051781
  0
LINE
  5
31C
100
AcDbEntity
  8
0
100
AcDbLine
 62
7
  6
CONTINUOUS
 10
263.233665756
 20
246.0720125893
 11
263.233665756
 21
246.9599800299
  0
LINE
  5
31D
100
AcDbEntity
  8
0
100
AcDbLine
 62
7
  6
CONTINUOUS
 10
263.654460894
 20
243.0403651683
 11
263.654460894
 21
242.2238627512
  0
LINE
  5
31E
100
AcDbEntity
  8
0
100
AcDbLine
 62
7
  6
CONTINUOUS
 10
265.112066324
 20
244.1710396326
 11
265.112066324
 21
244.9875420497
  0
LINE
  5
31F
100
AcDbEntity
  8
0
100
AcDbLine
 62
7
  6
CONTINUOUS
 10
265.8810796789
 20
244.6150270499
 11
265.8810796789
 21
245.431529467
  0
LINE
  5
320
100
AcDbEntity
  8
0
100
AcDbLine
 62
7
  6
CONTINUOUS
 10
266.8385996478
 20
244.0622151444
 11
266.8385996478
 21
244.8787175615
  0
LINE
  5
321
100
AcDbEntity
  8
0
100
AcDbLine
 62
7
  6
CONTINUOUS
 10
268.4186938935
 20
241.8537492949
 11
268.4186938935
 21
243.0785029206
  0
LINE
  5
322
100
AcDbEntity
  8
0
100
AcDbLine
 62
7
  6
CONTINUOUS
 10
268.6246548724
 20
247.0155238883
 11
268.6246548724
 21
246.1990214711
  0
LINE
  5
323
100
AcDbEntity
  8
0
100
AcDbLine
 62
7
  6
CONTINUOUS
 10
398.6755570891
 20
471.9404282382
 11
398.2600289191
 21
471.675663217
  0
LINE
  5
324
100
AcDbEntity
  8
0
100
AcDbLine
 62
7
  6
CONTINUOUS
 10
424.7861906508
 20
480.8215990015
 11
242.356229065
 21
375.4962402793
  0
LINE
  5
325
100
AcDbEntity
  8
0
100
AcDbLine
 62
7
  6
CONTINUOUS
 10
426.3418320461
 20
479.9234693416
 11
243.9118704603
 21
374.5981106193
  0
LINE
  5
326
100
AcDbEntity
  8
0
100
AcDbLine
 62
7
  6
CONTINUOUS
 10
164.1688426914
 20
413.875529006
 11
130.1830344701
 21
433.4968006387
  0
LINE
  5
327
100
AcDbEntity
  8
0
100
AcDbLine
 62
7
  6
CONTINUOUS
 10
151.7497633284
 20
429.4550823475
 11
169.2826888258
 21
419.3326720914
  0
LINE
  5
328
100
AcDbEntity
  8
0
100
AcDbLine
 62
7
  6
CONTINUOUS
 10
269.2246776175
 20
243.5011459682
 11
269.2246776175
 21
242.2763923425
  0
LINE
  5
329
100
AcDbEntity
  8
0
100
AcDbLine
 62
7
  6
CONTINUOUS
 10
270.2377830998
 20
245.0911980652
 11
270.2377830998
 21
241.8251883967
  0
LINE
  5
32A
100
AcDbEntity
  8
0
100
AcDbLine
 62
7
  6
CONTINUOUS
 10
275.4510787623
 20
531.7052876008
 11
275.4510787623
 21
532.0947954523
  0
LINE
  5
32B
100
AcDbEntity
  8
0
100
AcDbLine
 62
7
  6
CONTINUOUS
 10
279.8672818632
 20
532.099046868
 11
279.8672818632
 21
531.8040899998
  0
LINE
  5
32C
100
AcDbEntity
  8
0
100
AcDbLine
 62
7
  6
CONTINUOUS
 10
381.3712570482
 20
462.9409325273
 11
398.2683538997
 21
477.2409651267
  0
LINE
  5
32D
100
AcDbEntity
  8
0
100
AcDbLine
 62
7
  6
CONTINUOUS
 10
197.328795371
 20
325.6042750163
 11
194.5710904058
 21
324.0121228162
  0
LINE
  5
32E
100
AcDbEntity
  8
0
100
AcDbLine
 62
7
  6
CONTINUOUS
 10
196.0103205853
 20
324.0729430401
 11
196.7174244225
 21
324.481187194
  0
LINE
  5
32F
100
AcDbEntity
  8
0
100
AcDbLine
 62
7
  6
CONTINUOUS
 10
193.7426929595
 20
322.2004487036
 11
194.2928267214
 21
322.5180666832
  0
LINE
  5
330
100
AcDbEntity
  8
0
100
AcDbLine
 62
7
  6
CONTINUOUS
 10
197.9180055927
 20
323.7682183349
 11
197.2109017554
 21
323.359974181
  0
LINE
  5
331
100
AcDbEntity
  8
0
100
AcDbLine
 62
7
  6
CONTINUOUS
 10
426.3418320461
 20
455.4283968277
 11
243.9118704603
 21
350.1030381055
  0
LINE
  5
332
100
AcDbEntity
  8
0
100
AcDbLine
 62
7
  6
CONTINUOUS
 10
203.5714329922
 20
326.2227080242
 11
202.1572253178
 21
325.4062197165
  0
LINE
  5
333
100
AcDbEntity
  8
0
100
AcDbLine
 62
7
  6
CONTINUOUS
 10
196.7174244225
 20
321.9347377248
 11
196.0103205853
 21
321.5264935709
  0
LINE
  5
334
100
AcDbEntity
  8
0
100
AcDbLine
 62
7
  6
CONTINUOUS
 10
196.7174244225
 20
321.2995070551
 11
196.0103205853
 21
320.8912629012
  0
LINE
  5
335
100
AcDbEntity
  8
0
100
AcDbLine
 62
7
  6
CONTINUOUS
 10
197.7610355173
 20
320.5157406999
 11
197.2109017554
 21
320.1981227203
  0
LINE
  5
336
100
AcDbEntity
  8
0
100
AcDbLine
 62
7
  6
CONTINUOUS
 10
199.342103929
 20
319.6029310773
 11
200.0492077662
 21
320.0111752312
  0
LINE
  5
337
100
AcDbEntity
  8
0
100
AcDbLine
 62
7
  6
CONTINUOUS
 10
196.7174244225
 20
318.0788294035
 11
196.0103205853
 21
317.6705852497
  0
LINE
  5
338
100
AcDbEntity
  8
0
100
AcDbLine
 62
7
  6
CONTINUOUS
 10
200.1065737819
 20
319.3428250262
 11
199.3994699447
 21
318.9345808723
  0
LINE
  5
339
100
AcDbEntity
  8
0
100
AcDbLine
 62
7
  6
CONTINUOUS
 10
204.2785544932
 20
321.7319902015
 11
205.6927621677
 21
322.5484785092
  0
LINE
  5
33A
100
AcDbEntity
  8
0
100
AcDbLine
 62
7
  6
CONTINUOUS
 10
201.3287774635
 20
318.6760614472
 11
198.5710724983
 21
317.0839092471
  0
LINE
  5
33B
100
AcDbEntity
  8
0
100
AcDbLine
 62
7
  6
CONTINUOUS
 10
427.5277412248
 20
446.8202871302
 11
426.2080225206
 21
446.0583517292
  0
LINE
  5
33C
100
AcDbEntity
  8
0
100
AcDbLine
 62
7
  6
CONTINUOUS
 10
257.742900289
 20
348.7955486403
 11
256.5031015893
 21
348.0797548
  0
LINE
  5
33D
100
AcDbEntity
  8
0
100
AcDbLine
 62
7
  6
CONTINUOUS
 10
342.9057270102
 20
397.6187632121
 11
342.5697676899
 21
397.4247981659
  0
LINE
  5
33E
100
AcDbEntity
  8
0
100
AcDbLine
 62
7
  6
CONTINUOUS
 10
436.9498710838
 20
449.3056141497
 11
254.5170810822
 21
343.9786224507
  0
LINE
  5
33F
100
AcDbEntity
  8
0
100
AcDbLine
 62
7
  6
CONTINUOUS
 10
180.5964950786
 20
425.8646621863
 11
157.4065940261
 21
439.2530549155
  0
LINE
  5
340
100
AcDbEntity
  8
0
100
AcDbLine
 62
7
  6
CONTINUOUS
 10
163.0634718273
 20
447.2466972116
 11
180.0341052308
 21
437.4489191031
  0
LINE
  5
341
100
AcDbEntity
  8
0
100
AcDbLine
 62
7
  6
CONTINUOUS
 10
183.5696244168
 20
439.4901398724
 11
166.5989910133
 21
449.2879179809
  0
LINE
  5
342
100
AcDbEntity
  8
0
100
AcDbLine
 62
7
  6
CONTINUOUS
 10
147.0831686058
 20
274.4482677303
 11
149.1616661767
 21
275.6482816993
  0
LINE
  5
343
100
AcDbEntity
  8
0
100
AcDbLine
 62
7
  6
CONTINUOUS
 10
150.4013022427
 20
276.3639816436
 11
152.9129921852
 21
277.8140978519
  0
LINE
  5
344
100
AcDbEntity
  8
0
100
AcDbLine
 62
7
  6
CONTINUOUS
 10
152.9129921852
 20
276.9975954348
 11
150.4013022427
 21
275.5474792264
  0
LINE
  5
345
100
AcDbEntity
  8
0
100
AcDbLine
 62
7
  6
CONTINUOUS
 10
149.1616661767
 20
274.8317792822
 11
147.0831686058
 21
273.6317653132
  0
LINE
  5
346
100
AcDbEntity
  8
0
100
AcDbLine
 62
7
  6
CONTINUOUS
 10
148.3501317644
 20
273.6758495276
 11
150.4640963799
 21
274.8963402821
  0
LINE
  5
347
100
AcDbEntity
  8
0
100
AcDbLine
 62
7
  6
CONTINUOUS
 10
151.7037324459
 20
275.6120402263
 11
154.250889433
 21
277.0826332202
  0
LINE
  5
348
100
AcDbEntity
  8
0
100
AcDbLine
 62
7
  6
CONTINUOUS
 10
437.254734443
 20
428.9619954848
 11
254.8219444436
 21
323.6350037869
  0
LINE
  5
349
100
AcDbEntity
  8
0
100
AcDbLine
 62
7
  6
CONTINUOUS
 10
437.2683113546
 20
428.7092063043
 11
254.8355213536
 21
323.3822146056
  0
LINE
  5
34A
100
AcDbEntity
  8
0
100
AcDbLine
 62
7
  6
CONTINUOUS
 10
205.1330290121
 20
440.0307520976
 11
173.3163685401
 21
458.3996940249
  0
LINE
  5
34B
100
AcDbEntity
  8
0
100
AcDbLine
 62
7
  6
CONTINUOUS
 10
210.6342968223
 20
443.2068915897
 11
183.6118402362
 21
458.8079612305
  0
LINE
  5
34C
100
AcDbEntity
  8
0
100
AcDbLine
 62
7
  6
CONTINUOUS
 10
346.5905038804
 20
294.080496333
 11
347.5071877771
 21
292.5581036427
  0
LINE
  5
34D
100
AcDbEntity
  8
0
100
AcDbLine
 62
7
  6
CONTINUOUS
 10
154.4414830265
 20
270.2998314528
 11
158.1687861737
 21
272.2374529905
  0
LINE
  5
34E
100
AcDbEntity
  8
0
100
AcDbLine
 62
7
  6
CONTINUOUS
 10
158.1622934533
 20
271.8258265708
 11
154.4414830269
 21
269.8915802445
  0
LINE
  5
34F
100
AcDbEntity
  8
0
100
AcDbLine
 62
7
  6
CONTINUOUS
 10
217.705425728
 20
447.2893853977
 11
187.1473594218
 21
464.9316940831
  0
LINE
  5
350
100
AcDbEntity
  8
0
100
AcDbLine
 62
7
  6
CONTINUOUS
 10
431.9804088857
 20
337.2522523095
 11
428.44486026
 21
339.2934560821
  0
LINE
  5
351
100
AcDbEntity
  8
0
100
AcDbLine
 62
7
  6
CONTINUOUS
 10
431.9804088857
 20
337.660503518
 11
428.4386889369
 21
339.7052702251
  0
LINE
  5
352
100
AcDbEntity
  8
0
100
AcDbLine
 62
7
  6
CONTINUOUS
 10
338.4367990832
 20
397.3637492282
 11
338.4367990832
 21
397.7155842801
  0
LINE
  5
353
100
AcDbEntity
  8
0
100
AcDbLine
 62
7
  6
CONTINUOUS
 10
269.2246776175
 20
243.5011459682
 11
270.237462598
 21
245.0911977822
  0
LINE
  5
354
100
AcDbEntity
  8
0
100
AcDbLine
 62
7
  6
CONTINUOUS
 10
197.328795371
 20
260.284081646
 11
194.5710904058
 21
258.6919294459
  0
LINE
  5
355
100
AcDbEntity
  8
0
100
AcDbLine
 62
7
  6
CONTINUOUS
 10
196.1434416664
 20
258.7031795661
 11
196.8505455036
 21
259.11142372
  0
LINE
  5
356
100
AcDbEntity
  8
0
100
AcDbLine
 62
7
  6
CONTINUOUS
 10
193.7753277923
 20
256.3468338861
 11
194.4824316295
 21
256.7550780399
  0
LINE
  5
357
100
AcDbEntity
  8
0
100
AcDbLine
 62
7
  6
CONTINUOUS
 10
197.9180055927
 20
258.4480249645
 11
197.2109017554
 21
258.0397808106
  0
LINE
  5
358
100
AcDbEntity
  8
0
100
AcDbLine
 62
7
  6
CONTINUOUS
 10
196.8505455036
 20
256.3724771205
 11
196.1434416664
 21
255.9642329666
  0
LINE
  5
359
100
AcDbEntity
  8
0
100
AcDbLine
 62
7
  6
CONTINUOUS
 10
196.8505455036
 20
255.3878777874
 11
196.1434416664
 21
254.9796336336
  0
LINE
  5
35A
100
AcDbEntity
  8
0
100
AcDbLine
 62
7
  6
CONTINUOUS
 10
197.9180055927
 20
254.7715933599
 11
197.2109017554
 21
254.363349206
  0
LINE
  5
35B
100
AcDbEntity
  8
0
100
AcDbLine
 62
7
  6
CONTINUOUS
 10
205.6927621677
 20
258.4530387646
 11
204.2785544932
 21
257.6365504568
  0
LINE
  5
35C
100
AcDbEntity
  8
0
100
AcDbLine
 62
7
  6
CONTINUOUS
 10
196.8505455036
 20
252.6544946302
 11
196.1434416664
 21
252.2462504763
  0
LINE
  5
35D
100
AcDbEntity
  8
0
100
AcDbLine
 62
7
  6
CONTINUOUS
 10
199.367569754
 20
254.102823858
 11
200.0746735912
 21
254.5110680119
  0
LINE
  5
35E
100
AcDbEntity
  8
0
100
AcDbLine
 62
7
  6
CONTINUOUS
 10
200.0739389491
 20
253.5268928151
 11
199.3668351119
 21
253.1186486612
  0
LINE
  5
35F
100
AcDbEntity
  8
0
100
AcDbLine
 62
7
  6
CONTINUOUS
 10
201.3287774635
 20
253.3558680768
 11
198.5710724983
 21
251.7637158767
  0
LINE
  5
360
100
AcDbEntity
  8
0
100
AcDbLine
 62
7
  6
CONTINUOUS
 10
203.51808655
 20
253.6462863775
 11
202.1038788756
 21
252.8297980698
  0
LINE
  5
361
100
AcDbEntity
  8
0
100
AcDbLine
 62
7
  6
CONTINUOUS
 10
435.039201941
 20
341.8229008149
 11
434.6451281707
 21
342.0504142653
  0
LINE
  5
362
100
AcDbEntity
  8
0
100
AcDbLine
 62
7
  6
CONTINUOUS
 10
339.2806719583
 20
397.2283850704
 11
338.4367990832
 21
397.7155842801
  0
LINE
  5
363
100
AcDbEntity
  8
0
100
AcDbLine
 62
7
  6
CONTINUOUS
 10
190.574426798
 20
483.0820334748
 11
191.4947394025
 21
482.5507027651
  0
LINE
  5
364
100
AcDbEntity
  8
0
100
AcDbLine
 62
7
  6
CONTINUOUS
 10
437.9158969299
 20
340.9785801787
 11
435.7463238854
 21
342.2311554229
  0
LINE
  5
365
100
AcDbEntity
  8
0
100
AcDbLine
 62
7
  6
CONTINUOUS
 10
434.6451281707
 20
342.8669166824
 11
432.0705434271
 21
344.3533202502
  0
LINE
  5
366
100
AcDbEntity
  8
0
100
AcDbLine
 62
7
  6
CONTINUOUS
 10
439.2992376462
 20
340.5469311088
 11
433.4442489331
 21
343.9272339457
  0
LINE
  5
367
100
AcDbEntity
  8
0
100
AcDbLine
 62
7
  6
CONTINUOUS
 10
437.1248469965
 20
342.2105389443
 11
436.0236512818
 21
342.8463002038
  0
LINE
  5
368
100
AcDbEntity
  8
0
100
AcDbLine
 62
7
  6
CONTINUOUS
 10
439.2992376462
 20
341.7716847345
 11
437.1248469965
 21
343.0270413614
  0
LINE
  5
369
100
AcDbEntity
  8
0
100
AcDbLine
 62
7
  6
CONTINUOUS
 10
436.0236512818
 20
343.6628026209
 11
433.4442489331
 21
345.1519875714
  0
LINE
  5
36A
100
AcDbEntity
  8
0
100
AcDbLine
 62
7
  6
CONTINUOUS
 10
343.5862284712
 20
290.7159717605
 11
343.5923997943
 21
290.3041576175
  0
LINE
  5
36B
100
AcDbEntity
  8
0
100
AcDbLine
 62
7
  6
CONTINUOUS
 10
342.9057270102
 20
397.6187632121
 11
342.9057270102
 21
397.5232294462
  0
LINE
  5
36C
100
AcDbEntity
  8
0
100
AcDbLine
 62
7
  6
CONTINUOUS
 10
344.6015731096
 20
481.132128185
 11
344.6015731949
 21
479.4991233999
  0
LINE
  5
36D
100
AcDbEntity
  8
0
100
AcDbLine
 62
7
  6
CONTINUOUS
 10
346.5902435654
 20
294.0804965298
 11
346.5902435654
 21
290.8144868613
  0
LINE
  5
36E
100
AcDbEntity
  8
0
100
AcDbLine
 62
7
  6
CONTINUOUS
 10
347.12794842
 20
288.6712050535
 11
347.12794842
 21
288.2629538449
  0
LINE
  5
36F
100
AcDbEntity
  8
0
100
AcDbLine
 62
7
  6
CONTINUOUS
 10
347.5071877771
 20
291.7416012255
 11
347.5071877771
 21
292.5581036427
  0
LINE
  5
370
100
AcDbEntity
  8
0
100
AcDbLine
 62
7
  6
CONTINUOUS
 10
348.1142727742
 20
294.8509654818
 11
348.1142727742
 21
295.9629841812
  0
LINE
  5
371
100
AcDbEntity
  8
0
100
AcDbLine
 62
7
  6
CONTINUOUS
 10
348.7727199252
 20
291.9367107988
 11
348.7727199252
 21
291.1202083816
  0
LINE
  5
372
100
AcDbEntity
  8
0
100
AcDbLine
 62
7
  6
CONTINUOUS
 10
349.7964327355
 20
293.0632895291
 11
349.7964327355
 21
293.8797919462
  0
LINE
  5
373
100
AcDbEntity
  8
0
100
AcDbLine
 62
7
  6
CONTINUOUS
 10
349.8624471035
 20
479.4991360562
 11
349.8624472013
 21
481.1321408341
  0
LINE
  5
374
100
AcDbEntity
  8
0
100
AcDbLine
 62
7
  6
CONTINUOUS
 10
350.7594829462
 20
293.6193035085
 11
350.7594829462
 21
294.4358059257
  0
LINE
  5
375
100
AcDbEntity
  8
0
100
AcDbLine
 62
7
  6
CONTINUOUS
 10
351.8407514046
 20
522.9357152378
 11
351.8407514046
 21
522.4458137875
  0
LINE
  5
376
100
AcDbEntity
  8
0
100
AcDbLine
 62
7
  6
CONTINUOUS
 10
351.930403971
 20
292.9432872332
 11
351.930403971
 21
293.7597896503
  0
LINE
  5
377
100
AcDbEntity
  8
0
100
AcDbLine
 62
7
  6
CONTINUOUS
 10
353.0681000307
 20
290.7661830585
 11
353.0681000307
 21
291.9909366842
  0
LINE
  5
378
100
AcDbEntity
  8
0
100
AcDbLine
 62
7
  6
CONTINUOUS
 10
353.4771153381
 20
296.0048223529
 11
353.4771153381
 21
295.1883199357
  0
LINE
  5
379
100
AcDbEntity
  8
0
100
AcDbLine
 62
7
  6
CONTINUOUS
 10
354.1008771339
 20
292.5066947342
 11
354.1008771339
 21
291.2819411085
  0
LINE
  5
37A
100
AcDbEntity
  8
0
100
AcDbLine
 62
7
  6
CONTINUOUS
 10
355.0902435654
 20
294.0804965298
 11
355.0902435654
 21
290.8144868613
  0
LINE
  5
37B
100
AcDbEntity
  8
0
100
AcDbLine
 62
7
  6
CONTINUOUS
 10
464.2697831221
 20
345.1864396422
 11
471.6135966253
 21
340.9465828576
  0
LINE
  5
37C
100
AcDbEntity
  8
0
100
AcDbLine
 62
7
  6
CONTINUOUS
 10
454.7844605324
 20
356.950005539
 11
463.9768869593
 21
351.6428757302
  0
LINE
  5
37D
100
AcDbEntity
  8
0
100
AcDbLine
 62
7
  6
CONTINUOUS
 10
446.9603965824
 20
373.7143514117
 11
463.9767986403
 21
363.8901493561
  0
LINE
  5
37E
100
AcDbEntity
  8
0
100
AcDbLine
 62
7
  6
CONTINUOUS
 10
364.8322408392
 20
467.4988909224
 11
364.8322408392
 21
465.9166346502
  0
LINE
  5
37F
100
AcDbEntity
  8
0
100
AcDbLine
 62
7
  6
CONTINUOUS
 10
366.8031308944
 20
522.4458497527
 11
366.8031308944
 21
522.935751203
  0
LINE
  5
380
100
AcDbEntity
  8
0
100
AcDbLine
 62
7
  6
CONTINUOUS
 10
234.1680574337
 20
230.3943144395
 11
224.97570755
 21
225.0871404391
  0
LINE
  5
381
100
AcDbEntity
  8
0
100
AcDbLine
 62
7
  6
CONTINUOUS
 10
454.7844546445
 20
357.7664904474
 11
463.9768045282
 21
363.0736644477
  0
LINE
  5
382
100
AcDbEntity
  8
0
100
AcDbLine
 62
7
  6
CONTINUOUS
 10
431.4427040311
 20
341.4396287957
 11
428.4386889369
 21
339.7052702251
  0
LINE
  5
383
100
AcDbEntity
  8
0
100
AcDbLine
 62
7
  6
CONTINUOUS
 10
346.5902435654
 20
292.4503303311
 11
343.5862284712
 21
290.7159717605
  0
LINE
  5
384
100
AcDbEntity
  8
0
100
AcDbLine
 62
7
  6
CONTINUOUS
 10
261.7377830998
 20
243.4610318665
 11
258.7337680055
 21
241.7266732959
  0
LINE
  5
385
100
AcDbEntity
  8
0
100
AcDbLine
 62
7
  6
CONTINUOUS
 10
438.5210899402
 20
345.1109352747
 11
438.3268719164
 21
344.9988041157
  0
LINE
  5
386
100
AcDbEntity
  8
0
100
AcDbLine
 62
7
  6
CONTINUOUS
 10
428.44486026
 20
339.2934560821
 11
353.4744114507
 21
296.0095056511
  0
LINE
  5
387
100
AcDbEntity
  8
0
100
AcDbLine
 62
7
  6
CONTINUOUS
 10
343.5923997943
 20
290.3041576175
 11
268.621950985
 21
247.0202071865
  0
LINE
  5
388
100
AcDbEntity
  8
0
100
AcDbLine
 62
7
  6
CONTINUOUS
 10
258.7399393286
 20
241.3148591529
 11
256.0882999391
 21
239.7839435759
  0
LINE
  5
389
100
AcDbEntity
  8
0
100
AcDbLine
 62
7
  6
CONTINUOUS
 10
438.3295758037
 20
344.9941208174
 11
436.0236512818
 21
343.6628026209
  0
LINE
  5
38A
100
AcDbEntity
  8
0
100
AcDbLine
 62
7
  6
CONTINUOUS
 10
434.6451281707
 20
342.8669166824
 11
432.3596482428
 21
341.5474021072
  0
LINE
  5
38B
100
AcDbEntity
  8
0
100
AcDbLine
 62
7
  6
CONTINUOUS
 10
353.4771153381
 20
296.0048223529
 11
350.7594829462
 21
294.4358059257
  0
LINE
  5
38C
100
AcDbEntity
  8
0
100
AcDbLine
 62
7
  6
CONTINUOUS
 10
349.7964327355
 20
293.8797919462
 11
347.5071877771
 21
292.5581036427
  0
LINE
  5
38D
100
AcDbEntity
  8
0
100
AcDbLine
 62
7
  6
CONTINUOUS
 10
268.6246548724
 20
247.0155238883
 11
265.8810796789
 21
245.431529467
  0
LINE
  5
38E
100
AcDbEntity
  8
0
100
AcDbLine
 62
7
  6
CONTINUOUS
 10
265.112066324
 20
244.9875420497
 11
262.6547273115
 21
243.5688051781
  0
LINE
  5
38F
100
AcDbEntity
  8
0
100
AcDbLine
 62
7
  6
CONTINUOUS
 10
344.6015731096
 20
481.1321281849
 11
336.8574992631
 21
507.1365199019
  0
LINE
  5
390
100
AcDbEntity
  8
0
100
AcDbLine
 62
7
  6
CONTINUOUS
 10
346.4875915409
 20
507.1359258991
 11
349.8624472013
 21
481.1321408341
  0
LINE
  5
391
100
AcDbEntity
  8
0
100
AcDbLine
 62
7
  6
CONTINUOUS
 10
381.3712570482
 20
462.9409325273
 11
381.3712571032
 21
461.9249844665
  0
LINE
  5
392
100
AcDbEntity
  8
0
100
AcDbLine
 62
7
  6
CONTINUOUS
 10
438.3295758037
 20
344.1776184003
 11
436.0236512818
 21
342.8463002038
  0
LINE
  5
393
100
AcDbEntity
  8
0
100
AcDbLine
 62
7
  6
CONTINUOUS
 10
434.6451281707
 20
342.0504142653
 11
432.3596482428
 21
340.7308996901
  0
LINE
  5
394
100
AcDbEntity
  8
0
100
AcDbLine
 62
7
  6
CONTINUOUS
 10
353.477115338
 20
295.1883199357
 11
350.7594829462
 21
293.6193035085
  0
LINE
  5
395
100
AcDbEntity
  8
0
100
AcDbLine
 62
7
  6
CONTINUOUS
 10
349.7964327355
 20
293.0632895291
 11
347.5071877771
 21
291.7416012255
  0
LINE
  5
396
100
AcDbEntity
  8
0
100
AcDbLine
 62
7
  6
CONTINUOUS
 10
268.6246548724
 20
246.1990214711
 11
265.8810796789
 21
244.6150270499
  0
LINE
  5
397
100
AcDbEntity
  8
0
100
AcDbLine
 62
7
  6
CONTINUOUS
 10
265.112066324
 20
244.1710396326
 11
262.6547273115
 21
242.752302761
  0
LINE
  5
398
100
AcDbEntity
  8
0
100
AcDbLine
 62
7
  6
CONTINUOUS
 10
263.654460894
 20
243.0403651683
 11
266.0695862928
 21
244.4347301442
  0
LINE
  5
399
100
AcDbEntity
  8
0
100
AcDbLine
 62
7
  6
CONTINUOUS
 10
266.8385996478
 20
244.8787175615
 11
269.5399612276
 21
246.4383400871
  0
LINE
  5
39A
100
AcDbEntity
  8
0
100
AcDbLine
 62
7
  6
CONTINUOUS
 10
433.5365090165
 20
340.9553258292
 11
435.7463238854
 21
342.2311554229
  0
LINE
  5
39B
100
AcDbEntity
  8
0
100
AcDbLine
 62
7
  6
CONTINUOUS
 10
437.1248469965
 20
343.0270413614
 11
439.3551064594
 21
344.3146745765
  0
LINE
  5
39C
100
AcDbEntity
  8
0
100
AcDbLine
 62
7
  6
CONTINUOUS
 10
348.7727199252
 20
291.9367107988
 11
350.9673537603
 21
293.2037756708
  0
LINE
  5
39D
100
AcDbEntity
  8
0
100
AcDbLine
 62
7
  6
CONTINUOUS
 10
351.930403971
 20
293.7597896503
 11
354.5534252396
 21
295.2741826461
  0
LINE
  5
39E
100
AcDbEntity
  8
0
100
AcDbLine
 62
7
  6
CONTINUOUS
 10
234.1680574337
 20
219.3715318082
 11
224.97570755
 21
214.0643578079
  0
LINE
  5
39F
100
AcDbEntity
  8
0
100
AcDbLine
 62
7
  6
CONTINUOUS
 10
463.6234970564
 20
351.8469008701
 11
463.9768045282
 21
352.0508818164
  0
LINE
  5
3A0
100
AcDbEntity
  8
0
100
AcDbLine
 62
7
  6
CONTINUOUS
 10
463.9768928472
 20
350.8263908218
 11
246.1889109854
 21
225.0871914294
  0
LINE
  5
3A1
100
AcDbEntity
  8
0
100
AcDbLine
 62
7
  6
CONTINUOUS
 10
237.3501308436
 20
218.3508839389
 11
223.3493481166
 21
210.2675765134
  0
LINE
  5
3A2
100
AcDbEntity
  8
0
100
AcDbLine
 62
7
  6
CONTINUOUS
 10
232.0114069221
 20
210.1655367209
 11
227.7687838988
 21
207.7160717977
  0
LINE
  5
3A3
100
AcDbEntity
  8
0
100
AcDbLine
 62
7
  6
CONTINUOUS
 10
232.0114069221
 20
206.0830246353
 11
227.7687838988
 21
203.633559712
  0
LINE
  5
3A4
100
AcDbEntity
  8
0
100
AcDbLine
 62
7
  6
CONTINUOUS
 10
463.9768928472
 20
339.8036081906
 11
246.1889109854
 21
214.0644087981
  0
LINE
  5
3A5
100
AcDbEntity
  8
0
100
AcDbLine
 62
7
  6
CONTINUOUS
 10
464.2950498304
 20
339.7830742715
 11
461.3885769317
 21
338.1050313776
  0
LINE
  5
3A6
100
AcDbEntity
  8
0
100
AcDbLine
 62
7
  6
CONTINUOUS
 10
235.9005104104
 20
207.9202125711
 11
231.6578873871
 21
205.4707476478
  0
LINE
  5
3A7
100
AcDbEntity
  8
0
100
AcDbLine
 62
7
  6
CONTINUOUS
 10
319.1863246573
 20
491.3626592327
 11
318.0128146687
 21
492.2709660874
  0
LINE
  5
3A8
100
AcDbEntity
  8
0
100
AcDbLine
 62
7
  6
CONTINUOUS
 10
319.1757180042
 20
496.927999669
 11
327.7443297954
 21
486.4218044396
  0
LINE
  5
3A9
100
AcDbEntity
  8
0
100
AcDbLine
 62
7
  6
CONTINUOUS
 10
431.4429671633
 20
343.0697947962
 11
432.3596482428
 21
341.5474021072
  0
LINE
  5
3AA
100
AcDbEntity
  8
0
100
AcDbLine
 62
7
  6
CONTINUOUS
 10
471.6136142891
 20
338.4971281325
 11
238.5521895435
 21
203.9398550164
  0
LINE
  5
3AB
100
AcDbEntity
  8
0
100
AcDbLine
 62
7
  6
CONTINUOUS
 10
471.6136142891
 20
334.4146160468
 11
238.5521895435
 21
199.8573429308
  0
LINE
  5
3AC
100
AcDbEntity
  8
0
100
AcDbLine
 62
7
  6
CONTINUOUS
 10
370.9480911466
 20
461.4786654827
 11
319.1863246573
 21
491.3626592327
  0
LINE
  5
3AD
100
AcDbEntity
  8
0
100
AcDbLine
 62
7
  6
CONTINUOUS
 10
374.2876463459
 20
460.4576772338
 11
342.9538743238
 21
478.5478296915
  0
LINE
  5
3AE
100
AcDbEntity
  8
0
100
AcDbLine
 62
7
  6
CONTINUOUS
 10
349.8624471035
 20
479.4991360562
 11
380.8368625946
 21
461.6164534948
  0
LINE
  5
3AF
100
AcDbEntity
  8
0
100
AcDbLine
 62
7
  6
CONTINUOUS
 10
349.8624472013
 20
481.1321408341
 11
381.3712570482
 21
462.9409325273
  0
LINE
  5
3B0
100
AcDbEntity
  8
0
100
AcDbLine
 62
7
  6
CONTINUOUS
 10
424.2101602946
 20
446.2106426444
 11
423.3134510475
 21
446.7283462576
  0
LINE
  5
3B1
100
AcDbEntity
  8
0
100
AcDbLine
 62
7
  6
CONTINUOUS
 10
275.4510787623
 20
532.0947954523
 11
276.4242277389
 21
531.5329603391
  0
LINE
  5
3B2
100
AcDbEntity
  8
0
100
AcDbLine
 62
7
  6
CONTINUOUS
 10
454.7844605324
 20
356.950005539
 11
454.4915860625
 21
357.3582496928
  0
LINE
  5
3B3
100
AcDbEntity
  8
0
100
AcDbLine
 62
7
  6
CONTINUOUS
 10
428.4386889369
 20
339.7052702251
 11
428.44486026
 21
339.2934560821
  0
LINE
  5
3B4
100
AcDbEntity
  8
0
100
AcDbLine
 62
7
  6
CONTINUOUS
 10
423.3134510475
 20
446.3391933829
 11
423.3134510475
 21
446.7283462576
  0
LINE
  5
3B5
100
AcDbEntity
  8
0
100
AcDbLine
 62
7
  6
CONTINUOUS
 10
424.7861283565
 20
489.4600093323
 11
424.7861283565
 21
488.970107882
  0
LINE
  5
3B6
100
AcDbEntity
  8
0
100
AcDbLine
 62
7
  6
CONTINUOUS
 10
426.3418320461
 20
479.9234693416
 11
426.3418320461
 21
455.4283968277
  0
LINE
  5
3B7
100
AcDbEntity
  8
0
100
AcDbLine
 62
7
  6
CONTINUOUS
 10
427.5277412248
 20
446.8202871302
 11
427.5277412248
 21
446.4450104521
  0
LINE
  5
3B8
100
AcDbEntity
  8
0
100
AcDbLine
 62
7
  6
CONTINUOUS
 10
430.0849697587
 20
460.6457136704
 11
430.0849697587
 21
485.1407861843
  0
LINE
  5
3B9
100
AcDbEntity
  8
0
100
AcDbLine
 62
7
  6
CONTINUOUS
 10
454.4915860625
 20
357.3582496928
 11
454.7844546445
 21
357.7664904474
  0
LINE
  5
3BA
100
AcDbEntity
  8
0
100
AcDbLine
 62
7
  6
CONTINUOUS
 10
346.4970892774
 20
507.1304425024
 11
398.2588557711
 21
477.2464487498
  0
LINE
  5
3BB
100
AcDbEntity
  8
0
100
AcDbLine
 62
7
  6
CONTINUOUS
 10
464.2697614292
 20
351.2346315763
 11
463.9768869593
 21
351.6428757302
  0
LINE
  5
3BC
100
AcDbEntity
  8
0
100
AcDbLine
 62
7
  6
CONTINUOUS
 10
464.2696731102
 20
363.4819052022
 11
463.9767986403
 21
363.8901493561
  0
LINE
  5
3BD
100
AcDbEntity
  8
0
100
AcDbLine
 62
7
  6
CONTINUOUS
 10
445.0836525876
 20
460.8436524303
 11
445.5147598516
 21
440.679114922
  0
LINE
  5
3BE
100
AcDbEntity
  8
0
100
AcDbLine
 62
7
  6
CONTINUOUS
 10
445.5339589605
 20
440.4343010152
 11
447.3055131021
 21
357.5719302826
  0
LINE
  5
3BF
100
AcDbEntity
  8
0
100
AcDbLine
 62
7
  6
CONTINUOUS
 10
436.9498710838
 20
449.3056141497
 11
437.2547344437
 21
428.9619954852
  0
LINE
  5
3C0
100
AcDbEntity
  8
0
100
AcDbLine
 62
7
  6
CONTINUOUS
 10
437.2683113546
 20
428.7092063043
 11
438.5210899403
 21
345.1109352747
  0
LINE
  5
3C1
100
AcDbEntity
  8
0
100
AcDbLine
 62
7
  6
CONTINUOUS
 10
431.4427040311
 20
343.0697949944
 11
431.4427040311
 21
339.8037853259
  0
LINE
  5
3C2
100
AcDbEntity
  8
0
100
AcDbLine
 62
7
  6
CONTINUOUS
 10
431.9804088857
 20
337.660503518
 11
431.9804088857
 21
337.2522523095
  0
LINE
  5
3C3
100
AcDbEntity
  8
0
100
AcDbLine
 62
7
  6
CONTINUOUS
 10
432.3596482428
 20
340.7308996901
 11
432.3596482428
 21
341.5474021072
  0
LINE
  5
3C4
100
AcDbEntity
  8
0
100
AcDbLine
 62
7
  6
CONTINUOUS
 10
433.4442489331
 20
343.9272339457
 11
433.4442489331
 21
345.1519875714
  0
LINE
  5
3C5
100
AcDbEntity
  8
0
100
AcDbLine
 62
7
  6
CONTINUOUS
 10
433.5365090165
 20
340.9553258292
 11
433.5365090165
 21
340.1388234121
  0
LINE
  5
3C6
100
AcDbEntity
  8
0
100
AcDbLine
 62
7
  6
CONTINUOUS
 10
434.6451281707
 20
342.0504142653
 11
434.6451281707
 21
342.8669166824
  0
LINE
  5
3C7
100
AcDbEntity
  8
0
100
AcDbLine
 62
7
  6
CONTINUOUS
 10
436.0236512818
 20
342.8463002038
 11
436.0236512818
 21
343.6628026209
  0
LINE
  5
3C8
100
AcDbEntity
  8
0
100
AcDbLine
 62
7
  6
CONTINUOUS
 10
437.1248469965
 20
342.2105389443
 11
437.1248469965
 21
343.0270413614
  0
LINE
  5
3C9
100
AcDbEntity
  8
0
100
AcDbLine
 62
7
  6
CONTINUOUS
 10
437.9158969299
 20
339.753826553
 11
437.9158969299
 21
340.9785801787
  0
LINE
  5
3CA
100
AcDbEntity
  8
0
100
AcDbLine
 62
7
  6
CONTINUOUS
 10
438.3295758037
 20
344.9941208174
 11
438.3295758037
 21
344.1776184003
  0
LINE
  5
3CB
100
AcDbEntity
  8
0
100
AcDbLine
 62
7
  6
CONTINUOUS
 10
439.2992376462
 20
341.7716847345
 11
439.2992376462
 21
340.5469311088
  0
LINE
  5
3CC
100
AcDbEntity
  8
0
100
AcDbLine
 62
7
  6
CONTINUOUS
 10
439.9427040311
 20
343.0697949944
 11
439.9427040311
 21
339.8037853259
  0
LINE
  5
3CD
100
AcDbEntity
  8
0
100
AcDbLine
 62
7
  6
CONTINUOUS
 10
439.2992376462
 20
341.7716847345
 11
439.9426703476
 21
343.069794986
  0
LINE
  5
3CE
100
AcDbEntity
  8
0
100
AcDbLine
 62
7
  6
CONTINUOUS
 10
463.9768045282
 20
363.0736644477
 11
464.2696731102
 21
363.4819052022
  0
LINE
  5
3CF
100
AcDbEntity
  8
0
100
AcDbLine
 62
7
  6
CONTINUOUS
 10
464.2696731102
 20
352.459122571
 11
463.9768045282
 21
352.0508818164
  0
LINE
  5
3D0
100
AcDbEntity
  8
0
100
AcDbLine
 62
7
  6
CONTINUOUS
 10
463.9768928472
 20
350.8263908218
 11
464.2697614292
 21
351.2346315763
  0
LINE
  5
3D1
100
AcDbEntity
  8
0
100
AcDbLine
 62
7
  6
CONTINUOUS
 10
464.2697614292
 20
340.2118489451
 11
463.9768928472
 21
339.8036081906
  0
LINE
  5
3D2
100
AcDbEntity
  8
0
100
AcDbLine
 62
7
  6
CONTINUOUS
 10
318.155273704
 20
540.5703543914
 11
348.7147752284
 21
522.9272171011
  0
LINE
  5
3D3
100
AcDbEntity
  8
0
100
AcDbLine
 62
7
  6
CONTINUOUS
 10
430.0849697587
 20
475.9491761703
 11
436.949707529
 21
471.9859076318
  0
LINE
  5
3D4
100
AcDbEntity
  8
0
100
AcDbLine
 62
7
  6
CONTINUOUS
 10
424.7861283565
 20
488.970107882
 11
366.8031308944
 21
522.4458497527
  0
LINE
  5
3D5
100
AcDbEntity
  8
0
100
AcDbLine
 62
7
  6
CONTINUOUS
 10
366.8031308944
 20
522.935751203
 11
424.7861283565
 21
489.4600093323
  0
LINE
  5
3D6
100
AcDbEntity
  8
0
100
AcDbLine
 62
7
  6
CONTINUOUS
 10
461.3885769317
 20
338.1050313776
 11
461.7793263809
 21
336.8232948922
  0
LINE
  5
3D7
100
AcDbEntity
  8
0
100
AcDbLine
 62
7
  6
CONTINUOUS
 10
454.7844546445
 20
356.950005539
 11
454.7844546445
 21
357.7664904474
  0
LINE
  5
3D8
100
AcDbEntity
  8
0
100
AcDbLine
 62
7
  6
CONTINUOUS
 10
461.3885769317
 20
338.1050313776
 11
461.3885769317
 21
335.7614190997
  0
LINE
  5
3D9
100
AcDbEntity
  8
0
100
AcDbLine
 62
7
  6
CONTINUOUS
 10
463.9768045282
 20
363.0736644477
 11
463.9768045282
 21
352.0508818164
  0
LINE
  5
3DA
100
AcDbEntity
  8
0
100
AcDbLine
 62
7
  6
CONTINUOUS
 10
463.9768928472
 20
350.8263908218
 11
463.9768928472
 21
339.8036081906
  0
LINE
  5
3DB
100
AcDbEntity
  8
0
100
AcDbLine
 62
7
  6
CONTINUOUS
 10
464.2696948031
 20
352.459122571
 11
464.2696948031
 21
363.4819052022
  0
LINE
  5
3DC
100
AcDbEntity
  8
0
100
AcDbLine
 62
7
  6
CONTINUOUS
 10
464.2697831221
 20
351.2346315763
 11
464.2697831221
 21
340.2118489451
  0
LINE
  5
3DD
100
AcDbEntity
  8
0
100
AcDbLine
 62
7
  6
CONTINUOUS
 10
368.3587593363
 20
523.8338883415
 11
426.3417567983
 21
490.3581464708
  0
LINE
  5
3DE
100
AcDbEntity
  8
0
100
AcDbLine
 62
7
  6
CONTINUOUS
 10
471.6136142891
 20
338.4971281325
 11
471.6136142891
 21
334.4146160468
  0
LINE
  5
3DF
100
AcDbEntity
  8
0
100
AcDbLine
 62
7
  6
CONTINUOUS
 10
472.4922851137
 20
335.6393383104
 11
472.4922851137
 21
339.721850396
  0
ARC
  5
3E0
100
AcDbEntity
  8
0
100
AcDbCircle
 62
7
  6
CONTINUOUS
 10
146.9742770647
 20
313.9578386693
 40
19.0754
100
AcDbArc
 50
159.7533381751
 51
260.2463656371
  0
ARC
  5
3E1
100
AcDbEntity
  8
0
100
AcDbCircle
 62
7
  6
CONTINUOUS
 10
174.5515563455
 20
298.036449243
 40
19.0754
100
AcDbArc
 50
159.7533381751
 51
260.2463656371
  0
ARC
  5
3E2
100
AcDbEntity
  8
0
100
AcDbCircle
 62
7
  6
CONTINUOUS
 10
160.4093618425
 20
334.3705977244
 40
19.0754
100
AcDbArc
 50
159.7533381751
 51
260.2463656371
  0
ARC
  5
3E3
100
AcDbEntity
  8
0
100
AcDbCircle
 62
7
  6
CONTINUOUS
 10
190.1079702987
 20
313.9584763661
 40
19.0754
100
AcDbArc
 50
159.7533381751
 51
260.2463656371
  0
ARC
  5
3E4
100
AcDbEntity
  8
0
100
AcDbCircle
 62
7
  6
CONTINUOUS
 10
192.8301967409
 20
284.0949149691
 40
13.0486929825
100
AcDbArc
 50
153.0508926974
 51
266.9551009038
  0
ARC
  5
3E5
100
AcDbEntity
  8
0
100
AcDbCircle
 62
7
  6
CONTINUOUS
 10
201.8797290443
 20
258.069437884
 40
5.9514101519
100
AcDbArc
 50
253.4793370786
 51
258.4003864538
  0
ARC
  5
3E6
100
AcDbEntity
  8
0
100
AcDbCircle
 62
7
  6
CONTINUOUS
 10
150.0103957836
 20
272.2104628736
 40
4.6156490979
100
AcDbArc
 50
113.710969938
 51
116.420162328
  0
ARC
  5
3E7
100
AcDbEntity
  8
0
100
AcDbCircle
 62
7
  6
CONTINUOUS
 10
107.647510053
 20
309.3336054157
 40
4.5190008321
100
AcDbArc
 50
233.3152584604
 51
234.546558708
  0
ARC
  5
3E8
100
AcDbEntity
  8
0
100
AcDbCircle
 62
7
  6
CONTINUOUS
 10
198.9472737778
 20
257.3068299442
 40
4.498804905
100
AcDbArc
 50
184.755612838
 51
187.0447261229
  0
ARC
  5
3E9
100
AcDbEntity
  8
0
100
AcDbCircle
 62
7
  6
CONTINUOUS
 10
151.522753741
 20
272.7712459921
 40
4.4457720801
100
AcDbArc
 50
62.2151915808
 51
64.7511483164
  0
ARC
  5
3EA
100
AcDbEntity
  8
0
100
AcDbCircle
 62
7
  6
CONTINUOUS
 10
106.9302446298
 20
310.3683086072
 40
4.4055363422
100
AcDbArc
 50
183.3282055167
 51
187.0659479587
  0
ARC
  5
3EB
100
AcDbEntity
  8
0
100
AcDbCircle
 62
7
  6
CONTINUOUS
 10
201.6996044307
 20
256.1660138593
 40
4.0306578459
100
AcDbArc
 50
273.6105894164
 51
278.7086732853
  0
ARC
  5
3EC
100
AcDbEntity
  8
0
100
AcDbCircle
 62
7
  6
CONTINUOUS
 10
201.8070248118
 20
255.6512207414
 40
3.5060190951
100
AcDbArc
 50
300.0563706149
 51
310.7784924014
  0
ARC
  5
3ED
100
AcDbEntity
  8
0
100
AcDbCircle
 62
7
  6
CONTINUOUS
 10
70.1925393357
 20
301.7787466495
 40
3.0924362381
100
AcDbArc
 50
111.7672493715
 51
116.774282066
  0
ARC
  5
3EE
100
AcDbEntity
  8
0
100
AcDbCircle
 62
7
  6
CONTINUOUS
 10
70.0131865073
 20
302.1382246849
 40
2.6907048359
100
AcDbArc
 50
116.8128765125
 51
119.9698515389
  0
ARC
  5
3EF
100
AcDbEntity
  8
0
100
AcDbCircle
 62
7
  6
CONTINUOUS
 10
147.9035334318
 20
275.7086766564
 40
1.4243564059
100
AcDbArc
 50
173.3744941835
 51
179.9827670543
  0
ARC
  5
3F0
100
AcDbEntity
  8
0
100
AcDbCircle
 62
7
  6
CONTINUOUS
 10
109.2764161574
 20
414.7545446879
 40
26.313063341
100
AcDbArc
 50
239.6327644741
 51
240.0008621841
  0
ARC
  5
3F1
100
AcDbEntity
  8
0
100
AcDbCircle
 62
7
  6
CONTINUOUS
 10
130.7107533864
 20
348.2506997458
 40
19.0754
100
AcDbArc
 50
159.7533381751
 51
260.2463656371
  0
ARC
  5
3F2
100
AcDbEntity
  8
0
100
AcDbCircle
 62
7
  6
CONTINUOUS
 10
97.2676213101
 20
403.4898047486
 40
9.4153212606
100
AcDbArc
 50
177.4038593423
 51
177.8763850976
  0
ARC
  5
3F3
100
AcDbEntity
  8
0
100
AcDbCircle
 62
7
  6
CONTINUOUS
 10
97.2550743801
 20
403.4902580181
 40
9.4027661517
100
AcDbArc
 50
177.8763121234
 51
178.7720795126
  0
ARC
  5
3F4
100
AcDbEntity
  8
0
100
AcDbCircle
 62
7
  6
CONTINUOUS
 10
97.2563344946
 20
403.7354712637
 40
9.3848227709
100
AcDbArc
 50
178.7721700032
 51
179.3726258592
  0
ARC
  5
3F5
100
AcDbEntity
  8
0
100
AcDbCircle
 62
7
  6
CONTINUOUS
 10
97.2487409477
 20
403.735555321
 40
9.3772287588
100
AcDbArc
 50
179.3726313982
 51
180.0831401328
  0
ARC
  5
3F6
100
AcDbEntity
  8
0
100
AcDbCircle
 62
7
  6
CONTINUOUS
 10
148.6325242571
 20
403.9879070543
 40
7.0046604224
100
AcDbArc
 50
243.8323116889
 51
247.7134274944
  0
ARC
  5
3F7
100
AcDbEntity
  8
0
100
AcDbCircle
 62
7
  6
CONTINUOUS
 10
150.9090727158
 20
403.4095818454
 40
6.3602866215
100
AcDbArc
 50
296.1673867375
 51
299.9405639247
  0
ARC
  5
3F8
100
AcDbEntity
  8
0
100
AcDbCircle
 62
7
  6
CONTINUOUS
 10
148.2879515717
 20
403.2962560976
 40
6.2319436642
100
AcDbArc
 50
240.0209669315
 51
243.8712804555
  0
ARC
  5
3F9
100
AcDbEntity
  8
0
100
AcDbCircle
 62
7
  6
CONTINUOUS
 10
114.2117454017
 20
422.1300230707
 40
5.8582960415
100
AcDbArc
 50
234.2627952912
 51
240.0752123916
  0
ARC
  5
3FA
100
AcDbEntity
  8
0
100
AcDbCircle
 62
7
  6
CONTINUOUS
 10
107.7020560947
 20
374.7286320072
 40
4.6115968433
100
AcDbArc
 50
231.963431202
 51
234.5318107088
  0
ARC
  5
3FB
100
AcDbEntity
  8
0
100
AcDbCircle
 62
7
  6
CONTINUOUS
 10
106.1178859426
 20
375.6624120534
 40
3.5923964252
100
AcDbArc
 50
177.0757896876
 51
179.7196299608
  0
ARC
  5
3FC
100
AcDbEntity
  8
0
100
AcDbCircle
 62
7
  6
CONTINUOUS
 10
113.001540054
 20
420.3825205116
 40
3.3412167832
100
AcDbArc
 50
217.951890926
 51
220.5574619495
  0
ARC
  5
3FD
100
AcDbEntity
  8
0
100
AcDbCircle
 62
7
  6
CONTINUOUS
 10
112.2901568799
 20
418.3090343128
 40
3.0476044207
100
AcDbArc
 50
148.2027756433
 51
149.1074545571
  0
ARC
  5
3FE
100
AcDbEntity
  8
0
100
AcDbCircle
 62
7
  6
CONTINUOUS
 10
112.1300808405
 20
418.4018606062
 40
2.8625794458
100
AcDbArc
 50
149.0568036461
 51
155.1065113
  0
ARC
  5
3FF
100
AcDbEntity
  8
0
100
AcDbCircle
 62
7
  6
CONTINUOUS
 10
111.9153048336
 20
418.5958988322
 40
2.1035729204
100
AcDbArc
 50
180.0002140372
 51
181.909006721
  0
ARC
  5
400
100
AcDbEntity
  8
0
100
AcDbCircle
 62
7
  6
CONTINUOUS
 10
129.1223845802
 20
430.9232336293
 40
1.7220450457
100
AcDbArc
 50
88.7078766023
 51
91.2923518116
  0
ARC
  5
401
100
AcDbEntity
  8
0
100
AcDbCircle
 62
7
  6
CONTINUOUS
 10
435.1580200801
 20
339.153366672
 40
5.0721613038
100
AcDbArc
 50
109.7476361485
 51
114.2999631919
  0
ARC
  5
402
100
AcDbEntity
  8
0
100
AcDbCircle
 62
7
  6
CONTINUOUS
 10
462.3427229669
 20
333.7824258473
 40
4.6282510308
100
AcDbArc
 50
92.6503371411
 51
98.0843554901
  0
ARC
  5
403
100
AcDbEntity
  8
0
100
AcDbCircle
 62
7
  6
CONTINUOUS
 10
266.7743733169
 20
242.1413434174
 40
4.4596292472
100
AcDbArc
 50
61.6275818344
 51
65.487243743
  0
ARC
  5
404
100
AcDbEntity
  8
0
100
AcDbCircle
 62
7
  6
CONTINUOUS
 10
462.2945470151
 20
334.1080989004
 40
4.2990398771
100
AcDbArc
 50
98.0590665703
 51
103.3884856272
  0
ARC
  5
405
100
AcDbEntity
  8
0
100
AcDbCircle
 62
7
  6
CONTINUOUS
 10
462.1898530825
 20
334.5504267878
 40
3.8444912969
100
AcDbArc
 50
103.3970324051
 51
108.2820256695
  0
ARC
  5
406
100
AcDbEntity
  8
0
100
AcDbCircle
 62
7
  6
CONTINUOUS
 10
351.9255181284
 20
291.6697342064
 40
3.8432004876
100
AcDbArc
 50
58.0535742093
 51
59.2533560739
  0
ARC
  5
407
100
AcDbEntity
  8
0
100
AcDbCircle
 62
7
  6
CONTINUOUS
 10
267.1119363143
 20
245.3951542192
 40
3.7670082901
100
AcDbArc
 50
299.957137805
 51
304.1148714333
  0
ARC
  5
408
100
AcDbEntity
  8
0
100
AcDbCircle
 62
7
  6
CONTINUOUS
 10
351.9777345834
 20
294.3626240371
 40
3.7414357666
100
AcDbArc
 50
299.9470967614
 51
304.5738028661
  0
ARC
  5
409
100
AcDbEntity
  8
0
100
AcDbCircle
 62
7
  6
CONTINUOUS
 10
348.0361795543
 20
294.078530756
 40
1.4458824654
100
AcDbArc
 50
167.6636668131
 51
179.9221097818
  0
ARC
  5
40A
100
AcDbEntity
  8
0
100
AcDbCircle
 62
7
  6
CONTINUOUS
 10
432.888001898
 20
343.0678923675
 40
1.4452441386
100
AcDbArc
 50
167.8161805807
 51
179.9245788528
  0
ARC
  5
40B
100
AcDbEntity
  8
0
100
AcDbCircle
 62
7
  6
CONTINUOUS
 10
424.1121316918
 20
451.4967903458
 40
26.312716503
100
AcDbArc
 50
299.9995509654
 51
300.3676616322
  0
ARC
  5
40C
100
AcDbEntity
  8
0
100
AcDbCircle
 62
7
  6
CONTINUOUS
 10
436.1207681623
 20
440.2323508583
 40
9.4153043354
100
AcDbArc
 50
2.1235980437
 51
2.596126004
  0
ARC
  5
40D
100
AcDbEntity
  8
0
100
AcDbCircle
 62
7
  6
CONTINUOUS
 10
436.1333164817
 20
440.2328041743
 40
9.4027478361
100
AcDbArc
 50
1.2279154653
 51
2.1236710257
  0
ARC
  5
40E
100
AcDbEntity
  8
0
100
AcDbCircle
 62
7
  6
CONTINUOUS
 10
436.1320317179
 20
440.4780157657
 40
9.3848291042
100
AcDbArc
 50
0.6273627301
 51
1.2278318378
  0
ARC
  5
40F
100
AcDbEntity
  8
0
100
AcDbCircle
 62
7
  6
CONTINUOUS
 10
436.1396269368
 20
440.4780998305
 40
9.3772334202
100
AcDbArc
 50
359.9166774437
 51
0.6273572481
  0
SPLINE
  5
410
100
AcDbEntity
  8
0
100
AcDbSpline
 62
7
  6
CONTINUOUS
 70
0
 71
3
 72
23
 73
19
 74
0
 42
0.0000001
 43
0.0000001
 44
0.0000000001
 40
0.0
 40
0.0
 40
0.0
 40
0.0
 40
0.0474275931
 40
0.0922040823
 40
0.1366910573
 40
0.1833287145
 40
0.2340310664
 40
0.2898964834
 40
0.3512395325
 40
0.4177495644
 40
0.4886536211
 40
0.5628514199
 40
0.6390261781
 40
0.7157388762
 40
0.7915202828
 40
0.8649570919
 40
0.934791288
 40
1.0
 40
1.0
 40
1.0
 40
1.0
 10
192.1370649544
 20
271.0646585802
 30
0.0
 10
192.5445992656
 20
271.0428455441
 30
0.0
 10
193.3468077919
 20
271.0909836072
 30
0.0
 10
194.4719206952
 20
271.4864991777
 30
0.0
 10
195.4244779415
 20
272.1946334583
 30
0.0
 10
196.1668049892
 20
273.1816622774
 30
0.0
 10
196.6824850342
 20
274.4068650565
 30
0.0
 10
196.9653892053
 20
275.8319459228
 30
0.0
 10
197.0128619621
 20
277.418161786
 30
0.0
 10
196.8258090151
 20
279.1229748045
 30
0.0
 10
196.4101891638
 20
280.8998645568
 30
0.0
 10
195.7778418776
 20
282.6995299964
 30
0.0
 10
194.9466182734
 20
284.4715161882
 30
0.0
 10
193.9398816448
 20
286.1658061537
 30
0.0
 10
192.786385561
 20
287.7347601289
 30
0.0
 10
191.5180292258
 20
289.13404616
 30
0.0
 10
190.1712092157
 20
290.3247875313
 30
0.0
 10
189.2080921347
 20
290.982598078
 30
0.0
 10
188.72214054
 20
291.2631560149
 30
0.0
  0
SPLINE
  5
411
100
AcDbEntity
  8
0
100
AcDbSpline
 62
7
  6
CONTINUOUS
 70
0
 71
3
 72
15
 73
11
 74
0
 42
0.0000001
 43
0.0000001
 44
0.0000000001
 40
0.0
 40
0.0
 40
0.0
 40
0.0
 40
0.1518236333
 40
0.2920188813
 40
0.4211847364
 40
0.5410639987
 40
0.6546923407
 40
0.7661378966
 40
0.8798889979
 40
1.0
 40
1.0
 40
1.0
 40
1.0
 10
188.72214054
 20
291.2631560149
 30
0.0
 10
188.3427549646
 20
291.4821894238
 30
0.0
 10
187.5868482144
 20
291.8609065083
 30
0.0
 10
186.4292251021
 20
292.2459789129
 30
0.0
 10
185.3128670057
 20
292.4175462774
 30
0.0
 10
184.2595372569
 20
292.3675212741
 30
0.0
 10
183.292786129
 20
292.092943976
 30
0.0
 10
182.4384898972
 20
291.5964191015
 30
0.0
 10
181.7205026739
 20
290.8921925583
 30
0.0
 10
181.3555056447
 20
290.3175120088
 30
0.0
 10
181.1984793671
 20
290.0085563367
 30
0.0
  0
SPLINE
  5
412
100
AcDbEntity
  8
0
100
AcDbSpline
 62
7
  6
CONTINUOUS
 70
0
 71
3
 72
26
 73
22
 74
0
 42
0.0000001
 43
0.0000001
 44
0.0000000001
 40
0.0
 40
0.0
 40
0.0
 40
0.0
 40
0.049771491
 40
0.073183568
 40
0.0959147167
 40
0.1182729593
 40
0.1405937613
 40
0.1632153436
 40
0.1864539794
 40
0.2357284966
 40
0.2900518843
 40
0.3500336307
 40
0.4155291006
 40
0.4858320629
 40
0.5598385555
 40
0.6361800203
 40
0.7133359455
 40
0.7897348087
 40
0.8638526361
 40
0.9343111525
 40
1.0
 40
1.0
 40
1.0
 40
1.0
 10
129.0775326084
 20
320.5591023465
 30
0.0
 10
129.2894099424
 20
321.1335194452
 30
0.0
 10
129.6930249874
 20
321.951625542
 30
0.0
 10
130.4199607362
 20
322.8848604691
 30
0.0
 10
131.0291749852
 20
323.4715609742
 30
0.0
 10
131.7082779447
 20
323.9529017806
 30
0.0
 10
132.4514992083
 20
324.3248003616
 30
0.0
 10
133.2524023172
 20
324.5840672066
 30
0.0
 10
134.4095891148
 20
324.7810498836
 30
0.0
 10
135.9867188346
 20
324.7205388624
 30
0.0
 10
137.9418325109
 20
324.1923861888
 30
0.0
 10
139.9464624091
 20
323.2340312633
 30
0.0
 10
141.9447615047
 20
321.8762015821
 30
0.0
 10
143.8804608523
 20
320.1597745001
 30
0.0
 10
145.696876846
 20
318.1356626481
 30
0.0
 10
147.3401167877
 20
315.8642795581
 30
0.0
 10
148.7609890084
 20
313.4136386442
 30
0.0
 10
149.9168553223
 20
310.8573185863
 30
0.0
 10
150.7730406305
 20
308.2716396534
 30
0.0
 10
151.3039777545
 20
305.7344176848
 30
0.0
 10
151.4353254882
 20
304.0582570657
 30
0.0
 10
151.4353254882
 20
303.2502074732
 30
0.0
  0
SPLINE
  5
413
100
AcDbEntity
  8
0
100
AcDbSpline
 62
7
  6
CONTINUOUS
 70
0
 71
3
 72
15
 73
11
 74
0
 42
0.0000001
 43
0.0000001
 44
0.0000000001
 40
0.0
 40
0.0
 40
0.0
 40
0.0
 40
0.151228102
 40
0.2899517767
 40
0.4170065328
 40
0.5347061083
 40
0.6469266071
 40
0.7586475459
 40
0.8749590593
 40
1.0
 40
1.0
 40
1.0
 40
1.0
 10
151.4353254882
 20
303.2502074732
 30
0.0
 10
151.4353254882
 20
302.5950581305
 30
0.0
 10
151.3553705631
 20
301.3364660387
 30
0.0
 10
150.9602288134
 20
299.5650128763
 30
0.0
 10
150.2993209374
 20
298.0282259101
 30
0.0
 10
149.3806463265
 20
296.7656964491
 30
0.0
 10
148.2213237786
 20
295.8175456015
 30
0.0
 10
146.8547996931
 20
295.2184865188
 30
0.0
 10
145.3279759637
 20
294.9844148473
 30
0.0
 10
144.2765440528
 20
295.0663991258
 30
0.0
 10
143.7426733815
 20
295.1581739828
 30
0.0
  0
SPLINE
  5
414
100
AcDbEntity
  8
0
100
AcDbSpline
 62
7
  6
CONTINUOUS
 70
0
 71
3
 72
26
 73
22
 74
0
 42
0.0000001
 43
0.0000001
 44
0.0000000001
 40
0.0
 40
0.0
 40
0.0
 40
0.0
 40
0.049771491
 40
0.073183568
 40
0.0959147167
 40
0.1182729593
 40
0.1405937613
 40
0.1632153436
 40
0.1864539794
 40
0.2357284966
 40
0.2900518843
 40
0.3500336307
 40
0.4155291006
 40
0.4858320629
 40
0.5598385555
 40
0.6361800203
 40
0.7133359455
 40
0.7897348087
 40
0.8638526361
 40
0.9343111525
 40
1.0
 40
1.0
 40
1.0
 40
1.0
 10
112.81400893
 20
354.8519634229
 30
0.0
 10
113.025886264
 20
355.4263805216
 30
0.0
 10
113.429501309
 20
356.2444866184
 30
0.0
 10
114.1564370578
 20
357.1777215456
 30
0.0
 10
114.7656513068
 20
357.7644220507
 30
0.0
 10
115.4447542663
 20
358.2457628571
 30
0.0
 10
116.1879755299
 20
358.617661438
 30
0.0
 10
116.9888786389
 20
358.876928283
 30
0.0
 10
118.1460654364
 20
359.07391096
 30
0.0
 10
119.7231951562
 20
359.0133999388
 30
0.0
 10
121.6783088325
 20
358.4852472652
 30
0.0
 10
123.6829387308
 20
357.5268923397
 30
0.0
 10
125.6812378264
 20
356.1690626585
 30
0.0
 10
127.6169371739
 20
354.4526355765
 30
0.0
 10
129.4333531676
 20
352.4285237245
 30
0.0
 10
131.0765931093
 20
350.1571406345
 30
0.0
 10
132.49746533
 20
347.7064997207
 30
0.0
 10
133.6533316439
 20
345.1501796627
 30
0.0
 10
134.5095169521
 20
342.5645007298
 30
0.0
 10
135.0404540761
 20
340.0272787612
 30
0.0
 10
135.1718018099
 20
338.3511181421
 30
0.0
 10
135.1718018099
 20
337.5430685497
 30
0.0
  0
SPLINE
  5
415
100
AcDbEntity
  8
0
100
AcDbSpline
 62
7
  6
CONTINUOUS
 70
0
 71
3
 72
15
 73
11
 74
0
 42
0.0000001
 43
0.0000001
 44
0.0000000001
 40
0.0
 40
0.0
 40
0.0
 40
0.0
 40
0.151228102
 40
0.2899517767
 40
0.4170065328
 40
0.5347061083
 40
0.6469266071
 40
0.7586475459
 40
0.8749590593
 40
1.0
 40
1.0
 40
1.0
 40
1.0
 10
135.1718018099
 20
337.5430685497
 30
0.0
 10
135.1718018099
 20
336.8879192069
 30
0.0
 10
135.0918468847
 20
335.6293271151
 30
0.0
 10
134.696705135
 20
333.8578739527
 30
0.0
 10
134.035797259
 20
332.3210869865
 30
0.0
 10
133.1171226481
 20
331.0585575255
 30
0.0
 10
131.9578001003
 20
330.1104066779
 30
0.0
 10
130.5912760147
 20
329.5113475952
 30
0.0
 10
129.0644522853
 20
329.2772759237
 30
0.0
 10
128.0130203744
 20
329.3592602022
 30
0.0
 10
127.4791497031
 20
329.4510350592
 30
0.0
  0
SPLINE
  5
416
100
AcDbEntity
  8
0
100
AcDbSpline
 62
7
  6
CONTINUOUS
 70
0
 71
3
 72
26
 73
22
 74
0
 42
0.0000001
 43
0.0000001
 44
0.0000000001
 40
0.0
 40
0.0
 40
0.0
 40
0.0
 40
0.049771491
 40
0.073183568
 40
0.0959147167
 40
0.1182729593
 40
0.1405937613
 40
0.1632153436
 40
0.1864539794
 40
0.2357284966
 40
0.2900518843
 40
0.3500336307
 40
0.4155291006
 40
0.4858320629
 40
0.5598385555
 40
0.6361800203
 40
0.7133359455
 40
0.7897348087
 40
0.8638526361
 40
0.9343111525
 40
1.0
 40
1.0
 40
1.0
 40
1.0
 10
156.6548118891
 20
304.6377129202
 30
0.0
 10
156.8666892231
 20
305.2121300189
 30
0.0
 10
157.2703042682
 20
306.0302361157
 30
0.0
 10
157.9972400169
 20
306.9634710428
 30
0.0
 10
158.6064542659
 20
307.5501715479
 30
0.0
 10
159.2855572254
 20
308.0315123543
 30
0.0
 10
160.028778489
 20
308.4034109353
 30
0.0
 10
160.829681598
 20
308.6626777803
 30
0.0
 10
161.9868683955
 20
308.8596604573
 30
0.0
 10
163.5639981154
 20
308.7991494361
 30
0.0
 10
165.5191117916
 20
308.2709967625
 30
0.0
 10
167.5237416899
 20
307.312641837
 30
0.0
 10
169.5220407855
 20
305.9548121558
 30
0.0
 10
171.457740133
 20
304.2383850738
 30
0.0
 10
173.2741561267
 20
302.2142732218
 30
0.0
 10
174.9173960684
 20
299.9428901318
 30
0.0
 10
176.3382682891
 20
297.4922492179
 30
0.0
 10
177.494134603
 20
294.93592916
 30
0.0
 10
178.3503199113
 20
292.3502502271
 30
0.0
 10
178.8812570352
 20
289.8130282585
 30
0.0
 10
179.012604769
 20
288.1368676394
 30
0.0
 10
179.012604769
 20
287.328818047
 30
0.0
  0
SPLINE
  5
417
100
AcDbEntity
  8
0
100
AcDbSpline
 62
7
  6
CONTINUOUS
 70
0
 71
3
 72
15
 73
11
 74
0
 42
0.0000001
 43
0.0000001
 44
0.0000000001
 40
0.0
 40
0.0
 40
0.0
 40
0.0
 40
0.151228102
 40
0.2899517767
 40
0.4170065328
 40
0.5347061083
 40
0.6469266071
 40
0.7586475459
 40
0.8749590593
 40
1.0
 40
1.0
 40
1.0
 40
1.0
 10
179.012604769
 20
287.328818047
 30
0.0
 10
179.012604769
 20
286.6736687042
 30
0.0
 10
178.9326498438
 20
285.4150766124
 30
0.0
 10
178.5375080941
 20
283.64362345
 30
0.0
 10
177.8766002181
 20
282.1068364838
 30
0.0
 10
176.9579256073
 20
280.8443070228
 30
0.0
 10
175.7986030594
 20
279.8961561752
 30
0.0
 10
174.4320789738
 20
279.2970970925
 30
0.0
 10
172.9052552444
 20
279.063025421
 30
0.0
 10
171.8538233335
 20
279.1450096995
 30
0.0
 10
171.3199526622
 20
279.2367845565
 30
0.0
  0
SPLINE
  5
418
100
AcDbEntity
  8
0
100
AcDbSpline
 62
7
  6
CONTINUOUS
 70
0
 71
3
 72
26
 73
22
 74
0
 42
0.0000001
 43
0.0000001
 44
0.0000000001
 40
0.0
 40
0.0
 40
0.0
 40
0.0
 40
0.049771491
 40
0.073183568
 40
0.0959147167
 40
0.1182729593
 40
0.1405937613
 40
0.1632153436
 40
0.1864539794
 40
0.2357284966
 40
0.2900518843
 40
0.3500336307
 40
0.4155291006
 40
0.4858320629
 40
0.5598385555
 40
0.6361800203
 40
0.7133359455
 40
0.7897348087
 40
0.8638526361
 40
0.9343111525
 40
1.0
 40
1.0
 40
1.0
 40
1.0
 10
142.5126173862
 20
340.9718614016
 30
0.0
 10
142.7244947202
 20
341.5462785003
 30
0.0
 10
143.1281097652
 20
342.3643845971
 30
0.0
 10
143.855045514
 20
343.2976195242
 30
0.0
 10
144.464259763
 20
343.8843200293
 30
0.0
 10
145.1433627224
 20
344.3656608357
 30
0.0
 10
145.886583986
 20
344.7375594167
 30
0.0
 10
146.687487095
 20
344.9968262617
 30
0.0
 10
147.8446738926
 20
345.1938089387
 30
0.0
 10
149.4218036124
 20
345.1332979175
 30
0.0
 10
151.3769172887
 20
344.6051452439
 30
0.0
 10
153.3815471869
 20
343.6467903184
 30
0.0
 10
155.3798462825
 20
342.2889606372
 30
0.0
 10
157.3155456301
 20
340.5725335552
 30
0.0
 10
159.1319616237
 20
338.5484217032
 30
0.0
 10
160.7752015655
 20
336.2770386132
 30
0.0
 10
162.1960737862
 20
333.8263976993
 30
0.0
 10
163.3519401001
 20
331.2700776414
 30
0.0
 10
164.2081254083
 20
328.6843987085
 30
0.0
 10
164.7390625323
 20
326.1471767398
 30
0.0
 10
164.870410266
 20
324.4710161207
 30
0.0
 10
164.870410266
 20
323.6629665283
 30
0.0
  0
SPLINE
  5
419
100
AcDbEntity
  8
0
100
AcDbSpline
 62
7
  6
CONTINUOUS
 70
0
 71
3
 72
15
 73
11
 74
0
 42
0.0000001
 43
0.0000001
 44
0.0000000001
 40
0.0
 40
0.0
 40
0.0
 40
0.0
 40
0.151228102
 40
0.2899517767
 40
0.4170065328
 40
0.5347061083
 40
0.6469266071
 40
0.7586475459
 40
0.8749590593
 40
1.0
 40
1.0
 40
1.0
 40
1.0
 10
164.870410266
 20
323.6629665283
 30
0.0
 10
164.870410266
 20
323.0078171856
 30
0.0
 10
164.7904553408
 20
321.7492250938
 30
0.0
 10
164.3953135912
 20
319.9777719313
 30
0.0
 10
163.7344057152
 20
318.4409849652
 30
0.0
 10
162.8157311043
 20
317.1784555041
 30
0.0
 10
161.6564085564
 20
316.2303046566
 30
0.0
 10
160.2898844709
 20
315.6312455738
 30
0.0
 10
158.7630607415
 20
315.3971739024
 30
0.0
 10
157.7116288306
 20
315.4791581809
 30
0.0
 10
157.1777581592
 20
315.5709330379
 30
0.0
  0
SPLINE
  5
41A
100
AcDbEntity
  8
0
100
AcDbSpline
 62
7
  6
CONTINUOUS
 70
0
 71
3
 72
26
 73
22
 74
0
 42
0.0000001
 43
0.0000001
 44
0.0000000001
 40
0.0
 40
0.0
 40
0.0
 40
0.0
 40
0.049771491
 40
0.073183568
 40
0.0959147167
 40
0.1182729593
 40
0.1405937613
 40
0.1632153436
 40
0.1864539794
 40
0.2357284966
 40
0.2900518843
 40
0.3500336307
 40
0.4155291006
 40
0.4858320629
 40
0.5598385555
 40
0.6361800203
 40
0.7133359455
 40
0.7897348087
 40
0.8638526361
 40
0.9343111525
 40
1.0
 40
1.0
 40
1.0
 40
1.0
 10
172.2112258423
 20
320.5597400432
 30
0.0
 10
172.4231031763
 20
321.1341571419
 30
0.0
 10
172.8267182214
 20
321.9522632387
 30
0.0
 10
173.5536539701
 20
322.8854981658
 30
0.0
 10
174.1628682192
 20
323.472198671
 30
0.0
 10
174.8419711786
 20
323.9535394773
 30
0.0
 10
175.5851924422
 20
324.3254380583
 30
0.0
 10
176.3860955512
 20
324.5847049033
 30
0.0
 10
177.5432823487
 20
324.7816875803
 30
0.0
 10
179.1204120686
 20
324.7211765591
 30
0.0
 10
181.0755257449
 20
324.1930238855
 30
0.0
 10
183.0801556431
 20
323.23466896
 30
0.0
 10
185.0784547387
 20
321.8768392788
 30
0.0
 10
187.0141540862
 20
320.1604121968
 30
0.0
 10
188.8305700799
 20
318.1363003448
 30
0.0
 10
190.4738100217
 20
315.8649172548
 30
0.0
 10
191.8946822424
 20
313.414276341
 30
0.0
 10
193.0505485562
 20
310.857956283
 30
0.0
 10
193.9067338645
 20
308.2722773501
 30
0.0
 10
194.4376709884
 20
305.7350553815
 30
0.0
 10
194.5690187222
 20
304.0588947624
 30
0.0
 10
194.5690187222
 20
303.25084517
 30
0.0
  0
SPLINE
  5
41B
100
AcDbEntity
  8
0
100
AcDbSpline
 62
7
  6
CONTINUOUS
 70
0
 71
3
 72
15
 73
11
 74
0
 42
0.0000001
 43
0.0000001
 44
0.0000000001
 40
0.0
 40
0.0
 40
0.0
 40
0.0
 40
0.151228102
 40
0.2899517767
 40
0.4170065328
 40
0.5347061083
 40
0.6469266071
 40
0.7586475459
 40
0.8749590593
 40
1.0
 40
1.0
 40
1.0
 40
1.0
 10
194.5690187222
 20
303.25084517
 30
0.0
 10
194.5690187222
 20
302.5956958272
 30
0.0
 10
194.489063797
 20
301.3371037354
 30
0.0
 10
194.0939220473
 20
299.565650573
 30
0.0
 10
193.4330141713
 20
298.0288636068
 30
0.0
 10
192.5143395605
 20
296.7663341458
 30
0.0
 10
191.3550170126
 20
295.8181832982
 30
0.0
 10
189.988492927
 20
295.2191242155
 30
0.0
 10
188.4616691977
 20
294.985052544
 30
0.0
 10
187.4102372868
 20
295.0670368225
 30
0.0
 10
186.8763666154
 20
295.1588116795
 30
0.0
  0
SPLINE
  5
41C
100
AcDbEntity
  8
0
100
AcDbSpline
 62
7
  6
CONTINUOUS
 70
0
 71
3
 72
11
 73
7
 74
0
 42
0.0000001
 43
0.0000001
 44
0.0000000001
 40
0.0
 40
0.0
 40
0.0
 40
0.0
 40
0.2898106296
 40
0.5490476628
 40
0.7822298124
 40
1.0
 40
1.0
 40
1.0
 40
1.0
 10
111.656916879
 20
422.3925613531
 30
0.0
 10
111.3803766582
 20
422.2329017352
 30
0.0
 10
110.8787622276
 20
421.8876276041
 30
0.0
 10
110.2795944499
 20
421.2574789764
 30
0.0
 10
109.9002843255
 20
420.5608206059
 30
0.0
 10
109.8117319138
 20
420.0605892879
 30
0.0
 10
109.8117319132
 20
419.8206445996
 30
0.0
  0
SPLINE
  5
41D
100
AcDbEntity
  8
0
100
AcDbSpline
 62
7
  6
CONTINUOUS
 70
0
 71
3
 72
9
 73
5
 74
0
 42
0.0000001
 43
0.0000001
 44
0.0000000001
 40
0.0
 40
0.0
 40
0.0
 40
0.0
 40
0.4805342522
 40
1.0
 40
1.0
 40
1.0
 40
1.0
 10
109.8117319132
 20
419.8206445996
 30
0.0
 10
109.8117319127
 20
419.5618834155
 30
0.0
 10
109.9156187355
 20
419.0197082701
 30
0.0
 10
110.1949200029
 20
418.5482850804
 30
0.0
 10
110.3668989938
 20
418.3276735401
 30
0.0
  0
SPLINE
  5
41E
100
AcDbEntity
  8
0
100
AcDbSpline
 62
7
  6
CONTINUOUS
 70
0
 71
3
 72
9
 73
5
 74
0
 42
0.0000001
 43
0.0000001
 44
0.0000000001
 40
0.0
 40
0.0
 40
0.0
 40
0.0
 40
0.2333324136
 40
1.0
 40
1.0
 40
1.0
 40
1.0
 10
110.4630363971
 20
418.2100268347
 30
0.0
 10
110.5407506274
 20
418.119177523
 30
0.0
 10
110.8940795917
 20
417.7471616705
 30
0.0
 10
111.3167586659
 20
417.445113839
 30
0.0
 10
111.656953973
 20
417.2487064302
 30
0.0
  0
SPLINE
  5
41F
100
AcDbEntity
  8
0
100
AcDbSpline
 62
7
  6
CONTINUOUS
 70
0
 71
3
 72
11
 73
7
 74
0
 42
0.0000001
 43
0.0000001
 44
0.0000000001
 40
0.0
 40
0.0
 40
0.0
 40
0.0
 40
0.2177727568
 40
0.4509515946
 40
0.7102007126
 40
1.0
 40
1.0
 40
1.0
 40
1.0
 10
162.5990157496
 20
449.6841003852
 30
0.0
 10
162.8628929142
 20
449.8364490278
 30
0.0
 10
163.4692362383
 20
450.0566637177
 30
0.0
 10
164.4762192841
 20
450.0818912668
 30
0.0
 10
165.54963191
 20
449.8230431612
 30
0.0
 10
166.2478372063
 20
449.4906521395
 30
0.0
 10
166.5989910133
 20
449.2879179809
 30
0.0
  0
SPLINE
  5
420
100
AcDbEntity
  8
0
100
AcDbSpline
 62
7
  6
CONTINUOUS
 70
0
 71
3
 72
11
 73
7
 74
0
 42
0.0000001
 43
0.0000001
 44
0.0000000001
 40
0.0
 40
0.0
 40
0.0
 40
0.0
 40
0.2177718007
 40
0.4509502392
 40
0.71019972
 40
1.0
 40
1.0
 40
1.0
 40
1.0
 10
159.0634965636
 20
447.6428796158
 30
0.0
 10
158.7996134895
 20
447.4905275933
 30
0.0
 10
158.3057177016
 20
447.0755164828
 30
0.0
 10
157.7803694283
 20
446.2160324934
 30
0.0
 10
157.4678320625
 20
445.1569735127
 30
0.0
 10
157.4065940261
 20
444.386091336
 30
0.0
 10
157.4065940261
 20
443.9806039107
 30
0.0
  0
SPLINE
  5
421
100
AcDbEntity
  8
0
100
AcDbSpline
 62
7
  6
CONTINUOUS
 70
0
 71
3
 72
9
 73
5
 74
0
 42
0.0000001
 43
0.0000001
 44
0.0000000001
 40
0.0
 40
0.0
 40
0.0
 40
0.0
 40
0.4760858999
 40
1.0
 40
1.0
 40
1.0
 40
1.0
 10
192.9212446485
 20
432.9373052262
 30
0.0
 10
192.0787641809
 20
433.6853060266
 30
0.0
 10
190.1396467873
 20
435.0688964094
 30
0.0
 10
188.006024053
 20
436.1135974694
 30
0.0
 10
186.8589259817
 20
436.584003044
 30
0.0
  0
SPLINE
  5
422
100
AcDbEntity
  8
0
100
AcDbSpline
 62
7
  6
CONTINUOUS
 70
0
 71
3
 72
11
 73
7
 74
0
 42
0.0000001
 43
0.0000001
 44
0.0000000001
 40
0.0
 40
0.0
 40
0.0
 40
0.0
 40
0.2872240611
 40
0.5455185235
 40
0.7797550044
 40
1.0
 40
1.0
 40
1.0
 40
1.0
 10
156.0613925106
 20
434.6896590393
 30
0.0
 10
155.1356250923
 20
434.1052879227
 30
0.0
 10
153.4588987813
 20
432.8531312807
 30
0.0
 10
151.4709634986
 20
430.6099180853
 30
0.0
 10
150.2208561923
 20
428.1593571354
 30
0.0
 10
149.9310770007
 20
426.4163113019
 30
0.0
 10
149.9310755457
 20
425.5768308729
 30
0.0
  0
SPLINE
  5
423
100
AcDbEntity
  8
0
100
AcDbSpline
 62
7
  6
CONTINUOUS
 70
0
 71
3
 72
11
 73
7
 74
0
 42
0.0000001
 43
0.0000001
 44
0.0000000001
 40
0.0
 40
0.0
 40
0.0
 40
0.0
 40
0.227818058
 40
0.4767300234
 40
0.737704847
 40
1.0
 40
1.0
 40
1.0
 40
1.0
 10
151.7497633284
 20
429.4550823475
 30
0.0
 10
152.2518865701
 20
429.7449816058
 30
0.0
 10
153.2349062441
 20
430.4716031543
 30
0.0
 10
154.5365618371
 20
431.8345245495
 30
0.0
 10
155.6700517976
 20
433.4481996375
 30
0.0
 10
156.2748624561
 20
434.6408797392
 30
0.0
 10
156.5312305304
 20
435.2572343474
 30
0.0
  0
SPLINE
  5
424
100
AcDbEntity
  8
0
100
AcDbSpline
 62
7
  6
CONTINUOUS
 70
0
 71
3
 72
9
 73
5
 74
0
 42
0.0000001
 43
0.0000001
 44
0.0000000001
 40
0.0
 40
0.0
 40
0.0
 40
0.0
 40
0.5234119138
 40
1.0
 40
1.0
 40
1.0
 40
1.0
 10
156.5312305304
 20
435.2572343474
 30
0.0
 10
156.8066068502
 20
435.9192881703
 30
0.0
 10
157.2322329536
 20
437.2289525308
 30
0.0
 10
157.4065940261
 20
438.6001598411
 30
0.0
 10
157.4065940261
 20
439.2530549155
 30
0.0
  0
SPLINE
  5
425
100
AcDbEntity
  8
0
100
AcDbSpline
 62
7
  6
CONTINUOUS
 70
0
 71
3
 72
11
 73
7
 74
0
 42
0.0000001
 43
0.0000001
 44
0.0000000001
 40
0.0
 40
0.0
 40
0.0
 40
0.0
 40
0.2332311836
 40
0.4913167799
 40
0.7540511799
 40
1.0
 40
1.0
 40
1.0
 40
1.0
 10
183.5696244168
 20
439.4901398724
 30
0.0
 10
184.2910800785
 20
439.073616675
 30
0.0
 10
185.6711195404
 20
437.9509046019
 30
0.0
 10
187.3440238871
 20
435.8184096459
 30
0.0
 10
188.5851226885
 20
433.3579289622
 30
0.0
 10
189.0557628802
 20
431.5822983345
 30
0.0
 10
189.1623037138
 20
430.7102971098
 30
0.0
  0
SPLINE
  5
426
100
AcDbEntity
  8
0
100
AcDbSpline
 62
7
  6
CONTINUOUS
 70
0
 71
3
 72
9
 73
5
 74
0
 42
0.0000001
 43
0.0000001
 44
0.0000000001
 40
0.0
 40
0.0
 40
0.0
 40
0.0
 40
0.4871450138
 40
1.0
 40
1.0
 40
1.0
 40
1.0
 10
149.9310755457
 20
425.5768308729
 30
0.0
 10
149.93107423
 20
424.8177773723
 30
0.0
 10
150.1649351666
 20
423.2520993942
 30
0.0
 10
150.8209209871
 20
421.817333588
 30
0.0
 10
151.2339456188
 20
421.1332329032
 30
0.0
  0
SPLINE
  5
427
100
AcDbEntity
  8
0
100
AcDbSpline
 62
7
  6
CONTINUOUS
 70
0
 71
3
 72
11
 73
7
 74
0
 42
0.0000001
 43
0.0000001
 44
0.0000000001
 40
0.0
 40
0.0
 40
0.0
 40
0.0
 40
0.2897992961
 40
0.5490484233
 40
0.7822272535
 40
1.0
 40
1.0
 40
1.0
 40
1.0
 10
163.0634718273
 20
447.2466972116
 30
0.0
 10
162.7123180099
 20
447.4494313761
 30
0.0
 10
162.0141126859
 20
447.7818223974
 30
0.0
 10
160.9407000482
 20
448.040670505
 30
0.0
 10
159.933717008
 20
448.0154429387
 30
0.0
 10
159.3273737293
 20
447.7952282271
 30
0.0
 10
159.0634965636
 20
447.6428796158
 30
0.0
  0
SPLINE
  5
428
100
AcDbEntity
  8
0
100
AcDbSpline
 62
7
  6
CONTINUOUS
 70
0
 71
3
 72
11
 73
7
 74
0
 42
0.0000001
 43
0.0000001
 44
0.0000000001
 40
0.0
 40
0.0
 40
0.0
 40
0.0
 40
0.2459488105
 40
0.5086832196
 40
0.7667688262
 40
1.0
 40
1.0
 40
1.0
 40
1.0
 10
185.6267850838
 20
428.6690717103
 30
0.0
 10
185.5202446489
 20
429.5410733312
 30
0.0
 10
185.0496048499
 20
431.3167049204
 30
0.0
 10
183.808506014
 20
433.7771869738
 30
0.0
 10
182.1356011815
 20
435.9096830982
 30
0.0
 10
180.7555611737
 20
437.0323957433
 30
0.0
 10
180.0341052308
 20
437.4489191031
 30
0.0
  0
SPLINE
  5
429
100
AcDbEntity
  8
0
100
AcDbSpline
 62
7
  6
CONTINUOUS
 70
0
 71
3
 72
10
 73
6
 74
0
 42
0.0000001
 43
0.0000001
 44
0.0000000001
 40
0.0
 40
0.0
 40
0.0
 40
0.0
 40
0.2268017058
 40
0.4643854139
 40
1.0
 40
1.0
 40
1.0
 40
1.0
 10
194.571138649
 20
258.6918458917
 30
0.0
 10
194.4647687437
 20
258.6304328895
 30
0.0
 10
194.2636331522
 20
258.4732353299
 30
0.0
 10
193.9370165601
 20
258.0351517362
 30
0.0
 10
193.8153877693
 20
257.619038979
 30
0.0
 10
193.7745931501
 20
257.3318573553
 30
0.0
  0
SPLINE
  5
42A
100
AcDbEntity
  8
0
100
AcDbSpline
 62
7
  6
CONTINUOUS
 70
0
 71
3
 72
10
 73
6
 74
0
 42
0.0000001
 43
0.0000001
 44
0.0000000001
 40
0.0
 40
0.0
 40
0.0
 40
0.0
 40
0.5369136173
 40
0.7740783886
 40
1.0
 40
1.0
 40
1.0
 40
1.0
 10
105.0266008838
 20
304.8434236793
 30
0.0
 10
105.3023923797
 20
304.7273500792
 30
0.0
 10
105.7349694775
 20
304.6146445898
 30
0.0
 10
106.2942862099
 20
304.6748602217
 30
0.0
 10
106.5377158744
 20
304.7721549587
 30
0.0
 10
106.6467579797
 20
304.8351010702
 30
0.0
  0
SPLINE
  5
42B
100
AcDbEntity
  8
0
100
AcDbSpline
 62
7
  6
CONTINUOUS
 70
0
 71
3
 72
11
 73
7
 74
0
 42
0.0000001
 43
0.0000001
 44
0.0000000001
 40
0.0
 40
0.0
 40
0.0
 40
0.0
 40
0.24189144
 40
0.5004217769
 40
0.7587296456
 40
1.0
 40
1.0
 40
1.0
 40
1.0
 10
101.8510635232
 20
309.4181319737
 30
0.0
 10
101.8991305329
 20
309.0284626396
 30
0.0
 10
102.0987208135
 20
308.2335101085
 30
0.0
 10
102.6223239689
 20
307.111877695
 30
0.0
 10
103.3359562695
 20
306.1016992867
 30
0.0
 10
103.9266390756
 20
305.5353534444
 30
0.0
 10
104.2407026774
 20
305.3014173708
 30
0.0
  0
SPLINE
  5
42C
100
AcDbEntity
  8
0
100
AcDbSpline
 62
7
  6
CONTINUOUS
 70
0
 71
3
 72
9
 73
5
 74
0
 42
0.0000001
 43
0.0000001
 44
0.0000000001
 40
0.0
 40
0.0
 40
0.0
 40
0.0
 40
0.5176420767
 40
1.0
 40
1.0
 40
1.0
 40
1.0
 10
199.6453568777
 20
252.3672081599
 30
0.0
 10
200.0800156427
 20
252.3199218915
 30
0.0
 10
200.9382708727
 20
252.3338434509
 30
0.0
 10
201.7510326308
 20
252.6261041529
 30
0.0
 10
202.1038699128
 20
252.8298135939
 30
0.0
  0
SPLINE
  5
42D
100
AcDbEntity
  8
0
100
AcDbSpline
 62
7
  6
CONTINUOUS
 70
0
 71
3
 72
9
 73
5
 74
0
 42
0.0000001
 43
0.0000001
 44
0.0000000001
 40
0.0
 40
0.0
 40
0.0
 40
0.0
 40
0.4789198318
 40
1.0
 40
1.0
 40
1.0
 40
1.0
 10
102.4547540721
 20
316.4232191078
 30
0.0
 10
102.4547540721
 20
315.7268166699
 30
0.0
 10
102.6060964342
 20
314.2713944505
 30
0.0
 10
102.9877018433
 20
312.8623551984
 30
0.0
 10
103.2352970023
 20
312.1462417973
 30
0.0
  0
SPLINE
  5
42E
100
AcDbEntity
  8
0
100
AcDbSpline
 62
7
  6
CONTINUOUS
 70
0
 71
3
 72
9
 73
5
 74
0
 42
0.0000001
 43
0.0000001
 44
0.0000000001
 40
0.0
 40
0.0
 40
0.0
 40
0.0
 40
0.2619735097
 40
1.0
 40
1.0
 40
1.0
 40
1.0
 10
107.5846207641
 20
305.3080599882
 30
0.0
 10
107.7671173866
 20
305.1342129411
 30
0.0
 10
108.4806464712
 20
304.4889772491
 30
0.0
 10
109.2644706197
 20
303.9184409885
 30
0.0
 10
109.8794061861
 20
303.5634158054
 30
0.0
  0
SPLINE
  5
42F
100
AcDbEntity
  8
0
100
AcDbSpline
 62
7
  6
CONTINUOUS
 70
0
 71
3
 72
9
 73
5
 74
0
 42
0.0000001
 43
0.0000001
 44
0.0000000001
 40
0.0
 40
0.0
 40
0.0
 40
0.0
 40
0.4668131954
 40
1.0
 40
1.0
 40
1.0
 40
1.0
 10
194.5711253646
 20
324.0120622606
 30
0.0
 10
194.3732535594
 20
323.897823335
 30
0.0
 10
194.013589336
 20
323.5334981052
 30
0.0
 10
193.8505994577
 20
323.0585870965
 30
0.0
 10
193.8000589752
 20
322.802559838
 30
0.0
  0
SPLINE
  5
430
100
AcDbEntity
  8
0
100
AcDbSpline
 62
7
  6
CONTINUOUS
 70
0
 71
3
 72
11
 73
7
 74
0
 42
0.0000001
 43
0.0000001
 44
0.0000000001
 40
0.0
 40
0.0
 40
0.0
 40
0.0
 40
0.237239768
 40
0.4999988393
 40
0.7627585384
 40
1.0
 40
1.0
 40
1.0
 40
1.0
 10
203.5714329922
 20
326.2227080242
 30
0.0
 10
203.8726019728
 20
326.0488319658
 30
0.0
 10
204.4425232936
 20
325.5691711366
 30
0.0
 10
205.10769893
 20
324.6601884848
 30
0.0
 10
205.5623189545
 20
323.6296379827
 30
0.0
 10
205.6927621677
 20
322.8962390089
 30
0.0
 10
205.6927621677
 20
322.5484785092
 30
0.0
  0
SPLINE
  5
431
100
AcDbEntity
  8
0
100
AcDbSpline
 62
7
  6
CONTINUOUS
 70
0
 71
3
 72
9
 73
5
 74
0
 42
0.0000001
 43
0.0000001
 44
0.0000000001
 40
0.0
 40
0.0
 40
0.0
 40
0.0
 40
0.2575076187
 40
1.0
 40
1.0
 40
1.0
 40
1.0
 10
205.6927621677
 20
258.4530387646
 30
0.0
 10
205.6927621677
 20
258.3444073288
 30
0.0
 10
205.6857705365
 20
257.9226049549
 30
0.0
 10
205.6502367237
 20
257.5010752628
 30
0.0
 10
205.6051994715
 20
257.1911042841
 30
0.0
  0
SPLINE
  5
432
100
AcDbEntity
  8
0
100
AcDbSpline
 62
7
  6
CONTINUOUS
 70
0
 71
3
 72
11
 73
7
 74
0
 42
0.0000001
 43
0.0000001
 44
0.0000000001
 40
0.0
 40
0.0
 40
0.0
 40
0.0
 40
0.2803378854
 40
0.536471885
 40
0.7735767382
 40
1.0
 40
1.0
 40
1.0
 40
1.0
 10
205.6051994715
 20
257.1911042841
 30
0.0
 10
205.548096131
 20
256.7980878927
 30
0.0
 10
205.3808681795
 20
256.0521184772
 30
0.0
 10
204.937873586
 20
255.0410481365
 30
0.0
 10
204.3209903381
 20
254.2167748555
 30
0.0
 10
203.7958682197
 20
253.8066834408
 30
0.0
 10
203.5180775872
 20
253.6463019016
 30
0.0
  0
SPLINE
  5
433
100
AcDbEntity
  8
0
100
AcDbSpline
 62
7
  6
CONTINUOUS
 70
0
 71
3
 72
9
 73
5
 74
0
 42
0.0000001
 43
0.0000001
 44
0.0000000001
 40
0.0
 40
0.0
 40
0.0
 40
0.0
 40
0.5308449
 40
1.0
 40
1.0
 40
1.0
 40
1.0
 10
197.2109017554
 20
316.9972737471
 30
0.0
 10
197.446396841
 20
316.9244631425
 30
0.0
 10
197.9157411456
 20
316.8466476097
 30
0.0
 10
198.3824366992
 20
316.9749383684
 30
0.0
 10
198.5710548744
 20
317.0839397406
 30
0.0
  0
SPLINE
  5
434
100
AcDbEntity
  8
0
100
AcDbSpline
 62
7
  6
CONTINUOUS
 70
0
 71
3
 72
9
 73
5
 74
0
 42
0.0000001
 43
0.0000001
 44
0.0000000001
 40
0.0
 40
0.0
 40
0.0
 40
0.0
 40
0.2570832826
 40
1.0
 40
1.0
 40
1.0
 40
1.0
 10
196.7174244225
 20
318.0788294035
 30
0.0
 10
196.7576554612
 20
318.0462059369
 30
0.0
 10
196.9161391979
 20
317.9218033616
 30
0.0
 10
197.0827064157
 20
317.8075603484
 30
0.0
 10
197.2107793174
 20
317.7300921843
 30
0.0
  0
SPLINE
  5
435
100
AcDbEntity
  8
0
100
AcDbSpline
 62
7
  6
CONTINUOUS
 70
0
 71
3
 72
11
 73
7
 74
0
 42
0.0000001
 43
0.0000001
 44
0.0000000001
 40
0.0
 40
0.0
 40
0.0
 40
0.0
 40
0.232182422
 40
0.4888893114
 40
0.7515157409
 40
1.0
 40
1.0
 40
1.0
 40
1.0
 10
193.7426425515
 20
322.1809790497
 30
0.0
 10
193.7426425515
 20
321.7795802875
 30
0.0
 10
193.8739134196
 20
320.9335581599
 30
0.0
 10
194.3477087194
 20
319.7154396527
 30
0.0
 10
195.0605246967
 20
318.5864715665
 30
0.0
 10
195.6766557175
 20
317.9411550643
 30
0.0
 10
196.0103205853
 20
317.6705852497
 30
0.0
  0
LINE
  5
436
100
AcDbEntity
  8
0
100
AcDbLine
 62
7
  6
CONTINUOUS
 10
193.7426929595
 20
322.2004487036
 11
193.7426677541
 21
322.1809647165
  0
SPLINE
  5
437
100
AcDbEntity
  8
0
100
AcDbSpline
 62
7
  6
CONTINUOUS
 70
0
 71
3
 72
9
 73
5
 74
0
 42
0.0000001
 43
0.0000001
 44
0.0000000001
 40
0.0
 40
0.0
 40
0.0
 40
0.0
 40
0.2553188863
 40
1.0
 40
1.0
 40
1.0
 40
1.0
 10
196.8505455036
 20
252.6544946302
 30
0.0
 10
196.8801515499
 20
252.6321731365
 30
0.0
 10
196.9971518421
 20
252.5461448233
 30
0.0
 10
197.1183621348
 20
252.465799719
 30
0.0
 10
197.2108961252
 20
252.4098304425
 30
0.0
  0
SPLINE
  5
438
100
AcDbEntity
  8
0
100
AcDbSpline
 62
7
  6
CONTINUOUS
 70
0
 71
3
 72
11
 73
7
 74
0
 42
0.0000001
 43
0.0000001
 44
0.0000000001
 40
0.0
 40
0.0
 40
0.0
 40
0.0
 40
0.2177833598
 40
0.4509104088
 40
0.7102966711
 40
1.0
 40
1.0
 40
1.0
 40
1.0
 10
103.0760974476
 20
381.8920037132
 30
0.0
 10
102.9771376706
 20
381.8348695826
 30
0.0
 10
102.7919879952
 20
381.6792146199
 30
0.0
 10
102.5948742218
 20
381.3569246253
 30
0.0
 10
102.4778002323
 20
380.959743534
 30
0.0
 10
102.4547540721
 20
380.6706632856
 30
0.0
 10
102.4547540721
 20
380.5186588524
 30
0.0
  0
SPLINE
  5
439
100
AcDbEntity
  8
0
100
AcDbSpline
 62
7
  6
CONTINUOUS
 70
0
 71
3
 72
11
 73
7
 74
0
 42
0.0000001
 43
0.0000001
 44
0.0000000001
 40
0.0
 40
0.0
 40
0.0
 40
0.0
 40
0.2177843137
 40
0.4509117637
 40
0.7102976701
 40
1.0
 40
1.0
 40
1.0
 40
1.0
 10
104.490305122
 20
382.708492021
 30
0.0
 10
104.5892627137
 20
382.7656248284
 30
0.0
 10
104.8166331654
 20
382.8481394275
 30
0.0
 10
105.194291611
 20
382.8577016665
 30
0.0
 10
105.5967870057
 20
382.760506204
 30
0.0
 10
105.8586544498
 20
382.6359307813
 30
0.0
 10
105.990290922
 20
382.559932148
 30
0.0
  0
SPLINE
  5
43A
100
AcDbEntity
  8
0
100
AcDbSpline
 62
7
  6
CONTINUOUS
 70
0
 71
3
 72
9
 73
5
 74
0
 42
0.0000001
 43
0.0000001
 44
0.0000000001
 40
0.0
 40
0.0
 40
0.0
 40
0.0
 40
0.5308647517
 40
1.0
 40
1.0
 40
1.0
 40
1.0
 10
197.2109017554
 20
251.6770803768
 30
0.0
 10
197.4464049077
 20
251.6042672781
 30
0.0
 10
197.9157659893
 20
251.526405059
 30
0.0
 10
198.3824090071
 20
251.6548126282
 30
0.0
 10
198.5710398426
 20
251.7637722934
 30
0.0
  0
SPLINE
  5
43B
100
AcDbEntity
  8
0
100
AcDbSpline
 62
7
  6
CONTINUOUS
 70
0
 71
3
 72
11
 73
7
 74
0
 42
0.0000001
 43
0.0000001
 44
0.0000000001
 40
0.0
 40
0.0
 40
0.0
 40
0.0
 40
0.2416975099
 40
0.5000215268
 40
0.7583341988
 40
1.0
 40
1.0
 40
1.0
 40
1.0
 10
193.7753277923
 20
256.3468338861
 30
0.0
 10
193.8230925494
 20
255.959614851
 30
0.0
 10
194.020825617
 20
255.1695900206
 30
0.0
 10
194.5393836226
 20
254.0538857865
 30
0.0
 10
195.2465353929
 20
253.0471538878
 30
0.0
 10
195.8319511632
 20
252.4810989001
 30
0.0
 10
196.1434416664
 20
252.2462504763
 30
0.0
  0
SPLINE
  5
43C
100
AcDbEntity
  8
0
100
AcDbSpline
 62
7
  6
CONTINUOUS
 70
0
 71
3
 72
9
 73
5
 74
0
 42
0.0000001
 43
0.0000001
 44
0.0000000001
 40
0.0
 40
0.0
 40
0.0
 40
0.0
 40
0.4650946374
 40
1.0
 40
1.0
 40
1.0
 40
1.0
 10
102.6468693675
 20
311.7631525332
 30
0.0
 10
102.4421875193
 20
311.6450145197
 30
0.0
 10
102.0715658237
 20
311.2620897903
 30
0.0
 10
101.912448238
 20
310.7652696042
 30
0.0
 10
101.8653279917
 20
310.4975835728
 30
0.0
  0
SPLINE
  5
43D
100
AcDbEntity
  8
0
100
AcDbSpline
 62
7
  6
CONTINUOUS
 70
0
 71
3
 72
10
 73
6
 74
0
 42
0.0000001
 43
0.0000001
 44
0.0000000001
 40
0.0
 40
0.0
 40
0.0
 40
0.0
 40
0.5369089972
 40
0.7740691541
 40
1.0
 40
1.0
 40
1.0
 40
1.0
 10
105.0266008838
 20
370.1636170497
 30
0.0
 10
105.3023906903
 20
370.0475441606
 30
0.0
 10
105.7349702951
 20
369.9348338304
 30
0.0
 10
106.294276133
 20
369.9950801539
 30
0.0
 10
106.5377312559
 20
370.0923108665
 30
0.0
 10
106.6467879237
 20
370.1552426665
 30
0.0
  0
SPLINE
  5
43E
100
AcDbEntity
  8
0
100
AcDbSpline
 62
7
  6
CONTINUOUS
 70
0
 71
3
 72
11
 73
7
 74
0
 42
0.0000001
 43
0.0000001
 44
0.0000000001
 40
0.0
 40
0.0
 40
0.0
 40
0.0
 40
0.2326982076
 40
0.4900761274
 40
0.7527536389
 40
1.0
 40
1.0
 40
1.0
 40
1.0
 10
101.8183782824
 20
375.2522771374
 30
0.0
 10
101.8183782824
 20
374.8433509186
 30
0.0
 10
101.9545203485
 20
373.9813119326
 30
0.0
 10
102.4438186711
 20
372.7435367974
 30
0.0
 10
103.1776112591
 20
371.6026089286
 30
0.0
 10
103.8111667223
 20
370.9558409765
 30
0.0
 10
104.1534509418
 20
370.6882127862
 30
0.0
  0
LINE
  5
43F
100
AcDbEntity
  8
0
100
AcDbLine
 62
7
  6
CONTINUOUS
 10
101.8184286904
 20
375.2717467913
 11
101.818403485
 21
375.2522628042
  0
LINE
  5
440
100
AcDbEntity
  8
0
100
AcDbLine
 62
7
  6
CONTINUOUS
 10
199.3995203527
 20
318.9150530136
 11
199.3994447436
 21
318.9345950309
  0
SPLINE
  5
441
100
AcDbEntity
  8
0
100
AcDbSpline
 62
7
  6
CONTINUOUS
 70
0
 71
3
 72
11
 73
7
 74
0
 42
0.0000001
 43
0.0000001
 44
0.0000000001
 40
0.0
 40
0.0
 40
0.0
 40
0.0
 40
0.2897016594
 40
0.5490895814
 40
0.7822189142
 40
1.0
 40
1.0
 40
1.0
 40
1.0
 10
202.1572253178
 20
320.5072052137
 30
0.0
 10
202.1572253178
 20
320.3045333499
 30
0.0
 10
202.1264974982
 20
319.9190924407
 30
0.0
 10
201.97040672
 20
319.3895129259
 30
0.0
 10
201.7075825412
 20
318.9597894707
 30
0.0
 10
201.4607101809
 20
318.7522614191
 30
0.0
 10
201.3287706399
 20
318.6760732507
 30
0.0
  0
SPLINE
  5
442
100
AcDbEntity
  8
0
100
AcDbSpline
 62
7
  6
CONTINUOUS
 70
0
 71
3
 72
9
 73
5
 74
0
 42
0.0000001
 43
0.0000001
 44
0.0000000001
 40
0.0
 40
0.0
 40
0.0
 40
0.0
 40
0.269736846
 40
1.0
 40
1.0
 40
1.0
 40
1.0
 10
197.9180055927
 20
323.7682183348
 30
0.0
 10
197.8218469004
 20
323.8495198766
 30
0.0
 10
197.4546803311
 20
324.1372483058
 30
0.0
 10
197.0398179029
 20
324.370357504
 30
0.0
 10
196.7174244225
 20
324.481187194
 30
0.0
  0
SPLINE
  5
443
100
AcDbEntity
  8
0
100
AcDbSpline
 62
7
  6
CONTINUOUS
 70
0
 71
3
 72
11
 73
7
 74
0
 42
0.0000001
 43
0.0000001
 44
0.0000000001
 40
0.0
 40
0.0
 40
0.0
 40
0.0
 40
0.2897016594
 40
0.5490895814
 40
0.7822189142
 40
1.0
 40
1.0
 40
1.0
 40
1.0
 10
202.1572253178
 20
255.1870118433
 30
0.0
 10
202.1572253178
 20
254.9843399795
 30
0.0
 10
202.1264974982
 20
254.5988990704
 30
0.0
 10
201.97040672
 20
254.0693195555
 30
0.0
 10
201.7075825412
 20
253.6395961003
 30
0.0
 10
201.4607101809
 20
253.4320680488
 30
0.0
 10
201.3287706399
 20
253.3558798804
 30
0.0
  0
SPLINE
  5
444
100
AcDbEntity
  8
0
100
AcDbSpline
 62
7
  6
CONTINUOUS
 70
0
 71
3
 72
9
 73
5
 74
0
 42
0.0000001
 43
0.0000001
 44
0.0000000001
 40
0.0
 40
0.0
 40
0.0
 40
0.0
 40
0.2418406693
 40
1.0
 40
1.0
 40
1.0
 40
1.0
 10
200.1065737819
 20
319.3428250262
 30
0.0
 10
200.1062948625
 20
319.396931176
 30
0.0
 10
200.1003673369
 20
319.6206227288
 30
0.0
 10
200.076130579
 20
319.8437029454
 30
0.0
 10
200.0492077662
 20
320.0111752312
 30
0.0
  0
SPLINE
  5
445
100
AcDbEntity
  8
0
100
AcDbSpline
 62
7
  6
CONTINUOUS
 70
0
 71
3
 72
9
 73
5
 74
0
 42
0.0000001
 43
0.0000001
 44
0.0000000001
 40
0.0
 40
0.0
 40
0.0
 40
0.0
 40
0.4624210531
 40
1.0
 40
1.0
 40
1.0
 40
1.0
 10
198.5710398426
 20
251.7637722934
 30
0.0
 10
198.7863523443
 20
251.8881442077
 30
0.0
 10
199.1738790254
 20
252.3010544792
 30
0.0
 10
199.325679173
 20
252.8325276625
 30
0.0
 10
199.3668351119
 20
253.1186486612
 30
0.0
  0
SPLINE
  5
446
100
AcDbEntity
  8
0
100
AcDbSpline
 62
7
  6
CONTINUOUS
 70
0
 71
3
 72
11
 73
7
 74
0
 42
0.0000001
 43
0.0000001
 44
0.0000000001
 40
0.0
 40
0.0
 40
0.0
 40
0.0
 40
0.2897016594
 40
0.5490895814
 40
0.7822189142
 40
1.0
 40
1.0
 40
1.0
 40
1.0
 10
110.2329610487
 20
373.5785033013
 30
0.0
 10
110.2329610487
 20
373.3758314375
 30
0.0
 10
110.2022332291
 20
372.9903905284
 30
0.0
 10
110.0461424509
 20
372.4608110136
 30
0.0
 10
109.7833182721
 20
372.0310875583
 30
0.0
 10
109.5364459117
 20
371.8235595068
 30
0.0
 10
109.4045063708
 20
371.7473713384
 30
0.0
  0
SPLINE
  5
447
100
AcDbEntity
  8
0
100
AcDbSpline
 62
7
  6
CONTINUOUS
 70
0
 71
3
 72
11
 73
7
 74
0
 42
0.0000001
 43
0.0000001
 44
0.0000000001
 40
0.0
 40
0.0
 40
0.0
 40
0.0
 40
0.2897016594
 40
0.5490895814
 40
0.7822189142
 40
1.0
 40
1.0
 40
1.0
 40
1.0
 10
110.2329610487
 20
308.258309931
 30
0.0
 10
110.2329610487
 20
308.0556380672
 30
0.0
 10
110.2022332291
 20
307.670197158
 30
0.0
 10
110.0461424509
 20
307.1406176432
 30
0.0
 10
109.7833182721
 20
306.7108941879
 30
0.0
 10
109.5364459117
 20
306.5033661364
 30
0.0
 10
109.4045063708
 20
306.427177968
 30
0.0
  0
SPLINE
  5
448
100
AcDbEntity
  8
0
100
AcDbSpline
 62
7
  6
CONTINUOUS
 70
0
 71
3
 72
9
 73
5
 74
0
 42
0.0000001
 43
0.0000001
 44
0.0000000001
 40
0.0
 40
0.0
 40
0.0
 40
0.0
 40
0.5333843724
 40
1.0
 40
1.0
 40
1.0
 40
1.0
 10
196.0103205853
 20
324.0729430401
 30
0.0
 10
195.762353717
 20
324.1581869821
 30
0.0
 10
195.2675981305
 20
324.2561122769
 30
0.0
 10
194.7697811473
 20
324.1267538063
 30
0.0
 10
194.5711253646
 20
324.0120622606
 30
0.0
  0
SPLINE
  5
449
100
AcDbEntity
  8
0
100
AcDbSpline
 62
7
  6
CONTINUOUS
 70
0
 71
3
 72
9
 73
5
 74
0
 42
0.0000001
 43
0.0000001
 44
0.0000000001
 40
0.0
 40
0.0
 40
0.0
 40
0.0
 40
0.4987493207
 40
1.0
 40
1.0
 40
1.0
 40
1.0
 10
199.342103929
 20
319.6029310773
 30
0.0
 10
199.2265038286
 20
320.3220169032
 30
0.0
 10
198.6926410689
 20
321.7157191108
 30
0.0
 10
197.7698605091
 20
322.8873782315
 30
0.0
 10
197.2109017554
 20
323.359974181
 30
0.0
  0
SPLINE
  5
44A
100
AcDbEntity
  8
0
100
AcDbSpline
 62
7
  6
CONTINUOUS
 70
0
 71
3
 72
15
 73
11
 74
0
 42
0.0000001
 43
0.0000001
 44
0.0000000001
 40
0.0
 40
0.0
 40
0.0
 40
0.0
 40
0.0869313433
 40
0.1864011611
 40
0.3037885282
 40
0.4375986154
 40
0.5820965189
 40
0.729420053
 40
0.8711665023
 40
1.0
 40
1.0
 40
1.0
 40
1.0
 10
197.3288021946
 20
325.6042632128
 30
0.0
 10
197.5285934981
 20
325.7196322171
 30
0.0
 10
198.0305863674
 20
325.8485943333
 30
0.0
 10
198.838558449
 20
325.6867864092
 30
0.0
 10
199.6640086595
 20
325.2358998646
 30
0.0
 10
200.4555246625
 20
324.5350284215
 30
0.0
 10
201.1543403933
 20
323.6404920471
 30
0.0
 10
201.704538941
 20
322.623601747
 30
0.0
 10
202.0615776487
 20
321.5680411528
 30
0.0
 10
202.1572253178
 20
320.8491190342
 30
0.0
 10
202.1572253178
 20
320.5072052137
 30
0.0
  0
SPLINE
  5
44B
100
AcDbEntity
  8
0
100
AcDbSpline
 62
7
  6
CONTINUOUS
 70
0
 71
3
 72
15
 73
11
 74
0
 42
0.0000001
 43
0.0000001
 44
0.0000000001
 40
0.0
 40
0.0
 40
0.0
 40
0.0
 40
0.0869313433
 40
0.1864011611
 40
0.3037885282
 40
0.4375986154
 40
0.5820965189
 40
0.729420053
 40
0.8711665023
 40
1.0
 40
1.0
 40
1.0
 40
1.0
 10
105.4045379255
 20
378.6755613004
 30
0.0
 10
105.604329229
 20
378.7909303047
 30
0.0
 10
106.1063220983
 20
378.9198924209
 30
0.0
 10
106.9142941799
 20
378.7580844968
 30
0.0
 10
107.7397443904
 20
378.3071979522
 30
0.0
 10
108.5312603933
 20
377.6063265091
 30
0.0
 10
109.2300761242
 20
376.7117901348
 30
0.0
 10
109.7802746718
 20
375.6948998347
 30
0.0
 10
110.1373133796
 20
374.6393392405
 30
0.0
 10
110.2329610487
 20
373.9204171219
 30
0.0
 10
110.2329610487
 20
373.5785033013
 30
0.0
  0
SPLINE
  5
44C
100
AcDbEntity
  8
0
100
AcDbSpline
 62
7
  6
CONTINUOUS
 70
0
 71
3
 72
10
 73
6
 74
0
 42
0.0000001
 43
0.0000001
 44
0.0000000001
 40
0.0
 40
0.0
 40
0.0
 40
0.0
 40
0.5361357814
 40
0.7735468098
 40
1.0
 40
1.0
 40
1.0
 40
1.0
 10
104.2407026774
 20
311.7657541566
 30
0.0
 10
103.9688985317
 20
311.8771411126
 30
0.0
 10
103.543122847
 20
311.9838489757
 30
0.0
 10
102.9937367988
 20
311.9214531457
 30
0.0
 10
102.7543259558
 20
311.8251741926
 30
0.0
 10
102.6468693675
 20
311.7631525332
 30
0.0
  0
SPLINE
  5
44D
100
AcDbEntity
  8
0
100
AcDbSpline
 62
7
  6
CONTINUOUS
 70
0
 71
3
 72
9
 73
5
 74
0
 42
0.0000001
 43
0.0000001
 44
0.0000000001
 40
0.0
 40
0.0
 40
0.0
 40
0.0
 40
0.24607877
 40
1.0
 40
1.0
 40
1.0
 40
1.0
 10
202.1038699128
 20
252.8298135939
 30
0.0
 10
202.2123479976
 20
252.8924430584
 30
0.0
 10
202.6394923744
 20
253.1704010795
 30
0.0
 10
203.0036259779
 20
253.5416561335
 30
0.0
 10
203.2310038967
 20
253.8508048626
 30
0.0
  0
SPLINE
  5
44E
100
AcDbEntity
  8
0
100
AcDbSpline
 62
7
  6
CONTINUOUS
 70
0
 71
3
 72
9
 73
5
 74
0
 42
0.0000001
 43
0.0000001
 44
0.0000000001
 40
0.0
 40
0.0
 40
0.0
 40
0.0
 40
0.461887611
 40
1.0
 40
1.0
 40
1.0
 40
1.0
 10
203.2310038967
 20
253.8508048626
 30
0.0
 10
203.5937649474
 20
254.3440238983
 30
0.0
 10
204.1409368767
 20
255.5893830426
 30
0.0
 10
204.2785544932
 20
256.9232515249
 30
0.0
 10
204.2785544932
 20
257.6365504568
 30
0.0
  0
SPLINE
  5
44F
100
AcDbEntity
  8
0
100
AcDbSpline
 62
7
  6
CONTINUOUS
 70
0
 71
3
 72
11
 73
7
 74
0
 42
0.0000001
 43
0.0000001
 44
0.0000000001
 40
0.0
 40
0.0
 40
0.0
 40
0.0
 40
0.217781682
 40
0.4509082202
 40
0.7103143135
 40
1.0
 40
1.0
 40
1.0
 40
1.0
 10
198.5710548744
 20
317.0839397406
 30
0.0
 10
198.702968543
 20
317.1601719006
 30
0.0
 10
198.9498786998
 20
317.3676255722
 30
0.0
 10
199.2127140953
 20
317.7973751039
 30
0.0
 10
199.3687649969
 20
318.3269558894
 30
0.0
 10
199.3995203527
 20
318.7123934085
 30
0.0
 10
199.3995203527
 20
318.9150530136
 30
0.0
  0
SPLINE
  5
450
100
AcDbEntity
  8
0
100
AcDbSpline
 62
7
  6
CONTINUOUS
 70
0
 71
3
 72
11
 73
7
 74
0
 42
0.0000001
 43
0.0000001
 44
0.0000000001
 40
0.0
 40
0.0
 40
0.0
 40
0.0
 40
0.2177833898
 40
0.4509256392
 40
0.710250264
 40
1.0
 40
1.0
 40
1.0
 40
1.0
 10
106.6467879237
 20
370.1552426665
 30
0.0
 10
106.7787512225
 20
370.2313928744
 30
0.0
 10
107.0256253627
 20
370.438957371
 30
0.0
 10
107.2884093757
 20
370.8686503429
 30
0.0
 10
107.4445801057
 20
371.3982068212
 30
0.0
 10
107.4752560836
 20
371.7836456221
 30
0.0
 10
107.4752560836
 20
371.9863511012
 30
0.0
  0
SPLINE
  5
451
100
AcDbEntity
  8
0
100
AcDbSpline
 62
7
  6
CONTINUOUS
 70
0
 71
3
 72
15
 73
11
 74
0
 42
0.0000001
 43
0.0000001
 44
0.0000000001
 40
0.0
 40
0.0
 40
0.0
 40
0.0
 40
0.0869313433
 40
0.1864011611
 40
0.3037885282
 40
0.4375986154
 40
0.5820965189
 40
0.729420053
 40
0.8711665023
 40
1.0
 40
1.0
 40
1.0
 40
1.0
 10
197.3288021946
 20
260.2840698424
 30
0.0
 10
197.5285934981
 20
260.3994388467
 30
0.0
 10
198.0305863674
 20
260.5284009629
 30
0.0
 10
198.838558449
 20
260.3665930388
 30
0.0
 10
199.6640086595
 20
259.9157064942
 30
0.0
 10
200.4555246625
 20
259.2148350511
 30
0.0
 10
201.1543403933
 20
258.3202986768
 30
0.0
 10
201.704538941
 20
257.3034083767
 30
0.0
 10
202.0615776487
 20
256.2478477825
 30
0.0
 10
202.1572253178
 20
255.5289256639
 30
0.0
 10
202.1572253178
 20
255.1870118433
 30
0.0
  0
SPLINE
  5
452
100
AcDbEntity
  8
0
100
AcDbSpline
 62
7
  6
CONTINUOUS
 70
0
 71
3
 72
11
 73
7
 74
0
 42
0.0000001
 43
0.0000001
 44
0.0000000001
 40
0.0
 40
0.0
 40
0.0
 40
0.0
 40
0.2436594293
 40
0.5024466515
 40
0.7599457227
 40
1.0
 40
1.0
 40
1.0
 40
1.0
 10
107.4283063742
 20
307.2858691649
 30
0.0
 10
107.3719225436
 20
307.6712857819
 30
0.0
 10
107.1610761936
 20
308.4533920345
 30
0.0
 10
106.6307418378
 20
309.5530770456
 30
0.0
 10
105.9198050821
 20
310.5385373548
 30
0.0
 10
105.3359946164
 20
311.0892581917
 30
0.0
 10
105.0266008838
 20
311.3162912956
 30
0.0
  0
SPLINE
  5
453
100
AcDbEntity
  8
0
100
AcDbSpline
 62
7
  6
CONTINUOUS
 70
0
 71
3
 72
9
 73
5
 74
0
 42
0.0000001
 43
0.0000001
 44
0.0000000001
 40
0.0
 40
0.0
 40
0.0
 40
0.0
 40
0.267050052
 40
1.0
 40
1.0
 40
1.0
 40
1.0
 10
197.9180055927
 20
258.4480249645
 30
0.0
 10
197.8323788878
 20
258.5204217802
 30
0.0
 10
197.5030839261
 20
258.7806365355
 30
0.0
 10
197.1362174752
 20
258.9969481317
 30
0.0
 10
196.8505455036
 20
259.11142372
 30
0.0
  0
SPLINE
  5
454
100
AcDbEntity
  8
0
100
AcDbSpline
 62
7
  6
CONTINUOUS
 70
0
 71
3
 72
11
 73
7
 74
0
 42
0.0000001
 43
0.0000001
 44
0.0000000001
 40
0.0
 40
0.0
 40
0.0
 40
0.0
 40
0.2372413576
 40
0.5000010231
 40
0.762760128
 40
1.0
 40
1.0
 40
1.0
 40
1.0
 10
204.2785544932
 20
321.7319902015
 30
0.0
 10
204.2785544932
 20
322.0797505487
 30
0.0
 10
204.1481113734
 20
322.8131493216
 30
0.0
 10
203.6934915131
 20
323.843699731
 30
0.0
 10
203.0283158785
 20
324.7526825715
 30
0.0
 10
202.4583944304
 20
325.2323435818
 30
0.0
 10
202.1572253178
 20
325.4062197165
 30
0.0
  0
SPLINE
  5
455
100
AcDbEntity
  8
0
100
AcDbSpline
 62
7
  6
CONTINUOUS
 70
0
 71
3
 72
9
 73
5
 74
0
 42
0.0000001
 43
0.0000001
 44
0.0000000001
 40
0.0
 40
0.0
 40
0.0
 40
0.0
 40
0.243511881
 40
1.0
 40
1.0
 40
1.0
 40
1.0
 10
200.1066241899
 20
254.0031037971
 30
0.0
 10
200.1066241899
 20
254.0444315436
 30
0.0
 10
200.1038336203
 20
254.2141413869
 30
0.0
 10
200.0902260185
 20
254.3836256977
 30
0.0
 10
200.0746735913
 20
254.5110680119
 30
0.0
  0
SPLINE
  5
456
100
AcDbEntity
  8
0
100
AcDbSpline
 62
7
  6
CONTINUOUS
 70
0
 71
3
 72
9
 73
5
 74
0
 42
0.0000001
 43
0.0000001
 44
0.0000000001
 40
0.0
 40
0.0
 40
0.0
 40
0.0
 40
0.2424359126
 40
1.0
 40
1.0
 40
1.0
 40
1.0
 10
200.0739389491
 20
253.5268928151
 30
0.0
 10
200.0794336349
 20
253.5650925266
 30
0.0
 10
200.0990110697
 20
253.7230963204
 30
0.0
 10
200.1066241899
 20
253.8825087448
 30
0.0
 10
200.1066241899
 20
254.0031037971
 30
0.0
  0
SPLINE
  5
457
100
AcDbEntity
  8
0
100
AcDbSpline
 62
7
  6
CONTINUOUS
 70
0
 71
3
 72
9
 73
5
 74
0
 42
0.0000001
 43
0.0000001
 44
0.0000000001
 40
0.0
 40
0.0
 40
0.0
 40
0.0
 40
0.2631591662
 40
1.0
 40
1.0
 40
1.0
 40
1.0
 10
105.733704721
 20
311.7245354495
 30
0.0
 10
105.6695913146
 20
311.7715818635
 30
0.0
 10
105.4213903542
 20
311.9438798498
 30
0.0
 10
105.1538396332
 20
312.0895647128
 30
0.0
 10
104.9478065146
 20
312.1739983105
 30
0.0
  0
SPLINE
  5
458
100
AcDbEntity
  8
0
100
AcDbSpline
 62
7
  6
CONTINUOUS
 70
0
 71
3
 72
9
 73
5
 74
0
 42
0.0000001
 43
0.0000001
 44
0.0000000001
 40
0.0
 40
0.0
 40
0.0
 40
0.0
 40
0.2422804814
 40
1.0
 40
1.0
 40
1.0
 40
1.0
 10
108.1823599208
 20
307.0744018847
 30
0.0
 10
108.1823599208
 20
307.1246185464
 30
0.0
 10
108.1782183506
 20
307.3318763877
 30
0.0
 10
108.1581435772
 20
307.5387174042
 30
0.0
 10
108.1354102114
 20
307.6941133188
 30
0.0
  0
SPLINE
  5
459
100
AcDbEntity
  8
0
100
AcDbSpline
 62
7
  6
CONTINUOUS
 70
0
 71
3
 72
9
 73
5
 74
0
 42
0.0000001
 43
0.0000001
 44
0.0000000001
 40
0.0
 40
0.0
 40
0.0
 40
0.0
 40
0.5376222312
 40
1.0
 40
1.0
 40
1.0
 40
1.0
 10
196.1434416664
 20
258.7031795661
 30
0.0
 10
195.874910369
 20
258.8107864765
 30
0.0
 10
195.3384267583
 20
258.9453644249
 30
0.0
 10
194.7866063597
 20
258.8162468577
 30
0.0
 10
194.571138649
 20
258.6918458917
 30
0.0
  0
SPLINE
  5
45A
100
AcDbEntity
  8
0
100
AcDbSpline
 62
7
  6
CONTINUOUS
 70
0
 71
3
 72
11
 73
7
 74
0
 42
0.0000001
 43
0.0000001
 44
0.0000000001
 40
0.0
 40
0.0
 40
0.0
 40
0.0
 40
0.289702329
 40
0.5490881649
 40
0.7822156415
 40
1.0
 40
1.0
 40
1.0
 40
1.0
 10
104.5760832475
 20
381.7434438403
 30
0.0
 10
104.4444467753
 20
381.8194424736
 30
0.0
 10
104.1825793852
 20
381.9440179249
 30
0.0
 10
103.7800839958
 20
382.0412133501
 30
0.0
 10
103.4024255702
 20
382.0316511073
 30
0.0
 10
103.1750550334
 20
381.9491365787
 30
0.0
 10
103.0760974476
 20
381.8920037132
 30
0.0
  0
SPLINE
  5
45B
100
AcDbEntity
  8
0
100
AcDbSpline
 62
7
  6
CONTINUOUS
 70
0
 71
3
 72
9
 73
5
 74
0
 42
0.0000001
 43
0.0000001
 44
0.0000000001
 40
0.0
 40
0.0
 40
0.0
 40
0.0
 40
0.4624100937
 40
1.0
 40
1.0
 40
1.0
 40
1.0
 10
106.6467579797
 20
304.8351010702
 30
0.0
 10
106.8620988806
 20
304.9594096784
 30
0.0
 10
107.2496147334
 20
305.3723673557
 30
0.0
 10
107.4014142586
 20
305.9038212643
 30
0.0
 10
107.4425708428
 20
306.1899467488
 30
0.0
  0
SPLINE
  5
45C
100
AcDbEntity
  8
0
100
AcDbSpline
 62
7
  6
CONTINUOUS
 70
0
 71
3
 72
10
 73
6
 74
0
 42
0.0000001
 43
0.0000001
 44
0.0000000001
 40
0.0
 40
0.0
 40
0.0
 40
0.0
 40
0.2403348714
 40
0.4972325161
 40
1.0
 40
1.0
 40
1.0
 40
1.0
 10
199.367569754
 20
254.102823858
 30
0.0
 10
199.3232298833
 20
254.4661610816
 30
0.0
 10
199.143812729
 20
255.2088585242
 30
0.0
 10
198.5245651871
 20
256.6033331571
 30
0.0
 10
197.7956327215
 20
257.545394625
 30
0.0
 10
197.2109017554
 20
258.0397808106
 30
0.0
  0
SPLINE
  5
45D
100
AcDbEntity
  8
0
100
AcDbSpline
 62
7
  6
CONTINUOUS
 70
0
 71
3
 72
9
 73
5
 74
0
 42
0.0000001
 43
0.0000001
 44
0.0000000001
 40
0.0
 40
0.0
 40
0.0
 40
0.0
 40
0.2424359126
 40
1.0
 40
1.0
 40
1.0
 40
1.0
 10
108.14967468
 20
306.5981909027
 30
0.0
 10
108.1551693658
 20
306.6363906143
 30
0.0
 10
108.1747468006
 20
306.7943944081
 30
0.0
 10
108.1823599208
 20
306.9538068325
 30
0.0
 10
108.1823599208
 20
307.0744018847
 30
0.0
  0
LINE
  5
45E
100
AcDbEntity
  8
0
100
AcDbLine
 62
7
  6
CONTINUOUS
 10
107.4752560836
 20
371.9863511012
 11
107.4751804745
 21
372.0058931185
  0
SPLINE
  5
45F
100
AcDbEntity
  8
0
100
AcDbSpline
 62
7
  6
CONTINUOUS
 70
0
 71
3
 72
15
 73
11
 74
0
 42
0.0000001
 43
0.0000001
 44
0.0000000001
 40
0.0
 40
0.0
 40
0.0
 40
0.0
 40
0.0869313433
 40
0.1864011611
 40
0.3037885282
 40
0.4375986154
 40
0.5820965189
 40
0.729420053
 40
0.8711665023
 40
1.0
 40
1.0
 40
1.0
 40
1.0
 10
105.4045379255
 20
313.35536793
 30
0.0
 10
105.604329229
 20
313.4707369344
 30
0.0
 10
106.1063220983
 20
313.5996990505
 30
0.0
 10
106.9142941799
 20
313.4378911265
 30
0.0
 10
107.7397443904
 20
312.9870045819
 30
0.0
 10
108.5312603933
 20
312.2861331388
 30
0.0
 10
109.2300761242
 20
311.3915967644
 30
0.0
 10
109.7802746718
 20
310.3747064643
 30
0.0
 10
110.1373133796
 20
309.3191458701
 30
0.0
 10
110.2329610487
 20
308.6002237515
 30
0.0
 10
110.2329610487
 20
308.258309931
 30
0.0
  0
SPLINE
  5
460
100
AcDbEntity
  8
0
100
AcDbSpline
 62
7
  6
CONTINUOUS
 70
0
 71
3
 72
9
 73
5
 74
0
 42
0.0000001
 43
0.0000001
 44
0.0000000001
 40
0.0
 40
0.0
 40
0.0
 40
0.0
 40
0.2648778539
 40
1.0
 40
1.0
 40
1.0
 40
1.0
 10
105.733704721
 20
377.0447288198
 30
0.0
 10
105.66253314
 20
377.096954522
 30
0.0
 10
105.3882767568
 20
377.2861700895
 30
0.0
 10
105.0901209716
 20
377.4427580032
 30
0.0
 10
104.8605547791
 20
377.5283369827
 30
0.0
  0
SPLINE
  5
461
100
AcDbEntity
  8
0
100
AcDbSpline
 62
7
  6
CONTINUOUS
 70
0
 71
3
 72
9
 73
5
 74
0
 42
0.0000001
 43
0.0000001
 44
0.0000000001
 40
0.0
 40
0.0
 40
0.0
 40
0.0
 40
0.508317782
 40
1.0
 40
1.0
 40
1.0
 40
1.0
 10
107.3382687241
 20
373.0695370902
 30
0.0
 10
107.167255834
 20
373.7794653301
 30
0.0
 10
106.5671504291
 20
375.1145327268
 30
0.0
 10
105.5960678717
 20
376.2186098217
 30
0.0
 10
105.0266008838
 20
376.6364846659
 30
0.0
  0
SPLINE
  5
462
100
AcDbEntity
  8
0
100
AcDbSpline
 62
7
  6
CONTINUOUS
 70
0
 71
3
 72
9
 73
5
 74
0
 42
0.0000001
 43
0.0000001
 44
0.0000000001
 40
0.0
 40
0.0
 40
0.0
 40
0.0
 40
0.2381095867
 40
1.0
 40
1.0
 40
1.0
 40
1.0
 10
108.1823095128
 20
372.4141231138
 30
0.0
 10
108.1818701643
 20
372.4993500933
 30
0.0
 10
108.1679869819
 20
372.8571944407
 30
0.0
 10
108.1092378016
 20
373.2126565648
 30
0.0
 10
108.0453725613
 20
373.4777812441
 30
0.0
  0
SPLINE
  5
463
100
AcDbEntity
  8
0
100
AcDbSpline
 62
7
  6
CONTINUOUS
 70
0
 71
3
 72
9
 73
5
 74
0
 42
0.0000001
 43
0.0000001
 44
0.0000000001
 40
0.0
 40
0.0
 40
0.0
 40
0.0
 40
0.535554463
 40
1.0
 40
1.0
 40
1.0
 40
1.0
 10
104.1534509418
 20
377.1200928288
 30
0.0
 10
103.8949942316
 20
377.2164417784
 30
0.0
 10
103.378958213
 20
377.332423951
 30
0.0
 10
102.8539903352
 20
377.2030173345
 30
0.0
 10
102.6468447531
 20
377.0833888476
 30
0.0
  0
SPLINE
  5
464
100
AcDbEntity
  8
0
100
AcDbSpline
 62
7
  6
CONTINUOUS
 70
0
 71
3
 72
11
 73
7
 74
0
 42
0.0000001
 43
0.0000001
 44
0.0000000001
 40
0.0
 40
0.0
 40
0.0
 40
0.0
 40
0.237219572
 40
0.5000005441
 40
0.7627812203
 40
1.0
 40
1.0
 40
1.0
 40
1.0
 10
318.1552737037
 20
540.5703543916
 30
0.0
 10
315.366892379
 20
542.1801906806
 30
0.0
 10
308.8820691014
 20
544.5296686256
 30
0.0
 10
298.513251091
 20
545.6553225085
 30
0.0
 10
288.1444491096
 20
544.5296210732
 30
0.0
 10
281.6596518681
 20
542.180110985
 30
0.0
 10
278.8712914643
 20
540.5702599648
 30
0.0
  0
SPLINE
  5
465
100
AcDbEntity
  8
0
100
AcDbSpline
 62
7
  6
CONTINUOUS
 70
0
 71
3
 72
11
 73
7
 74
0
 42
0.0000001
 43
0.0000001
 44
0.0000000001
 40
0.0
 40
0.0
 40
0.0
 40
0.0
 40
0.2893849324
 40
0.54874054
 40
0.7822497157
 40
1.0
 40
1.0
 40
1.0
 40
1.0
 10
96.4385014618
 20
435.2432682652
 30
0.0
 10
95.23731914
 20
434.549769468
 30
0.0
 10
93.0553406053
 20
433.051423607
 30
0.0
 10
90.4359330345
 20
430.3244715038
 30
0.0
 10
88.7528507055
 20
427.3125030774
 30
0.0
 10
88.3271359753
 20
425.1445309151
 30
0.0
 10
88.304772998
 20
424.1011070975
 30
0.0
  0
SPLINE
  5
466
100
AcDbEntity
  8
0
100
AcDbSpline
 62
7
  6
CONTINUOUS
 70
0
 71
3
 72
10
 73
6
 74
0
 42
0.0000001
 43
0.0000001
 44
0.0000000001
 40
0.0
 40
0.0
 40
0.0
 40
0.0
 40
0.2183824859
 40
0.4522373614
 40
1.0
 40
1.0
 40
1.0
 40
1.0
 10
282.1534838407
 20
533.9248981941
 30
0.0
 10
282.1534904569
 20
533.7535516452
 30
0.0
 10
282.0904689747
 20
533.3961691033
 30
0.0
 10
281.710291453
 20
532.6983772384
 30
0.0
 10
281.2078784015
 20
532.3027060236
 30
0.0
 10
280.8356742239
 20
532.0878151241
 30
0.0
  0
SPLINE
  5
467
100
AcDbEntity
  8
0
100
AcDbSpline
 62
7
  6
CONTINUOUS
 70
0
 71
3
 72
11
 73
7
 74
0
 42
0.0000001
 43
0.0000001
 44
0.0000000001
 40
0.0
 40
0.0
 40
0.0
 40
0.0
 40
0.2372279391
 40
0.4999994735
 40
0.7627712944
 40
1.0
 40
1.0
 40
1.0
 40
1.0
 10
158.6655713978
 20
399.3188983101
 30
0.0
 10
157.3826626751
 20
398.5782150443
 30
0.0
 10
154.3991495409
 20
397.4972630226
 30
0.0
 10
149.6287610608
 20
396.9794618887
 30
0.0
 10
144.8583653783
 20
397.497241239
 30
0.0
 10
141.8748405017
 20
398.5781784366
 30
0.0
 10
140.5919222898
 20
399.3188548382
 30
0.0
  0
SPLINE
  5
468
100
AcDbEntity
  8
0
100
AcDbSpline
 62
7
  6
CONTINUOUS
 70
0
 71
3
 72
13
 73
9
 74
0
 42
0.0000001
 43
0.0000001
 44
0.0000000001
 40
0.0
 40
0.0
 40
0.0
 40
0.0
 40
0.2698956012
 40
0.5613257437
 40
0.6954661216
 40
0.8131446799
 40
0.9128555334
 40
1.0
 40
1.0
 40
1.0
 40
1.0
 10
258.9166858483
 20
348.7869005002
 30
0.0
 10
258.2205384131
 20
348.3849819902
 30
0.0
 10
256.5564323881
 20
347.9345357142
 30
0.0
 10
254.452330892
 20
348.0411545069
 30
0.0
 10
252.9072666004
 20
348.5558697091
 30
0.0
 10
252.0037073021
 20
349.1067111068
 30
0.0
 10
251.391478046
 20
349.802789591
 30
0.0
 10
251.2348987269
 20
350.3644384501
 30
0.0
 10
251.2348887052
 20
350.623984221
 30
0.0
  0
SPLINE
  5
469
100
AcDbEntity
  8
0
100
AcDbSpline
 62
7
  6
CONTINUOUS
 70
0
 71
3
 72
13
 73
9
 74
0
 42
0.0000001
 43
0.0000001
 44
0.0000000001
 40
0.0
 40
0.0
 40
0.0
 40
0.0
 40
0.2698956012
 40
0.5613257437
 40
0.6954661216
 40
0.8131446799
 40
0.9128555334
 40
1.0
 40
1.0
 40
1.0
 40
1.0
 10
343.769146314
 20
397.7761989648
 30
0.0
 10
343.0729988787
 20
397.3742804548
 30
0.0
 10
341.4088928538
 20
396.9238341788
 30
0.0
 10
339.3047913577
 20
397.0304529714
 30
0.0
 10
337.7597270661
 20
397.5451681737
 30
0.0
 10
336.8561677678
 20
398.0960095714
 30
0.0
 10
336.2439385117
 20
398.7920880555
 30
0.0
 10
336.0873591926
 20
399.3537369147
 30
0.0
 10
336.0873491708
 20
399.6132826856
 30
0.0
  0
SPLINE
  5
46A
100
AcDbEntity
  8
0
100
AcDbSpline
 62
7
  6
CONTINUOUS
 70
0
 71
3
 72
11
 73
7
 74
0
 42
0.0000001
 43
0.0000001
 44
0.0000000001
 40
0.0
 40
0.0
 40
0.0
 40
0.0
 40
0.2439009493
 40
0.5135918587
 40
0.775720355
 40
1.0
 40
1.0
 40
1.0
 40
1.0
 10
428.6216067796
 20
446.7654974294
 30
0.0
 10
428.1101636867
 20
446.4702173846
 30
0.0
 10
426.9088659624
 20
446.0634174151
 30
0.0
 10
425.0177974386
 20
445.9379904777
 30
0.0
 10
423.1987167687
 20
446.258275562
 30
0.0
 10
422.1158581204
 20
446.8002346605
 30
0.0
 10
421.7039981541
 20
447.1541812486
 30
0.0
  0
SPLINE
  5
46B
100
AcDbEntity
  8
0
100
AcDbSpline
 62
7
  6
CONTINUOUS
 70
0
 71
3
 72
9
 73
5
 74
0
 42
0.0000001
 43
0.0000001
 44
0.0000000001
 40
0.0
 40
0.0
 40
0.0
 40
0.0
 40
0.2592048426
 40
1.0
 40
1.0
 40
1.0
 40
1.0
 10
421.7039981541
 20
447.1541812486
 30
0.0
 10
421.6697396632
 20
447.1836225077
 30
0.0
 10
421.5400735729
 20
447.3000485368
 30
0.0
 10
421.4208425506
 20
447.4283685712
 30
0.0
 10
421.3411437698
 20
447.5299270979
 30
0.0
  0
SPLINE
  5
46C
100
AcDbEntity
  8
0
100
AcDbSpline
 62
7
  6
CONTINUOUS
 70
0
 71
3
 72
9
 73
5
 74
0
 42
0.0000001
 43
0.0000001
 44
0.0000000001
 40
0.0
 40
0.0
 40
0.0
 40
0.0
 40
0.5196761152
 40
1.0
 40
1.0
 40
1.0
 40
1.0
 10
421.3411437698
 20
447.5299270979
 30
0.0
 10
421.2169066765
 20
447.6882398855
 30
0.0
 10
421.0148268056
 20
448.0266144634
 30
0.0
 10
420.9398168185
 20
448.416579366
 30
0.0
 10
420.9398096365
 20
448.6025811502
 30
0.0
  0
SPLINE
  5
46D
100
AcDbEntity
  8
0
100
AcDbSpline
 62
7
  6
CONTINUOUS
 70
0
 71
3
 72
13
 73
9
 74
0
 42
0.0000001
 43
0.0000001
 44
0.0000000001
 40
0.0
 40
0.0
 40
0.0
 40
0.0
 40
0.2698956012
 40
0.5613257437
 40
0.6954661216
 40
0.8131446799
 40
0.9128555334
 40
1.0
 40
1.0
 40
1.0
 40
1.0
 10
164.5177082912
 20
379.6089788853
 30
0.0
 10
163.821560856
 20
379.2070603753
 30
0.0
 10
162.1574548311
 20
378.7566140993
 30
0.0
 10
160.053353335
 20
378.863232892
 30
0.0
 10
158.5082890433
 20
379.3779480942
 30
0.0
 10
157.604729745
 20
379.9287894919
 30
0.0
 10
156.992500489
 20
380.6248679761
 30
0.0
 10
156.8359211699
 20
381.1865168352
 30
0.0
 10
156.8359111481
 20
381.4460626061
 30
0.0
  0
SPLINE
  5
46E
100
AcDbEntity
  8
0
100
AcDbSpline
 62
7
  6
CONTINUOUS
 70
0
 71
3
 72
13
 73
9
 74
0
 42
0.0000001
 43
0.0000001
 44
0.0000000001
 40
0.0
 40
0.0
 40
0.0
 40
0.0
 40
0.2698956012
 40
0.5613257437
 40
0.6954661216
 40
0.8131446799
 40
0.9128555334
 40
1.0
 40
1.0
 40
1.0
 40
1.0
 10
111.1307532926
 20
434.109218195
 30
0.0
 10
110.4346058573
 20
433.707299685
 30
0.0
 10
108.7704998324
 20
433.2568534089
 30
0.0
 10
106.6663983363
 20
433.3634722016
 30
0.0
 10
105.1213340447
 20
433.8781874038
 30
0.0
 10
104.2177747464
 20
434.4290288015
 30
0.0
 10
103.6055454903
 20
435.1251072857
 30
0.0
 10
103.4489661712
 20
435.6867561449
 30
0.0
 10
103.4489561494
 20
435.9463019157
 30
0.0
  0
SPLINE
  5
46F
100
AcDbEntity
  8
0
100
AcDbSpline
 62
7
  6
CONTINUOUS
 70
0
 71
3
 72
13
 73
9
 74
0
 42
0.0000001
 43
0.0000001
 44
0.0000000001
 40
0.0
 40
0.0
 40
0.0
 40
0.0
 40
0.2698956012
 40
0.5613257437
 40
0.6954661216
 40
0.8131446799
 40
0.9128555334
 40
1.0
 40
1.0
 40
1.0
 40
1.0
 10
195.9832137582
 20
483.0985166596
 30
0.0
 10
195.287066323
 20
482.6965981496
 30
0.0
 10
193.6229602981
 20
482.2461518735
 30
0.0
 10
191.518858802
 20
482.3527706662
 30
0.0
 10
189.9737945104
 20
482.8674858684
 30
0.0
 10
189.070235212
 20
483.4183272661
 30
0.0
 10
188.458005956
 20
484.1144057503
 30
0.0
 10
188.3014266369
 20
484.6760546094
 30
0.0
 10
188.3014166151
 20
484.9356003803
 30
0.0
  0
SPLINE
  5
470
100
AcDbEntity
  8
0
100
AcDbSpline
 62
7
  6
CONTINUOUS
 70
0
 71
3
 72
13
 73
9
 74
0
 42
0.0000001
 43
0.0000001
 44
0.0000000001
 40
0.0
 40
0.0
 40
0.0
 40
0.0
 40
0.2698956012
 40
0.5613257437
 40
0.6954661216
 40
0.8131446799
 40
0.9128555334
 40
1.0
 40
1.0
 40
1.0
 40
1.0
 10
280.8356742239
 20
532.0878151241
 30
0.0
 10
280.1395267887
 20
531.6858966141
 30
0.0
 10
278.4754207637
 20
531.2354503381
 30
0.0
 10
276.3713192676
 20
531.3420691308
 30
0.0
 10
274.826254976
 20
531.856784333
 30
0.0
 10
273.9226956777
 20
532.4076257307
 30
0.0
 10
273.3104664217
 20
533.1037042149
 30
0.0
 10
273.1538871025
 20
533.665353074
 30
0.0
 10
273.1538770808
 20
533.9248988449
 30
0.0
  0
SPLINE
  5
471
100
AcDbEntity
  8
0
100
AcDbSpline
 62
7
  6
CONTINUOUS
 70
0
 71
3
 72
11
 73
7
 74
0
 42
0.0000001
 43
0.0000001
 44
0.0000000001
 40
0.0
 40
0.0
 40
0.0
 40
0.0
 40
0.289774579
 40
0.5490322178
 40
0.7822322968
 40
1.0
 40
1.0
 40
1.0
 40
1.0
 10
96.1338041962
 20
392.2193546526
 30
0.0
 10
94.8968136581
 20
392.9335153163
 30
0.0
 10
92.6527817878
 20
394.4779281628
 30
0.0
 10
89.9712849086
 20
397.2958898029
 30
0.0
 10
88.2721110852
 20
400.4112624553
 30
0.0
 10
87.8730805214
 20
402.6485373747
 30
0.0
 10
87.8715220612
 20
403.7219483192
 30
0.0
  0
SPLINE
  5
472
100
AcDbEntity
  8
0
100
AcDbSpline
 62
7
  6
CONTINUOUS
 70
0
 71
3
 72
11
 73
7
 74
0
 42
0.0000001
 43
0.0000001
 44
0.0000000001
 40
0.0
 40
0.0
 40
0.0
 40
0.0
 40
0.237218806
 40
0.4999994918
 40
0.7627804543
 40
1.0
 40
1.0
 40
1.0
 40
1.0
 10
254.8219444436
 20
323.6350037869
 30
0.0
 10
251.9903057617
 20
322.0001661904
 30
0.0
 10
245.4048578575
 20
319.6141894478
 30
0.0
 10
234.8751219715
 20
318.4710163109
 30
0.0
 10
224.3453705869
 20
319.6141416345
 30
0.0
 10
217.7598973187
 20
322.00008562
 30
0.0
 10
214.9282380192
 20
323.6349078942
 30
0.0
  0
SPLINE
  5
473
100
AcDbEntity
  8
0
100
AcDbSpline
 62
7
  6
CONTINUOUS
 70
0
 71
3
 72
10
 73
6
 74
0
 42
0.0000001
 43
0.0000001
 44
0.0000000001
 40
0.0
 40
0.0
 40
0.0
 40
0.0
 40
0.2183824859
 40
0.4522373614
 40
1.0
 40
1.0
 40
1.0
 40
1.0
 10
197.301023375
 20
484.9355997295
 30
0.0
 10
197.3010299912
 20
484.7642531806
 30
0.0
 10
197.2380085091
 20
484.4068706387
 30
0.0
 10
196.8578309873
 20
483.7090787738
 30
0.0
 10
196.3554179358
 20
483.313407559
 30
0.0
 10
195.9832137582
 20
483.0985166596
 30
0.0
  0
SPLINE
  5
474
100
AcDbEntity
  8
0
100
AcDbSpline
 62
7
  6
CONTINUOUS
 70
0
 71
3
 72
10
 73
6
 74
0
 42
0.0000001
 43
0.0000001
 44
0.0000000001
 40
0.0
 40
0.0
 40
0.0
 40
0.0
 40
0.2183824859
 40
0.4522373614
 40
1.0
 40
1.0
 40
1.0
 40
1.0
 10
112.4485629094
 20
435.9463012649
 30
0.0
 10
112.4485695255
 20
435.774954716
 30
0.0
 10
112.3855480434
 20
435.4175721741
 30
0.0
 10
112.0053705217
 20
434.7197803092
 30
0.0
 10
111.5029574702
 20
434.3241090944
 30
0.0
 10
111.1307532926
 20
434.109218195
 30
0.0
  0
SPLINE
  5
475
100
AcDbEntity
  8
0
100
AcDbSpline
 62
7
  6
CONTINUOUS
 70
0
 71
3
 72
10
 73
6
 74
0
 42
0.0000001
 43
0.0000001
 44
0.0000000001
 40
0.0
 40
0.0
 40
0.0
 40
0.0
 40
0.2183824859
 40
0.4522373614
 40
1.0
 40
1.0
 40
1.0
 40
1.0
 10
165.835517908
 20
381.4460619553
 30
0.0
 10
165.8355245242
 20
381.2747154064
 30
0.0
 10
165.7725030421
 20
380.9173328645
 30
0.0
 10
165.3923255203
 20
380.2195409996
 30
0.0
 10
164.8899124688
 20
379.8238697848
 30
0.0
 10
164.5177082912
 20
379.6089788853
 30
0.0
  0
SPLINE
  5
476
100
AcDbEntity
  8
0
100
AcDbSpline
 62
7
  6
CONTINUOUS
 70
0
 71
3
 72
10
 73
6
 74
0
 42
0.0000001
 43
0.0000001
 44
0.0000000001
 40
0.0
 40
0.0
 40
0.0
 40
0.0
 40
0.2183824859
 40
0.4522373614
 40
1.0
 40
1.0
 40
1.0
 40
1.0
 10
429.9394163964
 20
448.6025804993
 30
0.0
 10
429.9394230126
 20
448.4312339504
 30
0.0
 10
429.8764015304
 20
448.0738514085
 30
0.0
 10
429.4962240087
 20
447.3760595436
 30
0.0
 10
428.9938109572
 20
446.9803883288
 30
0.0
 10
428.6216067796
 20
446.7654974294
 30
0.0
  0
SPLINE
  5
477
100
AcDbEntity
  8
0
100
AcDbSpline
 62
7
  6
CONTINUOUS
 70
0
 71
3
 72
10
 73
6
 74
0
 42
0.0000001
 43
0.0000001
 44
0.0000000001
 40
0.0
 40
0.0
 40
0.0
 40
0.0
 40
0.2183824859
 40
0.4522373614
 40
1.0
 40
1.0
 40
1.0
 40
1.0
 10
345.0869559308
 20
399.6132820347
 30
0.0
 10
345.0869625469
 20
399.4419354859
 30
0.0
 10
345.0239410648
 20
399.084552944
 30
0.0
 10
344.643763543
 20
398.386761079
 30
0.0
 10
344.1413504916
 20
397.9910898642
 30
0.0
 10
343.769146314
 20
397.7761989648
 30
0.0
  0
SPLINE
  5
478
100
AcDbEntity
  8
0
100
AcDbSpline
 62
7
  6
CONTINUOUS
 70
0
 71
3
 72
10
 73
6
 74
0
 42
0.0000001
 43
0.0000001
 44
0.0000000001
 40
0.0
 40
0.0
 40
0.0
 40
0.0
 40
0.2183824859
 40
0.4522373614
 40
1.0
 40
1.0
 40
1.0
 40
1.0
 10
260.2344954651
 20
350.6239835702
 30
0.0
 10
260.2345020813
 20
350.4526370213
 30
0.0
 10
260.1714805991
 20
350.0952544794
 30
0.0
 10
259.7913030774
 20
349.3974626145
 30
0.0
 10
259.2888900259
 20
349.0017913997
 30
0.0
 10
258.9166858483
 20
348.7869005002
 30
0.0
  0
SPLINE
  5
479
100
AcDbEntity
  8
0
100
AcDbSpline
 62
7
  6
CONTINUOUS
 70
0
 71
3
 72
11
 73
7
 74
0
 42
0.0000001
 43
0.0000001
 44
0.0000000001
 40
0.0
 40
0.0
 40
0.0
 40
0.0
 40
0.2177821605
 40
0.4509085882
 40
0.7102951949
 40
1.0
 40
1.0
 40
1.0
 40
1.0
 10
427.8849169659
 20
485.1407861844
 30
0.0
 10
427.884916853
 20
484.7378151072
 30
0.0
 10
427.7360009769
 20
483.897896465
 30
0.0
 10
427.0992620065
 20
482.7276188972
 30
0.0
 10
426.0926669975
 20
481.6697335871
 30
0.0
 10
425.2504263699
 20
481.089624019
 30
0.0
 10
424.7861906508
 20
480.8215990015
 30
0.0
  0
SPLINE
  5
47A
100
AcDbEntity
  8
0
100
AcDbSpline
 62
7
  6
CONTINUOUS
 70
0
 71
3
 72
11
 73
7
 74
0
 42
0.0000001
 43
0.0000001
 44
0.0000000001
 40
0.0
 40
0.0
 40
0.0
 40
0.0
 40
0.2177723091
 40
0.4509273687
 40
0.7102218233
 40
1.0
 40
1.0
 40
1.0
 40
1.0
 10
430.0848758157
 20
485.1407861843
 30
0.0
 10
430.0848758095
 20
485.6275385988
 30
0.0
 10
429.9051136721
 20
486.6422028932
 30
0.0
 10
429.1358875428
 20
488.055633375
 30
0.0
 10
427.9202055573
 20
489.3337679005
 30
0.0
 10
426.902681056
 20
490.034304026
 30
0.0
 10
426.3417567983
 20
490.3581464708
 30
0.0
  0
SPLINE
  5
47B
100
AcDbEntity
  8
0
100
AcDbSpline
 62
7
  6
CONTINUOUS
 70
0
 71
3
 72
11
 73
7
 74
0
 42
0.0000001
 43
0.0000001
 44
0.0000000001
 40
0.0
 40
0.0
 40
0.0
 40
0.0
 40
0.2177681688
 40
0.4509684975
 40
0.7102259693
 40
1.0
 40
1.0
 40
1.0
 40
1.0
 10
445.5168504412
 20
440.464462966
 30
0.0
 10
445.5152885823
 20
439.3910657444
 30
0.0
 10
445.1162616029
 20
437.1538222876
 30
0.0
 10
443.41712266
 20
434.0384890323
 30
0.0
 10
440.7356837236
 20
431.2205562187
 30
0.0
 10
438.4916990373
 20
429.6761530633
 30
0.0
 10
437.254734443
 20
428.9619954848
 30
0.0
  0
SPLINE
  5
47C
100
AcDbEntity
  8
0
100
AcDbSpline
 62
7
  6
CONTINUOUS
 70
0
 71
3
 72
11
 73
7
 74
0
 42
0.0000001
 43
0.0000001
 44
0.0000000001
 40
0.0
 40
0.0
 40
0.0
 40
0.0
 40
0.2177498363
 40
0.4512588308
 40
0.7106146016
 40
1.0
 40
1.0
 40
1.0
 40
1.0
 10
445.0835995698
 20
460.8436520372
 30
0.0
 10
445.0612364381
 20
461.8870873384
 30
0.0
 10
444.6355121713
 20
464.0550849143
 30
0.0
 10
442.9523936302
 20
467.0670828833
 30
0.0
 10
440.3329326959
 20
469.7940555785
 30
0.0
 10
438.1509124757
 20
471.2924073215
 30
0.0
 10
436.9497075296
 20
471.9859076314
 30
0.0
  0
SPLINE
  5
47D
100
AcDbEntity
  8
0
100
AcDbSpline
 62
7
  6
CONTINUOUS
 70
0
 71
3
 72
9
 73
5
 74
0
 42
0.0000001
 43
0.0000001
 44
0.0000000001
 40
0.0
 40
0.0
 40
0.0
 40
0.0
 40
0.2603767255
 40
1.0
 40
1.0
 40
1.0
 40
1.0
 10
110.7900997451
 20
417.3748181844
 30
0.0
 10
110.7235455
 20
417.4228461797
 30
0.0
 10
110.4722196413
 20
417.6130676114
 30
0.0
 10
110.2385598184
 20
417.8273564316
 30
0.0
 10
110.0816313913
 20
417.9997720564
 30
0.0
  0
SPLINE
  5
47E
100
AcDbEntity
  8
0
100
AcDbSpline
 62
7
  6
CONTINUOUS
 70
0
 71
3
 72
9
 73
5
 74
0
 42
0.0000001
 43
0.0000001
 44
0.0000000001
 40
0.0
 40
0.0
 40
0.0
 40
0.0
 40
0.2581883901
 40
1.0
 40
1.0
 40
1.0
 40
1.0
 10
110.0816313913
 20
417.9997720564
 30
0.0
 10
110.0422944358
 20
418.0429911589
 30
0.0
 10
109.8937632237
 20
418.213793103
 30
0.0
 10
109.7611193467
 20
418.3986773459
 30
0.0
 10
109.6749136608
 20
418.5427660769
 30
0.0
  0
SPLINE
  5
47F
100
AcDbEntity
  8
0
100
AcDbSpline
 62
7
  6
CONTINUOUS
 70
0
 71
3
 72
9
 73
5
 74
0
 42
0.0000001
 43
0.0000001
 44
0.0000000001
 40
0.0
 40
0.0
 40
0.0
 40
0.0
 40
0.2619997842
 40
1.0
 40
1.0
 40
1.0
 40
1.0
 10
109.6749136608
 20
418.5427660769
 30
0.0
 10
109.6148388273
 20
418.6431783227
 30
0.0
 10
109.4074910451
 20
419.0388065892
 30
0.0
 10
109.3034575734
 20
419.491047901
 30
0.0
 10
109.3034576658
 20
419.8206445075
 30
0.0
  0
SPLINE
  5
480
100
AcDbEntity
  8
0
100
AcDbSpline
 62
7
  6
CONTINUOUS
 70
0
 71
3
 72
9
 73
5
 74
0
 42
0.0000001
 43
0.0000001
 44
0.0000000001
 40
0.0
 40
0.0
 40
0.0
 40
0.0
 40
0.5001894773
 40
1.0
 40
1.0
 40
1.0
 40
1.0
 10
279.8672818632
 20
532.099046868
 30
0.0
 10
279.1864698931
 20
532.4175695909
 30
0.0
 10
277.6583986478
 20
532.6833565785
 30
0.0
 10
276.1305384472
 20
532.4148586797
 30
0.0
 10
275.4510787623
 20
532.0947954523
 30
0.0
  0
SPLINE
  5
481
100
AcDbEntity
  8
0
100
AcDbSpline
 62
7
  6
CONTINUOUS
 70
0
 71
3
 72
11
 73
7
 74
0
 42
0.0000001
 43
0.0000001
 44
0.0000000001
 40
0.0
 40
0.0
 40
0.0
 40
0.0
 40
0.2372531821
 40
0.5000006877
 40
0.7627478192
 40
1.0
 40
1.0
 40
1.0
 40
1.0
 10
349.8624471035
 20
479.4991360562
 30
0.0
 10
349.4889784191
 20
479.7147533858
 30
0.0
 10
348.6205374541
 20
480.0294396104
 30
0.0
 10
347.2320054351
 20
480.1798858676
 30
0.0
 10
345.8434759967
 20
480.0294330137
 30
0.0
 10
344.9750390098
 20
479.7147427015
 30
0.0
 10
344.6015734728
 20
479.4991235603
 30
0.0
  0
SPLINE
  5
482
100
AcDbEntity
  8
0
100
AcDbSpline
 62
7
  6
CONTINUOUS
 70
0
 71
3
 72
9
 73
5
 74
0
 42
0.0000001
 43
0.0000001
 44
0.0000000001
 40
0.0
 40
0.0
 40
0.0
 40
0.0
 40
0.4985809968
 40
1.0
 40
1.0
 40
1.0
 40
1.0
 10
194.911492267
 20
483.0500916582
 30
0.0
 10
194.2456165027
 20
483.361626371
 30
0.0
 10
192.7487332715
 20
483.629575154
 30
0.0
 10
191.2501637742
 20
483.3820235754
 30
0.0
 10
190.574426798
 20
483.0820334748
 30
0.0
  0
SPLINE
  5
483
100
AcDbEntity
  8
0
100
AcDbSpline
 62
7
  6
CONTINUOUS
 70
0
 71
3
 72
11
 73
7
 74
0
 42
0.0000001
 43
0.0000001
 44
0.0000000001
 40
0.0
 40
0.0
 40
0.0
 40
0.0
 40
0.237271817
 40
0.5000142226
 40
0.7627489629
 40
1.0
 40
1.0
 40
1.0
 40
1.0
 10
380.5971127244
 20
461.4780346689
 30
0.0
 10
379.911631977
 20
461.0833197934
 30
0.0
 10
378.319185691
 20
460.5058128035
 30
0.0
 10
375.7723972006
 20
460.2291870816
 30
0.0
 10
373.2257062639
 20
460.5061213868
 30
0.0
 10
371.63344207
 20
461.0838639985
 30
0.0
 10
370.9480911466
 20
461.4786654827
 30
0.0
  0
SPLINE
  5
484
100
AcDbEntity
  8
0
100
AcDbSpline
 62
7
  6
CONTINUOUS
 70
0
 71
3
 72
11
 73
7
 74
0
 42
0.0000001
 43
0.0000001
 44
0.0000000001
 40
0.0
 40
0.0
 40
0.0
 40
0.0
 40
0.237228705
 40
0.5000005261
 40
0.7627720609
 40
1.0
 40
1.0
 40
1.0
 40
1.0
 10
368.3587593363
 20
523.8338883415
 30
0.0
 10
367.0758411178
 20
524.5745647639
 30
0.0
 10
364.0923162108
 20
525.6555019989
 30
0.0
 10
359.321920465
 20
526.1732813699
 30
0.0
 10
354.5515319169
 20
525.6554802294
 30
0.0
 10
351.5680187445
 20
524.5745281801
 30
0.0
 10
350.2851100093
 20
523.8338448978
 30
0.0
  0
SPLINE
  5
485
100
AcDbEntity
  8
0
100
AcDbSpline
 62
7
  6
CONTINUOUS
 70
0
 71
3
 72
11
 73
7
 74
0
 42
0.0000001
 43
0.0000001
 44
0.0000000001
 40
0.0
 40
0.0
 40
0.0
 40
0.0
 40
0.2897776971
 40
0.5490719787
 40
0.7822272299
 40
1.0
 40
1.0
 40
1.0
 40
1.0
 10
167.8551484235
 20
418.5084861755
 30
0.0
 10
167.2942346553
 20
418.1846443935
 30
0.0
 10
166.2767294644
 20
417.4841109425
 30
0.0
 10
165.0610721688
 20
416.205985891
 30
0.0
 10
164.2918626801
 20
414.7925690945
 30
0.0
 10
164.1121046477
 20
413.7779165073
 30
0.0
 10
164.1121046539
 20
413.2911693328
 30
0.0
  0
SPLINE
  5
486
100
AcDbEntity
  8
0
100
AcDbSpline
 62
7
  6
CONTINUOUS
 70
0
 71
3
 72
11
 73
7
 74
0
 42
0.0000001
 43
0.0000001
 44
0.0000000001
 40
0.0
 40
0.0
 40
0.0
 40
0.0
 40
0.2897052857
 40
0.5490919933
 40
0.7822182543
 40
1.0
 40
1.0
 40
1.0
 40
1.0
 10
169.4108521131
 20
408.9719461848
 30
0.0
 10
168.9466077097
 20
409.2399717526
 30
0.0
 10
168.104351105
 20
409.8200833182
 30
0.0
 10
167.0977357695
 20
410.8779765181
 30
0.0
 10
166.4609831306
 20
412.048265369
 30
0.0
 10
166.3120633907
 20
412.8881938309
 30
0.0
 10
166.3120635037
 20
413.2911693327
 30
0.0
  0
SPLINE
  5
487
100
AcDbEntity
  8
0
100
AcDbSpline
 62
7
  6
CONTINUOUS
 70
0
 71
3
 72
11
 73
7
 74
0
 42
0.0000001
 43
0.0000001
 44
0.0000000001
 40
0.0
 40
0.0
 40
0.0
 40
0.0
 40
0.2372398078
 40
0.4999994051
 40
0.7627593222
 40
1.0
 40
1.0
 40
1.0
 40
1.0
 10
242.356229065
 20
375.4962402793
 30
0.0
 10
241.2941125615
 20
374.8830306904
 30
0.0
 10
238.824174306
 20
373.9882129153
 30
0.0
 10
234.8750519905
 20
373.5594956553
 30
0.0
 10
230.925923143
 20
373.9881945554
 30
0.0
 10
228.4559743954
 20
374.8830001358
 30
0.0
 10
227.3938495752
 20
375.4962043141
 30
0.0
  0
SPLINE
  5
488
100
AcDbEntity
  8
0
100
AcDbSpline
 62
7
  6
CONTINUOUS
 70
0
 71
3
 72
9
 73
5
 74
0
 42
0.0000001
 43
0.0000001
 44
0.0000000001
 40
0.0
 40
0.0
 40
0.0
 40
0.0
 40
0.4987821376
 40
1.0
 40
1.0
 40
1.0
 40
1.0
 10
110.0824409274
 20
434.0743083782
 30
0.0
 10
109.4146611946
 20
434.3867338762
 30
0.0
 10
107.913779966
 20
434.6544235049
 30
0.0
 10
106.41146256
 20
434.4042294519
 30
0.0
 10
105.7351905365
 20
434.1017114263
 30
0.0
  0
SPLINE
  5
489
100
AcDbEntity
  8
0
100
AcDbSpline
 62
7
  6
CONTINUOUS
 70
0
 71
3
 72
9
 73
5
 74
0
 42
0.0000001
 43
0.0000001
 44
0.0000000001
 40
0.0
 40
0.0
 40
0.0
 40
0.0
 40
0.5026585415
 40
1.0
 40
1.0
 40
1.0
 40
1.0
 10
257.742900289
 20
348.7955486403
 30
0.0
 10
257.0870387331
 20
349.0595363922
 30
0.0
 10
255.6597948309
 20
349.2759239681
 30
0.0
 10
254.2361041834
 20
349.0209021299
 30
0.0
 10
253.5975628217
 20
348.7352622316
 30
0.0
  0
SPLINE
  5
48A
100
AcDbEntity
  8
0
100
AcDbSpline
 62
7
  6
CONTINUOUS
 70
0
 71
3
 72
9
 73
5
 74
0
 42
0.0000001
 43
0.0000001
 44
0.0000000001
 40
0.0
 40
0.0
 40
0.0
 40
0.0
 40
0.5022646247
 40
1.0
 40
1.0
 40
1.0
 40
1.0
 10
163.3257641202
 20
379.6431811846
 30
0.0
 10
162.699465078
 20
379.8768057561
 30
0.0
 10
161.3518415107
 20
380.0721653211
 30
0.0
 10
160.0075141406
 20
379.8435104205
 30
0.0
 10
159.3949261083
 20
379.5914302074
 30
0.0
  0
SPLINE
  5
48B
100
AcDbEntity
  8
0
100
AcDbSpline
 62
7
  6
CONTINUOUS
 70
0
 71
3
 72
9
 73
5
 74
0
 42
0.0000001
 43
0.0000001
 44
0.0000000001
 40
0.0
 40
0.0
 40
0.0
 40
0.0
 40
0.4956740426
 40
1.0
 40
1.0
 40
1.0
 40
1.0
 10
342.9057270102
 20
397.6187632121
 30
0.0
 10
342.2356007411
 20
397.9653718889
 30
0.0
 10
340.6892822318
 20
398.2702911799
 30
0.0
 10
339.1383953723
 20
398.0270544953
 30
0.0
 10
338.4367990831
 20
397.7155842801
 30
0.0
  0
SPLINE
  5
48C
100
AcDbEntity
  8
0
100
AcDbSpline
 62
7
  6
CONTINUOUS
 70
0
 71
3
 72
9
 73
5
 74
0
 42
0.0000001
 43
0.0000001
 44
0.0000000001
 40
0.0
 40
0.0
 40
0.0
 40
0.0
 40
0.5040657149
 40
1.0
 40
1.0
 40
1.0
 40
1.0
 10
427.5277412248
 20
446.8202871302
 30
0.0
 10
426.8585035216
 20
447.0896588522
 30
0.0
 10
425.404413695
 20
447.3040630034
 30
0.0
 10
423.9555556208
 20
447.0308131539
 30
0.0
 10
423.3134510474
 20
446.7283462576
 30
0.0
  0
SPLINE
  5
48D
100
AcDbEntity
  8
0
100
AcDbSpline
 62
7
  6
CONTINUOUS
 70
0
 71
3
 72
11
 73
7
 74
0
 42
0.0000001
 43
0.0000001
 44
0.0000000001
 40
0.0
 40
0.0
 40
0.0
 40
0.0
 40
0.2177821605
 40
0.4509085882
 40
0.7102951949
 40
1.0
 40
1.0
 40
1.0
 40
1.0
 10
109.3034576658
 20
419.8206445075
 30
0.0
 10
109.3034577382
 20
420.0788811714
 30
0.0
 10
109.3988877609
 20
420.6171277114
 30
0.0
 10
109.8069303147
 20
421.3670787426
 30
0.0
 10
110.4519883639
 20
422.0450052457
 30
0.0
 10
110.991722906
 20
422.41675788
 30
0.0
 10
111.289219898
 20
422.5885168232
 30
0.0
  0
SPLINE
  5
48E
100
AcDbEntity
  8
0
100
AcDbSpline
 62
7
  6
CONTINUOUS
 70
0
 71
3
 72
10
 73
6
 74
0
 42
0.0000001
 43
0.0000001
 44
0.0000000001
 40
0.0
 40
0.0
 40
0.0
 40
0.0
 40
0.2183824859
 40
0.4522373614
 40
1.0
 40
1.0
 40
1.0
 40
1.0
 10
188.3014166151
 20
484.9356003803
 30
0.0
 10
188.3014099989
 20
485.1069469292
 30
0.0
 10
188.3644314811
 20
485.4643294711
 30
0.0
 10
188.7446090028
 20
486.162121336
 30
0.0
 10
189.2470220543
 20
486.5577925508
 30
0.0
 10
189.6192262319
 20
486.7726834502
 30
0.0
  0
SPLINE
  5
48F
100
AcDbEntity
  8
0
100
AcDbSpline
 62
7
  6
CONTINUOUS
 70
0
 71
3
 72
11
 73
7
 74
0
 42
0.0000001
 43
0.0000001
 44
0.0000000001
 40
0.0
 40
0.0
 40
0.0
 40
0.0
 40
0.2372279391
 40
0.4999994739
 40
0.762771295
 40
1.0
 40
1.0
 40
1.0
 40
1.0
 10
243.9118704603
 20
350.1030381055
 30
0.0
 10
242.6289617251
 20
349.3623548231
 30
0.0
 10
239.6454485527
 20
348.2814027738
 30
0.0
 10
234.8750600046
 20
347.7636016334
 30
0.0
 10
230.1046642588
 20
348.2813810043
 30
0.0
 10
227.1211393518
 20
349.3623182393
 30
0.0
 10
225.8382211333
 20
350.1029946617
 30
0.0
  0
SPLINE
  5
490
100
AcDbEntity
  8
0
100
AcDbSpline
 62
7
  6
CONTINUOUS
 70
0
 71
3
 72
11
 73
7
 74
0
 42
0.0000001
 43
0.0000001
 44
0.0000000001
 40
0.0
 40
0.0
 40
0.0
 40
0.0
 40
0.2372279391
 40
0.4999994735
 40
0.7627712944
 40
1.0
 40
1.0
 40
1.0
 40
1.0
 10
169.0737102327
 20
464.9316506595
 30
0.0
 10
170.3566189554
 20
465.6723339253
 30
0.0
 10
173.3401320895
 20
466.7532859465
 30
0.0
 10
178.1105205712
 20
467.2710870828
 30
0.0
 10
182.8809162488
 20
466.753307723
 30
0.0
 10
185.8644411368
 20
465.6723705453
 30
0.0
 10
187.1473593415
 20
464.9316941308
 30
0.0
  0
SPLINE
  5
491
100
AcDbEntity
  8
0
100
AcDbSpline
 62
7
  6
CONTINUOUS
 70
0
 71
3
 72
15
 73
11
 74
0
 42
0.0000001
 43
0.0000001
 44
0.0000000001
 40
0.0
 40
0.0
 40
0.0
 40
0.0
 40
0.1448892962
 40
0.274536791
 40
0.3911145997
 40
0.5000009567
 40
0.6088871399
 40
0.7254644868
 40
0.8551113598
 40
1.0
 40
1.0
 40
1.0
 40
1.0
 10
107.0466367149
 20
418.6857963561
 30
0.0
 10
106.4857152774
 20
419.0096371769
 30
0.0
 10
105.4681954023
 20
419.7102679983
 30
0.0
 10
104.252516899
 20
420.9880032964
 30
0.0
 10
103.4832890369
 20
422.402660252
 30
0.0
 10
103.2167038396
 20
423.903124404
 30
0.0
 10
103.4832666766
 20
425.4035906056
 30
0.0
 10
104.2524743849
 20
426.8182525039
 30
0.0
 10
105.4681350931
 20
428.0959943347
 30
0.0
 10
106.4856448585
 20
428.7966299572
 30
0.0
 10
107.0465614196
 20
429.1204733591
 30
0.0
  0
SPLINE
  5
492
100
AcDbEntity
  8
0
100
AcDbSpline
 62
7
  6
CONTINUOUS
 70
0
 71
3
 72
13
 73
9
 74
0
 42
0.0000001
 43
0.0000001
 44
0.0000000001
 40
0.0
 40
0.0
 40
0.0
 40
0.0
 40
0.2698956012
 40
0.5613257437
 40
0.6954661216
 40
0.8131446799
 40
0.9128555334
 40
1.0
 40
1.0
 40
1.0
 40
1.0
 10
252.552698322
 20
352.4610672909
 30
0.0
 10
253.2488457572
 20
352.8629858009
 30
0.0
 10
254.9129517821
 20
353.313432077
 30
0.0
 10
257.0170532782
 20
353.2068132843
 30
0.0
 10
258.5621175698
 20
352.6920980821
 30
0.0
 10
259.4656768682
 20
352.1412566844
 30
0.0
 10
260.0779061242
 20
351.4451782002
 30
0.0
 10
260.2344854433
 20
350.883529341
 30
0.0
 10
260.2344954651
 20
350.6239835702
 30
0.0
  0
SPLINE
  5
493
100
AcDbEntity
  8
0
100
AcDbSpline
 62
7
  6
CONTINUOUS
 70
0
 71
3
 72
10
 73
6
 74
0
 42
0.0000001
 43
0.0000001
 44
0.0000000001
 40
0.0
 40
0.0
 40
0.0
 40
0.0
 40
0.2183824859
 40
0.4522373614
 40
1.0
 40
1.0
 40
1.0
 40
1.0
 10
251.2348887052
 20
350.623984221
 30
0.0
 10
251.234882089
 20
350.7953307699
 30
0.0
 10
251.2979035711
 20
351.1527133118
 30
0.0
 10
251.6780810929
 20
351.8505051767
 30
0.0
 10
252.1804941444
 20
352.2461763915
 30
0.0
 10
252.552698322
 20
352.4610672909
 30
0.0
  0
SPLINE
  5
494
100
AcDbEntity
  8
0
100
AcDbSpline
 62
7
  6
CONTINUOUS
 70
0
 71
3
 72
13
 73
9
 74
0
 42
0.0000001
 43
0.0000001
 44
0.0000000001
 40
0.0
 40
0.0
 40
0.0
 40
0.0
 40
0.2698956012
 40
0.5613257437
 40
0.6954661216
 40
0.8131446799
 40
0.9128555334
 40
1.0
 40
1.0
 40
1.0
 40
1.0
 10
337.4051587876
 20
401.4503657555
 30
0.0
 10
338.1013062229
 20
401.8522842655
 30
0.0
 10
339.7654122478
 20
402.3027305416
 30
0.0
 10
341.8695137439
 20
402.1961117489
 30
0.0
 10
343.4145780355
 20
401.6813965467
 30
0.0
 10
344.3181373338
 20
401.1305551489
 30
0.0
 10
344.9303665899
 20
400.4344766648
 30
0.0
 10
345.086945909
 20
399.8728278056
 30
0.0
 10
345.0869559308
 20
399.6132820347
 30
0.0
  0
SPLINE
  5
495
100
AcDbEntity
  8
0
100
AcDbSpline
 62
7
  6
CONTINUOUS
 70
0
 71
3
 72
11
 73
7
 74
0
 42
0.0000001
 43
0.0000001
 44
0.0000000001
 40
0.0
 40
0.0
 40
0.0
 40
0.0
 40
0.2373139063
 40
0.4999887614
 40
0.7626637467
 40
1.0
 40
1.0
 40
1.0
 40
1.0
 10
344.6015729326
 20
481.1324226131
 30
0.0
 10
344.9749260282
 20
481.3487377344
 30
0.0
 10
345.8427841928
 20
481.6665610855
 30
0.0
 10
347.23202718
 20
481.8136780428
 30
0.0
 10
348.6211718619
 20
481.6664915013
 30
0.0
 10
349.4893351613
 20
481.348952482
 30
0.0
 10
349.8624471524
 20
481.1321408723
 30
0.0
  0
SPLINE
  5
496
100
AcDbEntity
  8
0
100
AcDbSpline
 62
7
  6
CONTINUOUS
 70
0
 71
3
 72
11
 73
7
 74
0
 42
0.0000001
 43
0.0000001
 44
0.0000000001
 40
0.0
 40
0.0
 40
0.0
 40
0.0
 40
0.2372405738
 40
0.5000004574
 40
0.7627600882
 40
1.0
 40
1.0
 40
1.0
 40
1.0
 10
366.8031308944
 20
522.4458497527
 30
0.0
 10
365.7410065398
 20
523.0590536622
 30
0.0
 10
363.2710585701
 20
523.9538591733
 30
0.0
 10
359.3219302955
 20
524.3825584115
 30
0.0
 10
355.3728074072
 20
523.9538414897
 30
0.0
 10
352.9028683737
 20
523.0590236452
 30
0.0
 10
351.8407514046
 20
522.4458137875
 30
0.0
  0
SPLINE
  5
497
100
AcDbEntity
  8
0
100
AcDbSpline
 62
7
  6
CONTINUOUS
 70
0
 71
3
 72
11
 73
7
 74
0
 42
0.0000001
 43
0.0000001
 44
0.0000000001
 40
0.0
 40
0.0
 40
0.0
 40
0.0
 40
0.2868111445
 40
0.5466503149
 40
0.7818418793
 40
1.0
 40
1.0
 40
1.0
 40
1.0
 10
169.4107898188
 20
417.1204550653
 30
0.0
 10
168.9897486766
 20
416.8773682995
 30
0.0
 10
168.2188835523
 20
416.3543900084
 30
0.0
 10
167.2694516511
 20
415.4168765774
 30
0.0
 10
166.6151593707
 20
414.3860135024
 30
0.0
 10
166.3924250592
 20
413.6369238112
 30
0.0
 10
166.3434188466
 20
413.2703838982
 30
0.0
  0
SPLINE
  5
498
100
AcDbEntity
  8
0
100
AcDbSpline
 62
7
  6
CONTINUOUS
 70
0
 71
3
 72
11
 73
7
 74
0
 42
0.0000001
 43
0.0000001
 44
0.0000000001
 40
0.0
 40
0.0
 40
0.0
 40
0.0
 40
0.2372718543
 40
0.5000142684
 40
0.762748992
 40
1.0
 40
1.0
 40
1.0
 40
1.0
 10
336.8480689401
 20
507.1310753349
 30
0.0
 10
337.5335498743
 20
507.5257899109
 30
0.0
 10
339.1259962159
 20
508.1032964
 30
0.0
 10
341.6727845046
 20
508.379921524
 30
0.0
 10
344.2194748951
 20
508.1029867921
 30
0.0
 10
345.8117386179
 20
507.5252440259
 30
0.0
 10
346.4970892774
 20
507.1304425024
 30
0.0
  0
SPLINE
  5
499
100
AcDbEntity
  8
0
100
AcDbSpline
 62
7
  6
CONTINUOUS
 70
0
 71
3
 72
10
 73
6
 74
0
 42
0.0000001
 43
0.0000001
 44
0.0000000001
 40
0.0
 40
0.0
 40
0.0
 40
0.0
 40
0.2183824859
 40
0.4522373614
 40
1.0
 40
1.0
 40
1.0
 40
1.0
 10
103.4489561494
 20
435.9463019157
 30
0.0
 10
103.4489495333
 20
436.1176484646
 30
0.0
 10
103.5119710154
 20
436.4750310065
 30
0.0
 10
103.8921485371
 20
437.1728228714
 30
0.0
 10
104.3945615886
 20
437.5684940863
 30
0.0
 10
104.7667657662
 20
437.7833849857
 30
0.0
  0
SPLINE
  5
49A
100
AcDbEntity
  8
0
100
AcDbSpline
 62
7
  6
CONTINUOUS
 70
0
 71
3
 72
13
 73
9
 74
0
 42
0.0000001
 43
0.0000001
 44
0.0000000001
 40
0.0
 40
0.0
 40
0.0
 40
0.0
 40
0.278971291
 40
0.3989157604
 40
0.5104013727
 40
0.6200779465
 40
0.7351318833
 40
1.0
 40
1.0
 40
1.0
 40
1.0
 10
398.2588557711
 20
477.2464487498
 30
0.0
 10
398.7940435748
 20
476.9367784188
 30
0.0
 10
399.5178090586
 20
476.3749103588
 30
0.0
 10
400.1051494188
 20
475.3934837965
 30
0.0
 10
400.2911968056
 20
474.6475357641
 30
0.0
 10
400.2271900773
 20
473.891550823
 30
0.0
 10
399.7988965367
 20
472.878591693
 30
0.0
 10
399.1590332803
 20
472.2746363676
 30
0.0
 10
398.6768005604
 20
471.9398312487
 30
0.0
  0
SPLINE
  5
49B
100
AcDbEntity
  8
0
100
AcDbSpline
 62
7
  6
CONTINUOUS
 70
0
 71
3
 72
11
 73
7
 74
0
 42
0.0000001
 43
0.0000001
 44
0.0000000001
 40
0.0
 40
0.0
 40
0.0
 40
0.0
 40
0.2897776971
 40
0.5490719787
 40
0.7822272299
 40
1.0
 40
1.0
 40
1.0
 40
1.0
 10
426.3418320461
 20
479.9234693416
 30
0.0
 10
426.9027458143
 20
480.2473111236
 30
0.0
 10
427.9202510052
 20
480.9478445746
 30
0.0
 10
429.1359083008
 20
482.2259696261
 30
0.0
 10
429.9051177895
 20
483.6393864226
 30
0.0
 10
430.0848758219
 20
484.6540390098
 30
0.0
 10
430.0848758157
 20
485.1407861843
 30
0.0
  0
SPLINE
  5
49C
100
AcDbEntity
  8
0
100
AcDbSpline
 62
7
  6
CONTINUOUS
 70
0
 71
3
 72
11
 73
7
 74
0
 42
0.0000001
 43
0.0000001
 44
0.0000000001
 40
0.0
 40
0.0
 40
0.0
 40
0.0
 40
0.237228705
 40
0.5000005261
 40
0.7627720609
 40
1.0
 40
1.0
 40
1.0
 40
1.0
 10
225.8382211333
 20
374.5980671756
 30
0.0
 10
227.1211393518
 20
373.8573907532
 30
0.0
 10
230.1046642588
 20
372.7764535182
 30
0.0
 10
234.8750600046
 20
372.2586741473
 30
0.0
 10
239.6454485527
 20
372.7764752877
 30
0.0
 10
242.6289617251
 20
373.857427337
 30
0.0
 10
243.9118704603
 20
374.5981106193
 30
0.0
  0
SPLINE
  5
49D
100
AcDbEntity
  8
0
100
AcDbSpline
 62
7
  6
CONTINUOUS
 70
0
 71
3
 72
11
 73
7
 74
0
 42
0.0000001
 43
0.0000001
 44
0.0000000001
 40
0.0
 40
0.0
 40
0.0
 40
0.0
 40
0.2372398078
 40
0.4999994051
 40
0.7627593222
 40
1.0
 40
1.0
 40
1.0
 40
1.0
 10
351.8407514046
 20
522.9357152378
 30
0.0
 10
352.9028679081
 20
523.5489248267
 30
0.0
 10
355.3728061636
 20
524.4437426018
 30
0.0
 10
359.3219284791
 20
524.8724598618
 30
0.0
 10
363.2710573266
 20
524.4437609617
 30
0.0
 10
365.7410060742
 20
523.5489553813
 30
0.0
 10
366.8031308944
 20
522.935751203
 30
0.0
  0
SPLINE
  5
49E
100
AcDbEntity
  8
0
100
AcDbSpline
 62
7
  6
CONTINUOUS
 70
0
 71
3
 72
13
 73
9
 74
0
 42
0.0000001
 43
0.0000001
 44
0.0000000001
 40
0.0
 40
0.0
 40
0.0
 40
0.0
 40
0.2698956012
 40
0.5613257437
 40
0.6954661216
 40
0.8131446799
 40
0.9128555334
 40
1.0
 40
1.0
 40
1.0
 40
1.0
 10
422.2576192533
 20
450.4396642201
 30
0.0
 10
422.9537666885
 20
450.8415827301
 30
0.0
 10
424.6178727134
 20
451.2920290061
 30
0.0
 10
426.7219742096
 20
451.1854102135
 30
0.0
 10
428.2670385012
 20
450.6706950112
 30
0.0
 10
429.1705977995
 20
450.1198536135
 30
0.0
 10
429.7828270555
 20
449.4237751294
 30
0.0
 10
429.9394063746
 20
448.8621262702
 30
0.0
 10
429.9394163964
 20
448.6025804993
 30
0.0
  0
SPLINE
  5
49F
100
AcDbEntity
  8
0
100
AcDbSpline
 62
7
  6
CONTINUOUS
 70
0
 71
3
 72
11
 73
7
 74
0
 42
0.0000001
 43
0.0000001
 44
0.0000000001
 40
0.0
 40
0.0
 40
0.0
 40
0.0
 40
0.2897052857
 40
0.5490919933
 40
0.7822182543
 40
1.0
 40
1.0
 40
1.0
 40
1.0
 10
424.7861283565
 20
489.4600093323
 30
0.0
 10
425.2503727599
 20
489.1919837645
 30
0.0
 10
426.0926293646
 20
488.6118721989
 30
0.0
 10
427.0992447001
 20
487.553978999
 30
0.0
 10
427.735997339
 20
486.3836901481
 30
0.0
 10
427.8849170789
 20
485.5437616862
 30
0.0
 10
427.8849169659
 20
485.1407861844
 30
0.0
  0
SPLINE
  5
4A0
100
AcDbEntity
  8
0
100
AcDbSpline
 62
7
  6
CONTINUOUS
 70
0
 71
3
 72
13
 73
9
 74
0
 42
0.0000001
 43
0.0000001
 44
0.0000000001
 40
0.0
 40
0.0
 40
0.0
 40
0.0
 40
0.2698956012
 40
0.5613257437
 40
0.6954661216
 40
0.8131446799
 40
0.9128555334
 40
1.0
 40
1.0
 40
1.0
 40
1.0
 10
158.1537207649
 20
383.283145676
 30
0.0
 10
158.8498682001
 20
383.685064186
 30
0.0
 10
160.5139742251
 20
384.1355104621
 30
0.0
 10
162.6180757212
 20
384.0288916694
 30
0.0
 10
164.1631400128
 20
383.5141764672
 30
0.0
 10
165.0666993111
 20
382.9633350695
 30
0.0
 10
165.6789285671
 20
382.2672565853
 30
0.0
 10
165.8355078863
 20
381.7056077261
 30
0.0
 10
165.835517908
 20
381.4460619553
 30
0.0
  0
SPLINE
  5
4A1
100
AcDbEntity
  8
0
100
AcDbSpline
 62
7
  6
CONTINUOUS
 70
0
 71
3
 72
10
 73
6
 74
0
 42
0.0000001
 43
0.0000001
 44
0.0000000001
 40
0.0
 40
0.0
 40
0.0
 40
0.0
 40
0.2183824859
 40
0.4522373614
 40
1.0
 40
1.0
 40
1.0
 40
1.0
 10
156.8359111481
 20
381.4460626061
 30
0.0
 10
156.8359045319
 20
381.617409155
 30
0.0
 10
156.8989260141
 20
381.9747916969
 30
0.0
 10
157.2791035358
 20
382.6725835618
 30
0.0
 10
157.7815165873
 20
383.0682547766
 30
0.0
 10
158.1537207649
 20
383.283145676
 30
0.0
  0
SPLINE
  5
4A2
100
AcDbEntity
  8
0
100
AcDbSpline
 62
7
  6
CONTINUOUS
 70
0
 71
3
 72
9
 73
5
 74
0
 42
0.0000001
 43
0.0000001
 44
0.0000000001
 40
0.0
 40
0.0
 40
0.0
 40
0.0
 40
0.268945835
 40
1.0
 40
1.0
 40
1.0
 40
1.0
 10
381.3712570924
 20
462.9417072821
 30
0.0
 10
381.4480323141
 20
462.8976413822
 30
0.0
 10
381.7268185174
 20
462.7231677719
 30
0.0
 10
381.9798056595
 20
462.5020859121
 30
0.0
 10
382.1284964665
 20
462.3129012193
 30
0.0
  0
SPLINE
  5
4A3
100
AcDbEntity
  8
0
100
AcDbSpline
 62
7
  6
CONTINUOUS
 70
0
 71
3
 72
13
 73
9
 74
0
 42
0.0000001
 43
0.0000001
 44
0.0000000001
 40
0.0
 40
0.0
 40
0.0
 40
0.0
 40
0.2698956012
 40
0.5613257437
 40
0.6954661216
 40
0.8131446799
 40
0.9128555334
 40
1.0
 40
1.0
 40
1.0
 40
1.0
 10
104.7667657662
 20
437.7833849857
 30
0.0
 10
105.4629132015
 20
438.1853034957
 30
0.0
 10
107.1270192264
 20
438.6357497717
 30
0.0
 10
109.2311207225
 20
438.529130979
 30
0.0
 10
110.7761850141
 20
438.0144157768
 30
0.0
 10
111.6797443124
 20
437.4635743791
 30
0.0
 10
112.2919735685
 20
436.7674958949
 30
0.0
 10
112.4485528876
 20
436.2058470358
 30
0.0
 10
112.4485629094
 20
435.9463012649
 30
0.0
  0
SPLINE
  5
4A4
100
AcDbEntity
  8
0
100
AcDbSpline
 62
7
  6
CONTINUOUS
 70
0
 71
3
 72
13
 73
9
 74
0
 42
0.0000001
 43
0.0000001
 44
0.0000000001
 40
0.0
 40
0.0
 40
0.0
 40
0.0
 40
0.2698956012
 40
0.5613257437
 40
0.6954661216
 40
0.8131446799
 40
0.9128555334
 40
1.0
 40
1.0
 40
1.0
 40
1.0
 10
189.6192262319
 20
486.7726834502
 30
0.0
 10
190.3153736671
 20
487.1746019602
 30
0.0
 10
191.9794796921
 20
487.6250482363
 30
0.0
 10
194.0835811882
 20
487.5184294436
 30
0.0
 10
195.6286454798
 20
487.0037142414
 30
0.0
 10
196.5322047781
 20
486.4528728437
 30
0.0
 10
197.1444340341
 20
485.7567943595
 30
0.0
 10
197.3010133533
 20
485.1951455004
 30
0.0
 10
197.301023375
 20
484.9355997295
 30
0.0
  0
SPLINE
  5
4A5
100
AcDbEntity
  8
0
100
AcDbSpline
 62
7
  6
CONTINUOUS
 70
0
 71
3
 72
11
 73
7
 74
0
 42
0.0000001
 43
0.0000001
 44
0.0000000001
 40
0.0
 40
0.0
 40
0.0
 40
0.0
 40
0.2178240254
 40
0.450669538
 40
0.7097986511
 40
1.0
 40
1.0
 40
1.0
 40
1.0
 10
88.304772998
 20
424.1011070975
 30
0.0
 10
88.2817932716
 20
423.0289066676
 30
0.0
 10
88.6355432144
 20
420.7860158953
 30
0.0
 10
90.2959495027
 20
417.6539360057
 30
0.0
 10
92.9599591316
 20
414.8238836071
 30
0.0
 10
95.2012868901
 20
413.2773592163
 30
0.0
 10
96.4386650162
 20
412.5629747836
 30
0.0
  0
SPLINE
  5
4A6
100
AcDbEntity
  8
0
100
AcDbSpline
 62
7
  6
CONTINUOUS
 70
0
 71
3
 72
13
 73
9
 74
0
 42
0.0000001
 43
0.0000001
 44
0.0000000001
 40
0.0
 40
0.0
 40
0.0
 40
0.0
 40
0.2698956012
 40
0.5613257437
 40
0.6954661216
 40
0.8131446799
 40
0.9128555334
 40
1.0
 40
1.0
 40
1.0
 40
1.0
 10
274.4716866976
 20
535.7619819148
 30
0.0
 10
275.1678341328
 20
536.1639004248
 30
0.0
 10
276.8319401577
 20
536.6143467009
 30
0.0
 10
278.9360416538
 20
536.5077279082
 30
0.0
 10
280.4811059454
 20
535.993012706
 30
0.0
 10
281.3846652438
 20
535.4421713083
 30
0.0
 10
281.9968944998
 20
534.7460928241
 30
0.0
 10
282.1534738189
 20
534.184443965
 30
0.0
 10
282.1534838407
 20
533.9248981941
 30
0.0
  0
SPLINE
  5
4A7
100
AcDbEntity
  8
0
100
AcDbSpline
 62
7
  6
CONTINUOUS
 70
0
 71
3
 72
12
 73
8
 74
0
 42
0.0000001
 43
0.0000001
 44
0.0000000001
 40
0.0
 40
0.0
 40
0.0
 40
0.0
 40
0.2454000669
 40
0.3579556208
 40
0.4699432042
 40
0.7114265585
 40
1.0
 40
1.0
 40
1.0
 40
1.0
 10
318.0128762374
 20
492.2709853753
 30
0.0
 10
317.696104457
 20
492.6080306134
 30
0.0
 10
317.308934489
 20
493.1996684089
 30
0.0
 10
317.1580498704
 20
494.0829809821
 30
0.0
 10
317.2582842667
 20
494.9676621587
 30
0.0
 10
317.8988919599
 20
496.0529111185
 30
0.0
 10
318.7144145477
 20
496.660947627
 30
0.0
 10
319.1851479989
 20
496.9334440465
 30
0.0
  0
SPLINE
  5
4A8
100
AcDbEntity
  8
0
100
AcDbSpline
 62
7
  6
CONTINUOUS
 70
0
 71
3
 72
11
 73
7
 74
0
 42
0.0000001
 43
0.0000001
 44
0.0000000001
 40
0.0
 40
0.0
 40
0.0
 40
0.0
 40
0.2181576348
 40
0.4533490242
 40
0.7131884366
 40
1.0
 40
1.0
 40
1.0
 40
1.0
 10
427.8535610511
 20
485.1200044788
 30
0.0
 10
427.8045539158
 20
485.4865484143
 30
0.0
 10
427.5818148864
 20
486.2356466506
 30
0.0
 10
426.9275088187
 20
487.266519641
 30
0.0
 10
425.9780574363
 20
488.2040399511
 30
0.0
 10
425.2071774829
 20
488.7270205549
 30
0.0
 10
424.7861283565
 20
488.970107882
 30
0.0
  0
SPLINE
  5
4A9
100
AcDbEntity
  8
0
100
AcDbSpline
 62
7
  6
CONTINUOUS
 70
0
 71
3
 72
11
 73
7
 74
0
 42
0.0000001
 43
0.0000001
 44
0.0000000001
 40
0.0
 40
0.0
 40
0.0
 40
0.0
 40
0.2902008755
 40
0.5493298204
 40
0.7821755217
 40
1.0
 40
1.0
 40
1.0
 40
1.0
 10
436.949871084
 20
449.3056141499
 30
0.0
 10
438.1872263155
 20
450.0199972616
 30
0.0
 10
440.4285119248
 20
451.5665160648
 30
0.0
 10
443.0924676147
 20
454.3965479439
 30
0.0
 10
444.7528377089
 20
457.5285978922
 30
0.0
 10
445.1065789577
 20
459.7714630015
 30
0.0
 10
445.0835995698
 20
460.8436520372
 30
0.0
  0
SPLINE
  5
4AA
100
AcDbEntity
  8
0
100
AcDbSpline
 62
7
  6
CONTINUOUS
 70
0
 71
3
 72
11
 73
7
 74
0
 42
0.0000001
 43
0.0000001
 44
0.0000000001
 40
0.0
 40
0.0
 40
0.0
 40
0.0
 40
0.2177821605
 40
0.4509085882
 40
0.7102951949
 40
1.0
 40
1.0
 40
1.0
 40
1.0
 10
166.3120635037
 20
413.2911693327
 30
0.0
 10
166.3120636166
 20
413.6941404099
 30
0.0
 10
166.4609794927
 20
414.5340590521
 30
0.0
 10
167.0977184631
 20
415.7043366199
 30
0.0
 10
168.1043134721
 20
416.7622219301
 30
0.0
 10
168.9465540997
 20
417.3423314981
 30
0.0
 10
169.4107898188
 20
417.6103565156
 30
0.0
  0
SPLINE
  5
4AB
100
AcDbEntity
  8
0
100
AcDbSpline
 62
7
  6
CONTINUOUS
 70
0
 71
3
 72
11
 73
7
 74
0
 42
0.0000001
 43
0.0000001
 44
0.0000000001
 40
0.0
 40
0.0
 40
0.0
 40
0.0
 40
0.2177723091
 40
0.4509273687
 40
0.7102218233
 40
1.0
 40
1.0
 40
1.0
 40
1.0
 10
164.1121046539
 20
413.2911693328
 30
0.0
 10
164.1121046601
 20
412.8044169183
 30
0.0
 10
164.2918667975
 20
411.7897526239
 30
0.0
 10
165.0610929268
 20
410.3763221422
 30
0.0
 10
166.2767749123
 20
409.0981876166
 30
0.0
 10
167.2942994136
 20
408.3976514911
 30
0.0
 10
167.8552236713
 20
408.0738090463
 30
0.0
  0
SPLINE
  5
4AC
100
AcDbEntity
  8
0
100
AcDbSpline
 62
7
  6
CONTINUOUS
 70
0
 71
3
 72
10
 73
6
 74
0
 42
0.0000001
 43
0.0000001
 44
0.0000000001
 40
0.0
 40
0.0
 40
0.0
 40
0.0
 40
0.2183824859
 40
0.4522373614
 40
1.0
 40
1.0
 40
1.0
 40
1.0
 10
420.9398096365
 20
448.6025811502
 30
0.0
 10
420.9398030203
 20
448.773927699
 30
0.0
 10
421.0028245025
 20
449.1313102409
 30
0.0
 10
421.3830020242
 20
449.8291021059
 30
0.0
 10
421.8854150757
 20
450.2247733207
 30
0.0
 10
422.2576192533
 20
450.4396642201
 30
0.0
  0
SPLINE
  5
4AD
100
AcDbEntity
  8
0
100
AcDbSpline
 62
7
  6
CONTINUOUS
 70
0
 71
3
 72
15
 73
11
 74
0
 42
0.0000001
 43
0.0000001
 44
0.0000000001
 40
0.0
 40
0.0
 40
0.0
 40
0.0
 40
0.1448521768
 40
0.2745451629
 40
0.3911080997
 40
0.499998989
 40
0.6088900536
 40
0.7254534614
 40
0.855147132
 40
1.0
 40
1.0
 40
1.0
 40
1.0
 10
110.5821100867
 20
422.996757526
 30
0.0
 10
110.2407328245
 20
422.7996644437
 30
0.0
 10
109.6213887077
 20
422.3730193336
 30
0.0
 10
108.8811874313
 20
421.595336016
 30
0.0
 10
108.4129626798
 20
420.7340183898
 30
0.0
 10
108.2505725776
 20
419.8206253779
 30
0.0
 10
108.4129759586
 20
418.9072335258
 30
0.0
 10
108.8812128672
 20
418.0459185902
 30
0.0
 10
109.6214251949
 20
417.2682390479
 30
0.0
 10
110.2407756017
 20
416.8415965899
 30
0.0
 10
110.582155915
 20
416.6445050305
 30
0.0
  0
SPLINE
  5
4AE
100
AcDbEntity
  8
0
100
AcDbSpline
 62
7
  6
CONTINUOUS
 70
0
 71
3
 72
11
 73
7
 74
0
 42
0.0000001
 43
0.0000001
 44
0.0000000001
 40
0.0
 40
0.0
 40
0.0
 40
0.0
 40
0.237240574
 40
0.5000004572
 40
0.7627600877
 40
1.0
 40
1.0
 40
1.0
 40
1.0
 10
183.6118402362
 20
458.8079612305
 30
0.0
 10
182.830807402
 20
459.2588805463
 30
0.0
 10
181.0145318794
 20
459.9168755016
 30
0.0
 10
178.1105415615
 20
460.2321193639
 30
0.0
 10
175.2065552016
 20
459.9168625043
 30
0.0
 10
173.3902862495
 20
459.2588584797
 30
0.0
 10
172.609258843
 20
458.8079347936
 30
0.0
  0
SPLINE
  5
4AF
100
AcDbEntity
  8
0
100
AcDbSpline
 62
7
  6
CONTINUOUS
 70
0
 71
3
 72
11
 73
7
 74
0
 42
0.0000001
 43
0.0000001
 44
0.0000000001
 40
0.0
 40
0.0
 40
0.0
 40
0.0
 40
0.2177727701
 40
0.4509280213
 40
0.7102223029
 40
1.0
 40
1.0
 40
1.0
 40
1.0
 10
430.0848758157
 20
460.6457136704
 30
0.0
 10
430.0848758219
 20
460.1589664959
 30
0.0
 10
429.9051177895
 20
459.1443139087
 30
0.0
 10
429.1359083008
 20
457.7308971122
 30
0.0
 10
427.9202510052
 20
456.4527720607
 30
0.0
 10
426.9027458143
 20
455.7522386097
 30
0.0
 10
426.3418320461
 20
455.4283968277
 30
0.0
  0
SPLINE
  5
4B0
100
AcDbEntity
  8
0
100
AcDbSpline
 62
7
  6
CONTINUOUS
 70
0
 71
3
 72
11
 73
7
 74
0
 42
0.0000001
 43
0.0000001
 44
0.0000000001
 40
0.0
 40
0.0
 40
0.0
 40
0.0
 40
0.237219572
 40
0.5000005441
 40
0.7627812203
 40
1.0
 40
1.0
 40
1.0
 40
1.0
 10
215.2330988422
 20
343.9785280235
 30
0.0
 10
218.0214801668
 20
342.3686917344
 30
0.0
 10
224.5063034444
 20
340.0192137895
 30
0.0
 10
234.8751214549
 20
338.8935599066
 30
0.0
 10
245.2439234363
 20
340.0192613418
 30
0.0
 10
251.7287206778
 20
342.3687714301
 30
0.0
 10
254.5170810816
 20
343.9786224503
 30
0.0
  0
SPLINE
  5
4B1
100
AcDbEntity
  8
0
100
AcDbSpline
 62
7
  6
CONTINUOUS
 70
0
 71
3
 72
9
 73
5
 74
0
 42
0.0000001
 43
0.0000001
 44
0.0000000001
 40
0.0
 40
0.0
 40
0.0
 40
0.0
 40
0.2290098083
 40
1.0
 40
1.0
 40
1.0
 40
1.0
 10
128.415274877
 20
432.476190254
 30
0.0
 10
128.4611063211
 20
432.5026508927
 30
0.0
 10
128.6709713051
 20
432.6010813643
 30
0.0
 10
128.9054242088
 20
432.6408217697
 30
0.0
 10
129.08354578
 20
432.6448406365
 30
0.0
  0
SPLINE
  5
4B2
100
AcDbEntity
  8
0
100
AcDbSpline
 62
7
  6
CONTINUOUS
 70
0
 71
3
 72
9
 73
5
 74
0
 42
0.0000001
 43
0.0000001
 44
0.0000000001
 40
0.0
 40
0.0
 40
0.0
 40
0.0
 40
0.2672485431
 40
1.0
 40
1.0
 40
1.0
 40
1.0
 10
129.161216517
 20
432.6448407913
 30
0.0
 10
129.2229250796
 20
432.6434487387
 30
0.0
 10
129.4528919191
 20
432.6258916307
 30
0.0
 10
129.6829234174
 20
432.560811094
 30
0.0
 10
129.8294884394
 20
432.4761936534
 30
0.0
  0
SPLINE
  5
4B3
100
AcDbEntity
  8
0
100
AcDbSpline
 62
7
  6
CONTINUOUS
 70
0
 71
3
 72
10
 73
6
 74
0
 42
0.0000001
 43
0.0000001
 44
0.0000000001
 40
0.0
 40
0.0
 40
0.0
 40
0.0
 40
0.2183824859
 40
0.4522373614
 40
1.0
 40
1.0
 40
1.0
 40
1.0
 10
273.1538770808
 20
533.9248988449
 30
0.0
 10
273.1538704646
 20
534.0962453938
 30
0.0
 10
273.2168919467
 20
534.4536279357
 30
0.0
 10
273.5970694685
 20
535.1514198006
 30
0.0
 10
274.09948252
 20
535.5470910154
 30
0.0
 10
274.4716866976
 20
535.7619819148
 30
0.0
  0
SPLINE
  5
4B4
100
AcDbEntity
  8
0
100
AcDbSpline
 62
7
  6
CONTINUOUS
 70
0
 71
3
 72
8
 73
4
 74
0
 42
0.0000001
 43
0.0000001
 44
0.0000000001
 40
0.0
 40
0.0
 40
0.0
 40
0.0
 40
1.0
 40
1.0
 40
1.0
 40
1.0
 10
109.5334583367
 20
419.6068139897
 30
0.0
 10
109.4747361669
 20
419.4799444676
 30
0.0
 10
109.4256843334
 20
419.3480317963
 30
0.0
 10
109.3884237961
 20
419.2132882576
 30
0.0
  0
SPLINE
  5
4B5
100
AcDbEntity
  8
0
100
AcDbSpline
 62
7
  6
CONTINUOUS
 70
0
 71
3
 72
10
 73
6
 74
0
 42
0.0000001
 43
0.0000001
 44
0.0000000001
 40
0.0
 40
0.0
 40
0.0
 40
0.0
 40
0.2183824859
 40
0.4522373614
 40
1.0
 40
1.0
 40
1.0
 40
1.0
 10
336.0873491708
 20
399.6132826856
 30
0.0
 10
336.0873425547
 20
399.7846292345
 30
0.0
 10
336.1503640368
 20
400.1420117764
 30
0.0
 10
336.5305415585
 20
400.8398036413
 30
0.0
 10
337.03295461
 20
401.2354748561
 30
0.0
 10
337.4051587876
 20
401.4503657555
 30
0.0
  0
SPLINE
  5
4B6
100
AcDbEntity
  8
0
100
AcDbSpline
 62
7
  6
CONTINUOUS
 70
0
 71
3
 72
11
 73
7
 74
0
 42
0.0000001
 43
0.0000001
 44
0.0000000001
 40
0.0
 40
0.0
 40
0.0
 40
0.0
 40
0.2897781767
 40
0.5490726313
 40
0.7822276909
 40
1.0
 40
1.0
 40
1.0
 40
1.0
 10
167.8552236713
 20
383.5787365324
 30
0.0
 10
167.2942994136
 20
383.9025789772
 30
0.0
 10
166.2767749123
 20
384.6031151027
 30
0.0
 10
165.0610929268
 20
385.8812496283
 30
0.0
 10
164.2918667975
 20
387.29468011
 30
0.0
 10
164.1121046601
 20
388.3093444044
 30
0.0
 10
164.1121046539
 20
388.7960968189
 30
0.0
  0
SPLINE
  5
4B7
100
AcDbEntity
  8
0
100
AcDbSpline
 62
7
  6
CONTINUOUS
 70
0
 71
3
 72
11
 73
7
 74
0
 42
0.0000001
 43
0.0000001
 44
0.0000000001
 40
0.0
 40
0.0
 40
0.0
 40
0.0
 40
0.2372524156
 40
0.4999996414
 40
0.7627470637
 40
1.0
 40
1.0
 40
1.0
 40
1.0
 10
238.5521895435
 20
199.8573429308
 30
0.0
 10
238.251007309
 20
199.6834563246
 30
0.0
 10
237.550654325
 20
199.429673547
 30
0.0
 10
236.4308719195
 20
199.3083408157
 30
0.0
 10
235.3110882129
 20
199.4296686771
 30
0.0
 10
234.6107330059
 20
199.6834479167
 30
0.0
 10
234.3095488564
 20
199.8573327327
 30
0.0
  0
SPLINE
  5
4B8
100
AcDbEntity
  8
0
100
AcDbSpline
 62
7
  6
CONTINUOUS
 70
0
 71
3
 72
9
 73
5
 74
0
 42
0.0000001
 43
0.0000001
 44
0.0000000001
 40
0.0
 40
0.0
 40
0.0
 40
0.0
 40
0.5508366897
 40
1.0
 40
1.0
 40
1.0
 40
1.0
 10
61.7747759205
 20
299.4680768357
 30
0.0
 10
61.5266405869
 20
299.6113345964
 30
0.0
 10
61.1002663039
 20
299.937675205
 30
0.0
 10
60.896255239
 20
300.4591748161
 30
0.0
 10
60.896255291
 20
300.6928092962
 30
0.0
  0
SPLINE
  5
4B9
100
AcDbEntity
  8
0
100
AcDbSpline
 62
7
  6
CONTINUOUS
 70
0
 71
3
 72
9
 73
5
 74
0
 42
0.0000001
 43
0.0000001
 44
0.0000000001
 40
0.0
 40
0.0
 40
0.0
 40
0.0
 40
0.4801652789
 40
1.0
 40
1.0
 40
1.0
 40
1.0
 10
459.8756729276
 20
334.1697299034
 30
0.0
 10
458.8879496085
 20
333.5994709832
 30
0.0
 10
456.5288691139
 20
332.9498591554
 30
0.0
 10
454.1140064238
 20
333.0565538771
 30
0.0
 10
452.9096681041
 20
333.3289018697
 30
0.0
  0
SPLINE
  5
4BA
100
AcDbEntity
  8
0
100
AcDbSpline
 62
7
  6
CONTINUOUS
 70
0
 71
3
 72
9
 73
5
 74
0
 42
0.0000001
 43
0.0000001
 44
0.0000000001
 40
0.0
 40
0.0
 40
0.0
 40
0.0
 40
0.5508359905
 40
1.0
 40
1.0
 40
1.0
 40
1.0
 10
61.7747582567
 20
306.0000436465
 30
0.0
 10
61.526627438
 20
305.8567861066
 30
0.0
 10
61.1002611599
 20
305.5304464605
 30
0.0
 10
60.8962552185
 20
305.0089532462
 30
0.0
 10
60.896255291
 20
304.7753213842
 30
0.0
  0
SPLINE
  5
4BB
100
AcDbEntity
  8
0
100
AcDbSpline
 62
7
  6
CONTINUOUS
 70
0
 71
3
 72
11
 73
7
 74
0
 42
0.0000001
 43
0.0000001
 44
0.0000000001
 40
0.0
 40
0.0
 40
0.0
 40
0.0
 40
0.2177499666
 40
0.4508672849
 40
0.7103386168
 40
1.0
 40
1.0
 40
1.0
 40
1.0
 10
461.7794384296
 20
336.8232948847
 30
0.0
 10
461.7793886884
 20
336.5757596888
 30
0.0
 10
461.68807855
 20
336.0597700305
 30
0.0
 10
461.2967324841
 20
335.3407814201
 30
0.0
 10
460.6782790175
 20
334.6908661938
 30
0.0
 10
460.1608409012
 20
334.3343707269
 30
0.0
 10
459.8756729276
 20
334.1697299034
 30
0.0
  0
SPLINE
  5
4BC
100
AcDbEntity
  8
0
100
AcDbSpline
 62
7
  6
CONTINUOUS
 70
0
 71
3
 72
9
 73
5
 74
0
 42
0.0000001
 43
0.0000001
 44
0.0000000001
 40
0.0
 40
0.0
 40
0.0
 40
0.0
 40
0.4637055968
 40
1.0
 40
1.0
 40
1.0
 40
1.0
 10
465.1003800198
 20
340.90573623
 30
0.0
 10
465.1005054263
 20
340.7401064299
 30
0.0
 10
464.9953677656
 20
340.3798572201
 30
0.0
 10
464.7451899286
 20
340.1115078703
 30
0.0
 10
464.5969326913
 20
339.990206058
 30
0.0
  0
SPLINE
  5
4BD
100
AcDbEntity
  8
0
100
AcDbSpline
 62
7
  6
CONTINUOUS
 70
0
 71
3
 72
8
 73
4
 74
0
 42
0.0000001
 43
0.0000001
 44
0.0000000001
 40
0.0
 40
0.0
 40
0.0
 40
0.0
 40
1.0
 40
1.0
 40
1.0
 40
1.0
 10
464.5969326913
 20
339.990206058
 30
0.0
 10
464.5024815506
 20
339.9129275739
 30
0.0
 10
464.4007369625
 20
339.8440924015
 30
0.0
 10
464.2950498304
 20
339.7830742715
 30
0.0
  0
SPLINE
  5
4BE
100
AcDbEntity
  8
0
100
AcDbSpline
 62
7
  6
CONTINUOUS
 70
0
 71
3
 72
9
 73
5
 74
0
 42
0.0000001
 43
0.0000001
 44
0.0000000001
 40
0.0
 40
0.0
 40
0.0
 40
0.0
 40
0.2665725228
 40
1.0
 40
1.0
 40
1.0
 40
1.0
 10
233.2973084274
 20
206.5018200522
 30
0.0
 10
233.1779614155
 20
206.4848252312
 30
0.0
 10
232.7334766457
 20
206.4031591696
 30
0.0
 10
232.2986461399
 20
206.2488612851
 30
0.0
 10
232.0114069221
 20
206.0830246353
 30
0.0
  0
SPLINE
  5
4BF
100
AcDbEntity
  8
0
100
AcDbSpline
 62
7
  6
CONTINUOUS
 70
0
 71
3
 72
9
 73
5
 74
0
 42
0.0000001
 43
0.0000001
 44
0.0000000001
 40
0.0
 40
0.0
 40
0.0
 40
0.0
 40
0.4491683742
 40
1.0
 40
1.0
 40
1.0
 40
1.0
 10
236.7058405998
 20
209.0428745295
 30
0.0
 10
236.7060027561
 20
208.828707647
 30
0.0
 10
236.5186958474
 20
208.3506781693
 30
0.0
 10
236.1279643253
 20
208.0515323662
 30
0.0
 10
235.9005104104
 20
207.9202125711
 30
0.0
  0
SPLINE
  5
4C0
100
AcDbEntity
  8
0
100
AcDbSpline
 62
7
  6
CONTINUOUS
 70
0
 71
3
 72
9
 73
5
 74
0
 42
0.0000001
 43
0.0000001
 44
0.0000000001
 40
0.0
 40
0.0
 40
0.0
 40
0.0
 40
0.2665725228
 40
1.0
 40
1.0
 40
1.0
 40
1.0
 10
69.9549619184
 20
300.8054343464
 30
0.0
 10
69.8356149066
 20
300.7884395254
 30
0.0
 10
69.3911301367
 20
300.7067734638
 30
0.0
 10
68.9562996309
 20
300.5524755793
 30
0.0
 10
68.6690604131
 20
300.3866389295
 30
0.0
  0
SPLINE
  5
4C1
100
AcDbEntity
  8
0
100
AcDbSpline
 62
7
  6
CONTINUOUS
 70
0
 71
3
 72
9
 73
5
 74
0
 42
0.0000001
 43
0.0000001
 44
0.0000000001
 40
0.0
 40
0.0
 40
0.0
 40
0.0
 40
0.4491634741
 40
1.0
 40
1.0
 40
1.0
 40
1.0
 10
472.4921172548
 20
339.7218503948
 30
0.0
 10
472.4921171823
 20
339.9554849599
 30
0.0
 10
472.2881062379
 20
340.4769845655
 30
0.0
 10
471.8617318848
 20
340.8033251397
 30
0.0
 10
471.6135966253
 20
340.9465828576
 30
0.0
  0
SPLINE
  5
4C2
100
AcDbEntity
  8
0
100
AcDbSpline
 62
7
  6
CONTINUOUS
 70
0
 71
3
 72
9
 73
5
 74
0
 42
0.0000001
 43
0.0000001
 44
0.0000000001
 40
0.0
 40
0.0
 40
0.0
 40
0.0
 40
0.4491641734
 40
1.0
 40
1.0
 40
1.0
 40
1.0
 10
472.4921172548
 20
335.6393383115
 30
0.0
 10
472.4921172029
 20
335.4057063645
 30
0.0
 10
472.2881113819
 20
334.8842131556
 30
0.0
 10
471.8617450338
 20
334.5578735439
 30
0.0
 10
471.6136142891
 20
334.4146160468
 30
0.0
  0
SPLINE
  5
4C3
100
AcDbEntity
  8
0
100
AcDbSpline
 62
7
  6
CONTINUOUS
 70
0
 71
3
 72
9
 73
5
 74
0
 42
0.0000001
 43
0.0000001
 44
0.0000000001
 40
0.0
 40
0.0
 40
0.0
 40
0.0
 40
0.4491634741
 40
1.0
 40
1.0
 40
1.0
 40
1.0
 10
60.896255291
 20
304.7753213842
 30
0.0
 10
60.8962553636
 20
304.5416868191
 30
0.0
 10
61.100266308
 20
304.0201872135
 30
0.0
 10
61.526640661
 20
303.6938466393
 30
0.0
 10
61.7747759205
 20
303.5505889213
 30
0.0
  0
SPLINE
  5
4C4
100
AcDbEntity
  8
0
100
AcDbSpline
 62
7
  6
CONTINUOUS
 70
0
 71
3
 72
11
 73
7
 74
0
 42
0.0000001
 43
0.0000001
 44
0.0000000001
 40
0.0
 40
0.0
 40
0.0
 40
0.0
 40
0.2372531816
 40
0.5000006935
 40
0.7627478297
 40
1.0
 40
1.0
 40
1.0
 40
1.0
 10
234.3095488564
 20
203.9398448184
 30
0.0
 10
234.6107333172
 20
203.7659598226
 30
0.0
 10
235.3110890556
 20
203.5121805225
 30
0.0
 10
236.4308731498
 20
203.3908529013
 30
0.0
 10
237.5506551678
 20
203.5121858729
 30
0.0
 10
238.2510076203
 20
203.76596859
 30
0.0
 10
238.5521895435
 20
203.9398550164
 30
0.0
  0
SPLINE
  5
4C5
100
AcDbEntity
  8
0
100
AcDbSpline
 62
7
  6
CONTINUOUS
 70
0
 71
3
 72
13
 73
9
 74
0
 42
0.0000001
 43
0.0000001
 44
0.0000000001
 40
0.0
 40
0.0
 40
0.0
 40
0.0
 40
0.2699040481
 40
0.5613092475
 40
0.6954524627
 40
0.8131377821
 40
0.9128550148
 40
1.0
 40
1.0
 40
1.0
 40
1.0
 10
232.0114069221
 20
210.1655367209
 30
0.0
 10
232.4368442207
 20
210.4111615936
 30
0.0
 10
233.4537819909
 20
210.6864199064
 30
0.0
 10
234.7395794446
 20
210.6212111345
 30
0.0
 10
235.6837822486
 20
210.3067218715
 30
0.0
 10
236.2359931938
 20
209.9701443863
 30
0.0
 10
236.6102504894
 20
209.5447399079
 30
0.0
 10
236.7057205065
 20
209.2014869382
 30
0.0
 10
236.7058405998
 20
209.0428745295
 30
0.0
  0
SPLINE
  5
4C6
100
AcDbEntity
  8
0
100
AcDbSpline
 62
7
  6
CONTINUOUS
 70
0
 71
3
 72
9
 73
5
 74
0
 42
0.0000001
 43
0.0000001
 44
0.0000000001
 40
0.0
 40
0.0
 40
0.0
 40
0.0
 40
0.5508359905
 40
1.0
 40
1.0
 40
1.0
 40
1.0
 10
471.6136142891
 20
338.4971281325
 30
0.0
 10
471.8617451079
 20
338.6403856723
 30
0.0
 10
472.288111386
 20
338.9667253184
 30
0.0
 10
472.4921173274
 20
339.4882185328
 30
0.0
 10
472.4921172548
 20
339.7218503948
 30
0.0
  0
SPLINE
  5
4C7
100
AcDbEntity
  8
0
100
AcDbSpline
 62
7
  6
CONTINUOUS
 70
0
 71
3
 72
9
 73
5
 74
0
 42
0.0000001
 43
0.0000001
 44
0.0000000001
 40
0.0
 40
0.0
 40
0.0
 40
0.0
 40
0.5505688244
 40
1.0
 40
1.0
 40
1.0
 40
1.0
 10
464.2991964708
 20
342.0258667611
 30
0.0
 10
464.5255285863
 20
341.8946280971
 30
0.0
 10
464.9144553129
 20
341.5957162116
 30
0.0
 10
465.1002183164
 20
341.1193049223
 30
0.0
 10
465.1003800198
 20
340.90573623
 30
0.0
  0
SPLINE
  5
4C8
100
AcDbEntity
  8
0
100
AcDbSpline
 62
7
  6
CONTINUOUS
 70
0
 71
3
 72
8
 73
4
 74
0
 42
0.0000001
 43
0.0000001
 44
0.0000000001
 40
0.0
 40
0.0
 40
0.0
 40
0.0
 40
1.0
 40
1.0
 40
1.0
 40
1.0
 10
355.0901771932
 20
294.0804963281
 30
0.0
 10
355.0901570419
 20
294.2606934084
 30
0.0
 10
355.0541409578
 20
294.4434361767
 30
0.0
 10
354.9894486456
 20
294.6116202809
 30
0.0
  0
SPLINE
  5
4C9
100
AcDbEntity
  8
0
100
AcDbSpline
 62
7
  6
CONTINUOUS
 70
0
 71
3
 72
9
 73
5
 74
0
 42
0.0000001
 43
0.0000001
 44
0.0000000001
 40
0.0
 40
0.0
 40
0.0
 40
0.0
 40
0.2373449262
 40
1.0
 40
1.0
 40
1.0
 40
1.0
 10
354.9894486456
 20
294.6116202809
 30
0.0
 10
354.9668328498
 20
294.6704157889
 30
0.0
 10
354.8570277061
 20
294.9125421309
 30
0.0
 10
354.6939447765
 20
295.1284827997
 30
0.0
 10
354.5534252395
 20
295.2741826461
 30
0.0
  0
SPLINE
  5
4CA
100
AcDbEntity
  8
0
100
AcDbSpline
 62
7
  6
CONTINUOUS
 70
0
 71
3
 72
9
 73
5
 74
0
 42
0.0000001
 43
0.0000001
 44
0.0000000001
 40
0.0
 40
0.0
 40
0.0
 40
0.0
 40
0.7440686346
 40
1.0
 40
1.0
 40
1.0
 40
1.0
 10
356.0899498124
 20
290.8144868592
 30
0.0
 10
356.0899497585
 20
290.9882431933
 30
0.0
 10
356.0542768691
 20
291.2235606928
 30
0.0
 10
355.9767252395
 20
291.4439184226
 30
0.0
 10
355.9544421461
 20
291.4993746096
 30
0.0
  0
SPLINE
  5
4CB
100
AcDbEntity
  8
0
100
AcDbSpline
 62
7
  6
CONTINUOUS
 70
0
 71
3
 72
9
 73
5
 74
0
 42
0.0000001
 43
0.0000001
 44
0.0000000001
 40
0.0
 40
0.0
 40
0.0
 40
0.0
 40
0.234526358
 40
1.0
 40
1.0
 40
1.0
 40
1.0
 10
355.9544421461
 20
291.4993746096
 30
0.0
 10
355.9211996221
 20
291.5821056558
 30
0.0
 10
355.7561702856
 20
291.9255570817
 30
0.0
 10
355.5057675933
 20
292.2236179695
 30
0.0
 10
355.2919004022
 20
292.4209698824
 30
0.0
  0
SPLINE
  5
4CC
100
AcDbEntity
  8
0
100
AcDbSpline
 62
7
  6
CONTINUOUS
 70
0
 71
3
 72
9
 73
5
 74
0
 42
0.0000001
 43
0.0000001
 44
0.0000000001
 40
0.0
 40
0.0
 40
0.0
 40
0.0
 40
0.7429652971
 40
1.0
 40
1.0
 40
1.0
 40
1.0
 10
439.9426814735
 20
343.0697949863
 30
0.0
 10
439.9426705621
 20
343.2218711798
 30
0.0
 10
439.9084298875
 20
343.4282879988
 30
0.0
 10
439.8355247783
 20
343.6196265994
 30
0.0
 10
439.8145193985
 20
343.6678634338
 30
0.0
  0
SPLINE
  5
4CD
100
AcDbEntity
  8
0
100
AcDbSpline
 62
7
  6
CONTINUOUS
 70
0
 71
3
 72
9
 73
5
 74
0
 42
0.0000001
 43
0.0000001
 44
0.0000000001
 40
0.0
 40
0.0
 40
0.0
 40
0.0
 40
0.2368861648
 40
1.0
 40
1.0
 40
1.0
 40
1.0
 10
439.8145193985
 20
343.6678634338
 30
0.0
 10
439.7894182406
 20
343.7255058288
 30
0.0
 10
439.6696478154
 20
343.9628165926
 30
0.0
 10
439.4997131068
 20
344.1728690017
 30
0.0
 10
439.3551064594
 20
344.3146745766
 30
0.0
  0
SPLINE
  5
4CE
100
AcDbEntity
  8
0
100
AcDbSpline
 62
7
  6
CONTINUOUS
 70
0
 71
3
 72
9
 73
5
 74
0
 42
0.0000001
 43
0.0000001
 44
0.0000000001
 40
0.0
 40
0.0
 40
0.0
 40
0.0
 40
0.7440686346
 40
1.0
 40
1.0
 40
1.0
 40
1.0
 10
440.9424102781
 20
339.8037853237
 30
0.0
 10
440.9424102241
 20
339.9775416579
 30
0.0
 10
440.9067373347
 20
340.2128591574
 30
0.0
 10
440.8291857052
 20
340.4332168872
 30
0.0
 10
440.8069026118
 20
340.4886730742
 30
0.0
  0
SPLINE
  5
4CF
100
AcDbEntity
  8
0
100
AcDbSpline
 62
7
  6
CONTINUOUS
 70
0
 71
3
 72
9
 73
5
 74
0
 42
0.0000001
 43
0.0000001
 44
0.0000000001
 40
0.0
 40
0.0
 40
0.0
 40
0.0
 40
0.234526358
 40
1.0
 40
1.0
 40
1.0
 40
1.0
 10
440.8069026118
 20
340.4886730742
 30
0.0
 10
440.7736600878
 20
340.5714041204
 30
0.0
 10
440.6086307512
 20
340.9148555463
 30
0.0
 10
440.358228059
 20
341.2129164341
 30
0.0
 10
440.1443608678
 20
341.410268347
 30
0.0
  0
SPLINE
  5
4D0
100
AcDbEntity
  8
0
100
AcDbSpline
 62
7
  6
CONTINUOUS
 70
0
 71
3
 72
9
 73
5
 74
0
 42
0.0000001
 43
0.0000001
 44
0.0000000001
 40
0.0
 40
0.0
 40
0.0
 40
0.0
 40
0.2440588693
 40
1.0
 40
1.0
 40
1.0
 40
1.0
 10
270.2377156051
 20
245.0911978022
 30
0.0
 10
270.2377008302
 20
245.1533513384
 30
0.0
 10
270.2210887404
 20
245.4079830154
 30
0.0
 10
270.1350447444
 20
245.656124373
 30
0.0
 10
270.0430363894
 20
245.8252266402
 30
0.0
  0
SPLINE
  5
4D1
100
AcDbEntity
  8
0
100
AcDbSpline
 62
7
  6
CONTINUOUS
 70
0
 71
3
 72
9
 73
5
 74
0
 42
0.0000001
 43
0.0000001
 44
0.0000000001
 40
0.0
 40
0.0
 40
0.0
 40
0.0
 40
0.2367312994
 40
1.0
 40
1.0
 40
1.0
 40
1.0
 10
270.0430363894
 20
245.8252266402
 30
0.0
 10
270.0130363595
 20
245.8803637314
 30
0.0
 10
269.8742254299
 20
246.1066801824
 30
0.0
 10
269.6919750179
 20
246.3047326392
 30
0.0
 10
269.5399612276
 20
246.4383400871
 30
0.0
  0
SPLINE
  5
4D2
100
AcDbEntity
  8
0
100
AcDbSpline
 62
7
  6
CONTINUOUS
 70
0
 71
3
 72
9
 73
5
 74
0
 42
0.0000001
 43
0.0000001
 44
0.0000000001
 40
0.0
 40
0.0
 40
0.0
 40
0.0
 40
0.7440686346
 40
1.0
 40
1.0
 40
1.0
 40
1.0
 10
271.2374893468
 20
241.8251883946
 30
0.0
 10
271.2374892928
 20
241.9989447287
 30
0.0
 10
271.2018164034
 20
242.2342622282
 30
0.0
 10
271.1242647738
 20
242.454619958
 30
0.0
 10
271.1019816805
 20
242.510076145
 30
0.0
  0
SPLINE
  5
4D3
100
AcDbEntity
  8
0
100
AcDbSpline
 62
7
  6
CONTINUOUS
 70
0
 71
3
 72
9
 73
5
 74
0
 42
0.0000001
 43
0.0000001
 44
0.0000000001
 40
0.0
 40
0.0
 40
0.0
 40
0.0
 40
0.234526358
 40
1.0
 40
1.0
 40
1.0
 40
1.0
 10
271.1019816805
 20
242.510076145
 30
0.0
 10
271.0687391565
 20
242.5928071913
 30
0.0
 10
270.9037098199
 20
242.9362586171
 30
0.0
 10
270.6533071277
 20
243.2343195049
 30
0.0
 10
270.4394399365
 20
243.4316714179
 30
0.0
  0
SPLINE
  5
4D4
100
AcDbEntity
  8
0
100
AcDbSpline
 62
7
  6
CONTINUOUS
 70
0
 71
3
 72
9
 73
5
 74
0
 42
0.0000001
 43
0.0000001
 44
0.0000000001
 40
0.0
 40
0.0
 40
0.0
 40
0.0
 40
0.2435156907
 40
1.0
 40
1.0
 40
1.0
 40
1.0
 10
154.9791136774
 20
275.7091050202
 30
0.0
 10
154.9791023494
 20
275.7743977866
 30
0.0
 10
154.9606990371
 20
276.0425051582
 30
0.0
 10
154.8653990705
 20
276.3028670635
 30
0.0
 10
154.764529897
 20
276.4788401551
 30
0.0
  0
SPLINE
  5
4D5
100
AcDbEntity
  8
0
100
AcDbSpline
 62
7
  6
CONTINUOUS
 70
0
 71
3
 72
9
 73
5
 74
0
 42
0.0000001
 43
0.0000001
 44
0.0000000001
 40
0.0
 40
0.0
 40
0.0
 40
0.0
 40
0.2366579384
 40
1.0
 40
1.0
 40
1.0
 40
1.0
 10
154.764529897
 20
276.4788401551
 30
0.0
 10
154.7333430809
 20
276.533247664
 30
0.0
 10
154.5898955835
 20
276.7564405503
 30
0.0
 10
154.4046600963
 20
276.9512140818
 30
0.0
 10
154.250889433
 20
277.0826332202
 30
0.0
  0
SPLINE
  5
4D6
100
AcDbEntity
  8
0
100
AcDbSpline
 62
7
  6
CONTINUOUS
 70
0
 71
3
 72
9
 73
5
 74
0
 42
0.0000001
 43
0.0000001
 44
0.0000000001
 40
0.0
 40
0.0
 40
0.0
 40
0.0
 40
0.4999994563
 40
1.0
 40
1.0
 40
1.0
 40
1.0
 10
224.97570755
 20
214.0643578079
 30
0.0
 10
224.765828447
 20
213.9431847746
 30
0.0
 10
224.2686014609
 20
213.8473544424
 30
0.0
 10
223.7713744208
 20
213.9431826252
 30
0.0
 10
223.5614939876
 20
214.0643544085
 30
0.0
  0
SPLINE
  5
4D7
100
AcDbEntity
  8
0
100
AcDbSpline
 62
7
  6
CONTINUOUS
 70
0
 71
3
 72
9
 73
5
 74
0
 42
0.0000001
 43
0.0000001
 44
0.0000000001
 40
0.0
 40
0.0
 40
0.0
 40
0.0
 40
0.5000005437
 40
1.0
 40
1.0
 40
1.0
 40
1.0
 10
235.5822709961
 20
219.3715352076
 30
0.0
 10
235.3723905629
 20
219.4927069909
 30
0.0
 10
234.8751635228
 20
219.5885351736
 30
0.0
 10
234.3779365367
 20
219.4927048415
 30
0.0
 10
234.1680574337
 20
219.3715318082
 30
0.0
  0
SPLINE
  5
4D8
100
AcDbEntity
  8
0
100
AcDbSpline
 62
7
  6
CONTINUOUS
 70
0
 71
3
 72
9
 73
5
 74
0
 42
0.0000001
 43
0.0000001
 44
0.0000000001
 40
0.0
 40
0.0
 40
0.0
 40
0.0
 40
0.4999994563
 40
1.0
 40
1.0
 40
1.0
 40
1.0
 10
246.1889109854
 20
214.0644087981
 30
0.0
 10
245.9790318825
 20
213.9432357649
 30
0.0
 10
245.4818048963
 20
213.8474054327
 30
0.0
 10
244.9845778562
 20
213.9432336155
 30
0.0
 10
244.774697423
 20
214.0644053988
 30
0.0
  0
SPLINE
  5
4D9
100
AcDbEntity
  8
0
100
AcDbSpline
 62
7
  6
CONTINUOUS
 70
0
 71
3
 72
9
 73
5
 74
0
 42
0.0000001
 43
0.0000001
 44
0.0000000001
 40
0.0
 40
0.0
 40
0.0
 40
0.0
 40
0.5447520712
 40
1.0
 40
1.0
 40
1.0
 40
1.0
 10
205.7214406516
 20
257.2448496252
 30
0.0
 10
205.7087888181
 20
256.4005820878
 30
0.0
 10
205.4938476405
 20
254.8341466012
 30
0.0
 10
204.6315309179
 20
253.4568881992
 30
0.0
 10
204.0969334962
 20
252.9963218521
 30
0.0
  0
SPLINE
  5
4DA
100
AcDbEntity
  8
0
100
AcDbSpline
 62
7
  6
CONTINUOUS
 70
0
 71
3
 72
9
 73
5
 74
0
 42
0.0000001
 43
0.0000001
 44
0.0000000001
 40
0.0
 40
0.0
 40
0.0
 40
0.0
 40
0.2685076797
 40
1.0
 40
1.0
 40
1.0
 40
1.0
 10
146.2757931353
 20
274.0480065584
 30
0.0
 10
146.2007753433
 20
273.9786890654
 30
0.0
 10
145.9331242426
 20
273.7087487048
 30
0.0
 10
145.7169825021
 20
273.3831238668
 30
0.0
 10
145.613667206
 20
273.1247560216
 30
0.0
  0
SPLINE
  5
4DB
100
AcDbEntity
  8
0
100
AcDbSpline
 62
7
  6
CONTINUOUS
 70
0
 71
3
 72
9
 73
5
 74
0
 42
0.0000001
 43
0.0000001
 44
0.0000000001
 40
0.0
 40
0.0
 40
0.0
 40
0.0
 40
0.2558941166
 40
1.0
 40
1.0
 40
1.0
 40
1.0
 10
145.613667206
 20
273.1247560216
 30
0.0
 10
145.5915887411
 20
273.0695428478
 30
0.0
 10
145.5147415565
 20
272.8501534932
 30
0.0
 10
145.4793760096
 20
272.6160085607
 30
0.0
 10
145.4793728578
 20
272.4430955432
 30
0.0
  0
SPLINE
  5
4DC
100
AcDbEntity
  8
0
100
AcDbSpline
 62
7
  6
CONTINUOUS
 70
0
 71
3
 72
8
 73
4
 74
0
 42
0.0000001
 43
0.0000001
 44
0.0000000001
 40
0.0
 40
0.0
 40
0.0
 40
0.0
 40
1.0
 40
1.0
 40
1.0
 40
1.0
 10
153.4191005462
 20
276.7922854326
 30
0.0
 10
153.254459035
 20
276.8699860155
 30
0.0
 10
153.085050467
 20
276.9380962294
 30
0.0
 10
152.9129921852
 20
276.9975954348
 30
0.0
  0
SPLINE
  5
4DD
100
AcDbEntity
  8
0
100
AcDbSpline
 62
7
  6
CONTINUOUS
 70
0
 71
3
 72
9
 73
5
 74
0
 42
0.0000001
 43
0.0000001
 44
0.0000000001
 40
0.0
 40
0.0
 40
0.0
 40
0.0
 40
0.5055091588
 40
1.0
 40
1.0
 40
1.0
 40
1.0
 10
152.9129921852
 20
277.8140978519
 30
0.0
 10
152.1429394293
 20
278.0803885916
 30
0.0
 10
150.5085737306
 20
278.287914947
 30
0.0
 10
148.8839707869
 20
277.9820195954
 30
0.0
 10
148.1543367362
 20
277.6612384357
 30
0.0
  0
SPLINE
  5
4DE
100
AcDbEntity
  8
0
100
AcDbSpline
 62
7
  6
CONTINUOUS
 70
0
 71
3
 72
9
 73
5
 74
0
 42
0.0000001
 43
0.0000001
 44
0.0000000001
 40
0.0
 40
0.0
 40
0.0
 40
0.0
 40
0.2716516035
 40
1.0
 40
1.0
 40
1.0
 40
1.0
 10
147.0062700238
 20
276.8926720965
 30
0.0
 10
146.9341275647
 20
276.8170333601
 30
0.0
 10
146.6860230736
 20
276.5236654302
 30
0.0
 10
146.5209928895
 20
276.1514045316
 30
0.0
 10
146.4886895877
 20
275.8730179718
 30
0.0
  0
SPLINE
  5
4DF
100
AcDbEntity
  8
0
100
AcDbSpline
 62
7
  6
CONTINUOUS
 70
0
 71
3
 72
9
 73
5
 74
0
 42
0.0000001
 43
0.0000001
 44
0.0000000001
 40
0.0
 40
0.0
 40
0.0
 40
0.0
 40
0.5020406995
 40
1.0
 40
1.0
 40
1.0
 40
1.0
 10
268.6246548724
 20
247.0155238883
 30
0.0
 10
267.7866665878
 20
247.3982734291
 30
0.0
 10
265.9188961371
 20
247.7084376487
 30
0.0
 10
264.0538226422
 20
247.3628705694
 30
0.0
 10
263.233665756
 20
246.9599800299
 30
0.0
  0
SPLINE
  5
4E0
100
AcDbEntity
  8
0
100
AcDbSpline
 62
7
  6
CONTINUOUS
 70
0
 71
3
 72
9
 73
5
 74
0
 42
0.0000001
 43
0.0000001
 44
0.0000000001
 40
0.0
 40
0.0
 40
0.0
 40
0.0
 40
0.2724312836
 40
1.0
 40
1.0
 40
1.0
 40
1.0
 10
262.5016227702
 20
246.4946482429
 30
0.0
 10
262.42064797
 20
246.4276032159
 30
0.0
 10
262.1370224153
 20
246.1668831142
 30
0.0
 10
261.9103786556
 20
245.8345054634
 30
0.0
 10
261.8191675292
 20
245.5689735552
 30
0.0
  0
SPLINE
  5
4E1
100
AcDbEntity
  8
0
100
AcDbSpline
 62
7
  6
CONTINUOUS
 70
0
 71
3
 72
8
 73
4
 74
0
 42
0.0000001
 43
0.0000001
 44
0.0000000001
 40
0.0
 40
0.0
 40
0.0
 40
0.0
 40
1.0
 40
1.0
 40
1.0
 40
1.0
 10
261.8191675292
 20
245.5689735552
 30
0.0
 10
261.7666846514
 20
245.4161865074
 30
0.0
 10
261.7378627095
 20
245.2527477711
 30
0.0
 10
261.7378317179
 20
245.0911979847
 30
0.0
  0
SPLINE
  5
4E2
100
AcDbEntity
  8
0
100
AcDbSpline
 62
7
  6
CONTINUOUS
 70
0
 71
3
 72
8
 73
4
 74
0
 42
0.0000001
 43
0.0000001
 44
0.0000000001
 40
0.0
 40
0.0
 40
0.0
 40
0.0
 40
1.0
 40
1.0
 40
1.0
 40
1.0
 10
438.7189706563
 20
343.9760762299
 30
0.0
 10
438.5928447152
 20
344.0499212783
 30
0.0
 10
438.462518515
 20
344.1168970721
 30
0.0
 10
438.3295758037
 20
344.1776184003
 30
0.0
  0
SPLINE
  5
4E3
100
AcDbEntity
  8
0
100
AcDbSpline
 62
7
  6
CONTINUOUS
 70
0
 71
3
 72
9
 73
5
 74
0
 42
0.0000001
 43
0.0000001
 44
0.0000000001
 40
0.0
 40
0.0
 40
0.0
 40
0.0
 40
0.4942895841
 40
1.0
 40
1.0
 40
1.0
 40
1.0
 10
438.3295758037
 20
344.9941208174
 30
0.0
 10
437.5848337552
 20
345.3342803189
 30
0.0
 10
435.9135046526
 20
345.655502217
 30
0.0
 10
434.2324136768
 20
345.4356792893
 30
0.0
 10
433.4442489331
 20
345.1519875714
 30
0.0
  0
SPLINE
  5
4E4
100
AcDbEntity
  8
0
100
AcDbSpline
 62
7
  6
CONTINUOUS
 70
0
 71
3
 72
9
 73
5
 74
0
 42
0.0000001
 43
0.0000001
 44
0.0000000001
 40
0.0
 40
0.0
 40
0.0
 40
0.0
 40
0.272280556
 40
1.0
 40
1.0
 40
1.0
 40
1.0
 10
432.0705434271
 20
344.3533202502
 30
0.0
 10
431.9941021096
 20
344.2814154678
 30
0.0
 10
431.7291016793
 20
344.002434974
 30
0.0
 10
431.5343646676
 20
343.6471085012
 30
0.0
 10
431.4753111114
 20
343.372909353
 30
0.0
  0
SPLINE
  5
4E5
100
AcDbEntity
  8
0
100
AcDbSpline
 62
7
  6
CONTINUOUS
 70
0
 71
3
 72
8
 73
4
 74
0
 42
0.0000001
 43
0.0000001
 44
0.0000000001
 40
0.0
 40
0.0
 40
0.0
 40
0.0
 40
1.0
 40
1.0
 40
1.0
 40
1.0
 10
353.8903264986
 20
294.9727204395
 30
0.0
 10
353.7568105739
 20
295.0521546098
 30
0.0
 10
353.6184310918
 20
295.1237742364
 30
0.0
 10
353.477115338
 20
295.1883199357
 30
0.0
  0
SPLINE
  5
4E6
100
AcDbEntity
  8
0
100
AcDbSpline
 62
7
  6
CONTINUOUS
 70
0
 71
3
 72
9
 73
5
 74
0
 42
0.0000001
 43
0.0000001
 44
0.0000000001
 40
0.0
 40
0.0
 40
0.0
 40
0.0
 40
0.5015356313
 40
1.0
 40
1.0
 40
1.0
 40
1.0
 10
353.477115338
 20
296.0048223529
 30
0.0
 10
352.644594616
 20
296.385074595
 30
0.0
 10
350.7880012449
 20
296.6961433422
 30
0.0
 10
348.9334818973
 20
296.358396477
 30
0.0
 10
348.1142727742
 20
295.9629841811
 30
0.0
  0
SPLINE
  5
4E7
100
AcDbEntity
  8
0
100
AcDbSpline
 62
7
  6
CONTINUOUS
 70
0
 71
3
 72
9
 73
5
 74
0
 42
0.0000001
 43
0.0000001
 44
0.0000000001
 40
0.0
 40
0.0
 40
0.0
 40
0.0
 40
0.2722932308
 40
1.0
 40
1.0
 40
1.0
 40
1.0
 10
347.2209494559
 20
295.3667142723
 30
0.0
 10
347.1443981317
 20
295.2949136157
 30
0.0
 10
346.8789583566
 20
295.0163319401
 30
0.0
 10
346.6834612161
 20
294.6614912753
 30
0.0
 10
346.6236820983
 20
294.3874434304
 30
0.0
  0
SPLINE
  5
4E8
100
AcDbEntity
  8
0
100
AcDbSpline
 62
7
  6
CONTINUOUS
 70
0
 71
3
 72
11
 73
7
 74
0
 42
0.0000001
 43
0.0000001
 44
0.0000000001
 40
0.0
 40
0.0
 40
0.0
 40
0.0
 40
0.2178244888
 40
0.4506701973
 40
0.7097991338
 40
1.0
 40
1.0
 40
1.0
 40
1.0
 10
447.3054558272
 20
357.5719298578
 30
0.0
 10
447.330273465
 20
356.4139736672
 30
0.0
 10
446.9482354599
 20
353.9916960241
 30
0.0
 10
445.1550481017
 20
350.6091055224
 30
0.0
 10
442.2779959236
 20
347.552692311
 30
0.0
 10
439.857424289
 20
345.8824636653
 30
0.0
 10
438.5210899402
 20
345.1109352747
 30
0.0
  0
SPLINE
  5
4E9
100
AcDbEntity
  8
0
100
AcDbSpline
 62
7
  6
CONTINUOUS
 70
0
 71
3
 72
9
 73
5
 74
0
 42
0.0000001
 43
0.0000001
 44
0.0000000001
 40
0.0
 40
0.0
 40
0.0
 40
0.0
 40
0.7448321125
 40
1.0
 40
1.0
 40
1.0
 40
1.0
 10
203.5630207844
 20
252.6166453116
 30
0.0
 10
203.2768992613
 20
252.4514539151
 30
0.0
 10
202.8570218508
 20
252.285210817
 30
0.0
 10
202.4217588744
 20
252.1990206832
 30
0.0
 10
202.3098881656
 20
252.1818255564
 30
0.0
  0
SPLINE
  5
4EA
100
AcDbEntity
  8
0
100
AcDbSpline
 62
7
  6
CONTINUOUS
 70
0
 71
3
 72
9
 73
5
 74
0
 42
0.0000001
 43
0.0000001
 44
0.0000000001
 40
0.0
 40
0.0
 40
0.0
 40
0.0
 40
0.2411869728
 40
1.0
 40
1.0
 40
1.0
 40
1.0
 10
201.9534350035
 20
252.1433564403
 30
0.0
 10
201.8510444998
 20
252.1368469853
 30
0.0
 10
201.4255637141
 20
252.1254812964
 30
0.0
 10
200.9993232121
 20
252.1749512396
 30
0.0
 10
200.6830711848
 20
252.2395757276
 30
0.0
  0
SPLINE
  5
4EB
100
AcDbEntity
  8
0
100
AcDbSpline
 62
7
  6
CONTINUOUS
 70
0
 71
3
 72
11
 73
7
 74
0
 42
0.0000001
 43
0.0000001
 44
0.0000000001
 40
0.0
 40
0.0
 40
0.0
 40
0.0
 40
0.2182301856
 40
0.4512469118
 40
0.7102105734
 40
1.0
 40
1.0
 40
1.0
 40
1.0
 10
87.854467485
 20
403.6917556761
 30
0.0
 10
87.8313335581
 20
402.6123604797
 30
0.0
 10
88.1831755978
 20
400.3560335487
 30
0.0
 10
89.8382162892
 20
397.2001623098
 30
0.0
 10
92.4971242326
 20
394.3426837375
 30
0.0
 10
94.7371309797
 20
392.776339826
 30
0.0
 10
95.9740981505
 20
392.0515572626
 30
0.0
  0
SPLINE
  5
4EC
100
AcDbEntity
  8
0
100
AcDbSpline
 62
7
  6
CONTINUOUS
 70
0
 71
3
 72
10
 73
6
 74
0
 42
0.0000001
 43
0.0000001
 44
0.0000000001
 40
0.0
 40
0.0
 40
0.0
 40
0.0
 40
0.547752844
 40
0.7815965272
 40
1.0
 40
1.0
 40
1.0
 40
1.0
 10
269.7001091568
 20
239.6819244355
 30
0.0
 10
270.1343380896
 20
239.9326251302
 30
0.0
 10
270.7204405774
 20
240.394230706
 30
0.0
 10
271.1640616555
 20
241.2082946353
 30
0.0
 10
271.2374894088
 20
241.6252655714
 30
0.0
 10
271.2374893468
 20
241.8251883946
 30
0.0
  0
SPLINE
  5
4ED
100
AcDbEntity
  8
0
100
AcDbSpline
 62
7
  6
CONTINUOUS
 70
0
 71
3
 72
11
 73
7
 74
0
 42
0.0000001
 43
0.0000001
 44
0.0000000001
 40
0.0
 40
0.0
 40
0.0
 40
0.0
 40
0.2372531816
 40
0.5000006935
 40
0.7627478297
 40
1.0
 40
1.0
 40
1.0
 40
1.0
 10
262.2754879544
 20
239.6819065889
 30
0.0
 10
262.8025607608
 20
239.3776078464
 30
0.0
 10
264.0281833031
 20
238.9334940711
 30
0.0
 10
265.9878054679
 20
238.7211707341
 30
0.0
 10
267.9474239994
 20
238.9335034344
 30
0.0
 10
269.1730407913
 20
239.3776231892
 30
0.0
 10
269.7001091568
 20
239.6819244355
 30
0.0
  0
SPLINE
  5
4EE
100
AcDbEntity
  8
0
100
AcDbSpline
 62
7
  6
CONTINUOUS
 70
0
 71
3
 72
9
 73
5
 74
0
 42
0.0000001
 43
0.0000001
 44
0.0000000001
 40
0.0
 40
0.0
 40
0.0
 40
0.0
 40
0.4491565434
 40
1.0
 40
1.0
 40
1.0
 40
1.0
 10
154.9789712732
 20
272.4430951069
 30
0.0
 10
154.9789840531
 20
272.1121195546
 30
0.0
 10
154.6898871145
 20
271.3733562874
 30
0.0
 10
154.0858994695
 20
270.9110247237
 30
0.0
 10
153.7343733017
 20
270.7080722076
 30
0.0
  0
SPLINE
  5
4EF
100
AcDbEntity
  8
0
100
AcDbSpline
 62
7
  6
CONTINUOUS
 70
0
 71
3
 72
13
 73
9
 74
0
 42
0.0000001
 43
0.0000001
 44
0.0000000001
 40
0.0
 40
0.0
 40
0.0
 40
0.0
 40
0.2698982859
 40
0.5613425066
 40
0.695469568
 40
0.8131406387
 40
0.9128519364
 40
1.0
 40
1.0
 40
1.0
 40
1.0
 10
268.9929994316
 20
240.09016519
 30
0.0
 10
268.3355203466
 20
239.7105717291
 30
0.0
 10
266.7638173933
 20
239.2851350172
 30
0.0
 10
264.7765985885
 20
239.3858628595
 30
0.0
 10
263.3173940905
 20
239.8719880739
 30
0.0
 10
262.4640869975
 20
240.3922000396
 30
0.0
 10
261.8858648266
 20
241.0495937756
 30
0.0
 10
261.737991321
 20
241.5800522043
 30
0.0
 10
261.7379740801
 20
241.825188871
 30
0.0
  0
SPLINE
  5
4F0
100
AcDbEntity
  8
0
100
AcDbSpline
 62
7
  6
CONTINUOUS
 70
0
 71
3
 72
13
 73
9
 74
0
 42
0.0000001
 43
0.0000001
 44
0.0000000001
 40
0.0
 40
0.0
 40
0.0
 40
0.0
 40
0.087138266
 40
0.1868454572
 40
0.3045198199
 40
0.4386548173
 40
0.7300925801
 40
1.0
 40
1.0
 40
1.0
 40
1.0
 10
145.4793728578
 20
272.4430955432
 30
0.0
 10
145.4793673386
 20
272.1403137952
 30
0.0
 10
145.6620582244
 20
271.4850941954
 30
0.0
 10
146.3762547207
 20
270.673020493
 30
0.0
 10
147.4303554352
 20
270.030368275
 30
0.0
 10
149.2329074239
 20
269.4298284145
 30
0.0
 10
151.6877414908
 20
269.3053882667
 30
0.0
 10
153.629275739
 20
269.8309061559
 30
0.0
 10
154.4414830265
 20
270.2998314528
 30
0.0
  0
SPLINE
  5
4F1
100
AcDbEntity
  8
0
100
AcDbSpline
 62
7
  6
CONTINUOUS
 70
0
 71
3
 72
9
 73
5
 74
0
 42
0.0000001
 43
0.0000001
 44
0.0000000001
 40
0.0
 40
0.0
 40
0.0
 40
0.0
 40
0.2574638831
 40
1.0
 40
1.0
 40
1.0
 40
1.0
 10
268.4186938934
 20
241.8537492949
 30
0.0
 10
268.4695021611
 20
241.8742039301
 30
0.0
 10
268.6655361494
 20
241.956827498
 30
0.0
 10
268.8562001171
 20
242.0524405832
 30
0.0
 10
268.9929994316
 20
242.1314212328
 30
0.0
  0
SPLINE
  5
4F2
100
AcDbEntity
  8
0
100
AcDbSpline
 62
7
  6
CONTINUOUS
 70
0
 71
3
 72
9
 73
5
 74
0
 42
0.0000001
 43
0.0000001
 44
0.0000000001
 40
0.0
 40
0.0
 40
0.0
 40
0.0
 40
0.5013739639
 40
1.0
 40
1.0
 40
1.0
 40
1.0
 10
263.654460894
 20
243.0403651683
 30
0.0
 10
264.4105455353
 20
242.7536298546
 30
0.0
 10
266.0428309742
 20
242.5095264608
 30
0.0
 10
267.6726822799
 20
242.77817
 30
0.0
 10
268.4186938934
 20
243.0785029206
 30
0.0
  0
SPLINE
  5
4F3
100
AcDbEntity
  8
0
100
AcDbSpline
 62
7
  6
CONTINUOUS
 70
0
 71
3
 72
9
 73
5
 74
0
 42
0.0000001
 43
0.0000001
 44
0.0000000001
 40
0.0
 40
0.0
 40
0.0
 40
0.0
 40
0.2357515726
 40
1.0
 40
1.0
 40
1.0
 40
1.0
 10
262.6547273115
 20
242.752302761
 30
0.0
 10
262.7266328116
 20
242.6998287483
 30
0.0
 10
263.0405419997
 20
242.489485246
 30
0.0
 10
263.3846427858
 20
242.3261877763
 30
0.0
 10
263.654460894
 20
242.2238627512
 30
0.0
  0
SPLINE
  5
4F4
100
AcDbEntity
  8
0
100
AcDbSpline
 62
7
  6
CONTINUOUS
 70
0
 71
3
 72
9
 73
5
 74
0
 42
0.0000001
 43
0.0000001
 44
0.0000000001
 40
0.0
 40
0.0
 40
0.0
 40
0.0
 40
0.2741749363
 40
1.0
 40
1.0
 40
1.0
 40
1.0
 10
439.4050300881
 20
337.6605213646
 30
0.0
 10
439.5377915363
 20
337.737170765
 30
0.0
 10
440.0076333318
 20
338.0384639679
 30
0.0
 10
440.4242216633
 20
338.4401311693
 30
0.0
 10
440.6374961653
 20
338.7854028803
 30
0.0
  0
SPLINE
  5
4F5
100
AcDbEntity
  8
0
100
AcDbSpline
 62
7
  6
CONTINUOUS
 70
0
 71
3
 72
9
 73
5
 74
0
 42
0.0000001
 43
0.0000001
 44
0.0000000001
 40
0.0
 40
0.0
 40
0.0
 40
0.0
 40
0.2627121001
 40
1.0
 40
1.0
 40
1.0
 40
1.0
 10
440.6374961653
 20
338.7854028803
 30
0.0
 10
440.6867698678
 20
338.8651724516
 30
0.0
 10
440.8567536102
 20
339.1790367376
 30
0.0
 10
440.9424103598
 20
339.5406505756
 30
0.0
 10
440.9424102781
 20
339.8037853237
 30
0.0
  0
SPLINE
  5
4F6
100
AcDbEntity
  8
0
100
AcDbSpline
 62
7
  6
CONTINUOUS
 70
0
 71
3
 72
11
 73
7
 74
0
 42
0.0000001
 43
0.0000001
 44
0.0000000001
 40
0.0
 40
0.0
 40
0.0
 40
0.0
 40
0.2372531816
 40
0.5000006935
 40
0.7627478297
 40
1.0
 40
1.0
 40
1.0
 40
1.0
 10
431.9804088857
 20
337.660503518
 30
0.0
 10
432.5074816922
 20
337.3562047755
 30
0.0
 10
433.7331042344
 20
336.9120910003
 30
0.0
 10
435.6927263992
 20
336.6997676632
 30
0.0
 10
437.6523449307
 20
336.9121003635
 30
0.0
 10
438.8779617226
 20
337.3562201184
 30
0.0
 10
439.4050300881
 20
337.6605213646
 30
0.0
  0
SPLINE
  5
4F7
100
AcDbEntity
  8
0
100
AcDbSpline
 62
7
  6
CONTINUOUS
 70
0
 71
3
 72
13
 73
9
 74
0
 42
0.0000001
 43
0.0000001
 44
0.0000000001
 40
0.0
 40
0.0
 40
0.0
 40
0.0
 40
0.2698956012
 40
0.5613257437
 40
0.6954661216
 40
0.8131446799
 40
0.9128555334
 40
1.0
 40
1.0
 40
1.0
 40
1.0
 10
438.697920363
 20
338.0687621192
 30
0.0
 10
438.0404477852
 20
337.6891724153
 30
0.0
 10
436.468792095
 20
337.2637509323
 30
0.0
 10
434.4815851265
 20
337.3644464587
 30
0.0
 10
433.02235774
 20
337.850566372
 30
0.0
 10
432.1689961804
 20
338.3708054698
 30
0.0
 10
431.5907796608
 20
339.0282129271
 30
0.0
 10
431.4428991928
 20
339.5586590718
 30
0.0
 10
431.4428897278
 20
339.8037856332
 30
0.0
  0
SPLINE
  5
4F8
100
AcDbEntity
  8
0
100
AcDbSpline
 62
7
  6
CONTINUOUS
 70
0
 71
3
 72
9
 73
5
 74
0
 42
0.0000001
 43
0.0000001
 44
0.0000000001
 40
0.0
 40
0.0
 40
0.0
 40
0.0
 40
0.2618674262
 40
1.0
 40
1.0
 40
1.0
 40
1.0
 10
438.697920363
 20
340.110018162
 30
0.0
 10
438.7541722931
 20
340.1424950351
 30
0.0
 10
438.9658882551
 20
340.2716879807
 30
0.0
 10
439.1649049113
 20
340.422529331
 30
0.0
 10
439.2992376462
 20
340.5469311088
 30
0.0
  0
SPLINE
  5
4F9
100
AcDbEntity
  8
0
100
AcDbSpline
 62
7
  6
CONTINUOUS
 70
0
 71
3
 72
9
 73
5
 74
0
 42
0.0000001
 43
0.0000001
 44
0.0000000001
 40
0.0
 40
0.0
 40
0.0
 40
0.0
 40
0.2595286098
 40
1.0
 40
1.0
 40
1.0
 40
1.0
 10
437.9158969299
 20
339.753826553
 30
0.0
 10
437.9860203897
 20
339.7786755099
 30
0.0
 10
438.2541879341
 20
339.8799443724
 30
0.0
 10
438.5140955544
 20
340.0038874928
 30
0.0
 10
438.697920363
 20
340.110018162
 30
0.0
  0
SPLINE
  5
4FA
100
AcDbEntity
  8
0
100
AcDbSpline
 62
7
  6
CONTINUOUS
 70
0
 71
3
 72
9
 73
5
 74
0
 42
0.0000001
 43
0.0000001
 44
0.0000000001
 40
0.0
 40
0.0
 40
0.0
 40
0.0
 40
0.5008292825
 40
1.0
 40
1.0
 40
1.0
 40
1.0
 10
433.5365090165
 20
340.9553258292
 30
0.0
 10
434.2375584484
 20
340.7170381152
 30
0.0
 10
435.7297087496
 20
340.5078271046
 30
0.0
 10
437.220291803
 20
340.7320854696
 30
0.0
 10
437.9158969299
 20
340.9785801787
 30
0.0
  0
SPLINE
  5
4FB
100
AcDbEntity
  8
0
100
AcDbSpline
 62
7
  6
CONTINUOUS
 70
0
 71
3
 72
9
 73
5
 74
0
 42
0.0000001
 43
0.0000001
 44
0.0000000001
 40
0.0
 40
0.0
 40
0.0
 40
0.0
 40
0.2340040615
 40
1.0
 40
1.0
 40
1.0
 40
1.0
 10
432.3596482428
 20
340.7308996901
 30
0.0
 10
432.4428382842
 20
340.6701906306
 30
0.0
 10
432.8103600996
 20
340.4272614897
 30
0.0
 10
433.2173249426
 20
340.2473145396
 30
0.0
 10
433.5365090165
 20
340.1388234121
 30
0.0
  0
SPLINE
  5
4FC
100
AcDbEntity
  8
0
100
AcDbSpline
 62
7
  6
CONTINUOUS
 70
0
 71
3
 72
10
 73
6
 74
0
 42
0.0000001
 43
0.0000001
 44
0.0000000001
 40
0.0
 40
0.0
 40
0.0
 40
0.0
 40
0.547752844
 40
0.7815965272
 40
1.0
 40
1.0
 40
1.0
 40
1.0
 10
354.5525696224
 20
288.6712229001
 30
0.0
 10
354.9867985552
 20
288.9219235948
 30
0.0
 10
355.5729010431
 20
289.3835291706
 30
0.0
 10
356.0165221211
 20
290.1975930998
 30
0.0
 10
356.0899498745
 20
290.614564036
 30
0.0
 10
356.0899498124
 20
290.8144868592
 30
0.0
  0
SPLINE
  5
4FD
100
AcDbEntity
  8
0
100
AcDbSpline
 62
7
  6
CONTINUOUS
 70
0
 71
3
 72
11
 73
7
 74
0
 42
0.0000001
 43
0.0000001
 44
0.0000000001
 40
0.0
 40
0.0
 40
0.0
 40
0.0
 40
0.2372531816
 40
0.5000006935
 40
0.7627478297
 40
1.0
 40
1.0
 40
1.0
 40
1.0
 10
347.12794842
 20
288.6712050535
 30
0.0
 10
347.6550212265
 20
288.3669063109
 30
0.0
 10
348.8806437687
 20
287.9227925357
 30
0.0
 10
350.8402659335
 20
287.7104691987
 30
0.0
 10
352.7998844651
 20
287.9228018989
 30
0.0
 10
354.0255012569
 20
288.3669216538
 30
0.0
 10
354.5525696224
 20
288.6712229001
 30
0.0
  0
SPLINE
  5
4FE
100
AcDbEntity
  8
0
100
AcDbSpline
 62
7
  6
CONTINUOUS
 70
0
 71
3
 72
13
 73
9
 74
0
 42
0.0000001
 43
0.0000001
 44
0.0000000001
 40
0.0
 40
0.0
 40
0.0
 40
0.0
 40
0.2698956012
 40
0.5613257437
 40
0.6954661216
 40
0.8131446799
 40
0.9128555334
 40
1.0
 40
1.0
 40
1.0
 40
1.0
 10
353.8454598973
 20
289.0794636546
 30
0.0
 10
353.1879873196
 20
288.6998739507
 30
0.0
 10
351.6163316294
 20
288.2744524677
 30
0.0
 10
349.6291246608
 20
288.3751479942
 30
0.0
 10
348.1698972743
 20
288.8612679074
 30
0.0
 10
347.3165357148
 20
289.3815070052
 30
0.0
 10
346.7383191952
 20
290.0389144625
 30
0.0
 10
346.5904387271
 20
290.5693606072
 30
0.0
 10
346.5904292621
 20
290.8144871686
 30
0.0
  0
SPLINE
  5
4FF
100
AcDbEntity
  8
0
100
AcDbSpline
 62
7
  6
CONTINUOUS
 70
0
 71
3
 72
9
 73
5
 74
0
 42
0.0000001
 43
0.0000001
 44
0.0000000001
 40
0.0
 40
0.0
 40
0.0
 40
0.0
 40
0.4491565434
 40
1.0
 40
1.0
 40
1.0
 40
1.0
 10
355.0900578687
 20
290.8144865539
 30
0.0
 10
355.0900706486
 20
290.4835110017
 30
0.0
 10
354.80097371
 20
289.7447477344
 30
0.0
 10
354.196986065
 20
289.2824161707
 30
0.0
 10
353.8454598973
 20
289.0794636546
 30
0.0
  0
SPLINE
  5
500
100
AcDbEntity
  8
0
100
AcDbSpline
 62
7
  6
CONTINUOUS
 70
0
 71
3
 72
9
 73
5
 74
0
 42
0.0000001
 43
0.0000001
 44
0.0000000001
 40
0.0
 40
0.0
 40
0.0
 40
0.0
 40
0.2594854798
 40
1.0
 40
1.0
 40
1.0
 40
1.0
 10
353.0681000307
 20
290.7661830585
 30
0.0
 10
353.1377865801
 20
290.7909485916
 30
0.0
 10
353.4043315467
 20
290.8918536797
 30
0.0
 10
353.6626804041
 20
291.0151925377
 30
0.0
 10
353.8454598973
 20
291.1207196974
 30
0.0
  0
SPLINE
  5
501
100
AcDbEntity
  8
0
100
AcDbSpline
 62
7
  6
CONTINUOUS
 70
0
 71
3
 72
9
 73
5
 74
0
 42
0.0000001
 43
0.0000001
 44
0.0000000001
 40
0.0
 40
0.0
 40
0.0
 40
0.0
 40
0.5431931332
 40
1.0
 40
1.0
 40
1.0
 40
1.0
 10
354.1008771339
 20
292.5066947343
 30
0.0
 10
354.3862326206
 20
292.703757473
 30
0.0
 10
354.8726502602
 20
293.1462526919
 30
0.0
 10
355.0902098067
 20
293.7888600036
 30
0.0
 10
355.0901771932
 20
294.0804963281
 30
0.0
  0
SPLINE
  5
502
100
AcDbEntity
  8
0
100
AcDbSpline
 62
7
  6
CONTINUOUS
 70
0
 71
3
 72
9
 73
5
 74
0
 42
0.0000001
 43
0.0000001
 44
0.0000000001
 40
0.0
 40
0.0
 40
0.0
 40
0.0
 40
0.5000005437
 40
1.0
 40
1.0
 40
1.0
 40
1.0
 10
244.774697423
 20
225.08718803
 30
0.0
 10
244.9845778562
 20
224.9660162467
 30
0.0
 10
245.4818048963
 20
224.870188064
 30
0.0
 10
245.9790318825
 20
224.9660183961
 30
0.0
 10
246.1889109854
 20
225.0871914294
 30
0.0
  0
SPLINE
  5
503
100
AcDbEntity
  8
0
100
AcDbSpline
 62
7
  6
CONTINUOUS
 70
0
 71
3
 72
9
 73
5
 74
0
 42
0.0000001
 43
0.0000001
 44
0.0000000001
 40
0.0
 40
0.0
 40
0.0
 40
0.0
 40
0.4999994563
 40
1.0
 40
1.0
 40
1.0
 40
1.0
 10
234.1680574337
 20
230.3943144395
 30
0.0
 10
234.3779365367
 20
230.5154874727
 30
0.0
 10
234.8751635228
 20
230.6113178049
 30
0.0
 10
235.3723905629
 20
230.5154896221
 30
0.0
 10
235.5822709961
 20
230.3943178388
 30
0.0
  0
SPLINE
  5
504
100
AcDbEntity
  8
0
100
AcDbSpline
 62
7
  6
CONTINUOUS
 70
0
 71
3
 72
9
 73
5
 74
0
 42
0.0000001
 43
0.0000001
 44
0.0000000001
 40
0.0
 40
0.0
 40
0.0
 40
0.0
 40
0.5019299527
 40
1.0
 40
1.0
 40
1.0
 40
1.0
 10
348.7727199253
 20
291.9367107988
 30
0.0
 10
349.4653014274
 20
291.7140691939
 30
0.0
 10
350.9284299303
 20
291.5230081563
 30
0.0
 10
352.3878849066
 20
291.7491986395
 30
0.0
 10
353.0681000307
 20
291.9909366842
 30
0.0
  0
SPLINE
  5
505
100
AcDbEntity
  8
0
100
AcDbSpline
 62
7
  6
CONTINUOUS
 70
0
 71
3
 72
9
 73
5
 74
0
 42
0.0000001
 43
0.0000001
 44
0.0000000001
 40
0.0
 40
0.0
 40
0.0
 40
0.0
 40
0.5000005437
 40
1.0
 40
1.0
 40
1.0
 40
1.0
 10
223.5614939876
 20
225.0871370398
 30
0.0
 10
223.7713744208
 20
224.9659652565
 30
0.0
 10
224.2686014609
 20
224.8701370737
 30
0.0
 10
224.765828447
 20
224.9659674059
 30
0.0
 10
224.97570755
 20
225.0871404391
 30
0.0
  0
SPLINE
  5
506
100
AcDbEntity
  8
0
100
AcDbSpline
 62
7
  6
CONTINUOUS
 70
0
 71
3
 72
9
 73
5
 74
0
 42
0.0000001
 43
0.0000001
 44
0.0000000001
 40
0.0
 40
0.0
 40
0.0
 40
0.0
 40
0.2331927503
 40
1.0
 40
1.0
 40
1.0
 40
1.0
 10
347.5071877771
 20
291.7416012255
 30
0.0
 10
347.5959293866
 20
291.676840834
 30
0.0
 10
347.9902035765
 20
291.4179798646
 30
0.0
 10
348.4288044781
 20
291.230765604
 30
0.0
 10
348.7727199253
 20
291.1202083816
 30
0.0
  0
SPLINE
  5
507
100
AcDbEntity
  8
0
100
AcDbSpline
 62
7
  6
CONTINUOUS
 70
0
 71
3
 72
13
 73
9
 74
0
 42
0.0000001
 43
0.0000001
 44
0.0000000001
 40
0.0
 40
0.0
 40
0.0
 40
0.0
 40
0.2698956012
 40
0.5613257437
 40
0.6954661216
 40
0.8131446799
 40
0.9128555334
 40
1.0
 40
1.0
 40
1.0
 40
1.0
 10
154.4414830269
 20
269.8915802445
 30
0.0
 10
153.6293110191
 20
269.4226753161
 30
0.0
 10
151.68785399
 20
268.8971546607
 30
0.0
 10
149.2330689112
 20
269.0215432522
 30
0.0
 10
147.4304939044
 20
269.6220443215
 30
0.0
 10
146.3763413897
 20
270.2646926188
 30
0.0
 10
145.6620739243
 20
271.0767841837
 30
0.0
 10
145.479398052
 20
271.732041186
 30
0.0
 10
145.4793863599
 20
272.0348445854
 30
0.0
  0
SPLINE
  5
508
100
AcDbEntity
  8
0
100
AcDbSpline
 62
7
  6
CONTINUOUS
 70
0
 71
3
 72
11
 73
7
 74
0
 42
0.0000001
 43
0.0000001
 44
0.0000000001
 40
0.0
 40
0.0
 40
0.0
 40
0.0
 40
0.237218806
 40
0.4999994918
 40
0.7627804543
 40
1.0
 40
1.0
 40
1.0
 40
1.0
 10
256.0882999391
 20
239.7839435759
 30
0.0
 10
253.0768912334
 20
238.0453163273
 30
0.0
 10
246.0733581637
 20
235.5078629511
 30
0.0
 10
234.8751291954
 20
234.292114078
 30
0.0
 10
223.6768837444
 20
235.5078121024
 30
0.0
 10
216.6733237006
 20
238.0452306418
 30
0.0
 10
213.6618930683
 20
239.7838415954
 30
0.0
  0
SPLINE
  5
509
100
AcDbEntity
  8
0
100
AcDbSpline
 62
7
  6
CONTINUOUS
 70
0
 71
3
 72
11
 73
7
 74
0
 42
0.0000001
 43
0.0000001
 44
0.0000000001
 40
0.0
 40
0.0
 40
0.0
 40
0.0
 40
0.2372524156
 40
0.4999996414
 40
0.7627470637
 40
1.0
 40
1.0
 40
1.0
 40
1.0
 10
269.7001091568
 20
239.2736732269
 30
0.0
 10
269.1730402464
 20
238.9693716661
 30
0.0
 10
267.9474225245
 20
238.5252518053
 30
0.0
 10
265.9878033148
 20
238.3129195255
 30
0.0
 10
264.0281818282
 20
238.5252432831
 30
0.0
 10
262.802560216
 20
238.9693569524
 30
0.0
 10
262.2754879544
 20
239.2736553803
 30
0.0
  0
SPLINE
  5
50A
100
AcDbEntity
  8
0
100
AcDbSpline
 62
7
  6
CONTINUOUS
 70
0
 71
3
 72
11
 73
7
 74
0
 42
0.0000001
 43
0.0000001
 44
0.0000000001
 40
0.0
 40
0.0
 40
0.0
 40
0.0
 40
0.2372524156
 40
0.4999996414
 40
0.7627470637
 40
1.0
 40
1.0
 40
1.0
 40
1.0
 10
354.5525696224
 20
288.2629716915
 30
0.0
 10
354.0255007121
 20
287.9586701306
 30
0.0
 10
352.7998829902
 20
287.5145502698
 30
0.0
 10
350.8402637805
 20
287.3022179901
 30
0.0
 10
348.8806422939
 20
287.5145417476
 30
0.0
 10
347.6550206816
 20
287.9586554169
 30
0.0
 10
347.12794842
 20
288.2629538449
 30
0.0
  0
SPLINE
  5
50B
100
AcDbEntity
  8
0
100
AcDbSpline
 62
7
  6
CONTINUOUS
 70
0
 71
3
 72
11
 73
7
 74
0
 42
0.0000001
 43
0.0000001
 44
0.0000000001
 40
0.0
 40
0.0
 40
0.0
 40
0.0
 40
0.2372524156
 40
0.4999996414
 40
0.7627470637
 40
1.0
 40
1.0
 40
1.0
 40
1.0
 10
439.4050300881
 20
337.2522701561
 30
0.0
 10
438.8779611777
 20
336.9479685952
 30
0.0
 10
437.6523434559
 20
336.5038487344
 30
0.0
 10
435.6927242461
 20
336.2915164547
 30
0.0
 10
433.7331027595
 20
336.5038402122
 30
0.0
 10
432.5074811473
 20
336.9479538815
 30
0.0
 10
431.9804088857
 20
337.2522523095
 30
0.0
  0
SPLINE
  5
50C
100
AcDbEntity
  8
0
100
AcDbSpline
 62
7
  6
CONTINUOUS
 70
0
 71
3
 72
10
 73
6
 74
0
 42
0.0000001
 43
0.0000001
 44
0.0000000001
 40
0.0
 40
0.0
 40
0.0
 40
0.0
 40
0.2184036142
 40
0.4522473232
 40
1.0
 40
1.0
 40
1.0
 40
1.0
 10
356.0899498124
 20
290.4062356547
 30
0.0
 10
356.0899497679
 20
290.2063127007
 30
0.0
 10
356.0165221324
 20
289.7893415959
 30
0.0
 10
355.5729007409
 20
288.9752777793
 30
0.0
 10
354.9867984255
 20
288.5136723114
 30
0.0
 10
354.5525696224
 20
288.2629716915
 30
0.0
  0
SPLINE
  5
50D
100
AcDbEntity
  8
0
100
AcDbSpline
 62
7
  6
CONTINUOUS
 70
0
 71
3
 72
11
 73
7
 74
0
 42
0.0000001
 43
0.0000001
 44
0.0000000001
 40
0.0
 40
0.0
 40
0.0
 40
0.0
 40
0.2902013582
 40
0.5493304796
 40
0.7821759852
 40
1.0
 40
1.0
 40
1.0
 40
1.0
 10
94.8674592436
 20
308.3682883548
 30
0.0
 10
93.5311000836
 20
309.1398182212
 30
0.0
 10
91.1104828224
 20
310.8100530809
 30
0.0
 10
88.2333723232
 20
313.866488537
 30
0.0
 10
86.4401460363
 20
317.2491113881
 30
0.0
 10
86.0580988483
 20
319.6714165319
 30
0.0
 10
86.0829167102
 20
320.8293849185
 30
0.0
  0
SPLINE
  5
50E
100
AcDbEntity
  8
0
100
AcDbSpline
 62
7
  6
CONTINUOUS
 70
0
 71
3
 72
13
 73
9
 74
0
 42
0.0000001
 43
0.0000001
 44
0.0000000001
 40
0.0
 40
0.0
 40
0.0
 40
0.0
 40
0.2698956012
 40
0.5613257437
 40
0.6954661216
 40
0.8131446799
 40
0.9128555334
 40
1.0
 40
1.0
 40
1.0
 40
1.0
 10
153.7343733017
 20
270.7080722076
 30
0.0
 10
153.076900724
 20
270.3284825037
 30
0.0
 10
151.5052450338
 20
269.9030610207
 30
0.0
 10
149.5180380653
 20
270.0037565472
 30
0.0
 10
148.0588106787
 20
270.4898764604
 30
0.0
 10
147.2054491192
 20
271.0101155582
 30
0.0
 10
146.6272325996
 20
271.6675230155
 30
0.0
 10
146.4793521316
 20
272.1979691602
 30
0.0
 10
146.4793426665
 20
272.4430957216
 30
0.0
  0
SPLINE
  5
50F
100
AcDbEntity
  8
0
100
AcDbSpline
 62
7
  6
CONTINUOUS
 70
0
 71
3
 72
9
 73
5
 74
0
 42
0.0000001
 43
0.0000001
 44
0.0000000001
 40
0.0
 40
0.0
 40
0.0
 40
0.0
 40
0.4491565434
 40
1.0
 40
1.0
 40
1.0
 40
1.0
 10
439.9425183344
 20
339.8037850185
 30
0.0
 10
439.9425311143
 20
339.4728094662
 30
0.0
 10
439.6534341757
 20
338.734046199
 30
0.0
 10
439.0494465307
 20
338.2717146353
 30
0.0
 10
438.697920363
 20
338.0687621192
 30
0.0
  0
SPLINE
  5
510
100
AcDbEntity
  8
0
100
AcDbSpline
 62
7
  6
CONTINUOUS
 70
0
 71
3
 72
8
 73
4
 74
0
 42
0.0000001
 43
0.0000001
 44
0.0000000001
 40
0.0
 40
0.0
 40
0.0
 40
0.0
 40
1.0
 40
1.0
 40
1.0
 40
1.0
 10
153.7343733017
 20
272.7493282504
 30
0.0
 10
153.8644881445
 20
272.8244496415
 30
0.0
 10
153.9906976222
 20
272.9070444867
 30
0.0
 10
154.110420898
 20
272.997815809
 30
0.0
  0
SPLINE
  5
511
100
AcDbEntity
  8
0
100
AcDbSpline
 62
7
  6
CONTINUOUS
 70
0
 71
3
 72
9
 73
5
 74
0
 42
0.0000001
 43
0.0000001
 44
0.0000000001
 40
0.0
 40
0.0
 40
0.0
 40
0.0
 40
0.2610307916
 40
1.0
 40
1.0
 40
1.0
 40
1.0
 10
152.7792154783
 20
272.3349822597
 30
0.0
 10
152.8656394615
 20
272.3624584074
 30
0.0
 10
153.1941031811
 20
272.4755680389
 30
0.0
 10
153.5120379187
 20
272.6209636234
 30
0.0
 10
153.7343733017
 20
272.7493282504
 30
0.0
  0
SPLINE
  5
512
100
AcDbEntity
  8
0
100
AcDbSpline
 62
7
  6
CONTINUOUS
 70
0
 71
3
 72
9
 73
5
 74
0
 42
0.0000001
 43
0.0000001
 44
0.0000000001
 40
0.0
 40
0.0
 40
0.0
 40
0.0
 40
0.7425976372
 40
1.0
 40
1.0
 40
1.0
 40
1.0
 10
440.9424102781
 20
339.3955341193
 30
0.0
 10
440.9424102346
 20
339.2001289193
 30
0.0
 10
440.896817975
 20
338.9345708946
 30
0.0
 10
440.7996404255
 20
338.6899317697
 30
0.0
 10
440.7716773622
 20
338.6282412849
 30
0.0
  0
SPLINE
  5
513
100
AcDbEntity
  8
0
100
AcDbSpline
 62
7
  6
CONTINUOUS
 70
0
 71
3
 72
9
 73
5
 74
0
 42
0.0000001
 43
0.0000001
 44
0.0000000001
 40
0.0
 40
0.0
 40
0.0
 40
0.0
 40
0.2242913694
 40
1.0
 40
1.0
 40
1.0
 40
1.0
 10
440.7716773622
 20
338.6282412849
 30
0.0
 10
440.711241532
 20
338.4949112699
 30
0.0
 10
440.3788587265
 20
337.9284206384
 30
0.0
 10
439.8434822026
 20
337.5054090914
 30
0.0
 10
439.4050300881
 20
337.2522701561
 30
0.0
  0
SPLINE
  5
514
100
AcDbEntity
  8
0
100
AcDbSpline
 62
7
  6
CONTINUOUS
 70
0
 71
3
 72
8
 73
4
 74
0
 42
0.0000001
 43
0.0000001
 44
0.0000000001
 40
0.0
 40
0.0
 40
0.0
 40
0.0
 40
1.0
 40
1.0
 40
1.0
 40
1.0
 10
204.2110193409
 20
254.0806800857
 30
0.0
 10
204.4390209486
 20
254.0443953427
 30
0.0
 10
204.6700859988
 20
254.0229866927
 30
0.0
 10
204.9009316923
 20
254.0195835346
 30
0.0
  0
SPLINE
  5
515
100
AcDbEntity
  8
0
100
AcDbSpline
 62
7
  6
CONTINUOUS
 70
0
 71
3
 72
9
 73
5
 74
0
 42
0.0000001
 43
0.0000001
 44
0.0000000001
 40
0.0
 40
0.0
 40
0.0
 40
0.0
 40
0.2294462958
 40
1.0
 40
1.0
 40
1.0
 40
1.0
 10
147.0831686058
 20
273.6317653132
 30
0.0
 10
147.1651886703
 20
273.5527078915
 30
0.0
 10
147.5447355942
 20
273.2310435514
 30
0.0
 10
147.9937061523
 20
272.9983559148
 30
0.0
 10
148.3501317644
 20
272.8593471105
 30
0.0
  0
SPLINE
  5
516
100
AcDbEntity
  8
0
100
AcDbSpline
 62
7
  6
CONTINUOUS
 70
0
 71
3
 72
9
 73
5
 74
0
 42
0.0000001
 43
0.0000001
 44
0.0000000001
 40
0.0
 40
0.0
 40
0.0
 40
0.0
 40
0.4958525576
 40
1.0
 40
1.0
 40
1.0
 40
1.0
 10
148.3501317644
 20
273.6758495276
 30
0.0
 10
149.0413627698
 20
273.406263975
 30
0.0
 10
150.5469423369
 20
273.1465186129
 30
0.0
 10
152.0603195097
 20
273.3311825248
 30
0.0
 10
152.7792154783
 20
273.5597358854
 30
0.0
  0
SPLINE
  5
517
100
AcDbEntity
  8
0
100
AcDbSpline
 62
7
  6
CONTINUOUS
 70
0
 71
3
 72
11
 73
7
 74
0
 42
0.0000001
 43
0.0000001
 44
0.0000000001
 40
0.0
 40
0.0
 40
0.0
 40
0.0
 40
0.2897889398
 40
0.5487524284
 40
0.7817693499
 40
1.0
 40
1.0
 40
1.0
 40
1.0
 10
437.4144431966
 20
428.7942011015
 30
0.0
 10
438.6513866928
 20
429.5189821511
 30
0.0
 10
440.8913498753
 20
431.0853199915
 30
0.0
 10
443.5502021301
 20
433.9427769736
 30
0.0
 10
445.2052055483
 20
437.0986169571
 30
0.0
 10
445.5570386613
 20
439.3549172616
 30
0.0
 10
445.5339050832
 20
440.4343006158
 30
0.0
  0
SPLINE
  5
518
100
AcDbEntity
  8
0
100
AcDbSpline
 62
7
  6
CONTINUOUS
 70
0
 71
3
 72
11
 73
7
 74
0
 42
0.0000001
 43
0.0000001
 44
0.0000000001
 40
0.0
 40
0.0
 40
0.0
 40
0.0
 40
0.237219572
 40
0.5000005441
 40
0.7627812203
 40
1.0
 40
1.0
 40
1.0
 40
1.0
 10
214.9146612222
 20
323.3821186476
 30
0.0
 10
217.7482482088
 20
321.7461834479
 30
0.0
 10
224.3382044273
 20
319.3586154092
 30
0.0
 10
234.8751232917
 20
318.2147122545
 30
0.0
 10
245.4120258672
 20
319.3586637327
 30
0.0
 10
252.0019556273
 20
321.7462644361
 30
0.0
 10
254.8355213538
 20
323.3822146057
 30
0.0
  0
SPLINE
  5
519
100
AcDbEntity
  8
0
100
AcDbSpline
 62
7
  6
CONTINUOUS
 70
0
 71
3
 72
9
 73
5
 74
0
 42
0.0000001
 43
0.0000001
 44
0.0000000001
 40
0.0
 40
0.0
 40
0.0
 40
0.0
 40
0.4491565434
 40
1.0
 40
1.0
 40
1.0
 40
1.0
 10
270.2375974031
 20
241.8251880894
 30
0.0
 10
270.237610183
 20
241.4942125371
 30
0.0
 10
269.9485132444
 20
240.7554492699
 30
0.0
 10
269.3445255994
 20
240.2931177061
 30
0.0
 10
268.9929994316
 20
240.09016519
 30
0.0
  0
SPLINE
  5
51A
100
AcDbEntity
  8
0
100
AcDbSpline
 62
7
  6
CONTINUOUS
 70
0
 71
3
 72
10
 73
6
 74
0
 42
0.0000001
 43
0.0000001
 44
0.0000000001
 40
0.0
 40
0.0
 40
0.0
 40
0.0
 40
0.2184036142
 40
0.4522473232
 40
1.0
 40
1.0
 40
1.0
 40
1.0
 10
271.2374893468
 20
241.4169371901
 30
0.0
 10
271.2374893023
 20
241.2170142362
 30
0.0
 10
271.1640616667
 20
240.8000431313
 30
0.0
 10
270.7204402753
 20
239.9859793147
 30
0.0
 10
270.1343379599
 20
239.5243738468
 30
0.0
 10
269.7001091568
 20
239.2736732269
 30
0.0
  0
ENDSEC
  0
SECTION
  2
OBJECTS
  0
DICTIONARY
  5
C
100
AcDbDictionary
280
0
281
1
  3
ACAD_GROUP
350
D
  3
ACAD_MLINESTYLE
350
17
  3
ACAD_LAYOUT
350
1A
  3
ACAD_PLOTSETTINGS
350
19
  3
ACAD_PLOTSTYLENAME
350
E
  0
DICTIONARY
  5
D
102
{ACAD_REACTORS
330
C
102
}
100
AcDbDictionary
280
0
281
1
  0
ACDBDICTIONARYWDFLT
  5
E
102
{ACAD_REACTORS
330
C
102
}
100
AcDbDictionary
281
1
  3
Normal
350
F
100
AcDbDictionaryWithDefault
340
F
  0
DICTIONARY
  5
17
102
{ACAD_REACTORS
330
C
102
}
100
AcDbDictionary
280
0
281
1
  3
Standard
350
18
  0
DICTIONARY
  5
19
102
{ACAD_REACTORS
330
C
102
}
100
AcDbDictionary
281
1
  0
DICTIONARY
  5
1A
102
{ACAD_REACTORS
330
C
102
}
100
AcDbDictionary
281
1
  3
Model
350
51B
  3
Layout1
350
51C
  0
ACDBPLACEHOLDER
  5
F
102
{ACAD_REACTORS
330
E
102
}
  0
MLINESTYLE
  5
18
102
{ACAD_REACTORS
330
17
102
}
100
AcDbMlineStyle
  2
STANDARD
 70
0
  3

 62
256
 51
90.0
 52
90.0
 71
2
 49
0.5
 62
256
  6
BYLAYER
 49
-0.5
 62
256
  6
BYLAYER
  0
LAYOUT
  5
51B
102
{ACAD_REACTORS
330
1A
102
}
100
AcDbPlotSettings
  1

  2
none_device
  4

  6

 40
0.0
 41
0.0
 42
0.0
 43
0.0
 44
210.0
 45
297.0
 46
0.0
 47
0.0
 48
0.0
 49
0.0
140
0.0
141
0.0
142
1.0
143
1.0
 70
1024
 72
1
 73
0
 74
0
  7

 75
0
147
1.0
148
0.0
149
0.0
100
AcDbLayout
  1
Model
 70
0
 71
0
 10
0.0
 20
0.0
 11
210.0
 21
297.0
 12
0.0
 22
0.0
 32
0.0
 14
0.0
 24
0.0
 34
0.0
 15
0.0
 25
0.0
 35
0.0
146
0.0
 13
0.0
 23
0.0
 33
0.0
 16
1.0
 26
0.0
 36
0.0
 17
0.0
 27
1.0
 37
0.0
 76
0
330
212
345
0
346
0
  0
LAYOUT
  5
51C
102
{ACAD_REACTORS
330
1A
102
}
100
AcDbPlotSettings
  1

  2
none_device
  4

  6

 40
0.0
 41
0.0
 42
0.0
 43
0.0
 44
210.0
 45
297.0
 46
0.0
 47
0.0
 48
0.0
 49
0.0
140
0.0
141
0.0
142
1.0
143
1.0
 70
0
 72
1
 73
0
 74
0
  7

 75
0
147
1.0
148
0.0
149
0.0
100
AcDbLayout
  1
Layout1
 70
0
 71
1
 10
0.0
 20
0.0
 11
210.0
 21
297.0
 12
0.0
 22
0.0
 32
0.0
 14
0.0
 24
0.0
 34
0.0
 15
0.0
 25
0.0
 35
0.0
146
0.0
 13
0.0
 23
0.0
 33
0.0
 16
1.0
 26
0.0
 36
0.0
 17
0.0
 27
1.0
 37
0.0
 76
0
330
213
345
0
346
0
  0
ENDSEC
  0
EOF
